  0
SECTION
  2
HEADER
  9
$ACADVER
  1
AC1015
  9
$ACADMAINTVER
 70
    10
  9
$DWGCODEPAGE
  3
ANSI_932
  9
$INSBASE
 10
0.0
 20
0.0
 30
0.0
  9
$EXTMIN
 10
-565.1781638064736
 20
-339.1393463559233
 30
0.0
  9
$EXTMAX
 10
1554.600110182941
 20
407.7242939584716
 30
0.0
  9
$LIMMIN
 10
-2181.302972627799
 20
-1786.160193653948
  9
$LIMMAX
 10
4672.155138250444
 20
2086.628123014355
  9
$ORTHOMODE
 70
     1
  9
$REGENMODE
 70
     1
  9
$FILLMODE
 70
     1
  9
$QTEXTMODE
 70
     0
  9
$MIRRTEXT
 70
     0
  9
$LTSCALE
 40
20.0
  9
$ATTMODE
 70
     1
  9
$TEXTSIZE
 40
64.0
  9
$TRACEWID
 40
0.05
  9
$TEXTSTYLE
  7
STANDARD
  9
$CLAYER
  8
OUTLINE
  9
$CELTYPE
  6
CONTINUOUS
  9
$CECOLOR
 62
   256
  9
$CELTSCALE
 40
1.0
  9
$DISPSILH
 70
     0
  9
$DIMSCALE
 40
1.0
  9
$DIMASZ
 40
10.0
  9
$DIMEXO
 40
20.0
  9
$DIMDLI
 40
200.0
  9
$DIMRND
 40
0.0
  9
$DIMDLE
 40
0.0
  9
$DIMEXE
 40
20.0
  9
$DIMTP
 40
0.0
  9
$DIMTM
 40
0.0
  9
$DIMTXT
 40
50.0
  9
$DIMCEN
 40
0.082
  9
$DIMTSZ
 40
0.0
  9
$DIMTOL
 70
     0
  9
$DIMLIM
 70
     0
  9
$DIMTIH
 70
     0
  9
$DIMTOH
 70
     0
  9
$DIMSE1
 70
     0
  9
$DIMSE2
 70
     0
  9
$DIMTAD
 70
     1
  9
$DIMZIN
 70
     8
  9
$DIMBLK
  1
ORIGIN
  9
$DIMASO
 70
     1
  9
$DIMSHO
 70
     0
  9
$DIMPOST
  1

  9
$DIMAPOST
  1

  9
$DIMALT
 70
     0
  9
$DIMALTD
 70
     2
  9
$DIMALTF
 40
25.4
  9
$DIMLFAC
 40
1.0
  9
$DIMTOFL
 70
     1
  9
$DIMTVP
 40
0.0
  9
$DIMTIX
 70
     0
  9
$DIMSOXD
 70
     0
  9
$DIMSAH
 70
     0
  9
$DIMBLK1
  1

  9
$DIMBLK2
  1

  9
$DIMSTYLE
  2
STANDARD
  9
$DIMCLRD
 70
     0
  9
$DIMCLRE
 70
     0
  9
$DIMCLRT
 70
     0
  9
$DIMTFAC
 40
1.0
  9
$DIMGAP
 40
10.0
  9
$DIMJUST
 70
     0
  9
$DIMSD1
 70
     0
  9
$DIMSD2
 70
     0
  9
$DIMTOLJ
 70
     1
  9
$DIMTZIN
 70
     0
  9
$DIMALTZ
 70
     0
  9
$DIMALTTZ
 70
     0
  9
$DIMUPT
 70
     0
  9
$DIMDEC
 70
     0
  9
$DIMTDEC
 70
     0
  9
$DIMALTU
 70
     2
  9
$DIMALTTD
 70
     2
  9
$DIMTXSTY
  7
STANDARD
  9
$DIMAUNIT
 70
     0
  9
$DIMADEC
 70
     0
  9
$DIMALTRND
 40
0.0
  9
$DIMAZIN
 70
     0
  9
$DIMDSEP
 70
    46
  9
$DIMATFIT
 70
     3
  9
$DIMFRAC
 70
     0
  9
$DIMLDRBLK
  1
ORIGIN
  9
$DIMLUNIT
 70
     2
  9
$DIMLWD
 70
    -2
  9
$DIMLWE
 70
    -2
  9
$DIMTMOVE
 70
     0
  9
$LUNITS
 70
     2
  9
$LUPREC
 70
     4
  9
$SKETCHINC
 40
0.1
  9
$FILLETRAD
 40
10.0
  9
$AUNITS
 70
     1
  9
$AUPREC
 70
     3
  9
$MENU
  1
ACAD
  9
$ELEVATION
 40
0.0
  9
$PELEVATION
 40
0.0
  9
$THICKNESS
 40
0.0
  9
$LIMCHECK
 70
     0
  9
$CHAMFERA
 40
0.0
  9
$CHAMFERB
 40
0.0
  9
$CHAMFERC
 40
0.0
  9
$CHAMFERD
 40
0.0
  9
$SKPOLY
 70
     0
  9
$TDCREATE
 40
2450330.393205995
  9
$TDUCREATE
 40
2450330.018205995
  9
$TDUPDATE
 40
2455505.656219989
  9
$TDUUPDATE
 40
2455505.281219988
  9
$TDINDWG
 40
2.6298441319
  9
$TDUSRTIMER
 40
2.6298435764
  9
$USRTIMER
 70
     1
  9
$ANGBASE
 50
0.0
  9
$ANGDIR
 70
     0
  9
$PDMODE
 70
     3
  9
$PDSIZE
 40
-2.0
  9
$PLINEWID
 40
0.0
  9
$SPLFRAME
 70
     0
  9
$SPLINETYPE
 70
     6
  9
$SPLINESEGS
 70
     8
  9
$HANDSEED
  5
90417
  9
$SURFTAB1
 70
     6
  9
$SURFTAB2
 70
     6
  9
$SURFTYPE
 70
     6
  9
$SURFU
 70
     6
  9
$SURFV
 70
     6
  9
$UCSBASE
  2

  9
$UCSNAME
  2

  9
$UCSORG
 10
0.0
 20
0.0
 30
0.0
  9
$UCSXDIR
 10
1.0
 20
0.0
 30
0.0
  9
$UCSYDIR
 10
0.0
 20
1.0
 30
0.0
  9
$UCSORTHOREF
  2

  9
$UCSORTHOVIEW
 70
     0
  9
$UCSORGTOP
 10
0.0
 20
0.0
 30
0.0
  9
$UCSORGBOTTOM
 10
0.0
 20
0.0
 30
0.0
  9
$UCSORGLEFT
 10
0.0
 20
0.0
 30
0.0
  9
$UCSORGRIGHT
 10
0.0
 20
0.0
 30
0.0
  9
$UCSORGFRONT
 10
0.0
 20
0.0
 30
0.0
  9
$UCSORGBACK
 10
0.0
 20
0.0
 30
0.0
  9
$PUCSBASE
  2

  9
$PUCSNAME
  2

  9
$PUCSORG
 10
0.0
 20
0.0
 30
0.0
  9
$PUCSXDIR
 10
1.0
 20
0.0
 30
0.0
  9
$PUCSYDIR
 10
0.0
 20
1.0
 30
0.0
  9
$PUCSORTHOREF
  2

  9
$PUCSORTHOVIEW
 70
     0
  9
$PUCSORGTOP
 10
0.0
 20
0.0
 30
0.0
  9
$PUCSORGBOTTOM
 10
0.0
 20
0.0
 30
0.0
  9
$PUCSORGLEFT
 10
0.0
 20
0.0
 30
0.0
  9
$PUCSORGRIGHT
 10
0.0
 20
0.0
 30
0.0
  9
$PUCSORGFRONT
 10
0.0
 20
0.0
 30
0.0
  9
$PUCSORGBACK
 10
0.0
 20
0.0
 30
0.0
  9
$USERI1
 70
     0
  9
$USERI2
 70
     0
  9
$USERI3
 70
     0
  9
$USERI4
 70
     0
  9
$USERI5
 70
     0
  9
$USERR1
 40
20.0
  9
$USERR2
 40
0.0
  9
$USERR3
 40
0.0
  9
$USERR4
 40
0.0
  9
$USERR5
 40
0.0
  9
$WORLDVIEW
 70
     1
  9
$SHADEDGE
 70
     3
  9
$SHADEDIF
 70
    70
  9
$TILEMODE
 70
     1
  9
$MAXACTVP
 70
    64
  9
$PINSBASE
 10
0.0
 20
0.0
 30
0.0
  9
$PLIMCHECK
 70
     0
  9
$PEXTMIN
 10
1.000000000000000E+20
 20
1.000000000000000E+20
 30
1.000000000000000E+20
  9
$PEXTMAX
 10
-1.000000000000000E+20
 20
-1.000000000000000E+20
 30
-1.000000000000000E+20
  9
$PLIMMIN
 10
0.0
 20
0.0
  9
$PLIMMAX
 10
12.0
 20
9.0
  9
$UNITMODE
 70
     0
  9
$VISRETAIN
 70
     1
  9
$PLINEGEN
 70
     0
  9
$PSLTSCALE
 70
     1
  9
$TREEDEPTH
 70
  3020
  9
$CMLSTYLE
  2
STANDARD
  9
$CMLJUST
 70
     0
  9
$CMLSCALE
 40
1.0
  9
$PROXYGRAPHICS
 70
     1
  9
$MEASUREMENT
 70
     0
  9
$CELWEIGHT
370
    -1
  9
$ENDCAPS
280
     0
  9
$JOINSTYLE
280
     0
  9
$LWDISPLAY
290
     0
  9
$INSUNITS
 70
     0
  9
$HYPERLINKBASE
  1

  9
$STYLESHEET
  1

  9
$XEDIT
290
     1
  9
$CEPSNTYPE
380
     0
  9
$PSTYLEMODE
290
     1
  9
$FINGERPRINTGUID
  2
{97DA8DB6-C4F0-4C3D-ABEB-53C4FBBC7EFF}
  9
$VERSIONGUID
  2
{F353E54B-6771-49FE-B5B7-BEC0A3D781F3}
  9
$EXTNAMES
290
     1
  9
$PSVPSCALE
 40
0.0
  9
$OLESTARTUP
290
     0
  0
ENDSEC
  0
SECTION
  2
CLASSES
  0
CLASS
  1
ACDBDICTIONARYWDFLT
  2
AcDbDictionaryWithDefault
  3
AutoCAD 2000
 90
        0
280
     0
281
     0
  0
CLASS
  1
ACDBPLACEHOLDER
  2
AcDbPlaceHolder
  3
AutoCAD 2000
 90
        0
280
     0
281
     0
  0
CLASS
  1
LAYOUT
  2
AcDbLayout
  3
AutoCAD 2000
 90
        0
280
     0
281
     0
  0
CLASS
  1
LONG_TRANSACTION
  2
AcDbLongTransaction
  3
AutoCAD 2000
 90
    32768
280
     0
281
     0
  0
CLASS
  1
LWPOLYLINE
  2
AcDbPolyline
  3
AutoCAD 2000
 90
    32768
280
     0
281
     1
  0
CLASS
  1
HATCH
  2
AcDbHatch
  3
AutoCAD 2000
 90
    32768
280
     0
281
     1
  0
CLASS
  1
XRECORD
  2
AcDbXrecord
  3
AutoCAD 2000
 90
    32768
280
     0
281
     0
  0
CLASS
  1
LONG_TRANSACTION
  2
AcDbLongTransaction
  3
AutoCAD 2000
 90
    32768
280
     0
281
     0
  0
CLASS
  1
LWPOLYLINE
  2
AcDbPolyline
  3
AutoCAD 2000
 90
    32768
280
     0
281
     1
  0
CLASS
  1
HATCH
  2
AcDbHatch
  3
AutoCAD 2000
 90
    32768
280
     0
281
     1
  0
CLASS
  1
XRECORD
  2
AcDbXrecord
  3
AutoCAD 2000
 90
    32768
280
     0
281
     0
  0
CLASS
  1
LONG_TRANSACTION
  2
AcDbLongTransaction
  3
AutoCAD 2000
 90
    32768
280
     0
281
     0
  0
CLASS
  1
LWPOLYLINE
  2
AcDbPolyline
  3
AutoCAD 2000
 90
    32768
280
     0
281
     1
  0
CLASS
  1
HATCH
  2
AcDbHatch
  3
AutoCAD 2000
 90
    32768
280
     0
281
     1
  0
CLASS
  1
XRECORD
  2
AcDbXrecord
  3
AutoCAD 2000
 90
    32768
280
     0
281
     0
  0
ENDSEC
  0
SECTION
  2
TABLES
  0
TABLE
  2
VPORT
  5
8
330
0
100
AcDbSymbolTable
 70
    13
  0
VPORT
  5
90416
330
8
100
AcDbSymbolTableRecord
100
AcDbViewportTableRecord
  2
*Active
 70
     0
 10
0.0
 20
0.0
 11
1.0
 21
1.0
 12
-48.45234998295746
 22
-285.2285415895173
 13
0.0
 23
0.0
 14
50.0
 24
50.0
 15
100.0
 25
100.0
 16
0.0
 26
0.0
 36
1.0
 17
0.0
 27
0.0
 37
0.0
 40
2119.320746914366
 41
1.307486631016042
 42
50.0
 43
0.0
 44
0.0
 50
0.0
 51
0.0
 71
     0
 72
   500
 73
     1
 74
     0
 75
     0
 76
     0
 77
     0
 78
     0
281
     0
 65
     1
110
0.0
120
0.0
130
0.0
111
1.0
121
0.0
131
0.0
112
0.0
122
1.0
132
0.0
 79
     0
146
0.0
  0
ENDTAB
  0
TABLE
  2
LTYPE
  5
5
330
0
100
AcDbSymbolTable
 70
     1
  0
LTYPE
  5
13
330
5
100
AcDbSymbolTableRecord
100
AcDbLinetypeTableRecord
  2
BYBLOCK
 70
     0
  3

 72
    65
 73
     0
 40
0.0
  0
LTYPE
  5
14
330
5
100
AcDbSymbolTableRecord
100
AcDbLinetypeTableRecord
  2
BYLAYER
 70
     0
  3

 72
    65
 73
     0
 40
0.0
  0
LTYPE
  5
15
330
5
100
AcDbSymbolTableRecord
100
AcDbLinetypeTableRecord
  2
CONTINUOUS
 70
     0
  3
実線
 72
    65
 73
     0
 40
0.0
  0
ENDTAB
  0
TABLE
  2
LAYER
  5
2
330
0
100
AcDbSymbolTable
 70
     8
  0
LAYER
  5
10
330
2
100
AcDbSymbolTableRecord
100
AcDbLayerTableRecord
  2
0
 70
     0
 62
     7
  6
CONTINUOUS
370
    -3
390
F
  0
LAYER
  5
22
330
2
100
AcDbSymbolTableRecord
100
AcDbLayerTableRecord
  2
SIZE
 70
     0
 62
    32
  6
CONTINUOUS
370
    -3
390
F
  0
LAYER
  5
31
330
2
100
AcDbSymbolTableRecord
100
AcDbLayerTableRecord
  2
DETAIL
 70
     0
 62
     5
  6
CONTINUOUS
370
    -3
390
F
  0
LAYER
  5
33
330
2
100
AcDbSymbolTableRecord
100
AcDbLayerTableRecord
  2
BASIS
 70
     0
 62
     6
  6
CONTINUOUS
370
    -3
390
F
  0
LAYER
  5
35
330
2
100
AcDbSymbolTableRecord
100
AcDbLayerTableRecord
  2
ARRANGE
 70
     0
 62
     1
  6
CONTINUOUS
370
    -3
390
F
  0
LAYER
  5
37
330
2
100
AcDbSymbolTableRecord
100
AcDbLayerTableRecord
  2
ETC
 70
     0
 62
    83
  6
CONTINUOUS
370
    -3
390
F
  0
LAYER
  5
3A
330
2
100
AcDbSymbolTableRecord
100
AcDbLayerTableRecord
  2
DEFPOINTS
 70
     0
 62
     7
  6
CONTINUOUS
290
     0
370
    -3
390
F
  0
LAYER
  5
901CA
330
2
100
AcDbSymbolTableRecord
100
AcDbLayerTableRecord
  2
OUTLINE
 70
     0
 62
     3
  6
CONTINUOUS
370
    -3
390
F
  0
ENDTAB
  0
TABLE
  2
STYLE
  5
3
330
0
100
AcDbSymbolTable
 70
     1
  0
STYLE
  5
11
330
3
100
AcDbSymbolTableRecord
100
AcDbTextStyleTableRecord
  2
STANDARD
 70
     0
 40
0.0
 41
0.9
 50
0.0
 71
     0
 42
64.0
  3
SIMPLEX
  4
BIGFONT
  0
ENDTAB
  0
TABLE
  2
VIEW
  5
6
330
0
100
AcDbSymbolTable
 70
     1
  0
VIEW
  5
3C
330
6
100
AcDbSymbolTableRecord
100
AcDbViewTableRecord
  2
ALL
 70
     0
 40
4282.62
 10
0.0
 20
41.30990399999999
 41
5940.0
 11
0.0
 21
0.0
 31
1.0
 12
0.0
 22
0.0
 32
0.0
 42
50.0
 43
0.0
 44
0.0
 50
0.0
 71
     0
281
     0
 72
     0
  0
ENDTAB
  0
TABLE
  2
UCS
  5
7
330
0
100
AcDbSymbolTable
 70
     0
  0
ENDTAB
  0
TABLE
  2
APPID
  5
9
330
0
100
AcDbSymbolTable
 70
     1
  0
APPID
  5
12
330
9
100
AcDbSymbolTableRecord
100
AcDbRegAppTableRecord
  2
ACAD
 70
     0
  0
ENDTAB
  0
TABLE
  2
DIMSTYLE
  5
A
330
0
100
AcDbSymbolTable
 70
     1
100
AcDbDimStyleTable
 71
     1
340
213
  0
DIMSTYLE
105
213
330
A
100
AcDbSymbolTableRecord
100
AcDbDimStyleTableRecord
  2
STANDARD
 70
     0
340
11
  0
ENDTAB
  0
TABLE
  2
BLOCK_RECORD
  5
1
330
0
100
AcDbSymbolTable
 70
     3
  0
BLOCK_RECORD
  5
1E
102
{ACAD_XDICTIONARY
360
66E76
102
}
330
1
100
AcDbSymbolTableRecord
100
AcDbBlockTableRecord
  2
*MODEL_SPACE
340
67C8F
  0
BLOCK_RECORD
  5
1A
102
{ACAD_XDICTIONARY
360
66E74
102
}
330
1
100
AcDbSymbolTableRecord
100
AcDbBlockTableRecord
  2
*PAPER_SPACE
340
67C90
  0
BLOCK_RECORD
  5
46
330
1
100
AcDbSymbolTableRecord
100
AcDbBlockTableRecord
  2
_ORIGIN
340
0
102
{BLKREFS
331
901B7
331
901B8
331
901C0
331
901C1
331
901CE
331
901CF
331
901D7
331
901D8
331
901E0
331
901E1
331
901E6
331
901E7
102
}
  0
ENDTAB
  0
ENDSEC
  0
SECTION
  2
BLOCKS
  0
BLOCK
  5
1F
330
1E
100
AcDbEntity
  8
0
100
AcDbBlockBegin
  2
*MODEL_SPACE
 70
     0
 10
0.0
 20
0.0
 30
0.0
  3
*MODEL_SPACE
  1

  0
ENDBLK
  5
20
330
1E
100
AcDbEntity
  8
0
100
AcDbBlockEnd
  0
BLOCK
  5
1B
330
1A
100
AcDbEntity
 67
     1
  8
0
100
AcDbBlockBegin
  2
*PAPER_SPACE
 70
     0
 10
0.0
 20
0.0
 30
0.0
  3
*PAPER_SPACE
  1

  0
ENDBLK
  5
1C
330
1A
100
AcDbEntity
 67
     1
  8
0
100
AcDbBlockEnd
  0
BLOCK
  5
47
330
46
100
AcDbEntity
  8
0
100
AcDbBlockBegin
  2
_ORIGIN
 70
     0
 10
0.0
 20
0.0
 30
0.0
  3
_ORIGIN
  1

  0
CIRCLE
  5
48
330
46
100
AcDbEntity
  8
0
  6
ByBlock
 62
     0
100
AcDbCircle
 10
0.0
 20
0.0
 30
0.0
 40
0.5
  0
LINE
  5
49
330
46
100
AcDbEntity
  8
0
  6
ByBlock
 62
     0
100
AcDbLine
 10
0.0
 20
0.0
 30
0.0
 11
-1.0
 21
0.0
 31
0.0
  0
ENDBLK
  5
4A
330
46
100
AcDbEntity
  8
0
100
AcDbBlockEnd
  0
ENDSEC
  0
SECTION
  2
ENTITIES
  0
MTEXT
  5
38341
330
1E
100
AcDbEntity
  8
0
  6
Continuous
100
AcDbMText
 10
383.9605305094082
 20
4023.282340837186
 30
0.0
 40
64.0
 41
187.9848
 71
     1
 72
     5
  1

 73
     1
 44
1.0
1001
ACAD
1000
MTEXTBEGIN
1070
    73
1070
     1
1070
    44
1040
1.0
1070
    74
1070
     0
1000
MTEXTEND
1000
MTEXTBEGIN
1070
    73
1070
     1
1070
    44
1040
1.0
1070
    74
1070
     0
1000
MTEXTEND
1000
MTEXTBEGIN
1070
    73
1070
     1
1070
    44
1040
1.0
1070
    74
1070
     0
1000
MTEXTEND
  0
LINE
  5
67EF9
330
1E
100
AcDbEntity
  8
BASIS
100
AcDbLine
 10
450.6469246645565
 20
-147.7269782201422
 30
0.0
 11
-454.2320531735613
 21
-147.7269782201422
 31
0.0
  0
LINE
  5
67F26
330
1E
100
AcDbEntity
  8
BASIS
100
AcDbLine
 10
0.0
 20
-339.139346355922
 30
0.0
 11
0.0
 21
45.56334539773479
 31
0.0
  0
CIRCLE
  5
68086
330
1E
100
AcDbEntity
  8
ARRANGE
  6
Continuous
100
AcDbCircle
 10
0.0000000000013642
 20
0.0000000000013642
 30
0.0
 40
13.00138232471456
  0
POINT
  5
68087
330
1E
100
AcDbEntity
  8
ARRANGE
  6
Continuous
100
AcDbPoint
 10
0.0000000000013642
 20
0.0000000000013642
 30
0.0
  0
TEXT
  5
6813B
330
1E
100
AcDbEntity
  8
ETC
100
AcDbText
 10
577.6928961787639
 20
343.7242939584716
 30
0.0
 40
64.0
  1
室内機
 41
0.75
 72
     5
 11
737.6928961787639
 21
343.7242939584716
 31
0.0
100
AcDbText
  0
TEXT
  5
6813C
330
1E
100
AcDbEntity
  8
ETC
100
AcDbText
 10
488.9276095644564
 20
215.645289447088
 30
0.0
 40
64.0
  1
SMSZ5562
 41
0.8860759562895616
 72
     5
 11
915.5942795644588
 21
215.645289447088
 31
0.0
100
AcDbText
  0
LINE
  5
8C7B0
330
1E
100
AcDbEntity
  8
DETAIL
  6
Continuous
100
AcDbLine
 10
-187.3209441662716
 20
-14.581221927564
 30
0.0
 11
-240.2537354162718
 21
-14.581221927564
 31
0.0
  0
LINE
  5
8C7B1
330
1E
100
AcDbEntity
  8
DETAIL
  6
Continuous
100
AcDbLine
 10
-185.5898783255756
 20
-10.80246785523195
 30
0.0
 11
-238.5226695755732
 21
-10.80246785523195
 31
0.0
  0
LINE
  5
8C7B2
330
1E
100
AcDbEntity
  8
DETAIL
  6
Continuous
100
AcDbLine
 10
-239.2985899941195
 20
-7.117861781521241
 30
0.0
 11
-186.365798744122
 21
-7.117861781521241
 31
0.0
  0
LINE
  5
8C7B3
330
1E
100
AcDbEntity
  8
DETAIL
  6
Continuous
100
AcDbLine
 10
-239.2051967274669
 20
-1.961743873961495
 30
0.0
 11
-186.2724054774657
 21
-1.961743873961495
 31
0.0
  0
LINE
  5
8C7B5
330
1E
100
AcDbEntity
  8
DETAIL
  6
Continuous
100
AcDbLine
 10
-310.3910612773702
 20
-283.3888642564297
 30
0.0
 11
-1.731999657110918
 21
-283.3888642564297
 31
0.0
  0
LINE
  5
8C7B6
330
1E
100
AcDbEntity
  8
DETAIL
  6
Continuous
100
AcDbLine
 10
-377.4228083650368
 20
-247.0842930260059
 30
0.0
 11
-6.997725000001082
 21
-247.0841254738106
 31
0.0
  0
LINE
  5
8C7B9
330
1E
100
AcDbEntity
  8
DETAIL
  6
Continuous
100
AcDbLine
 10
-296.9034750000014
 20
-295.4539462500024
 30
0.0
 11
281.0586262500009
 21
-295.4539462500024
 31
0.0
  0
LINE
  5
8C7BA
330
1E
100
AcDbEntity
  8
DETAIL
  6
Continuous
100
AcDbLine
 10
378.5120005798185
 20
-244.4120985901972
 30
0.0
 11
-378.5120000813108
 21
-244.4120985901972
 31
0.0
  0
LINE
  5
8C7BB
330
1E
100
AcDbEntity
  8
DETAIL
  6
Continuous
100
AcDbLine
 10
378.511998712424
 20
-244.3818395555836
 30
0.0
 11
-378.511998213919
 21
-244.3818395555836
 31
0.0
  0
LINE
  5
8C7BC
330
1E
100
AcDbEntity
  8
DETAIL
  6
Continuous
100
AcDbLine
 10
-378.5012420668049
 20
-243.4017068902594
 30
0.0
 11
378.5012420668049
 21
-243.4017068902594
 31
0.0
  0
LINE
  5
8C7BD
330
1E
100
AcDbEntity
  8
DETAIL
  6
Continuous
100
AcDbLine
 10
363.4034561917701
 20
-42.1902794293901
 30
0.0
 11
-363.4034561917701
 21
-42.1902794293901
 31
0.0
  0
LINE
  5
8C7BF
330
1E
100
AcDbEntity
  8
DETAIL
  6
Continuous
100
AcDbLine
 10
209.4000795837268
 20
-9.875953530277001
 30
0.0
 11
-342.020797124575
 21
-9.866322635204818
 31
0.0
  0
LINE
  5
8C7C0
330
1E
100
AcDbEntity
  8
DETAIL
  6
Continuous
100
AcDbLine
 10
-344.6983398922707
 20
0.0
 30
0.0
 11
272.5433846245764
 21
0.0
 31
0.0
  0
LINE
  5
8C812
330
1E
100
AcDbEntity
  8
DETAIL
  6
Continuous
100
AcDbLine
 10
-364.2370311171767
 20
-0.9125475829432616
 30
0.0
 11
-364.2370311171767
 21
0.0
 31
0.0
  0
LINE
  5
8C857
330
1E
100
AcDbEntity
  8
DETAIL
  6
Continuous
100
AcDbLine
 10
-344.6983398922707
 20
-0.9125475829432616
 30
0.0
 11
-365.2318866146888
 21
-0.9125476842527859
 31
0.0
  0
LINE
  5
8CAB4
330
1E
100
AcDbEntity
  8
DETAIL
  6
Continuous
100
AcDbLine
 10
-366.718375100871
 20
-0.9125476842527859
 30
0.0
 11
-367.0513110041929
 21
-1.045651035593436
 31
0.0
  0
LINE
  5
8CAC4
330
1E
100
AcDbEntity
  8
DETAIL
  6
Continuous
100
AcDbLine
 10
-365.2318866146888
 20
-0.9125476842527859
 30
0.0
 11
-366.718375100871
 21
-0.9125476842527859
 31
0.0
  0
ARC
  5
8CAD3
330
1E
100
AcDbEntity
  8
DETAIL
  6
Continuous
100
AcDbCircle
 10
-367.714195808589
 20
-0.9995108986850027
 30
0.0
 40
0.9995630777199
100
AcDbArc
 50
4.990874953909473
 51
89.92284869839549
  0
ARC
  5
8CAD4
330
1E
100
AcDbEntity
  8
DETAIL
  6
Continuous
100
AcDbCircle
 10
-366.2272448767548
 20
-0.9990067039279892
 30
0.0
 40
0.9990559359279
100
AcDbArc
 50
4.96437839860738
 51
89.97118314099616
  0
LINE
  5
8CB2A
330
1E
100
AcDbEntity
  8
DETAIL
  6
Continuous
100
AcDbLine
 10
-379.6468783432997
 20
-15.76298087637224
 30
0.0
 11
-344.6983398922707
 21
-15.76298108867546
 31
0.0
  0
LINE
  5
8CB2B
330
1E
100
AcDbEntity
  8
DETAIL
  6
Continuous
100
AcDbLine
 10
-379.6467667329197
 20
-14.88469478015758
 30
0.0
 11
-344.6983398922707
 21
-14.88469478015758
 31
0.0
  0
LINE
  5
8CB2C
330
1E
100
AcDbEntity
  8
DETAIL
  6
Continuous
100
AcDbLine
 10
-366.9084651428606
 20
-14.66888885987919
 30
0.0
 11
-344.6983398922707
 21
-14.66908432833315
 31
0.0
  0
LINE
  5
8CB2D
330
1E
100
AcDbEntity
  8
DETAIL
  6
Continuous
100
AcDbLine
 10
-344.6983398922707
 20
-14.38180203343381
 30
0.0
 11
-367.7004485605623
 21
-14.38180203343381
 31
0.0
  0
LINE
  5
8CB2E
330
1E
100
AcDbEntity
  8
DETAIL
  6
Continuous
100
AcDbLine
 10
-344.6868925618605
 20
-9.907391361667578
 30
0.0
 11
-369.4464928412288
 21
-9.907378855510481
 31
0.0
  0
LINE
  5
8CB2F
330
1E
100
AcDbEntity
  8
DETAIL
  6
Continuous
100
AcDbLine
 10
-367.0982665453452
 20
-9.064023281395748
 30
0.0
 11
-346.6112185765819
 21
-9.064023281395748
 31
0.0
  0
LINE
  5
8CB30
330
1E
100
AcDbEntity
  8
DETAIL
  6
Continuous
100
AcDbLine
 10
-369.8972988024307
 20
-9.061636669295694
 30
0.0
 11
-344.6983398922707
 21
-9.061636669295694
 31
0.0
  0
LINE
  5
8CB31
330
1E
100
AcDbEntity
  8
DETAIL
  6
Continuous
100
AcDbLine
 10
-370.946333646242
 20
-7.09357701929639
 30
0.0
 11
-344.6983398922707
 21
-7.09357701929639
 31
0.0
  0
LINE
  5
8CB32
330
1E
100
AcDbEntity
  8
DETAIL
  6
Continuous
100
AcDbLine
 10
-344.6983398922707
 20
-6.312171835697855
 30
0.0
 11
-370.4933023741185
 21
-6.312171756591717
 31
0.0
  0
LINE
  5
8CB33
330
1E
100
AcDbEntity
  8
DETAIL
  6
Continuous
100
AcDbLine
 10
-370.1674201274808
 20
-6.24322535876945
 30
0.0
 11
-347.0213371407194
 21
-6.249599606469018
 31
0.0
  0
LINE
  5
8CB34
330
1E
100
AcDbEntity
  8
DETAIL
  6
Continuous
100
AcDbLine
 10
-373.2841771821946
 20
-4.023447276072653
 30
0.0
 11
-344.6983398922707
 21
-3.984089287361712
 31
0.0
  0
LINE
  5
8CB35
330
1E
100
AcDbEntity
  8
DETAIL
  6
Continuous
100
AcDbLine
 10
-346.7065580558478
 20
-1.048737302900917
 30
0.0
 11
-368.4323234798862
 21
-1.048737302900917
 31
0.0
  0
LINE
  5
8CB36
330
1E
100
AcDbEntity
  8
DETAIL
  6
Continuous
100
AcDbLine
 10
-389.5733472954251
 20
0.0002480425093125
 30
0.0
 11
-344.6983398922707
 21
0.0
 31
0.0
  0
LINE
  5
8CB37
330
1E
100
AcDbEntity
  8
DETAIL
  6
Continuous
100
AcDbLine
 10
-344.6983398922707
 20
-1.045749032950915
 30
0.0
 11
-370.3256980389598
 21
-1.044581965084365
 31
0.0
  0
LINE
  5
8CB3C
330
1E
100
AcDbEntity
  8
DETAIL
  6
Continuous
100
AcDbLine
 10
-292.2368354162704
 20
-14.581221927564
 30
0.0
 11
-344.6983398922707
 21
-14.581221927564
 31
0.0
  0
LINE
  5
8CB3D
330
1E
100
AcDbEntity
  8
DETAIL
  6
Continuous
100
AcDbLine
 10
-290.5057695755745
 20
-10.80246785523195
 30
0.0
 11
-342.020797124575
 21
-10.80246785523195
 31
0.0
  0
LINE
  5
8CB3E
330
1E
100
AcDbEntity
  8
DETAIL
  6
Continuous
100
AcDbLine
 10
-342.020797124575
 20
-7.117861781521241
 30
0.0
 11
-291.2816899941208
 21
-7.117861781521241
 31
0.0
  0
LINE
  5
8CB3F
330
1E
100
AcDbEntity
  8
DETAIL
  6
Continuous
100
AcDbLine
 10
-342.020797124575
 20
-1.96175632311902
 30
0.0
 11
-291.1882967274682
 21
-1.961743873961495
 31
0.0
  0
LINE
  5
8CB40
330
1E
100
AcDbEntity
  8
DETAIL
  6
Continuous
100
AcDbLine
 10
-240.2537354162718
 20
-14.581221927564
 30
0.0
 11
-292.2368354162704
 21
-14.581221927564
 31
0.0
  0
LINE
  5
8CB41
330
1E
100
AcDbEntity
  8
DETAIL
  6
Continuous
100
AcDbLine
 10
-238.5226695755732
 20
-10.80246785523195
 30
0.0
 11
-290.5057695755745
 21
-10.80246785523195
 31
0.0
  0
LINE
  5
8CB42
330
1E
100
AcDbEntity
  8
DETAIL
  6
Continuous
100
AcDbLine
 10
-291.2816899941208
 20
-7.117861781521241
 30
0.0
 11
-239.2985899941195
 21
-7.117861781521241
 31
0.0
  0
LINE
  5
8CB43
330
1E
100
AcDbEntity
  8
DETAIL
  6
Continuous
100
AcDbLine
 10
-291.1882967274682
 20
-1.961743873961495
 30
0.0
 11
-239.2051967274669
 21
-1.961743873961495
 31
0.0
  0
LINE
  5
8CE65
330
1E
100
AcDbEntity
  8
DETAIL
  6
Continuous
100
AcDbLine
 10
-323.8946999999993
 20
-294.6031127861106
 30
0.0
 11
-323.8946999999993
 21
-294.5682246324486
 31
0.0
  0
LINE
  5
8CE68
330
1E
100
AcDbEntity
  8
DETAIL
  6
Continuous
100
AcDbLine
 10
-335.8908000000005
 20
-294.5682246324486
 30
0.0
 11
-323.8946999999993
 21
-294.5682246324486
 31
0.0
  0
LINE
  5
8CE9C
330
1E
100
AcDbEntity
  8
DETAIL
  6
Continuous
100
AcDbLine
 10
-382.3756874999999
 20
-295.4539462500024
 30
0.0
 11
-297.1034099999992
 21
-295.4539462500024
 31
0.0
  0
LINE
  5
8CEA5
330
1E
100
AcDbEntity
  8
DETAIL
  6
Continuous
100
AcDbLine
 10
-297.1034099999992
 20
-295.4539462500024
 30
0.0
 11
-297.1034099999992
 21
-286.6899326830771
 31
0.0
  0
LINE
  5
8CEA6
330
1E
100
AcDbEntity
  8
DETAIL
  6
Continuous
100
AcDbLine
 10
-296.9034750000014
 20
-295.4539462500024
 30
0.0
 11
-296.9034750000014
 21
-286.6899326830771
 31
0.0
  0
LINE
  5
8CF6E
330
1E
100
AcDbEntity
  8
DETAIL
  6
Continuous
100
AcDbLine
 10
-134.2881854162715
 20
-14.581221927564
 30
0.0
 11
-187.3209441662734
 21
-14.58122192756036
 31
0.0
  0
LINE
  5
8CF6F
330
1E
100
AcDbEntity
  8
DETAIL
  6
Continuous
100
AcDbLine
 10
-132.5571195755728
 20
-10.80246785523195
 30
0.0
 11
-185.5898783255756
 21
-10.80246785523195
 31
0.0
  0
LINE
  5
8CF70
330
1E
100
AcDbEntity
  8
DETAIL
  6
Continuous
100
AcDbLine
 10
-186.365798744122
 20
-7.117861781521241
 30
0.0
 11
-133.3330399941219
 21
-7.117861781521241
 31
0.0
  0
LINE
  5
8CF71
330
1E
100
AcDbEntity
  8
DETAIL
  6
Continuous
100
AcDbLine
 10
-186.2724054774657
 20
-1.961743873961495
 30
0.0
 11
-133.2396467274688
 21
-1.961743873961495
 31
0.0
  0
LINE
  5
8CF72
330
1E
100
AcDbEntity
  8
DETAIL
  6
Continuous
100
AcDbLine
 10
377.4668571578563
 20
-283.0999570338035
 30
0.0
 11
312.7263011190157
 21
-283.1003489517316
 31
0.0
  0
LINE
  5
8CF75
330
1E
100
AcDbEntity
  8
DETAIL
  6
Continuous
100
AcDbLine
 10
312.7263011190157
 20
-283.1994405658124
 30
0.0
 11
377.3773125000002
 21
-283.1994405658124
 31
0.0
  0
LINE
  5
8CF76
330
1E
100
AcDbEntity
  8
DETAIL
  6
Continuous
100
AcDbLine
 10
358.4968807618761
 20
-289.4326862863499
 30
0.0
 11
383.3753625000003
 21
-289.8660155685602
 31
0.0
  0
LINE
  5
8CF77
330
1E
100
AcDbEntity
  8
DETAIL
  6
Continuous
100
AcDbLine
 10
358.4968807618761
 20
-289.3642721988344
 30
0.0
 11
383.3753625000003
 21
-289.797601481031
 31
0.0
  0
LINE
  5
8D160
330
1E
100
AcDbEntity
  8
DETAIL
  6
Continuous
100
AcDbLine
 10
379.2624985113566
 20
-286.6899326830771
 30
0.0
 11
2.001298221287015
 21
-286.6899326830771
 31
0.0
  0
LINE
  5
8D161
330
1E
100
AcDbEntity
  8
DETAIL
  6
Continuous
100
AcDbLine
 10
1.731999655777599
 20
-283.3888642564297
 30
0.0
 11
310.3910612760369
 21
-283.3888642564297
 31
0.0
  0
LINE
  5
8D162
330
1E
100
AcDbEntity
  8
DETAIL
  6
Continuous
100
AcDbLine
 10
6.053071580839514
 20
-247.1182496398505
 30
0.0
 11
377.3773125013335
 21
-247.0841254738106
 31
0.0
  0
LINE
  5
8D168
330
1E
100
AcDbEntity
  8
DETAIL
  6
Continuous
100
AcDbLine
 10
324.1013926470482
 20
-239.7504273792328
 30
0.0
 11
226.719532352949
 21
-239.7504273792328
 31
0.0
  0
LINE
  5
8D169
330
1E
100
AcDbEntity
  8
DETAIL
  6
Continuous
100
AcDbLine
 10
226.3654671802087
 20
-221.0864649830309
 30
0.0
 11
324.4554578184615
 21
-221.0864649830309
 31
0.0
  0
LINE
  5
8D16A
330
1E
100
AcDbEntity
  8
DETAIL
  6
Continuous
100
AcDbLine
 10
399.5700970095347
 20
-12.22600368423545
 30
0.0
 11
399.5700372622518
 21
-283.2963317486073
 31
0.0
  0
SPLINE
  5
8D18E
330
1E
100
AcDbEntity
  8
DETAIL
  6
Continuous
100
AcDbSpline
210
0.0
220
0.0
230
1.0
 70
     8
 71
     3
 72
     9
 73
     5
 74
     3
 42
0.0000000001
 43
0.0000000001
 44
0.0000000001
 12
0.1331415499380078
 22
-0.9910970324242247
 32
0.0
 13
0.0000169853918609
 23
-0.9999999998557484
 33
0.0
 40
0.0
 40
0.0
 40
0.0
 40
0.0
 40
0.1513969423747595
 40
0.3143640983318257
 40
0.3143640983318257
 40
0.3143640983318257
 40
0.3143640983318257
 10
4.212290107315766
 20
-215.1697483744128
 30
0.0
 10
4.219009181836983
 20
-215.219764727848
 30
0.0
 10
4.229837281113773
 20
-215.3240601884557
 30
0.0
 10
4.233867162837134
 20
-215.4288764232595
 30
0.0
 10
4.233868085524136
 20
-215.4831988085707
 30
0.0
 11
4.212290107315766
 21
-215.1697483744128
 31
0.0
 11
4.227861999468132
 21
-215.3203423661098
 31
0.0
 11
4.233868085524136
 21
-215.4831988085707
 31
0.0
  0
LINE
  5
8D194
330
1E
100
AcDbEntity
  8
DETAIL
  6
Continuous
100
AcDbLine
 10
-4.233868085523226
 20
-215.4831988085679
 30
0.0
 11
-4.233568398951775
 21
-223.0348892685788
 31
0.0
  0
LINE
  5
8D195
330
1E
100
AcDbEntity
  8
DETAIL
  6
Continuous
100
AcDbLine
 10
4.233568397619364
 20
-223.0348892685788
 30
0.0
 11
4.233868085523226
 21
-215.4831988085679
 31
0.0
  0
LINE
  5
8D1A6
330
1E
100
AcDbEntity
  8
DETAIL
  6
Continuous
100
AcDbLine
 10
0.9996937792298012
 20
-256.3661965626351
 30
0.0
 11
0.9996939591692353
 21
-256.2518130053713
 31
0.0
  0
LINE
  5
8D1A7
330
1E
100
AcDbEntity
  8
DETAIL
  6
Continuous
100
AcDbLine
 10
0.9996939591692353
 20
-256.2518130053713
 30
0.0
 11
0.9996941444428557
 21
-255.9763567430918
 31
0.0
  0
LINE
  5
8D1A9
330
1E
100
AcDbEntity
  8
DETAIL
  6
Continuous
100
AcDbLine
 10
1.006700578611798
 20
-256.3661966239515
 30
0.0
 11
1.0067026685997
 21
-256.2518130666876
 31
0.0
  0
LINE
  5
8D1AA
330
1E
100
AcDbEntity
  8
DETAIL
  6
Continuous
100
AcDbLine
 10
-0.9996937792293465
 20
-256.3661965626351
 30
0.0
 11
-0.9996939591687805
 21
-256.2518130053713
 31
0.0
  0
LINE
  5
8D1AB
330
1E
100
AcDbEntity
  8
DETAIL
  6
Continuous
100
AcDbLine
 10
-0.9996939591687805
 20
-256.2518130053713
 30
0.0
 11
-0.9996941444428557
 21
-255.9763567430918
 31
0.0
  0
LINE
  5
8D1AC
330
1E
100
AcDbEntity
  8
DETAIL
  6
Continuous
100
AcDbLine
 10
-1.006700578611344
 20
-256.3661966239515
 30
0.0
 11
-1.006702669933019
 21
-256.2518130666876
 31
0.0
  0
LINE
  5
8D1FF
330
1E
100
AcDbEntity
  8
DETAIL
  6
Continuous
100
AcDbLine
 10
0.9996750000004794
 20
-281.9729263858525
 30
0.0
 11
1.00365022363303
 21
-285.7538337221485
 31
0.0
  0
LINE
  5
8D201
330
1E
100
AcDbEntity
  8
DETAIL
  6
Continuous
100
AcDbLine
 10
0.9996750000004794
 20
-269.8374979689715
 30
0.0
 11
1.006313669730843
 21
-270.2048677483144
 31
0.0
  0
LINE
  5
8D202
330
1E
100
AcDbEntity
  8
DETAIL
  6
Continuous
100
AcDbLine
 10
0.9996712212300735
 20
-267.571396949902
 30
0.0
 11
1.006315422494026
 21
-267.9390356964677
 31
0.0
  0
LINE
  5
8D20A
330
1E
100
AcDbEntity
  8
DETAIL
  6
Continuous
100
AcDbLine
 10
0.9997077413549959
 20
-281.9765533933578
 30
0.0
 11
0.9996750000004794
 21
-281.9729263858525
 31
0.0
  0
LINE
  5
8D20D
330
1E
100
AcDbEntity
  8
DETAIL
  6
Continuous
100
AcDbLine
 10
-1.011395004426503
 20
-282.6214862700244
 30
0.0
 11
-1.015121804823138
 21
-279.6618764359345
 31
0.0
  0
LINE
  5
8D20E
330
1E
100
AcDbEntity
  8
DETAIL
  6
Continuous
100
AcDbLine
 10
-1.006315423827345
 20
-270.1409373977685
 30
0.0
 11
-1.006315423827345
 21
-267.9390356964677
 31
0.0
  0
LINE
  5
8D210
330
1E
100
AcDbEntity
  8
DETAIL
  6
Continuous
100
AcDbLine
 10
-0.9996750000004794
 20
-269.8374979689715
 30
0.0
 11
-0.9996787787713401
 21
-267.571396949902
 31
0.0
  0
LINE
  5
8D211
330
1E
100
AcDbEntity
  8
DETAIL
  6
Continuous
100
AcDbLine
 10
-0.9996725807855
 20
-283.4977113602972
 30
0.0
 11
-0.9996750000004794
 21
-276.2138173394605
 31
0.0
  0
LINE
  5
8D212
330
1E
100
AcDbEntity
  8
DETAIL
  6
Continuous
100
AcDbLine
 10
0.9996750000004794
 20
-281.9729263858525
 30
0.0
 11
0.9996750000004794
 21
-276.2138173394605
 31
0.0
  0
LINE
  5
8D213
330
1E
100
AcDbEntity
  8
DETAIL
  6
Continuous
100
AcDbLine
 10
0.9996750000004794
 20
-269.8374979689715
 30
0.0
 11
0.9996787774384756
 21
-267.571396949902
 31
0.0
  0
LINE
  5
8D215
330
1E
100
AcDbEntity
  8
DETAIL
  6
Continuous
100
AcDbLine
 10
1.006315422494026
 20
-270.1409373977685
 30
0.0
 11
1.006315422494026
 21
-267.9390356964677
 31
0.0
  0
LINE
  5
8D221
330
1E
100
AcDbEntity
  8
DETAIL
  6
Continuous
100
AcDbLine
 10
-0.9996712225633928
 20
-267.571396949902
 30
0.0
 11
-1.006315423827345
 21
-267.9390356964677
 31
0.0
  0
LINE
  5
8D222
330
1E
100
AcDbEntity
  8
DETAIL
  6
Continuous
100
AcDbLine
 10
-0.9996750000004794
 20
-269.8374979689715
 30
0.0
 11
-1.006313671064162
 21
-270.2048677483144
 31
0.0
  0
LINE
  5
8D223
330
1E
100
AcDbEntity
  8
DETAIL
  6
Continuous
100
AcDbLine
 10
-0.9996750000004794
 20
-276.2138173394605
 30
0.0
 11
-1.0060257233431
 21
-276.565252764487
 31
0.0
  0
LINE
  5
8D25F
330
1E
100
AcDbEntity
  8
DETAIL
  6
Continuous
100
AcDbLine
 10
-100.5673050000009
 20
-210.040784737519
 30
0.0
 11
-100.5673050000009
 21
-238.3631369498671
 31
0.0
  0
LINE
  5
8D2C0
330
1E
100
AcDbEntity
  8
DETAIL
  6
Continuous
100
AcDbLine
 10
-100.5673050000009
 20
-238.3631369498671
 30
0.0
 11
100.5673049999982
 21
-238.3631369498671
 31
0.0
  0
LINE
  5
8D2C1
330
1E
100
AcDbEntity
  8
DETAIL
  6
Continuous
100
AcDbLine
 10
-100.5673050000009
 20
-210.040784737519
 30
0.0
 11
100.5673049999982
 21
-210.040784737519
 31
0.0
  0
ARC
  5
8D357
330
1E
100
AcDbEntity
  8
DETAIL
  6
Continuous
100
AcDbCircle
 10
1132.32292542741
 20
-248.1554875399315
 30
0.0
 40
910.3476674840015
100
AcDbArc
 50
178.5648480746891
 51
179.2575104774097
  0
LINE
  5
8D35A
330
1E
100
AcDbEntity
  8
DETAIL
  6
Continuous
100
AcDbLine
 10
139.7098922060454
 20
-245.6334816130083
 30
0.0
 11
140.1991077926209
 21
-245.6334816130083
 31
0.0
  0
LINE
  5
8D35B
330
1E
100
AcDbEntity
  8
DETAIL
  6
Continuous
100
AcDbLine
 10
139.2047437499991
 20
-244.5793963887363
 30
0.0
 11
139.2047437499991
 21
-245.1054967465434
 31
0.0
  0
LINE
  5
8D35C
330
1E
100
AcDbEntity
  8
DETAIL
  6
Continuous
100
AcDbLine
 10
139.2101308346282
 20
-244.5793963887363
 30
0.0
 11
139.2101308346282
 21
-245.5673145003065
 31
0.0
  0
LINE
  5
8D35D
330
1E
100
AcDbEntity
  8
DETAIL
  6
Continuous
100
AcDbLine
 10
140.6988691653718
 20
-245.5673145003065
 30
0.0
 11
140.6988691653718
 21
-244.5793963887363
 31
0.0
  0
LINE
  5
8D35E
330
1E
100
AcDbEntity
  8
DETAIL
  6
Continuous
100
AcDbLine
 10
140.7042562499982
 20
-244.5793963887363
 30
0.0
 11
140.7042562499982
 21
-245.1054967465434
 31
0.0
  0
SPLINE
  5
8D35F
330
1E
100
AcDbEntity
  8
DETAIL
  6
Continuous
100
AcDbSpline
210
0.0
220
0.0
230
1.0
 70
     8
 71
     3
 72
    12
 73
     8
 74
     6
 42
0.0000000001
 43
0.0000000001
 44
0.0000000001
 12
0.0
 22
-1.0
 32
0.0
 13
0.042120371965956
 23
-0.9991125433430656
 33
0.0
 40
0.0
 40
0.0
 40
0.0
 40
0.0
 40
0.0975724310680056
 40
0.1913512419946812
 40
0.2777734470285127
 40
0.3535146493537438
 40
0.4618677326699578
 40
0.4618677326699578
 40
0.4618677326699578
 40
0.4618677326699578
 10
139.20474375
 20
-245.1054967465379
 30
0.0
 10
139.20474375
 20
-245.1380208902272
 30
0.0
 10
139.2048503260929
 20
-245.2018047655373
 30
0.0
 10
139.2053353142585
 20
-245.2943945656528
 30
0.0
 10
139.2060980362325
 20
-245.3797063278103
 30
0.0
 10
139.2074041188137
 20
-245.4698666725339
 30
0.0
 10
139.2086095439034
 20
-245.5312288587507
 30
0.0
 10
139.2101308346277
 20
-245.567314500301
 30
0.0
 11
139.20474375
 21
-245.1054967465379
 31
0.0
 11
139.204911596767
 21
-245.2030690332385
 31
0.0
 11
139.2054083859216
 21
-245.2968465282965
 31
0.0
 11
139.2062149823573
 21
-245.3832649691821
 31
0.0
 11
139.2073002561987
 21
-245.4589983958203
 31
0.0
 11
139.2101308346277
 21
-245.567314500301
 31
0.0
  0
SPLINE
  5
8D360
330
1E
100
AcDbEntity
  8
DETAIL
  6
Continuous
100
AcDbSpline
210
0.0
220
0.0
230
1.0
 70
     8
 71
     3
 72
    12
 73
     8
 74
     6
 42
0.0000000001
 43
0.0000000001
 44
0.0000000001
 12
0.042120371965956
 22
0.9991125433430656
 32
0.0
 13
0.0
 23
1.0
 33
0.0
 40
0.0
 40
0.0
 40
0.0
 40
0.0
 40
0.1083530832813352
 40
0.184094285625645
 40
0.2705164906594766
 40
0.3642953015861907
 40
0.46186773265419
 40
0.46186773265419
 40
0.46186773265419
 40
0.46186773265419
 10
140.6988691653709
 20
-245.567314500301
 30
0.0
 10
140.7003904560947
 20
-245.5312288587623
 30
0.0
 10
140.701595878683
 20
-245.4698666724942
 30
0.0
 10
140.7029019644188
 20
-245.3797063278274
 30
0.0
 10
140.70366468553
 20
-245.2943945656494
 30
0.0
 10
140.7041496739768
 20
-245.2018047655383
 30
0.0
 10
140.7042562499987
 20
-245.1380208902272
 30
0.0
 10
140.7042562499987
 20
-245.1054967465379
 30
0.0
 11
140.6988691653709
 21
-245.567314500301
 31
0.0
 11
140.7016997424648
 21
-245.4589983958203
 31
0.0
 11
140.7027850176377
 21
-245.3832649691821
 31
0.0
 11
140.7035916140735
 21
-245.2968465282965
 31
0.0
 11
140.7040884032353
 21
-245.2030690332385
 31
0.0
 11
140.7042562499987
 21
-245.1054967465379
 31
0.0
  0
SPLINE
  5
8D361
330
1E
100
AcDbEntity
  8
DETAIL
  6
Continuous
100
AcDbSpline
210
0.0
220
0.0
230
1.0
 70
     8
 71
     3
 72
    12
 73
     8
 74
     6
 42
0.0000000001
 43
0.0000000001
 44
0.0000000001
 12
-1.0
 22
0.0
 32
0.0
 13
-0.9664867635373832
 23
0.2567164504020619
 33
0.0
 40
0.0
 40
0.0
 40
0.0
 40
0.0
 40
0.1034667983972695
 40
0.2024935098939678
 40
0.2928795409350171
 40
0.3707470238215027
 40
0.476315362844386
 40
0.476315362844386
 40
0.476315362844386
 40
0.476315362844386
 10
139.7098922060463
 20
-245.6334816130029
 30
0.0
 10
139.6754032732472
 20
-245.6334816130029
 30
0.0
 10
139.607899970961
 20
-245.632886617408
 30
0.0
 10
139.5103205080059
 20
-245.6301478162905
 30
0.0
 10
139.4212750329686
 20
-245.6259295642665
 30
0.0
 10
139.3304227709337
 20
-245.6185970859201
 30
0.0
 10
139.2691544647076
 20
-245.6124659239848
 30
0.0
 10
139.2351443306029
 20
-245.6034322142286
 30
0.0
 11
139.7098922060463
 21
-245.6334816130029
 31
0.0
 11
139.606429742274
 21
-245.6325345328869
 31
0.0
 11
139.5074426368769
 21
-245.6297340766823
 31
0.0
 11
139.4171704968607
 21
-245.6251980713632
 31
0.0
 11
139.3395406560953
 21
-245.6191191969764
 31
0.0
 11
139.2351443306029
 21
-245.6034322142286
 31
0.0
  0
SPLINE
  5
8D362
330
1E
100
AcDbEntity
  8
DETAIL
  6
Continuous
100
AcDbSpline
210
0.0
220
0.0
230
1.0
 70
     8
 71
     3
 72
    12
 73
     8
 74
     6
 42
0.0000000001
 43
0.0000000001
 44
0.0000000001
 12
-0.9664867635373832
 22
-0.2567164504020619
 32
0.0
 13
-1.0
 23
0.0
 33
0.0
 40
0.0
 40
0.0
 40
0.0
 40
0.0
 40
0.1055683377097628
 40
0.1834358205962485
 40
0.2738218516409312
 40
0.3728485644685971
 40
0.4763153628622289
 40
0.4763153628622289
 40
0.4763153628622289
 40
0.4763153628622289
 10
140.6738556680679
 20
-245.6034322142286
 30
0.0
 10
140.6398455343862
 20
-245.6124659238725
 30
0.0
 10
140.5785772286385
 20
-245.6185970860233
 30
0.0
 10
140.4877249670262
 20
-245.6259295642459
 30
0.0
 10
140.3986794915481
 20
-245.6301478163275
 30
0.0
 10
140.3011000281466
 20
-245.6328866173837
 30
0.0
 10
140.2335967254187
 20
-245.6334816130029
 30
0.0
 10
140.1991077926209
 20
-245.6334816130029
 30
0.0
 11
140.6738556680679
 21
-245.6034322142286
 31
0.0
 11
140.5694593439034
 21
-245.6191191969764
 31
0.0
 11
140.4918295031379
 21
-245.6251980713632
 31
0.0
 11
140.4015573631181
 21
-245.6297340766823
 31
0.0
 11
140.3025702563895
 21
-245.6325345328869
 31
0.0
 11
140.1991077926209
 21
-245.6334816130029
 31
0.0
  0
LINE
  5
8D363
330
1E
100
AcDbEntity
  8
DETAIL
  6
Continuous
100
AcDbLine
 10
139.2101308346282
 20
-245.5673145003065
 30
0.0
 11
139.2121183551394
 21
-245.5807936888131
 31
0.0
  0
LINE
  5
8D364
330
1E
100
AcDbEntity
  8
DETAIL
  6
Continuous
100
AcDbLine
 10
139.2121183551394
 20
-245.5807936888131
 30
0.0
 11
139.2168848881788
 21
-245.5913063710786
 31
0.0
  0
LINE
  5
8D365
330
1E
100
AcDbEntity
  8
DETAIL
  6
Continuous
100
AcDbLine
 10
139.2168848881788
 20
-245.5913063710786
 30
0.0
 11
139.2245320207202
 21
-245.5988525457815
 31
0.0
  0
LINE
  5
8D366
330
1E
100
AcDbEntity
  8
DETAIL
  6
Continuous
100
AcDbLine
 10
139.2245320207202
 20
-245.5988525457815
 30
0.0
 11
139.2351443306001
 21
-245.6034322142295
 31
0.0
  0
LINE
  5
8D367
330
1E
100
AcDbEntity
  8
DETAIL
  6
Continuous
100
AcDbLine
 10
140.6738556680661
 20
-245.6034322142295
 30
0.0
 11
140.684465859967
 21
-245.5988546624212
 31
0.0
  0
LINE
  5
8D368
330
1E
100
AcDbEntity
  8
DETAIL
  6
Continuous
100
AcDbLine
 10
140.684465859967
 20
-245.5988546624212
 30
0.0
 11
140.6921131631202
 21
-245.5913091928332
 31
0.0
  0
LINE
  5
8D369
330
1E
100
AcDbEntity
  8
DETAIL
  6
Continuous
100
AcDbLine
 10
140.6921131631202
 20
-245.5913091928332
 30
0.0
 11
140.6968808397891
 21
-245.5807958054529
 31
0.0
  0
LINE
  5
8D36A
330
1E
100
AcDbEntity
  8
DETAIL
  6
Continuous
100
AcDbLine
 10
140.6968808397891
 20
-245.5807958054529
 30
0.0
 11
140.6988691653718
 21
-245.5673145003065
 31
0.0
  0
LINE
  5
8D36B
330
1E
100
AcDbEntity
  8
DETAIL
  6
Continuous
100
AcDbLine
 10
100.5673049999982
 20
-210.040784737519
 30
0.0
 11
100.5673049999982
 21
-238.3631369498671
 31
0.0
  0
LINE
  5
8D3BB
330
1E
100
AcDbEntity
  8
DETAIL
  6
Continuous
100
AcDbLine
 10
1.006315422494026
 20
-267.9390356964677
 30
0.0
 11
1.006316376850008
 21
-267.8750063234456
 31
0.0
  0
LINE
  5
8D3BC
330
1E
100
AcDbEntity
  8
DETAIL
  6
Continuous
100
AcDbLine
 10
1.006316376850008
 20
-267.8750063234456
 30
0.0
 11
1.006325200648916
 21
-267.5715697683845
 31
0.0
  0
LINE
  5
8D3BF
330
1E
100
AcDbEntity
  8
DETAIL
  6
Continuous
100
AcDbLine
 10
1.006313669730843
 20
-270.2048677483144
 30
0.0
 11
1.006315422494026
 21
-270.1409373977685
 31
0.0
  0
LINE
  5
8D3C0
330
1E
100
AcDbEntity
  8
DETAIL
  6
Continuous
100
AcDbLine
 10
-0.9996750000004794
 20
-276.2138173394605
 30
0.0
 11
-0.9996825548755623
 21
-270.2048676896647
 31
0.0
  0
LINE
  5
8D3C1
330
1E
100
AcDbEntity
  8
DETAIL
  6
Continuous
100
AcDbLine
 10
-0.9996825548755623
 20
-270.2048676896647
 30
0.0
 11
-0.9996826735045942
 21
-270.1409373391188
 31
0.0
  0
LINE
  5
8D3C2
330
1E
100
AcDbEntity
  8
DETAIL
  6
Continuous
100
AcDbLine
 10
-0.9996826735045942
 20
-270.1409373391188
 30
0.0
 11
-0.9996829427518605
 21
-269.8370584478625
 31
0.0
  0
LINE
  5
8D3C3
330
1E
100
AcDbEntity
  8
DETAIL
  6
Continuous
100
AcDbLine
 10
-1.006313671064162
 20
-270.2048677483144
 30
0.0
 11
-1.006315423827345
 21
-270.1409373977685
 31
0.0
  0
LINE
  5
8D3C4
330
1E
100
AcDbEntity
  8
DETAIL
  6
Continuous
100
AcDbLine
 10
-1.006315423827345
 20
-267.9390356964677
 30
0.0
 11
-1.006316378183328
 21
-267.8750063234456
 31
0.0
  0
LINE
  5
8D3C5
330
1E
100
AcDbEntity
  8
DETAIL
  6
Continuous
100
AcDbLine
 10
-1.006316378183328
 20
-267.8750063234456
 30
0.0
 11
-1.006325205979464
 21
-267.5713971311834
 31
0.0
  0
LINE
  5
8D3C6
330
1E
100
AcDbEntity
  8
DETAIL
  6
Continuous
100
AcDbLine
 10
-1.006028682380019
 20
-276.5654165165815
 30
0.0
 11
-1.006039742787379
 21
-276.2138175300651
 31
0.0
  0
LINE
  5
8D3C7
330
1E
100
AcDbEntity
  8
DETAIL
  6
Continuous
100
AcDbLine
 10
-1.006039742787379
 20
-276.2138175300651
 30
0.0
 11
-1.006313671064162
 21
-270.2048677483144
 31
0.0
  0
ARC
  5
8D42B
330
1E
100
AcDbEntity
  8
DETAIL
  6
Continuous
100
AcDbCircle
 10
-1.836702024435423
 20
-284.2115837905899
 30
0.0
 40
0.8311777907712823
100
AcDbArc
 50
16.39367102623834
 51
81.92458431674515
  0
ARC
  5
8D42D
330
1E
100
AcDbEntity
  8
DETAIL
  6
Continuous
100
AcDbCircle
 10
1.800678404697478
 20
-284.2938654315863
 30
0.0
 40
0.9076033812122574
100
AcDbArc
 50
94.33974526835498
 51
151.6855650186967
  0
ARC
  5
8D432
330
1E
100
AcDbEntity
  8
DETAIL
  6
Continuous
100
AcDbCircle
 10
497.8287833024997
 20
-279.5956472714115
 30
0.0
 40
498.8440353569777
100
AcDbArc
 50
179.6519355176922
 51
180.0076068917889
  0
LINE
  5
8D43B
330
1E
100
AcDbEntity
  8
DETAIL
  6
Continuous
100
AcDbLine
 10
-0.9996731899213955
 20
-283.9456791607599
 30
0.0
 11
-0.9996725807855
 21
-283.4977113602972
 31
0.0
  0
LINE
  5
8D43F
330
1E
100
AcDbEntity
  8
DETAIL
  6
Continuous
100
AcDbLine
 10
-0.9996731899213955
 20
-283.9456791607599
 30
0.0
 11
-1.001773978943238
 21
-285.6877746903092
 31
0.0
  0
LINE
  5
8D459
330
1E
100
AcDbEntity
  8
DETAIL
  6
Continuous
100
AcDbLine
 10
0.9996750000004794
 20
-276.2138173394605
 30
0.0
 11
0.9996825548755623
 21
-270.2048676896647
 31
0.0
  0
LINE
  5
8D45A
330
1E
100
AcDbEntity
  8
DETAIL
  6
Continuous
100
AcDbLine
 10
0.9996825548755623
 20
-270.2048676896647
 30
0.0
 11
0.9996826735045942
 21
-270.1409373391188
 31
0.0
  0
LINE
  5
8D45B
330
1E
100
AcDbEntity
  8
DETAIL
  6
Continuous
100
AcDbLine
 10
0.9996826735045942
 20
-270.1409373391188
 30
0.0
 11
0.9996829427523152
 21
-269.8370584478625
 31
0.0
  0
LINE
  5
8D4AF
330
1E
100
AcDbEntity
  8
DETAIL
  6
Continuous
100
AcDbLine
 10
0.9996750000004794
 20
-267.571569587114
 30
0.0
 11
0.9996937792298012
 21
-256.3661965626351
 31
0.0
  0
LINE
  5
8D4B0
330
1E
100
AcDbEntity
  8
DETAIL
  6
Continuous
100
AcDbLine
 10
1.006325200648916
 20
-267.5715697683845
 30
0.0
 11
1.006700578611798
 21
-256.3661966239515
 31
0.0
  0
LINE
  5
8D4B1
330
1E
100
AcDbEntity
  8
DETAIL
  6
Continuous
100
AcDbLine
 10
-0.9996750000004794
 20
-267.571569587114
 30
0.0
 11
-0.9996937792293465
 21
-256.3661965626351
 31
0.0
  0
LINE
  5
8D4B2
330
1E
100
AcDbEntity
  8
DETAIL
  6
Continuous
100
AcDbLine
 10
-1.006325205979464
 20
-267.5713971311834
 30
0.0
 11
-1.006700578611344
 21
-256.3661966239515
 31
0.0
  0
LINE
  5
8D4B3
330
1E
100
AcDbEntity
  8
DETAIL
  6
Continuous
100
AcDbLine
 10
-3.837407843661367
 20
-223.5179766848077
 30
0.0
 11
3.837407842328957
 21
-223.5179766848077
 31
0.0
  0
LINE
  5
8D4B4
330
1E
100
AcDbEntity
  8
DETAIL
  6
Continuous
100
AcDbLine
 10
2.912689030977617
 20
-214.6127705990493
 30
0.0
 11
-2.912660532245809
 21
-214.6127705990493
 31
0.0
  0
LINE
  5
8D4B5
330
1E
100
AcDbEntity
  8
DETAIL
  6
Continuous
100
AcDbLine
 10
4.246814655187336
 20
-219.626309866383
 30
0.0
 11
4.233983690608965
 21
-219.6215016415699
 31
0.0
  0
LINE
  5
8D4B9
330
1E
100
AcDbEntity
  8
DETAIL
  6
Continuous
100
AcDbLine
 10
0.9996750000004794
 20
-255.9774161666691
 30
0.0
 11
1.006700578611798
 21
-256.3661966239515
 31
0.0
  0
LINE
  5
8D4BA
330
1E
100
AcDbEntity
  8
DETAIL
  6
Continuous
100
AcDbLine
 10
1.0067026685997
 20
-252.17355577122
 30
0.0
 11
1.023654919994015
 21
-250.4292034113686
 31
0.0
  0
LINE
  5
8D4BC
330
1E
100
AcDbEntity
  8
DETAIL
  6
Continuous
100
AcDbLine
 10
-1.006702669933019
 20
-256.2518130666876
 30
0.0
 11
-1.006702669933019
 21
-252.17355577122
 31
0.0
  0
LINE
  5
8D4BD
330
1E
100
AcDbEntity
  8
DETAIL
  6
Continuous
100
AcDbLine
 10
-0.9996750000004794
 20
-255.9774161666691
 30
0.0
 11
-0.9996841583574678
 21
-251.7842034185405
 31
0.0
  0
LINE
  5
8D4BE
330
1E
100
AcDbEntity
  8
DETAIL
  6
Continuous
100
AcDbLine
 10
0.0
 20
-212.5317585611692
 30
0.0
 11
0.0000000359891601
 21
-212.5355630376497
 31
0.0
  0
LINE
  5
8D4BF
330
1E
100
AcDbEntity
  8
DETAIL
  6
Continuous
100
AcDbLine
 10
0.9996750000004794
 20
-255.9774161666691
 30
0.0
 11
0.9996841570241485
 21
-251.7842034185405
 31
0.0
  0
LINE
  5
8D4C0
330
1E
100
AcDbEntity
  8
DETAIL
  6
Continuous
100
AcDbLine
 10
1.0067026685997
 20
-256.2518130666876
 30
0.0
 11
1.0067026685997
 21
-252.17355577122
 31
0.0
  0
LINE
  5
8D4C2
330
1E
100
AcDbEntity
  8
DETAIL
  6
Continuous
100
AcDbLine
 10
-1.006702669933019
 20
-252.17355577122
 30
0.0
 11
-1.029673229694135
 21
-250.2930328698287
 31
0.0
  0
LINE
  5
8D4C3
330
1E
100
AcDbEntity
  8
DETAIL
  6
Continuous
100
AcDbLine
 10
-0.9996750000004794
 20
-255.9774161666691
 30
0.0
 11
-1.006700578611344
 21
-256.3661966239515
 31
0.0
  0
LINE
  5
8D4CE
330
1E
100
AcDbEntity
  8
DETAIL
  6
Continuous
100
AcDbLine
 10
-4.233983691942285
 20
-219.6215016415699
 30
0.0
 11
-4.246680726729664
 21
-219.6263702081096
 31
0.0
  0
LINE
  5
8D4F0
330
1E
100
AcDbEntity
  8
DETAIL
  6
Continuous
100
AcDbLine
 10
379.3820143320895
 20
-286.689086143625
 30
0.0
 11
379.3915601020371
 21
-286.6888403741932
 31
0.0
  0
LINE
  5
8D4F1
330
1E
100
AcDbEntity
  8
DETAIL
  6
Continuous
100
AcDbLine
 10
379.3915601020371
 20
-286.6888403741932
 30
0.0
 11
379.4018858530794
 21
-286.6885079382646
 31
0.0
  0
LINE
  5
8D4F2
330
1E
100
AcDbEntity
  8
DETAIL
  6
Continuous
100
AcDbLine
 10
379.4018858530794
 20
-286.6885079382646
 30
0.0
 11
379.4140071990282
 21
-286.6880159782122
 31
0.0
  0
LINE
  5
8D4F3
330
1E
100
AcDbEntity
  8
DETAIL
  6
Continuous
100
AcDbLine
 10
379.4140071990282
 20
-286.6880159782122
 30
0.0
 11
379.4287738196481
 21
-286.687250970911
 31
0.0
  0
LINE
  5
8D4F4
330
1E
100
AcDbEntity
  8
DETAIL
  6
Continuous
100
AcDbLine
 10
379.4287738196481
 20
-286.687250970911
 30
0.0
 11
379.4470100176245
 21
-286.6860345410486
 31
0.0
  0
LINE
  5
8D4F5
330
1E
100
AcDbEntity
  8
DETAIL
  6
Continuous
100
AcDbLine
 10
379.4470100176245
 20
-286.6860345410486
 30
0.0
 11
379.4702599309434
 21
-286.6840249117304
 31
0.0
  0
LINE
  5
8D4F6
330
1E
100
AcDbEntity
  8
DETAIL
  6
Continuous
100
AcDbLine
 10
379.4702599309434
 20
-286.6840249117304
 30
0.0
 11
379.4972872228877
 21
-286.6810204738221
 31
0.0
  0
LINE
  5
8D4F7
330
1E
100
AcDbEntity
  8
DETAIL
  6
Continuous
100
AcDbLine
 10
379.4972872228877
 20
-286.6810204738221
 30
0.0
 11
379.5276756581011
 21
-286.6767637230423
 31
0.0
  0
LINE
  5
8D4F8
330
1E
100
AcDbEntity
  8
DETAIL
  6
Continuous
100
AcDbLine
 10
379.5276756581011
 20
-286.6767637230423
 30
0.0
 11
379.5603160358627
 21
-286.6711343345241
 31
0.0
  0
LINE
  5
8D4F9
330
1E
100
AcDbEntity
  8
DETAIL
  6
Continuous
100
AcDbLine
 10
379.5603160358627
 20
-286.6711343345241
 30
0.0
 11
379.5939266568598
 21
-286.6641693188912
 31
0.0
  0
LINE
  5
8D4FA
330
1E
100
AcDbEntity
  8
DETAIL
  6
Continuous
100
AcDbLine
 10
379.5939266568598
 20
-286.6641693188912
 30
0.0
 11
379.6284236097058
 21
-286.6557587345487
 31
0.0
  0
LINE
  5
8D4FB
330
1E
100
AcDbEntity
  8
DETAIL
  6
Continuous
100
AcDbLine
 10
379.6284236097058
 20
-286.6557587345487
 30
0.0
 11
379.6632487745132
 21
-286.6459359799819
 31
0.0
  0
LINE
  5
8D4FC
330
1E
100
AcDbEntity
  8
DETAIL
  6
Continuous
100
AcDbLine
 10
379.6632487745132
 20
-286.6459359799819
 30
0.0
 11
379.6984831182949
 21
-286.6345922439004
 31
0.0
  0
LINE
  5
8D4FD
330
1E
100
AcDbEntity
  8
DETAIL
  6
Continuous
100
AcDbLine
 10
379.6984831182949
 20
-286.6345922439004
 30
0.0
 11
379.7340327275815
 21
-286.6216613358092
 31
0.0
  0
LINE
  5
8D4FE
330
1E
100
AcDbEntity
  8
DETAIL
  6
Continuous
100
AcDbLine
 10
379.7340327275815
 20
-286.6216613358092
 30
0.0
 11
379.7698108452459
 21
-286.6070765707291
 31
0.0
  0
LINE
  5
8D4FF
330
1E
100
AcDbEntity
  8
DETAIL
  6
Continuous
100
AcDbLine
 10
379.7698108452459
 20
-286.6070765707291
 30
0.0
 11
379.8057243642247
 21
-286.590774766535
 31
0.0
  0
LINE
  5
8D500
330
1E
100
AcDbEntity
  8
DETAIL
  6
Continuous
100
AcDbLine
 10
379.8057243642247
 20
-286.590774766535
 30
0.0
 11
379.8416570063222
 21
-286.5727056702398
 31
0.0
  0
LINE
  5
8D501
330
1E
100
AcDbEntity
  8
DETAIL
  6
Continuous
100
AcDbLine
 10
379.8416570063222
 20
-286.5727056702398
 30
0.0
 11
379.8774875016261
 21
-286.5528264504182
 31
0.0
  0
LINE
  5
8D502
330
1E
100
AcDbEntity
  8
DETAIL
  6
Continuous
100
AcDbLine
 10
379.8774875016261
 20
-286.5528264504182
 30
0.0
 11
379.9131056126411
 21
-286.5310923403003
 31
0.0
  0
LINE
  5
8D503
330
1E
100
AcDbEntity
  8
DETAIL
  6
Continuous
100
AcDbLine
 10
379.9131056126411
 20
-286.5310923403003
 30
0.0
 11
379.9483937815889
 21
-286.5074656294837
 31
0.0
  0
LINE
  5
8D504
330
1E
100
AcDbEntity
  8
DETAIL
  6
Continuous
100
AcDbLine
 10
379.9483937815889
 20
-286.5074656294837
 30
0.0
 11
379.9832211563475
 21
-286.4819215526686
 31
0.0
  0
LINE
  5
8D505
330
1E
100
AcDbEntity
  8
DETAIL
  6
Continuous
100
AcDbLine
 10
379.9832211563475
 20
-286.4819215526686
 30
0.0
 11
380.017456960762
 21
-286.4544408201409
 31
0.0
  0
LINE
  5
8D506
330
1E
100
AcDbEntity
  8
DETAIL
  6
Continuous
100
AcDbLine
 10
380.017456960762
 20
-286.4544408201409
 30
0.0
 11
380.0509595755384
 21
-286.4250191386381
 31
0.0
  0
LINE
  5
8D507
330
1E
100
AcDbEntity
  8
DETAIL
  6
Continuous
100
AcDbLine
 10
380.0509595755384
 20
-286.4250191386381
 30
0.0
 11
380.0835870668238
 21
-286.3936607134373
 31
0.0
  0
LINE
  5
8D508
330
1E
100
AcDbEntity
  8
DETAIL
  6
Continuous
100
AcDbLine
 10
380.0835870668238
 20
-286.3936607134373
 30
0.0
 11
380.1151959572607
 21
-286.3603799705215
 31
0.0
  0
LINE
  5
8D509
330
1E
100
AcDbEntity
  8
DETAIL
  6
Continuous
100
AcDbLine
 10
380.1151959572607
 20
-286.3603799705215
 30
0.0
 11
380.1456418098077
 21
-286.3252020457303
 31
0.0
  0
LINE
  5
8D50A
330
1E
100
AcDbEntity
  8
DETAIL
  6
Continuous
100
AcDbLine
 10
380.1456418098077
 20
-286.3252020457303
 30
0.0
 11
380.1747806859252
 21
-286.2881622515824
 31
0.0
  0
LINE
  5
8D518
330
1E
100
AcDbEntity
  8
DETAIL
  6
Continuous
100
AcDbLine
 10
399.3951770396311
 20
-249.6992755937071
 30
0.0
 11
399.5700378144006
 21
-280.7912614946198
 31
0.0
  0
LINE
  5
8D519
330
1E
100
AcDbEntity
  8
DETAIL
  6
Continuous
100
AcDbLine
 10
384.3750653602778
 20
-246.8287287978255
 30
0.0
 11
384.3332945908555
 21
-288.3216375079355
 31
0.0
  0
LINE
  5
8D521
330
1E
100
AcDbEntity
  8
DETAIL
  6
Continuous
100
AcDbLine
 10
380.3763400991533
 20
-256.8664912499971
 30
0.0
 11
384.364948792176
 21
-256.8780011122604
 31
0.0
  0
LINE
  5
8D524
330
1E
100
AcDbEntity
  8
DETAIL
  6
Continuous
100
AcDbLine
 10
399.2922947519576
 20
-245.8862996870875
 30
0.0
 11
399.3962981889048
 21
-245.8862996870875
 31
0.0
  0
LINE
  5
8D526
330
1E
100
AcDbEntity
  8
DETAIL
  6
Continuous
100
AcDbLine
 10
397.729626050349
 20
-243.8442184339237
 30
0.0
 11
398.321249105013
 21
-243.8442184339237
 31
0.0
  0
LINE
  5
8D527
330
1E
100
AcDbEntity
  8
DETAIL
  6
Continuous
100
AcDbLine
 10
378.5012573671624
 20
-243.4016963376943
 30
0.0
 11
378.5126255406398
 21
-243.4016965229648
 31
0.0
  0
LINE
  5
8D528
330
1E
100
AcDbEntity
  8
DETAIL
  6
Continuous
100
AcDbLine
 10
378.5012442754196
 20
-243.6468298860599
 30
0.0
 11
378.5119861658363
 21
-243.6468351256899
 31
0.0
  0
LINE
  5
8D529
330
1E
100
AcDbEntity
  8
DETAIL
  6
Continuous
100
AcDbLine
 10
399.2415929240319
 20
-236.3083650598373
 30
0.0
 11
398.5514813338791
 21
-236.3083650598373
 31
0.0
  0
LINE
  5
8D52C
330
1E
100
AcDbEntity
  8
DETAIL
  6
Continuous
100
AcDbLine
 10
396.5600587206404
 20
-242.2439432231149
 30
0.0
 11
396.5856251901691
 21
-242.2690561507633
 31
0.0
  0
LINE
  5
8D537
330
1E
100
AcDbEntity
  8
DETAIL
  6
Continuous
100
AcDbLine
 10
378.5012420668049
 20
-243.4017068902594
 30
0.0
 11
378.5012442754196
 21
-243.6468298860599
 31
0.0
  0
LINE
  5
8D53F
330
1E
100
AcDbEntity
  8
DETAIL
  6
Continuous
100
AcDbLine
 10
398.5705324202631
 20
-243.8787340886838
 30
0.0
 11
398.5704165845886
 21
-241.0122990416084
 31
0.0
  0
LINE
  5
8D541
330
1E
100
AcDbEntity
  8
DETAIL
  6
Continuous
100
AcDbLine
 10
378.5126255406398
 20
-243.4016956552495
 30
0.0
 11
378.5122586572483
 21
-244.5793963887363
 31
0.0
  0
ARC
  5
8D548
330
1E
100
AcDbEntity
  8
DETAIL
  6
Continuous
100
AcDbCircle
 10
-1086.809189187306
 20
-216.8617496405677
 30
0.0
 40
1485.4879867313
100
AcDbArc
 50
359.0603416330013
 51
359.2499159578757
  0
ARC
  5
8D549
330
1E
100
AcDbEntity
  8
DETAIL
  6
Continuous
100
AcDbCircle
 10
-38.06484928207692
 20
-194.3202416896965
 30
0.0
 40
439.3175734746161
100
AcDbArc
 50
354.0772483333852
 51
354.5155393659969
  0
ARC
  5
8D54C
330
1E
100
AcDbEntity
  8
DETAIL
  6
Continuous
100
AcDbCircle
 10
382.8277062777392
 20
-246.2030893452937
 30
0.0
 40
1.868350477355493
100
AcDbArc
 50
5.261566351644693
 51
77.39081316807487
  0
ARC
  5
8D550
330
1E
100
AcDbEntity
  8
DETAIL
  6
Continuous
100
AcDbCircle
 10
394.9298899907486
 20
-248.75388662739
 30
0.0
 40
5.216073103631143
100
AcDbArc
 50
69.43724916766107
 51
73.63706777776464
  0
ARC
  5
8D552
330
1E
100
AcDbEntity
  8
DETAIL
  6
Continuous
100
AcDbCircle
 10
398.9692501268814
 20
-234.4446519475204
 30
0.0
 40
0.6027741347175001
100
AcDbArc
 50
333.6001173439981
 51
343.1516417530229
  0
LINE
  5
8D555
330
1E
100
AcDbEntity
  8
DETAIL
  6
Continuous
100
AcDbLine
 10
399.3962981889048
 20
-245.8862996870875
 30
0.0
 11
399.3951770396311
 21
-249.6992755937071
 31
0.0
  0
LINE
  5
8D55C
330
1E
100
AcDbEntity
  8
DETAIL
  6
Continuous
100
AcDbLine
 10
399.2922947519576
 20
-245.8862996870875
 30
0.0
 11
399.2504431747633
 21
-244.8008985024862
 31
0.0
  0
SPLINE
  5
8D566
330
1E
100
AcDbEntity
  8
DETAIL
  6
Continuous
100
AcDbSpline
210
0.0
220
0.0
230
1.0
 70
     8
 71
     3
 72
    10
 73
     6
 74
     4
 42
0.0000000001
 43
0.0000000001
 44
0.0000000001
 12
0.0000045595127303
 22
-0.9999999999896054
 32
0.0
 13
-0.6875031450090875
 23
-0.7261813999288426
 33
0.0
 40
0.0
 40
0.0
 40
0.0
 40
0.0
 40
0.1573469367518695
 40
0.3297524170022585
 40
0.4134898400555108
 40
0.4134898400555108
 40
0.4134898400555108
 40
0.4134898400555108
 10
399.570097575975
 20
-214.7522945150331
 30
0.0
 10
399.5700978151168
 20
-214.8047434939498
 30
0.0
 10
399.5487485883154
 20
-214.9154122914954
 30
0.0
 10
399.4778981923655
 20
-215.036025822664
 30
0.0
 10
399.4222762688351
 20
-215.1009074402387
 30
0.0
 10
399.4030863549337
 20
-215.1211769599385
 30
0.0
 11
399.570097575975
 21
-214.7522945150331
 31
0.0
 11
399.5417196058147
 21
-214.9070612728164
 31
0.0
 11
399.457389845898
 21
-215.0574346122512
 31
0.0
 11
399.4030863549337
 21
-215.1211769599385
 31
0.0
  0
SPLINE
  5
8D568
330
1E
100
AcDbEntity
  8
DETAIL
  6
Continuous
100
AcDbSpline
210
0.0
220
0.0
230
1.0
 70
     8
 71
     3
 72
    11
 73
     7
 74
     5
 42
0.0000000001
 43
0.0000000001
 44
0.0000000001
 12
0.5781314635504622
 22
0.8159436321542075
 32
0.0
 13
0.0
 23
1.0
 33
0.0
 40
0.0
 40
0.0
 40
0.0
 40
0.0
 40
0.0847937378777406
 40
0.2509895121248749
 40
0.4165611378933968
 40
0.5818005033399001
 40
0.5818005033399001
 40
0.5818005033399001
 40
0.5818005033399001
 10
399.3952209213635
 20
-262.914726642447
 30
0.0
 10
399.4115615639565
 20
-262.8916643389576
 30
0.0
 10
399.4569497795712
 20
-262.8212634465345
 30
0.0
 10
399.516594232356
 20
-262.6950161241701
 30
0.0
 10
399.560283787671
 20
-262.5343785389046
 30
0.0
 10
399.5700974999995
 20
-262.4238569488612
 30
0.0
 10
399.5700974999995
 20
-262.368777160379
 30
0.0
 11
399.3952209213635
 21
-262.914726642447
 31
0.0
 11
399.4411506106985
 21
-262.8434494257444
 31
0.0
 11
399.5120815066616
 21
-262.6931502461875
 31
0.0
 11
399.5554867287133
 21
-262.5333693025231
 31
0.0
 11
399.5700974999995
 21
-262.368777160379
 31
0.0
  0
SPLINE
  5
8D56A
330
1E
100
AcDbEntity
  8
DETAIL
  6
Continuous
100
AcDbSpline
210
0.0
220
0.0
230
1.0
 70
     8
 71
     3
 72
     9
 73
     5
 74
     3
 42
0.0000000001
 43
0.0000000001
 44
0.0000000001
 12
0.7138714206295757
 22
0.700276798707705
 32
0.0
 13
0.4436786595402986
 23
0.8961859444716393
 33
0.0
 40
0.0
 40
0.0
 40
0.0
 40
0.0
 40
0.0998140536257098
 40
0.237728875427775
 40
0.237728875427775
 40
0.237728875427775
 40
0.237728875427775
 10
399.3687169059735
 20
-234.903479336127
 30
0.0
 10
399.3924683727271
 20
-234.8801801808139
 30
0.0
 10
399.4456608197195
 20
-234.8211796969576
 30
0.0
 10
399.4887659358724
 20
-234.7538645351054
 30
0.0
 10
399.5091625569616
 20
-234.7126654268277
 30
0.0
 11
399.3687169059735
 21
-234.903479336127
 31
0.0
 11
399.4353574127667
 21
-234.8291699278697
 31
0.0
 11
399.5091625569616
 21
-234.7126654268277
 31
0.0
  0
SPLINE
  5
8D56B
330
1E
100
AcDbEntity
  8
DETAIL
  6
Continuous
100
AcDbSpline
210
0.0
220
0.0
230
1.0
 70
     8
 71
     3
 72
     9
 73
     5
 74
     3
 42
0.0000000001
 43
0.0000000001
 44
0.0000000001
 12
0.2887258364466813
 22
0.9574118191082479
 32
0.0
 13
0.0032891817413492
 23
0.9999945906271056
 33
0.0
 40
0.0
 40
0.0
 40
0.0
 40
0.0
 40
0.0320134144334906
 40
0.1610925261176174
 40
0.1610925261176174
 40
0.1610925261176174
 40
0.1610925261176174
 10
399.5461503080364
 20
-234.619359810319
 30
0.0
 10
399.549231341323
 20
-234.6091431365362
 30
0.0
 10
399.5633088760652
 20
-234.5573270460314
 30
0.0
 10
399.5699530207411
 20
-234.5033518710275
 30
0.0
 10
399.5700945422936
 20
-234.4603257332118
 30
0.0
 11
399.5461503080364
 21
-234.619359810319
 31
0.0
 11
399.5545329481206
 21
-234.5884633696032
 31
0.0
 11
399.5700945422936
 21
-234.4603257332118
 31
0.0
  0
LINE
  5
8D571
330
1E
100
AcDbEntity
  8
DETAIL
  6
Continuous
100
AcDbLine
 10
399.2415931173004
 20
-236.3083630471619
 30
0.0
 11
399.3792961612594
 21
-234.568841262203
 31
0.0
  0
SPLINE
  5
8D57C
330
1E
100
AcDbEntity
  8
DETAIL
  6
Continuous
100
AcDbSpline
210
0.0
220
0.0
230
1.0
 70
     8
 71
     3
 72
     9
 73
     5
 74
     3
 42
0.0000000001
 43
0.0000000001
 44
0.0000000001
 12
-0.8421964752242889
 22
-0.539170749503146
 32
0.0
 13
-0.9664175141578674
 23
-0.2569770190677141
 33
0.0
 40
0.0
 40
0.0
 40
0.0
 40
0.0
 40
0.0914676904935821
 40
0.1810090488365469
 40
0.1810090488365469
 40
0.1810090488365469
 40
0.1810090488365469
 10
396.5642741528458
 20
-243.6757914717954
 30
0.0
 10
396.538596230669
 20
-243.6922303728751
 30
0.0
 10
396.485359772984
 20
-243.7211707599856
 30
0.0
 10
396.4282108750359
 20
-243.7414130511823
 30
0.0
 10
396.3993660960545
 20
-243.7490830749657
 30
0.0
 11
396.5642741528458
 21
-243.6757914717954
 31
0.0
 11
396.4837941813416
 21
-243.7192576953593
 31
0.0
 11
396.3993660960545
 21
-243.7490830749657
 31
0.0
  0
SPLINE
  5
8D580
330
1E
100
AcDbEntity
  8
DETAIL
  6
Continuous
100
AcDbSpline
210
0.0
220
0.0
230
1.0
 70
     8
 71
     3
 72
     9
 73
     5
 74
     3
 42
0.0000000001
 43
0.0000000001
 44
0.0000000001
 12
-0.1854365826386416
 22
-0.9826562337965921
 32
0.0
 13
-0.4307567112487524
 23
-0.9024680912443159
 33
0.0
 40
0.0
 40
0.0
 40
0.0
 40
0.0
 40
3.261367544643952
 40
6.289697115165623
 40
6.289697115165623
 40
6.289697115165623
 40
6.289697115165623
 10
398.551481337879
 20
-236.3083650611724
 30
0.0
 10
398.3498890538099
 20
-237.3766327773212
 30
0.0
 10
397.8142000634322
 20
-239.4117065175288
 30
0.0
 10
397.0204392876522
 20
-241.3581003025222
 30
0.0
 10
396.5856148588605
 20
-242.269090571578
 30
0.0
 11
398.551481337879
 21
-236.3083650611724
 31
0.0
 11
397.7249649963519
 21
-239.463264266923
 31
0.0
 11
396.5856148588605
 21
-242.269090571578
 31
0.0
  0
LINE
  5
8D5B4
330
1E
100
AcDbEntity
  8
DETAIL
  6
Continuous
100
AcDbLine
 10
377.6922872345958
 20
-247.091990664795
 30
0.0
 11
377.461168839161
 21
-247.0846846480208
 31
0.0
  0
LINE
  5
8D5B5
330
1E
100
AcDbEntity
  8
DETAIL
  6
Continuous
100
AcDbLine
 10
377.461168839161
 20
-247.0846846480208
 30
0.0
 11
377.3773125013335
 21
-247.0841294871734
 31
0.0
  0
LINE
  5
8D5C7
330
1E
100
AcDbEntity
  8
DETAIL
  6
Continuous
100
AcDbLine
 10
379.3640080180416
 20
-286.6894218184952
 30
0.0
 11
379.3820143320895
 21
-286.689086143625
 31
0.0
  0
LINE
  5
8D5C8
330
1E
100
AcDbEntity
  8
DETAIL
  6
Continuous
100
AcDbLine
 10
379.3454492249447
 20
-286.689643215851
 30
0.0
 11
379.3640080180416
 21
-286.6894218184952
 31
0.0
  0
LINE
  5
8D5C9
330
1E
100
AcDbEntity
  8
DETAIL
  6
Continuous
100
AcDbLine
 10
379.3141482237447
 20
-286.6898455020828
 30
0.0
 11
379.3454492249447
 21
-286.689643215851
 31
0.0
  0
LINE
  5
8D5CA
330
1E
100
AcDbEntity
  8
DETAIL
  6
Continuous
100
AcDbLine
 10
379.3141482237447
 20
-286.6898455020828
 30
0.0
 11
379.2650266467812
 21
-286.6899326817438
 31
0.0
  0
LINE
  5
8D5CB
330
1E
100
AcDbEntity
  8
DETAIL
  6
Continuous
100
AcDbLine
 10
399.3951770396311
 20
-272.415372857924
 30
0.0
 11
399.5700974999995
 21
-272.415372857924
 31
0.0
  0
LINE
  5
8D5DD
330
1E
100
AcDbEntity
  8
DETAIL
  6
Continuous
100
AcDbLine
 10
380.3763374999989
 20
-281.1968398199896
 30
0.0
 11
380.3763047586448
 21
-281.2004668261615
 31
0.0
  0
ARC
  5
8D5E5
330
1E
100
AcDbEntity
  8
DETAIL
  6
Continuous
100
AcDbCircle
 10
121.179838268202
 20
-285.2505904341226
 30
0.0
 40
259.1948379299977
100
AcDbArc
 50
359.8992884083383
 51
0.2376823349819541
  0
ARC
  5
8D5E8
330
1E
100
AcDbEntity
  8
DETAIL
  6
Continuous
100
AcDbCircle
 10
379.3748220276816
 20
-285.68878657201
 30
0.0
 40
0.9995804867267999
100
AcDbArc
 50
270.000113353798
 51
358.986374570921
  0
ARC
  5
8D5EA
330
1E
100
AcDbEntity
  8
DETAIL
  6
Continuous
100
AcDbCircle
 10
379.4264138439383
 20
-284.1371301291077
 30
0.0
 40
0.9468045029659645
100
AcDbArc
 50
357.6855682367263
 51
82.03421927563738
  0
ARC
  5
8D5EB
330
1E
100
AcDbEntity
  8
DETAIL
  6
Continuous
100
AcDbCircle
 10
398.5754324805597
 20
-267.9300730995919
 30
0.0
 40
0.9946692473985001
100
AcDbArc
 50
325.5055413046843
 51
359.9918124242005
  0
SPLINE
  5
8D5ED
330
1E
100
AcDbEntity
  8
DETAIL
  6
Continuous
100
AcDbSpline
210
0.0
220
0.0
230
1.0
 70
     8
 71
     3
 72
     9
 73
     5
 74
     3
 42
0.0000000001
 43
0.0000000001
 44
0.0000000001
 12
-0.0138378880864157
 22
-0.9999042518427991
 32
0.0
 13
-0.984184340732092
 23
0.1771473495645295
 33
0.0
 40
0.0
 40
0.0
 40
0.0
 40
0.0
 40
0.0974513978020042
 40
0.1079329347092616
 40
0.1079329347092616
 40
0.1079329347092616
 40
0.1079329347092616
 10
379.3747621977995
 20
-286.6883885944034
 30
0.0
 10
379.3743126906206
 20
-286.7208692834068
 30
0.0
 10
379.3039040739925
 20
-286.6949297352723
 30
0.0
 10
379.27048299629
 20
-286.6884941481335
 30
0.0
 10
379.2670444081263
 20
-286.6878752226393
 30
0.0
 11
379.3747621977995
 21
-286.6883885944034
 31
0.0
 11
379.2773229598492
 21
-286.6899280232674
 31
0.0
 11
379.2670444081263
 21
-286.6878752226393
 31
0.0
  0
LINE
  5
8D5F8
330
1E
100
AcDbEntity
  8
DETAIL
  6
Continuous
100
AcDbLine
 10
377.3773125000002
 20
-283.1994405658124
 30
0.0
 11
379.5576235658677
 21
-283.1994405658124
 31
0.0
  0
LINE
  5
8D635
330
1E
100
AcDbEntity
  8
DETAIL
  6
Continuous
100
AcDbLine
 10
383.7610513343756
 20
-289.8592977045709
 30
0.0
 11
383.3753625000003
 21
-289.8660155685602
 31
0.0
  0
LINE
  5
8D636
330
1E
100
AcDbEntity
  8
DETAIL
  6
Continuous
100
AcDbLine
 10
383.7855303027922
 20
-289.790457246323
 30
0.0
 11
383.3753625000003
 21
-289.797601481031
 31
0.0
  0
LINE
  5
8D637
330
1E
100
AcDbEntity
  8
DETAIL
  6
Continuous
100
AcDbLine
 10
383.2182525200091
 20
-290.6345649181439
 30
0.0
 11
383.5915395822735
 21
-290.3360035368086
 31
0.0
  0
LINE
  5
8D638
330
1E
100
AcDbEntity
  8
DETAIL
  6
Continuous
100
AcDbLine
 10
383.3753625000003
 20
-289.8660155685602
 30
0.0
 11
383.3753625000003
 21
-290.5089056680117
 31
0.0
  0
LINE
  5
8D639
330
1E
100
AcDbEntity
  8
DETAIL
  6
Continuous
100
AcDbLine
 10
384.3332945908555
 20
-288.3216375079355
 30
0.0
 11
384.3332945908555
 21
-291.5640113365179
 31
0.0
  0
LINE
  5
8D63A
330
1E
100
AcDbEntity
  8
DETAIL
  6
Continuous
100
AcDbLine
 10
383.5915395822735
 20
-290.3360035368086
 30
0.0
 11
384.2921086686324
 21
-288.3658429764827
 31
0.0
  0
ARC
  5
8D63B
330
1E
100
AcDbEntity
  8
DETAIL
  6
Continuous
100
AcDbCircle
 10
382.3751002335893
 20
-266.5371558515407
 30
0.0
 40
28.91680237456469
100
AcDbArc
 50
270.0011636074069
 51
298.7456863313937
  0
ARC
  5
8D63C
330
1E
100
AcDbEntity
  8
DETAIL
  6
Continuous
100
AcDbCircle
 10
382.1443093770026
 20
-264.339899526678
 30
0.0
 40
28.4077842992217
100
AcDbArc
 50
276.678487441807
 51
299.9084279438931
  0
LINE
  5
8D642
330
1E
100
AcDbEntity
  8
DETAIL
  6
Continuous
100
AcDbLine
 10
383.3753625000003
 20
-289.797601481031
 30
0.0
 11
383.3753625000003
 21
-289.8660155685602
 31
0.0
  0
LINE
  5
8D647
330
1E
100
AcDbEntity
  8
DETAIL
  6
Continuous
100
AcDbLine
 10
383.2303525235634
 20
-292.8574314569905
 30
0.0
 11
383.2182525200091
 21
-290.6345649181439
 31
0.0
  0
LINE
  5
8D64B
330
1E
100
AcDbEntity
  8
DETAIL
  6
Continuous
100
AcDbLine
 10
382.262157623872
 20
-294.1512522271941
 30
0.0
 11
382.3756875000004
 21
-295.4539462500024
 31
0.0
  0
ARC
  5
8D64D
330
1E
100
AcDbEntity
  8
DETAIL
  6
Continuous
100
AcDbCircle
 10
387.0784547955425
 20
-283.5159657916776
 30
0.0
 40
12.44317307765686
100
AcDbArc
 50
317.700247269132
 51
348.218448616387
  0
ARC
  5
8D64E
330
1E
100
AcDbEntity
  8
DETAIL
  6
Continuous
100
AcDbCircle
 10
387.6775940884317
 20
-280.7832669313888
 30
0.0
 40
11.89244641309675
100
AcDbArc
 50
316.5335634429453
 51
0.3111439912303484
  0
ARC
  5
8D656
330
1E
100
AcDbEntity
  8
DETAIL
  6
Continuous
100
AcDbCircle
 10
-566.4975312999054
 20
-247.8703449507402
 30
0.0
 40
895.340619324288
100
AcDbArc
 50
0.73668642819014
 51
1.440958763225738
  0
LINE
  5
8D65C
330
1E
100
AcDbEntity
  8
DETAIL
  6
Continuous
100
AcDbLine
 10
335.3909624999992
 20
-283.1970825617481
 30
0.0
 11
335.3909624999992
 21
-283.1003489517316
 31
0.0
  0
LINE
  5
8D65D
330
1E
100
AcDbEntity
  8
DETAIL
  6
Continuous
100
AcDbLine
 10
335.89952336665
 20
-283.1970825617481
 30
0.0
 11
335.89952336665
 21
-283.1003489517316
 31
0.0
  0
LINE
  5
8D65E
330
1E
100
AcDbEntity
  8
DETAIL
  6
Continuous
100
AcDbLine
 10
336.099458366651
 20
-283.1003489517316
 30
0.0
 11
336.099458366651
 21
-283.1970825617481
 31
0.0
  0
LINE
  5
8D65F
330
1E
100
AcDbEntity
  8
DETAIL
  6
Continuous
100
AcDbLine
 10
336.5905724999979
 20
-283.1003489517316
 30
0.0
 11
336.5905724999979
 21
-283.1970825617481
 31
0.0
  0
LINE
  5
8D660
330
1E
100
AcDbEntity
  8
DETAIL
  6
Continuous
100
AcDbLine
 10
349.1472335904177
 20
-283.1003489517316
 30
0.0
 11
349.1472360362904
 21
-283.1970825617481
 31
0.0
  0
ARC
  5
8D661
330
1E
100
AcDbEntity
  8
DETAIL
  6
Continuous
100
AcDbCircle
 10
345.0268884606052
 20
-274.7131840331703
 30
0.0
 40
9.036368412156001
100
AcDbArc
 50
248.1910160321169
 51
249.99431905657
  0
ARC
  5
8D662
330
1E
100
AcDbEntity
  8
DETAIL
  6
Continuous
100
AcDbCircle
 10
354.2544274354609
 20
-278.0980935532697
 30
0.0
 40
8.7789623523228
100
AcDbArc
 50
214.7400881909105
 51
215.5089147178255
  0
ARC
  5
8D663
330
1E
100
AcDbEntity
  8
DETAIL
  6
Continuous
100
AcDbCircle
 10
353.3851495412909
 20
-277.3212029861206
 30
0.0
 40
7.998399513719101
100
AcDbArc
 50
226.2859617767638
 51
227.2808579417251
  0
ARC
  5
8D664
330
1E
100
AcDbEntity
  8
DETAIL
  6
Continuous
100
AcDbCircle
 10
353.3424859674587
 20
-277.2667999955065
 30
0.0
 40
7.9725694872069
100
AcDbArc
 50
227.039861187136
 51
228.0789979434327
  0
ARC
  5
8D665
330
1E
100
AcDbEntity
  8
DETAIL
  6
Continuous
100
AcDbCircle
 10
341.0544371256796
 20
-281.4178356383326
 30
0.0
 40
2.205095678915399
100
AcDbArc
 50
229.7794670194896
 51
233.8562060361314
  0
ARC
  5
8D666
330
1E
100
AcDbEntity
  8
DETAIL
  6
Continuous
100
AcDbCircle
 10
341.043102392
 20
-281.4892624144113
 30
0.0
 40
1.8889964725563
100
AcDbArc
 50
238.5865088649379
 51
244.7557735247747
  0
ARC
  5
8D667
330
1E
100
AcDbEntity
  8
DETAIL
  6
Continuous
100
AcDbCircle
 10
341.0377065688794
 20
-281.5112804455557
 30
0.0
 40
1.8841301892792
100
AcDbArc
 50
237.5200984074244
 51
243.5485671521606
  0
SPLINE
  5
8D668
330
1E
100
AcDbEntity
  8
DETAIL
  6
Continuous
100
AcDbSpline
210
0.0
220
0.0
230
1.0
 70
     8
 71
     3
 72
    10
 73
     6
 74
     4
 42
0.0000000001
 43
0.0000000001
 44
0.0000000001
 12
-0.8970815884901675
 22
0.4418649381790297
 32
0.0
 13
-0.9844823495101685
 23
0.1754836274497952
 33
0.0
 40
0.0
 40
0.0
 40
0.0
 40
0.0
 40
0.0694571581977243
 40
0.2674161902747772
 40
0.3041389664954814
 40
0.3041389664954814
 40
0.3041389664954814
 40
0.3041389664954814
 10
346.9058977160598
 20
-283.1961800818162
 30
0.0
 10
346.8851281367904
 20
-283.1859498541785
 30
0.0
 10
346.8041198147013
 20
-283.1487515601335
 30
0.0
 10
346.7070997894843
 20
-283.1167838099902
 30
0.0
 10
346.6303649315043
 20
-283.1015372750849
 30
0.0
 10
346.6183139564996
 20
-283.0993891930911
 30
0.0
 11
346.9058977160598
 21
-283.1961800818162
 31
0.0
 11
346.8427569608097
 21
-283.167239766487
 31
0.0
 11
346.6543338928818
 21
-283.106539471154
 31
0.0
 11
346.6183139564996
 21
-283.0993891930911
 31
0.0
  0
LINE
  5
8D669
330
1E
100
AcDbEntity
  8
DETAIL
  6
Continuous
100
AcDbLine
 10
344.2405438057016
 20
-283.1967833736807
 30
0.0
 11
344.0744388167072
 21
-283.1000903051435
 31
0.0
  0
LINE
  5
8D66A
330
1E
100
AcDbEntity
  8
DETAIL
  6
Continuous
100
AcDbLine
 10
340.2420081189484
 20
-283.1970825617481
 30
0.0
 11
340.1683539976525
 21
-283.1628988457305
 31
0.0
  0
LINE
  5
8D66B
330
1E
100
AcDbEntity
  8
DETAIL
  6
Continuous
100
AcDbLine
 10
340.1683539976525
 20
-283.1628988457305
 30
0.0
 11
340.0611832088165
 21
-283.1003489517316
 31
0.0
  0
LINE
  5
8D66C
330
1E
100
AcDbEntity
  8
DETAIL
  6
Continuous
100
AcDbLine
 10
342.081962695302
 20
-283.1970825617481
 30
0.0
 11
341.9784083014206
 21
-283.161207371646
 31
0.0
  0
LINE
  5
8D66D
330
1E
100
AcDbEntity
  8
DETAIL
  6
Continuous
100
AcDbLine
 10
341.9784083014206
 20
-283.161207371646
 30
0.0
 11
341.8445267817283
 21
-283.1003489517316
 31
0.0
  0
ARC
  5
8D66E
330
1E
100
AcDbEntity
  8
DETAIL
  6
Continuous
100
AcDbCircle
 10
374.5971256638053
 20
-289.2016062611119
 30
0.0
 40
18.40377316519079
100
AcDbArc
 50
160.6385427045859
 51
160.9576334796879
  0
ARC
  5
8D66F
330
1E
100
AcDbEntity
  8
DETAIL
  6
Continuous
100
AcDbCircle
 10
400.5330059116918
 20
-286.1467756744868
 30
0.0
 40
42.1090508945781
100
AcDbArc
 50
175.8512355863868
 51
175.9831949291789
  0
LINE
  5
8D670
330
1E
100
AcDbEntity
  8
DETAIL
  6
Continuous
100
AcDbLine
 10
355.4808610162958
 20
-283.1970792188412
 30
0.0
 11
355.3250278158852
 21
-283.1003426084553
 31
0.0
  0
LINE
  5
8D68C
330
1E
100
AcDbEntity
  8
DETAIL
  6
Continuous
100
AcDbLine
 10
357.6254071068938
 20
-290.970913513307
 30
0.0
 11
373.221604506853
 21
-290.970913513307
 31
0.0
  0
LINE
  5
8D68D
330
1E
100
AcDbEntity
  8
DETAIL
  6
Continuous
100
AcDbLine
 10
357.0398056092544
 20
-290.7070206383778
 30
0.0
 11
383.2182525200091
 21
-290.6345649181439
 31
0.0
  0
LINE
  5
8D68F
330
1E
100
AcDbEntity
  8
DETAIL
  6
Continuous
100
AcDbLine
 10
358.4968807618761
 20
-289.4326862863499
 30
0.0
 11
358.4966137740071
 21
-289.4301502828229
 31
0.0
  0
LINE
  5
8D690
330
1E
100
AcDbEntity
  8
DETAIL
  6
Continuous
100
AcDbLine
 10
356.9599798437288
 20
-288.9777128194773
 30
0.0
 11
356.9597268473125
 21
-288.9759364663095
 31
0.0
  0
LINE
  5
8D691
330
1E
100
AcDbEntity
  8
DETAIL
  6
Continuous
100
AcDbLine
 10
356.9599798437288
 20
-290.0631847903932
 30
0.0
 11
356.9599798437288
 21
-288.9777128194773
 31
0.0
  0
LINE
  5
8D692
330
1E
100
AcDbEntity
  8
DETAIL
  6
Continuous
100
AcDbLine
 10
358.4968807618761
 20
-290.5269651314392
 30
0.0
 11
358.4968807618761
 21
-289.4326862863499
 31
0.0
  0
LINE
  5
8D693
330
1E
100
AcDbEntity
  8
DETAIL
  6
Continuous
100
AcDbLine
 10
358.4966137740071
 20
-289.3721230091496
 30
0.0
 11
358.4968807618761
 21
-289.3642721988344
 31
0.0
  0
LINE
  5
8D694
330
1E
100
AcDbEntity
  8
DETAIL
  6
Continuous
100
AcDbLine
 10
356.9597268473125
 20
-288.9179091926362
 30
0.0
 11
356.9599798437288
 21
-288.9124147762295
 31
0.0
  0
ARC
  5
8D695
330
1E
100
AcDbEntity
  8
DETAIL
  6
Continuous
100
AcDbCircle
 10
358.5524976671708
 20
-286.3557174330107
 30
0.0
 40
3.0169275171237
100
AcDbArc
 50
238.133102558928
 51
268.9386224984045
  0
ARC
  5
8D696
330
1E
100
AcDbEntity
  8
DETAIL
  6
Continuous
100
AcDbCircle
 10
358.548675772357
 20
-286.3483040444752
 30
0.0
 40
3.016419784856999
100
AcDbArc
 50
238.2180820930948
 51
269.0161223031992
  0
ARC
  5
8D697
330
1E
100
AcDbEntity
  8
DETAIL
  6
Continuous
100
AcDbCircle
 10
358.5491765388878
 20
-286.4327072885034
 30
0.0
 40
3.0004354281285
100
AcDbArc
 50
238.0178016500793
 51
269.0013183795922
  0
ARC
  5
8D698
330
1E
100
AcDbEntity
  8
DETAIL
  6
Continuous
100
AcDbCircle
 10
358.5474618816661
 20
-286.4308434517852
 30
0.0
 40
2.9997391398291
100
AcDbArc
 50
238.0423672216337
 51
269.0287412834993
  0
ARC
  5
8D699
330
1E
100
AcDbEntity
  8
DETAIL
  6
Continuous
100
AcDbCircle
 10
358.5513666175488
 20
-287.5685683536476
 30
0.0
 40
2.9589383763882
100
AcDbArc
 50
237.4650384518091
 51
268.9448823324045
  0
ARC
  5
8D69A
330
1E
100
AcDbEntity
  8
DETAIL
  6
Continuous
100
AcDbCircle
 10
357.6257111560457
 20
-290.4619822817412
 30
0.0
 40
0.5089372242948001
100
AcDbArc
 50
239.3912343333634
 51
269.9657699722025
  0
SPLINE
  5
8D69D
330
1E
100
AcDbEntity
  8
DETAIL
  6
Continuous
100
AcDbSpline
210
0.0
220
0.0
230
1.0
 70
     8
 71
     3
 72
     8
 73
     4
 74
     2
 42
0.0000000001
 43
0.0000000001
 44
0.0000000001
 12
-0.1847663038236711
 22
0.9827824850755833
 32
0.0
 13
0.0678582940485232
 23
0.9976949693813356
 33
0.0
 40
0.0
 40
0.0
 40
0.0
 40
0.0
 40
0.0580272736697225
 40
0.0580272736697225
 40
0.0580272736697225
 40
0.0580272736697225
 10
358.4966137740043
 20
-289.4301502828229
 30
0.0
 10
358.493039945712
 20
-289.4111408867498
 30
0.0
 10
358.4953012300711
 20
-289.3914208488289
 30
0.0
 10
358.4966137740043
 20
-289.3721230091532
 30
0.0
 11
358.4966137740043
 21
-289.4301502828229
 31
0.0
 11
358.4966137740043
 21
-289.3721230091532
 31
0.0
  0
SPLINE
  5
8D69E
330
1E
100
AcDbEntity
  8
DETAIL
  6
Continuous
100
AcDbSpline
210
0.0
220
0.0
230
1.0
 70
     8
 71
     3
 72
     8
 73
     4
 74
     2
 42
0.0000000001
 43
0.0000000001
 44
0.0000000001
 12
-0.29784593464296
 22
0.9546139529761031
 32
0.0
 13
0.1183363471849746
 23
0.9929735691018757
 33
0.0
 40
0.0
 40
0.0
 40
0.0
 40
0.0
 40
0.0580272736697225
 40
0.0580272736697225
 40
0.0580272736697225
 40
0.0580272736697225
 10
356.9597268473112
 20
-288.9759364663104
 30
0.0
 10
356.9539657847909
 20
-288.9574719179444
 30
0.0
 10
356.9574379354435
 20
-288.9371157089878
 30
0.0
 10
356.9597268473112
 20
-288.9179091926407
 30
0.0
 11
356.9597268473112
 21
-288.9759364663104
 31
0.0
 11
356.9597268473112
 21
-288.9179091926407
 31
0.0
  0
LINE
  5
8D6BB
330
1E
100
AcDbEntity
  8
DETAIL
  6
Continuous
100
AcDbLine
 10
291.2053925895051
 20
-294.5682246324486
 30
0.0
 11
306.5797861184401
 21
-294.5682246324486
 31
0.0
  0
LINE
  5
8D6BF
330
1E
100
AcDbEntity
  8
DETAIL
  6
Continuous
100
AcDbLine
 10
281.0586262500009
 20
-286.6899326830771
 30
0.0
 11
281.0586262500009
 21
-295.4539462500024
 31
0.0
  0
LINE
  5
8D6C0
330
1E
100
AcDbEntity
  8
DETAIL
  6
Continuous
100
AcDbLine
 10
281.2585612499992
 20
-295.4539462500024
 30
0.0
 11
281.2585612499992
 21
-286.6899326830771
 31
0.0
  0
ARC
  5
8D6C3
330
1E
100
AcDbEntity
  8
DETAIL
  6
Continuous
100
AcDbCircle
 10
-800.8205627575994
 20
-2249.214424636152
 30
0.0
 40
2275.168743485541
100
AcDbArc
 50
59.39906319500709
 51
59.60798391990174
  0
LINE
  5
8D6C4
330
1E
100
AcDbEntity
  8
DETAIL
  6
Continuous
100
AcDbLine
 10
356.9597268473125
 20
-288.9759364663095
 30
0.0
 11
353.293536377249
 21
-286.6899326830771
 31
0.0
  0
LINE
  5
8D6C5
330
1E
100
AcDbEntity
  8
DETAIL
  6
Continuous
100
AcDbLine
 10
356.9597268473125
 20
-288.9179091926362
 30
0.0
 11
353.3865979197494
 21
-286.6899326830771
 31
0.0
  0
LINE
  5
8D6C6
330
1E
100
AcDbEntity
  8
DETAIL
  6
Continuous
100
AcDbLine
 10
351.660930657275
 20
-286.6899326830771
 30
0.0
 11
356.9599798437288
 21
-290.0631847903932
 31
0.0
  0
LINE
  5
8D6C7
330
1E
100
AcDbEntity
  8
DETAIL
  6
Continuous
100
AcDbLine
 10
356.9599798437288
 20
-288.9124147762295
 30
0.0
 11
356.9599798437288
 21
-286.6899326830771
 31
0.0
  0
LINE
  5
8D6C8
330
1E
100
AcDbEntity
  8
DETAIL
  6
Continuous
100
AcDbLine
 10
358.4968807618761
 20
-289.3642721988344
 30
0.0
 11
358.4968807618761
 21
-286.6899326830771
 31
0.0
  0
LINE
  5
8D6C9
330
1E
100
AcDbEntity
  8
DETAIL
  6
Continuous
100
AcDbLine
 10
382.3756875000004
 20
-295.4539462500024
 30
0.0
 11
281.2585612499992
 21
-295.4539462500024
 31
0.0
  0
LINE
  5
8D6CA
330
1E
100
AcDbEntity
  8
DETAIL
  6
Continuous
100
AcDbLine
 10
379.5573951654546
 20
-283.1970825617481
 30
0.0
 11
311.9433402965309
 21
-283.1970825617481
 31
0.0
  0
LINE
  5
8D734
330
1E
100
AcDbEntity
  8
DETAIL
  6
Continuous
100
AcDbLine
 10
147.370245833727
 20
-14.581221927564
 30
0.0
 11
85.39039583372597
 21
-14.581221927564
 31
0.0
  0
LINE
  5
8D735
330
1E
100
AcDbEntity
  8
DETAIL
  6
Continuous
100
AcDbLine
 10
149.1013116744256
 20
-10.80246785523195
 30
0.0
 11
87.12146167442506
 21
-10.80246785523195
 31
0.0
  0
LINE
  5
8D736
330
1E
100
AcDbEntity
  8
DETAIL
  6
Continuous
100
AcDbLine
 10
86.34554125587829
 20
-7.117861781521241
 30
0.0
 11
148.325391255877
 21
-7.117861781521241
 31
0.0
  0
LINE
  5
8D737
330
1E
100
AcDbEntity
  8
DETAIL
  6
Continuous
100
AcDbLine
 10
86.4389345225345
 20
-1.961743873961495
 30
0.0
 11
148.4187845225328
 21
-1.961743873961495
 31
0.0
  0
LINE
  5
8D738
330
1E
100
AcDbEntity
  8
DETAIL
  6
Continuous
100
AcDbLine
 10
209.4000795837264
 20
-14.581221927564
 30
0.0
 11
147.3702458337273
 21
-14.581221927564
 31
0.0
  0
LINE
  5
8D739
330
1E
100
AcDbEntity
  8
DETAIL
  6
Continuous
100
AcDbLine
 10
209.4000795837268
 20
-10.80246785523195
 30
0.0
 11
149.1013116744256
 21
-10.80246785523195
 31
0.0
  0
LINE
  5
8D73A
330
1E
100
AcDbEntity
  8
DETAIL
  6
Continuous
100
AcDbLine
 10
148.325391255877
 20
-7.117861781521241
 30
0.0
 11
209.4000795837268
 21
-7.117861781521241
 31
0.0
  0
LINE
  5
8D73B
330
1E
100
AcDbEntity
  8
DETAIL
  6
Continuous
100
AcDbLine
 10
148.4187845225328
 20
-1.961743873961495
 30
0.0
 11
209.4000795837268
 21
-1.961743961991513
 31
0.0
  0
LINE
  5
8D78A
330
1E
100
AcDbEntity
  8
DETAIL
  6
Continuous
100
AcDbLine
 10
25.59984834042507
 20
-14.73004864048653
 30
0.0
 11
-29.8846389360865
 21
-14.581221927564
 31
0.0
  0
LINE
  5
8D78B
330
1E
100
AcDbEntity
  8
DETAIL
  6
Continuous
100
AcDbLine
 10
27.26585305286653
 20
-10.80246785523195
 30
0.0
 11
-28.15357309538785
 21
-10.80246785523195
 31
0.0
  0
LINE
  5
8D78C
330
1E
100
AcDbEntity
  8
DETAIL
  6
Continuous
100
AcDbLine
 10
-29.36679466219129
 20
-7.117861781521241
 30
0.0
 11
26.05263148606309
 21
-7.117861781521241
 31
0.0
  0
LINE
  5
8D78D
330
1E
100
AcDbEntity
  8
DETAIL
  6
Continuous
100
AcDbLine
 10
-29.27340878646964
 20
-1.961748892327705
 30
0.0
 11
26.14601736178792
 21
-1.961748892327705
 31
0.0
  0
LINE
  5
8D7D0
330
1E
100
AcDbEntity
  8
DETAIL
  6
Continuous
100
AcDbLine
 10
-82.30508541627068
 20
-14.581221927564
 30
0.0
 11
-134.2881854162701
 21
-14.581221927564
 31
0.0
  0
LINE
  5
8D7D1
330
1E
100
AcDbEntity
  8
DETAIL
  6
Continuous
100
AcDbLine
 10
-80.57401957557477
 20
-10.80246785523195
 30
0.0
 11
-132.5571195755728
 21
-10.80246785523195
 31
0.0
  0
LINE
  5
8D7D2
330
1E
100
AcDbEntity
  8
DETAIL
  6
Continuous
100
AcDbLine
 10
-133.3330399941219
 20
-7.117861781521241
 30
0.0
 11
-81.34993999412063
 21
-7.117861781521241
 31
0.0
  0
LINE
  5
8D7D3
330
1E
100
AcDbEntity
  8
DETAIL
  6
Continuous
100
AcDbLine
 10
-133.2396467274688
 20
-1.961743873961495
 30
0.0
 11
-81.25654672746804
 21
-1.961743873961495
 31
0.0
  0
LINE
  5
8D7D4
330
1E
100
AcDbEntity
  8
DETAIL
  6
Continuous
100
AcDbLine
 10
-29.8846389360865
 20
-14.581221927564
 30
0.0
 11
-82.30508541627036
 21
-14.58122192756036
 31
0.0
  0
LINE
  5
8D7D5
330
1E
100
AcDbEntity
  8
DETAIL
  6
Continuous
100
AcDbLine
 10
-28.15357309538785
 20
-10.80246785523195
 30
0.0
 11
-80.57401957557477
 21
-10.80246785523195
 31
0.0
  0
LINE
  5
8D7D6
330
1E
100
AcDbEntity
  8
DETAIL
  6
Continuous
100
AcDbLine
 10
-81.34993999412063
 20
-7.117861781521241
 30
0.0
 11
-29.36679466219129
 21
-7.117861781521241
 31
0.0
  0
LINE
  5
8D7D7
330
1E
100
AcDbEntity
  8
DETAIL
  6
Continuous
100
AcDbLine
 10
-81.25654672746804
 20
-1.961743873961495
 30
0.0
 11
-29.27340878646964
 21
-1.961748892327705
 31
0.0
  0
LINE
  5
8D7D8
330
1E
100
AcDbEntity
  8
DETAIL
  6
Continuous
100
AcDbLine
 10
85.39039583372597
 20
-14.581221927564
 30
0.0
 11
25.59984834042507
 21
-14.73004864048653
 31
0.0
  0
LINE
  5
8D7D9
330
1E
100
AcDbEntity
  8
DETAIL
  6
Continuous
100
AcDbLine
 10
87.12146167442506
 20
-10.80246785523195
 30
0.0
 11
27.26585305286653
 21
-10.80246785523195
 31
0.0
  0
LINE
  5
8D7DA
330
1E
100
AcDbEntity
  8
DETAIL
  6
Continuous
100
AcDbLine
 10
26.05263148606309
 20
-7.117861781521241
 30
0.0
 11
86.34554125587829
 21
-7.117861781521241
 31
0.0
  0
LINE
  5
8D7DB
330
1E
100
AcDbEntity
  8
DETAIL
  6
Continuous
100
AcDbLine
 10
26.14601736178792
 20
-1.961748892327705
 30
0.0
 11
86.4389345225345
 21
-1.961743873961495
 31
0.0
  0
LINE
  5
8D7DC
330
1E
100
AcDbEntity
  8
DETAIL
  6
Continuous
100
AcDbLine
 10
269.5180235639118
 20
-14.581221927564
 30
0.0
 11
209.4000795837268
 21
-14.581221927564
 31
0.0
  0
LINE
  5
8D7DF
330
1E
100
AcDbEntity
  8
DETAIL
  6
Continuous
100
AcDbLine
 10
209.4000795837268
 20
-1.961743961991513
 30
0.0
 11
349.8479489683384
 21
-1.961756530017678
 31
0.0
  0
LINE
  5
8D839
330
1E
100
AcDbEntity
  8
DETAIL
  6
Continuous
100
AcDbLine
 10
348.2067860592323
 20
-14.38180203343381
 30
0.0
 11
379.9868159686682
 21
-14.3747958400206
 31
0.0
  0
LINE
  5
8D941
330
1E
100
AcDbEntity
  8
DETAIL
  6
Continuous
100
AcDbLine
 10
348.3273995234281
 20
-6.702445463201628
 30
0.0
 11
214.5620879149387
 21
-6.702445631669522
 31
0.0
  0
LINE
  5
8D949
330
1E
100
AcDbEntity
  8
DETAIL
  6
Continuous
100
AcDbLine
 10
214.5620879149387
 20
-9.907377988039083
 30
0.0
 11
347.3007991959777
 21
-9.903125866878948
 31
0.0
  0
LINE
  5
8D94D
330
1E
100
AcDbEntity
  8
DETAIL
  6
Continuous
100
AcDbLine
 10
350.1357229367532
 20
-1.064550015695472
 30
0.0
 11
214.5620879149387
 21
-1.048933882743519
 31
0.0
  0
LINE
  5
8D94E
330
1E
100
AcDbEntity
  8
DETAIL
  6
Continuous
100
AcDbLine
 10
348.7513099207749
 20
-1.045803290101503
 30
0.0
 11
276.6334013143368
 21
-1.044530335936542
 31
0.0
  0
LINE
  5
8D94F
330
1E
100
AcDbEntity
  8
DETAIL
  6
Continuous
100
AcDbLine
 10
269.5180235639118
 20
-14.581221927564
 30
0.0
 11
379.646765266591
 21
-14.88469477608584
 31
0.0
  0
LINE
  5
8D950
330
1E
100
AcDbEntity
  8
DETAIL
  6
Continuous
100
AcDbLine
 10
355.2950036918965
 20
-1.328413604571535
 30
0.0
 11
388.6870191587076
 21
-1.329029772831216
 31
0.0
  0
LINE
  5
8D956
330
1E
100
AcDbEntity
  8
DETAIL
  6
Continuous
100
AcDbLine
 10
350.6364723570924
 20
-9.907385381764726
 30
0.0
 11
382.9444983367007
 21
-9.939815250305539
 31
0.0
  0
LINE
  5
8D957
330
1E
100
AcDbEntity
  8
DETAIL
  6
Continuous
100
AcDbLine
 10
272.5433846245764
 20
0.0
 30
0.0
 11
389.5733472600772
 21
0.0
 31
0.0
  0
ARC
  5
8D95B
330
1E
100
AcDbEntity
  8
DETAIL
  6
Continuous
100
AcDbCircle
 10
397.4869578178313
 20
-205.6355357795555
 30
0.0
 40
2.0831418601254
100
AcDbArc
 50
337.4586314934211
 51
0.0054877512759058
  0
SPLINE
  5
8D95C
330
1E
100
AcDbEntity
  8
DETAIL
  6
Continuous
100
AcDbSpline
210
0.0
220
0.0
230
1.0
 70
     8
 71
     3
 72
    11
 73
     7
 74
     5
 42
0.0000000001
 43
0.0000000001
 44
0.0000000001
 12
0.7422585604408861
 22
0.6701135944391994
 32
0.0
 13
0.0000010026557412
 23
0.9999999999994974
 33
0.0
 40
0.0
 40
0.0
 40
0.0
 40
0.0
 40
0.0352668483859296
 40
0.15302037920841
 40
0.2608344404916753
 40
0.3629662815965788
 40
0.3629662815965788
 40
0.3629662815965788
 40
0.3629662815965788
 10
399.4106409575574
 20
-205.9504814156162
 30
0.0
 10
399.4193666642622
 20
-205.9426038174373
 30
0.0
 10
399.4563105457253
 20
-205.9074340990178
 30
0.0
 10
399.5119301224663
 20
-205.8395829946962
 30
0.0
 10
399.5592052789798
 20
-205.7397603725624
 30
0.0
 10
399.5700974658651
 20
-205.669382839925
 30
0.0
 10
399.5700974999995
 20
-205.6353388928901
 30
0.0
 11
399.4106409575574
 21
-205.9504814156162
 31
0.0
 11
399.4361665323808
 21
-205.9261463457578
 31
0.0
 11
399.5098097185614
 21
-205.8342628589371
 31
0.0
 11
399.5549101454958
 21
-205.7363352157472
 31
0.0
 11
399.5700974999995
 21
-205.6353388928901
 31
0.0
  0
ARC
  5
900A8
330
1E
100
AcDbEntity
  8
DETAIL
  6
Continuous
100
AcDbCircle
 10
324.3739957053128
 20
-225.272655612771
 30
0.0
 40
4.186983169825569
100
AcDbArc
 50
358.8680823832306
 51
88.88518066563944
  0
ARC
  5
900A9
330
1E
100
AcDbEntity
  8
DETAIL
  6
Continuous
100
AcDbCircle
 10
324.6152741779701
 20
-235.5499281655901
 30
0.0
 40
4.23181614341119
100
AcDbArc
 50
263.0251958750302
 51
348.9816482392195
  0
ARC
  5
900AA
330
1E
100
AcDbEntity
  8
DETAIL
  6
Continuous
100
AcDbCircle
 10
226.4468898336925
 20
-225.2725590150199
 30
0.0
 40
4.186885822798879
100
AcDbArc
 50
91.11430516651443
 51
181.1332866197055
  0
ARC
  5
900AB
330
1E
100
AcDbEntity
  8
DETAIL
  6
Continuous
100
AcDbCircle
 10
226.2057268350857
 20
-235.5496422174779
 30
0.0
 40
4.232090746360402
100
AcDbArc
 50
191.0215452799502
 51
276.9733125437424
  0
ARC
  5
900CC
330
1E
100
AcDbEntity
  8
DETAIL
  6
Continuous
100
AcDbCircle
 10
-0.0037871963247661
 20
-217.12454660181
 30
0.0
 40
19.29876367788582
100
AcDbArc
 50
180.8925510178561
 51
1.445365912480113
  0
ARC
  5
900CD
330
1E
100
AcDbEntity
  8
DETAIL
  6
Continuous
100
AcDbCircle
 10
-13.09492972566338
 20
-216.5982340794253
 30
0.0
 40
6.260137128432814
100
AcDbArc
 50
143.5180297789986
 51
187.5906970442296
  0
ARC
  5
900CE
330
1E
100
AcDbEntity
  8
DETAIL
  6
Continuous
100
AcDbCircle
 10
13.8480721051102
 20
-216.2564537750192
 30
0.0
 40
5.454109332743297
100
AcDbArc
 50
355.9910824542419
 51
38.29953921491627
  0
ARC
  5
900CF
330
1E
100
AcDbEntity
  8
DETAIL
  6
Continuous
100
AcDbCircle
 10
-0.0000062105748824
 20
-217.4871062621509
 30
0.0
 40
18.12623846883957
100
AcDbArc
 50
178.1280292723685
 51
1.871969538829966
  0
ARC
  5
900D0
330
1E
100
AcDbEntity
  8
DETAIL
  6
Continuous
100
AcDbCircle
 10
0.0010199776036013
 20
-215.9457715644902
 30
0.0
 40
15.45456638716232
100
AcDbArc
 50
185.9477714229742
 51
353.686391179995
  0
ARC
  5
900D1
330
1E
100
AcDbEntity
  8
DETAIL
  6
Continuous
100
AcDbCircle
 10
0.0000136113924441
 20
-215.8344904911018
 30
0.0
 40
12.73584477546757
100
AcDbArc
 50
181.7294493796195
 51
358.27057288508
  0
ARC
  5
900D2
330
1E
100
AcDbEntity
  8
DETAIL
  6
Continuous
100
AcDbCircle
 10
0.0000942783268264
 20
-217.0967593531873
 30
0.0
 40
10.45813682800956
100
AcDbArc
 50
240.1939070622626
 51
299.8051965568801
  0
ARC
  5
900D3
330
1E
100
AcDbEntity
  8
DETAIL
  6
Continuous
100
AcDbCircle
 10
3.553307748134752
 20
-219.2904053516286
 30
0.0
 40
11.13278131046931
100
AcDbArc
 50
155.9940374815528
 51
218.1764644882708
  0
ARC
  5
900D4
330
1E
100
AcDbEntity
  8
DETAIL
  6
Continuous
100
AcDbCircle
 10
-3.553584742626704
 20
-219.290440621123
 30
0.0
 40
11.13306414813201
100
AcDbArc
 50
321.8243784682424
 51
24.00554085273776
  0
ARC
  5
900D5
330
1E
100
AcDbEntity
  8
DETAIL
  6
Continuous
100
AcDbCircle
 10
-0.0000000135255655
 20
-245.0514319661619
 30
0.0
 40
31.73237189941534
100
AcDbArc
 50
80.14711733769386
 51
99.85288256377621
  0
ARC
  5
900D6
330
1E
100
AcDbEntity
  8
DETAIL
  6
Continuous
100
AcDbCircle
 10
-5.232915797377877
 20
-215.2368276725716
 30
0.0
 40
1.463063514626049
100
AcDbArc
 50
97.74203111486764
 51
161.0304856478745
  0
ARC
  5
900D7
330
1E
100
AcDbEntity
  8
DETAIL
  6
Continuous
100
AcDbCircle
 10
5.23280168864231
 20
-215.2370916170036
 30
0.0
 40
1.46334042145649
100
AcDbArc
 50
18.97781242860305
 51
82.25493289611693
  0
ARC
  5
900D8
330
1E
100
AcDbEntity
  8
DETAIL
  6
Continuous
100
AcDbCircle
 10
3.755289277080988
 20
-223.0466531781243
 30
0.0
 40
0.4784237731454472
100
AcDbArc
 50
279.8834178672384
 51
1.408981627508164
  0
ARC
  5
900D9
330
1E
100
AcDbEntity
  8
DETAIL
  6
Continuous
100
AcDbCircle
 10
-3.742550274661686
 20
-223.0362064336416
 30
0.0
 40
0.491019890946548
100
AcDbArc
 50
179.8463033964134
 51
258.86129710885
  0
ARC
  5
900DA
330
1E
100
AcDbEntity
  8
DETAIL
  6
Continuous
100
AcDbCircle
 10
2.946226892734453
 20
-219.7878481456263
 30
0.0
 40
5.175186597947452
100
AcDbArc
 50
79.99553157452185
 51
90.37195548399564
  0
ARC
  5
900DB
330
1E
100
AcDbEntity
  8
DETAIL
  6
Continuous
100
AcDbCircle
 10
3.730241123374431
 20
-215.1595842087212
 30
0.0
 40
0.4821561294674894
100
AcDbArc
 50
358.7920781203731
 51
76.19576683641497
  0
ARC
  5
900DC
330
1E
100
AcDbEntity
  8
DETAIL
  6
Continuous
100
AcDbCircle
 10
-2.946229752953884
 20
-219.7878274214583
 30
0.0
 40
5.175165698578252
100
AcDbArc
 50
89.62834269115845
 51
100.0044770878537
  0
ARC
  5
900DD
330
1E
100
AcDbEntity
  8
DETAIL
  6
Continuous
100
AcDbCircle
 10
-3.613508933707631
 20
-215.2491362909602
 30
0.0
 40
0.6040209736276149
100
AcDbArc
 50
112.5645277815308
 51
172.4476318078719
  0
LINE
  5
900DE
330
1E
100
AcDbEntity
  8
DETAIL
  6
Continuous
100
AcDbLine
 10
-4.233868085525045
 20
-215.4831988085706
 30
0.0
 11
-4.212290113981453
 21
-215.1697484157403
 31
0.0
  0
ARC
  5
900DF
330
1E
100
AcDbEntity
  8
DETAIL
  6
Continuous
100
AcDbCircle
 10
-14.67319259215762
 20
-216.1108312759553
 30
0.0
 40
3.531537915135563
100
AcDbArc
 50
134.5696773382887
 51
192.8291506413298
  0
ARC
  5
900E0
330
1E
100
AcDbEntity
  8
DETAIL
  6
Continuous
100
AcDbCircle
 10
-9.416138894876567
 20
-216.0879264619579
 30
0.0
 40
3.31650354241712
100
AcDbArc
 50
106.1906085312181
 51
182.2624758343255
  0
ARC
  5
900E1
330
1E
100
AcDbEntity
  8
DETAIL
  6
Continuous
100
AcDbCircle
 10
-4.719447816538326
 20
-216.72616050073
 30
0.0
 40
10.68250183736611
100
AcDbArc
 50
161.4321582548237
 51
184.4080191285044
  0
ARC
  5
900E2
330
1E
100
AcDbEntity
  8
DETAIL
  6
Continuous
100
AcDbCircle
 10
9.416139918916195
 20
-216.0879446624705
 30
0.0
 40
3.316504813400845
100
AcDbArc
 50
357.7322630523668
 51
72.79185091989376
  0
ARC
  5
900E3
330
1E
100
AcDbEntity
  8
DETAIL
  6
Continuous
100
AcDbCircle
 10
4.898771073609357
 20
-216.721403732763
 30
0.0
 40
10.50379376079388
100
AcDbArc
 50
354.9537480302736
 51
18.81425333586417
  0
ARC
  5
900E4
330
1E
100
AcDbEntity
  8
DETAIL
  6
Continuous
100
AcDbCircle
 10
12.77509913789466
 20
-216.6091564146153
 30
0.0
 40
5.349101813230325
100
AcDbArc
 50
356.9368885539816
 51
34.04763256664031
  0
ARC
  5
900E5
330
1E
100
AcDbEntity
  8
DETAIL
  6
Continuous
100
AcDbCircle
 10
0.0000000000001155
 20
-335.6836947909734
 30
0.0
 40
124.1383559151784
100
AcDbArc
 50
81.60287002415982
 51
98.39712997584026
  0
ARC
  5
900E6
330
1E
100
AcDbEntity
  8
DETAIL
  6
Continuous
100
AcDbCircle
 10
-0.0483462657489026
 20
-349.1001416350505
 30
0.0
 40
136.5802701690749
100
AcDbArc
 50
82.74184916157929
 51
97.1937202540672
  0
ARC
  5
900E8
330
1E
100
AcDbEntity
  8
DETAIL
  6
Continuous
100
AcDbCircle
 10
-364.4995223577609
 20
-52.09311039514792
 30
0.0
 40
9.963303778193511
100
AcDbArc
 50
83.68408993798118
 51
186.4386006576581
  0
ARC
  5
900E9
330
1E
100
AcDbEntity
  8
DETAIL
  6
Continuous
100
AcDbCircle
 10
-379.2468680596635
 20
-35.1399715291684
 30
0.0
 40
20.25922468028352
100
AcDbArc
 50
91.13104036090872
 51
184.6757140111557
  0
ARC
  5
900EA
330
1E
100
AcDbEntity
  8
DETAIL
  6
Continuous
100
AcDbCircle
 10
-389.5717269661858
 20
-9.998122715863487
 30
0.0
 40
9.998370889667532
100
AcDbArc
 50
90.00928531540401
 51
180.0152865290606
  0
LINE
  5
900EB
330
1E
100
AcDbEntity
  8
DETAIL
  6
Continuous
100
AcDbLine
 10
-379.0825557304537
 20
-15.76298087980035
 30
0.0
 11
-389.5733472954251
 21
0.0002480425093125
 31
0.0
  0
LINE
  5
900EC
330
1E
100
AcDbEntity
  8
DETAIL
  6
Continuous
100
AcDbLine
 10
-287.0748270850613
 20
-14.581221927564
 30
0.0
 11
-287.0748270850613
 21
0.0
 31
0.0
  0
LINE
  5
900ED
330
1E
100
AcDbEntity
  8
DETAIL
  6
Continuous
100
AcDbLine
 10
-292.2368354162722
 20
-14.58122192756036
 30
0.0
 11
-292.2368354162722
 21
0.0
 31
0.0
  0
LINE
  5
900EE
330
1E
100
AcDbEntity
  8
DETAIL
  6
Continuous
100
AcDbLine
 10
-240.2537354162745
 20
-14.58122192756036
 30
0.0
 11
-240.2537354162745
 21
0.0
 31
0.0
  0
LINE
  5
900EF
330
1E
100
AcDbEntity
  8
DETAIL
  6
Continuous
100
AcDbLine
 10
-235.0917270850627
 20
-14.581221927564
 30
0.0
 11
-235.0917270850627
 21
0.0
 31
0.0
  0
LINE
  5
900F0
330
1E
100
AcDbEntity
  8
DETAIL
  6
Continuous
100
AcDbLine
 10
-187.3209441662734
 20
-14.58122192756036
 30
0.0
 11
-187.3209441662734
 21
0.0
 31
0.0
  0
LINE
  5
900F1
330
1E
100
AcDbEntity
  8
DETAIL
  6
Continuous
100
AcDbLine
 10
-182.1589358350628
 20
-14.58122192756036
 30
0.0
 11
-182.1589358350628
 21
0.0
 31
0.0
  0
LINE
  5
900F2
330
1E
100
AcDbEntity
  8
DETAIL
  6
Continuous
100
AcDbLine
 10
-134.2881854162701
 20
-14.58122192756036
 30
0.0
 11
-134.2881854162701
 21
0.0
 31
0.0
  0
LINE
  5
900F3
330
1E
100
AcDbEntity
  8
DETAIL
  6
Continuous
100
AcDbLine
 10
-129.1261770850583
 20
-14.58122192756036
 30
0.0
 11
-129.1261770850583
 21
0.0
 31
0.0
  0
LINE
  5
900F4
330
1E
100
AcDbEntity
  8
DETAIL
  6
Continuous
100
AcDbLine
 10
-82.30508541627036
 20
-14.58122192756036
 30
0.0
 11
-82.30508541627038
 21
0.0
 31
0.0
  0
LINE
  5
900F5
330
1E
100
AcDbEntity
  8
DETAIL
  6
Continuous
100
AcDbLine
 10
-77.14307708506066
 20
-14.58122192756036
 30
0.0
 11
-77.14307708506066
 21
0.0
 31
0.0
  0
LINE
  5
900F6
330
1E
100
AcDbEntity
  8
DETAIL
  6
Continuous
100
AcDbLine
 10
-29.8846389360865
 20
-14.581221927564
 30
0.0
 11
-29.88463893608649
 21
0.0
 31
0.0
  0
LINE
  5
900F7
330
1E
100
AcDbEntity
  8
DETAIL
  6
Continuous
100
AcDbLine
 10
-25.59984834175839
 20
-14.73004864048653
 30
0.0
 11
-25.59984834175839
 21
0.0
 31
0.0
  0
LINE
  5
900F8
330
1E
100
AcDbEntity
  8
DETAIL
  6
Continuous
100
AcDbLine
 10
29.88463893608618
 20
-14.58122192756036
 30
0.0
 11
29.88463893608619
 21
0.0
 31
0.0
  0
LINE
  5
900F9
330
1E
100
AcDbEntity
  8
DETAIL
  6
Continuous
100
AcDbLine
 10
25.59984834042507
 20
-14.73004864048653
 30
0.0
 11
25.59984834042507
 21
0.0
 31
0.0
  0
LINE
  5
900FA
330
1E
100
AcDbEntity
  8
DETAIL
  6
Continuous
100
AcDbLine
 10
90.55240416493793
 20
-14.58122192756036
 30
0.0
 11
90.55240416493793
 21
0.0
 31
0.0
  0
LINE
  5
900FB
330
1E
100
AcDbEntity
  8
DETAIL
  6
Continuous
100
AcDbLine
 10
85.39039583372597
 20
-14.581221927564
 30
0.0
 11
85.39039583372597
 21
0.0
 31
0.0
  0
LINE
  5
900FC
330
1E
100
AcDbEntity
  8
DETAIL
  6
Continuous
100
AcDbLine
 10
152.5322541649397
 20
-14.581221927564
 30
0.0
 11
152.5322541649397
 21
0.0
 31
0.0
  0
LINE
  5
900FD
330
1E
100
AcDbEntity
  8
DETAIL
  6
Continuous
100
AcDbLine
 10
147.3702458337273
 20
-14.58122192756036
 30
0.0
 11
147.3702458337273
 21
0.0
 31
0.0
  0
LINE
  5
900FE
330
1E
100
AcDbEntity
  8
DETAIL
  6
Continuous
100
AcDbLine
 10
214.5620879149387
 20
-14.58122192756036
 30
0.0
 11
214.5620879149387
 21
0.0
 31
0.0
  0
LINE
  5
900FF
330
1E
100
AcDbEntity
  8
DETAIL
  6
Continuous
100
AcDbLine
 10
209.4000795837268
 20
-14.58122192756036
 30
0.0
 11
209.4000795837269
 21
0.0
 31
0.0
  0
ARC
  5
90100
330
1E
100
AcDbEntity
  8
DETAIL
  6
Continuous
100
AcDbCircle
 10
364.4995223578041
 20
-52.09311039510242
 30
0.0
 40
9.963303778154877
100
AcDbArc
 50
353.5613993420533
 51
96.3159100622879
  0
ARC
  5
90101
330
1E
100
AcDbEntity
  8
DETAIL
  6
Continuous
100
AcDbCircle
 10
379.1928288202257
 20
-35.26276862517551
 30
0.0
 40
20.38312910463678
100
AcDbArc
 50
358.6253650691956
 51
88.7239052823334
  0
LINE
  5
90102
330
1E
100
AcDbEntity
  8
DETAIL
  6
Continuous
100
AcDbLine
 10
374.3999835544887
 20
-53.21037950715163
 30
0.0
 11
399.5700974999995
 21
-35.76744870001039
 31
0.0
  0
LINE
  5
90103
330
1E
100
AcDbEntity
  8
DETAIL
  6
Continuous
100
AcDbLine
 10
363.4034561917701
 20
-42.1902794293901
 30
0.0
 11
379.646765698632
 21
-14.88469404980961
 31
0.0
  0
LINE
  5
90104
330
1E
100
AcDbEntity
  8
DETAIL
  6
Continuous
100
AcDbLine
 10
348.2067860592319
 20
-14.38180203343563
 30
0.0
 11
356.0163554532962
 21
0.0
 31
0.0
  0
LINE
  5
90105
330
1E
100
AcDbEntity
  8
DETAIL
  6
Continuous
100
AcDbLine
 10
345.8642888796566
 20
-14.38180203343381
 30
0.0
 11
350.4771713967258
 21
0.0
 31
0.0
  0
LINE
  5
90106
330
1E
100
AcDbEntity
  8
DETAIL
  6
Continuous
100
AcDbLine
 10
379.6467655639676
 20
-14.88469404973784
 30
0.0
 11
389.5733472600772
 21
0.0
 31
0.0
  0
ARC
  5
90107
330
1E
100
AcDbEntity
  8
DETAIL
  6
Continuous
100
AcDbCircle
 10
388.0164879183489
 20
-11.47274132763987
 30
0.0
 40
11.57813833091467
100
AcDbArc
 50
356.2697579718872
 51
82.27229042755629
  0
ARC
  5
90108
330
1E
100
AcDbEntity
  8
DETAIL
  6
Continuous
100
AcDbCircle
 10
388.5705541448463
 20
-12.32843093130533
 30
0.0
 40
11.00001772473551
100
AcDbArc
 50
0.0272008953255411
 51
89.39335748349844
  0
ARC
  5
90109
330
1E
100
AcDbEntity
  8
DETAIL
  6
Continuous
100
AcDbCircle
 10
381.9824830751119
 20
-27.5031854000739
 30
0.0
 40
17.5896971088562
100
AcDbArc
 50
0.8817072706029804
 51
86.86481637489807
  0
LINE
  5
9010B
330
1E
100
AcDbEntity
  8
DETAIL
  6
Continuous
100
AcDbLine
 10
-363.4034561864359
 20
-42.19027942539015
 30
0.0
 11
-379.0825557304537
 21
-15.76298087980035
 31
0.0
  0
LINE
  5
9010C
330
1E
100
AcDbEntity
  8
DETAIL
  6
Continuous
100
AcDbLine
 10
-374.3998537340271
 20
-53.21013570107516
 30
0.0
 11
-399.334658246637
 21
-37.09401856463864
 31
0.0
  0
LINE
  5
9010F
330
1E
100
AcDbEntity
  8
DETAIL
  6
Continuous
100
AcDbLine
 10
-342.020797124575
 20
0.0
 30
0.0
 11
-342.020797124575
 21
-14.581221927564
 31
0.0
  0
LINE
  5
90110
330
1E
100
AcDbEntity
  8
DETAIL
  6
Continuous
100
AcDbLine
 10
-344.6983398922707
 20
0.0
 30
0.0
 11
-344.6983398922707
 21
-15.76298108867546
 31
0.0
  0
LINE
  5
90113
330
1E
100
AcDbEntity
  8
DETAIL
  6
Continuous
100
AcDbLine
 10
-367.7004485605623
 20
-14.38180203343381
 30
0.0
 11
-373.2841771821946
 21
-4.023447276072653
 31
0.0
  0
LINE
  5
90114
330
1E
100
AcDbEntity
  8
DETAIL
  6
Continuous
100
AcDbLine
 10
-373.2841771821946
 20
-4.023447276072653
 30
0.0
 11
-371.035655737835
 21
-1.328413621216895
 31
0.0
  0
LINE
  5
90115
330
1E
100
AcDbEntity
  8
DETAIL
  6
Continuous
100
AcDbLine
 10
-371.035655737835
 20
-1.328413621216895
 30
0.0
 11
-367.7128498530957
 21
0.0000512728404551
 31
0.0
  0
LINE
  5
90116
330
1E
100
AcDbEntity
  8
DETAIL
  6
Continuous
100
AcDbLine
 10
-366.9084651428606
 20
-14.66888885987919
 30
0.0
 11
-371.274723427578
 21
-6.477495788122723
 31
0.0
  0
LINE
  5
90117
330
1E
100
AcDbEntity
  8
DETAIL
  6
Continuous
100
AcDbLine
 10
-371.274723427578
 20
-6.477495788122723
 30
0.0
 11
-370.1674201274808
 21
-6.24322535876945
 31
0.0
  0
LINE
  5
9011A
330
1E
100
AcDbEntity
  8
DETAIL
  6
Continuous
100
AcDbLine
 10
310.3910612760369
 20
-283.3888642564297
 30
0.0
 11
312.7263011190157
 21
-283.1003489517316
 31
0.0
  0
LINE
  5
9011B
330
1E
100
AcDbEntity
  8
DETAIL
  6
Continuous
100
AcDbLine
 10
306.8332366879317
 20
-286.6899326830771
 30
0.0
 11
306.8332366879317
 21
-294.7534762042796
 31
0.0
  0
LINE
  5
9011C
330
1E
100
AcDbEntity
  8
DETAIL
  6
Continuous
100
AcDbLine
 10
290.9724133383126
 20
-286.6899307868633
 30
0.0
 11
290.9724133383127
 21
-294.7534762042796
 31
0.0
  0
LINE
  5
9011D
330
1E
100
AcDbEntity
  8
DETAIL
  6
Continuous
100
AcDbLine
 10
291.2053925895051
 20
-286.6899326830771
 30
0.0
 11
291.2053925895051
 21
-294.5682246324486
 31
0.0
  0
LINE
  5
9011E
330
1E
100
AcDbEntity
  8
DETAIL
  6
Continuous
100
AcDbLine
 10
306.5797861184401
 20
-286.6899326830771
 30
0.0
 11
306.5797861184401
 21
-294.5682246324486
 31
0.0
  0
LINE
  5
9011F
330
1E
100
AcDbEntity
  8
DETAIL
  6
Continuous
100
AcDbLine
 10
306.8332366879317
 20
-294.7534762042796
 30
0.0
 11
290.9724133383127
 21
-294.7534762042796
 31
0.0
  0
LINE
  5
90120
330
1E
100
AcDbEntity
  8
DETAIL
  6
Continuous
100
AcDbLine
 10
-321.9623528570532
 20
-294.7534762042796
 30
0.0
 11
-337.8231762066722
 21
-294.7534762042796
 31
0.0
  0
LINE
  5
90121
330
1E
100
AcDbEntity
  8
DETAIL
  6
Continuous
100
AcDbLine
 10
-321.9623528570532
 20
-286.6899326830771
 30
0.0
 11
-321.9623528570532
 21
-294.7534762042796
 31
0.0
  0
LINE
  5
90122
330
1E
100
AcDbEntity
  8
DETAIL
  6
Continuous
100
AcDbLine
 10
-322.2158034265449
 20
-286.6899326830771
 30
0.0
 11
-322.2158034265449
 21
-294.5682246324486
 31
0.0
  0
LINE
  5
90123
330
1E
100
AcDbEntity
  8
DETAIL
  6
Continuous
100
AcDbLine
 10
-337.5901969554797
 20
-294.5682246324486
 30
0.0
 11
-322.2158034265449
 21
-294.5682246324486
 31
0.0
  0
LINE
  5
90124
330
1E
100
AcDbEntity
  8
DETAIL
  6
Continuous
100
AcDbLine
 10
-337.8231762066723
 20
-286.6899307868633
 30
0.0
 11
-337.8231762066722
 21
-294.7534762042796
 31
0.0
  0
LINE
  5
90125
330
1E
100
AcDbEntity
  8
DETAIL
  6
Continuous
100
AcDbLine
 10
-337.5901969554797
 20
-286.6899326830771
 30
0.0
 11
-337.5901969554797
 21
-294.5682246324486
 31
0.0
  0
ARC
  5
90129
330
1E
100
AcDbEntity
  8
DETAIL
  6
Continuous
100
AcDbCircle
 10
386.445304656942
 20
-283.217344880222
 30
0.0
 40
13.12497028134768
100
AcDbArc
 50
347.5066392669333
 51
359.6551884372863
  0
ARC
  5
9012A
330
1E
100
AcDbEntity
  8
DETAIL
  6
Continuous
100
AcDbCircle
 10
385.3349555914271
 20
-291.5596884498605
 30
0.0
 40
1.001670328709445
100
AcDbArc
 50
180.2472709057408
 51
276.4841568862477
  0
ARC
  5
9012B
330
1E
100
AcDbEntity
  8
DETAIL
  6
Continuous
100
AcDbCircle
 10
385.5165977031115
 20
-246.7890131482347
 30
0.0
 40
1.142223017872493
100
AcDbArc
 50
91.21640190379457
 51
181.9926037492498
  0
ARC
  5
9012C
330
1E
100
AcDbEntity
  8
DETAIL
  6
Continuous
100
AcDbCircle
 10
386.7809183768092
 20
-211.9263235038204
 30
0.0
 40
33.74533505304212
100
AcDbArc
 50
267.8116237423347
 51
288.9323172622013
  0
ARC
  5
9012D
330
1E
100
AcDbEntity
  8
DETAIL
  6
Continuous
100
AcDbCircle
 10
398.3343775946512
 20
-244.763421477235
 30
0.0
 40
0.9192967921585125
100
AcDbArc
 50
359.1026789801293
 51
90.81826960003871
  0
LINE
  5
9012E
330
1E
100
AcDbEntity
  8
DETAIL
  6
Continuous
100
AcDbLine
 10
383.2303525235634
 20
-292.8574314569905
 30
0.0
 11
373.2307632399674
 21
-292.0444593321507
 31
0.0
  0
LINE
  5
9012F
330
1E
100
AcDbEntity
  8
DETAIL
  6
Continuous
100
AcDbLine
 10
381.1846251744313
 20
-292.7044369336863
 30
0.0
 11
381.4199337359264
 21
-293.6666987933683
 31
0.0
  0
LINE
  5
90130
330
1E
100
AcDbEntity
  8
DETAIL
  6
Continuous
100
AcDbLine
 10
381.4199337359264
 20
-293.6666987933683
 30
0.0
 11
382.2621576238739
 21
-294.1512522272014
 31
0.0
  0
LINE
  5
90131
330
1E
100
AcDbEntity
  8
DETAIL
  6
Continuous
100
AcDbLine
 10
382.2621480096636
 20
-294.1512527390214
 30
0.0
 11
382.3756875000004
 21
-295.4539462500024
 31
0.0
  0
ARC
  5
90132
330
1E
100
AcDbEntity
  8
DETAIL
  6
Continuous
100
AcDbCircle
 10
377.5157966238973
 20
-275.7141479520995
 30
0.0
 40
7.385971220003339
100
AcDbArc
 50
269.6203552260629
 51
285.0570901297216
  0
ARC
  5
90133
330
1E
100
AcDbEntity
  8
DETAIL
  6
Continuous
100
AcDbCircle
 10
378.7230299813637
 20
-281.3466620250277
 30
0.0
 40
1.660082059507404
100
AcDbArc
 50
295.378486905884
 51
5.177982605899604
  0
LINE
  5
90134
330
1E
100
AcDbEntity
  8
DETAIL
  6
Continuous
100
AcDbLine
 10
382.2621576238739
 20
-294.1512522272014
 30
0.0
 11
373.230763241299
 21
-294.3325361534289
 31
0.0
  0
LINE
  5
90135
330
1E
100
AcDbEntity
  8
DETAIL
  6
Continuous
100
AcDbLine
 10
373.230763241299
 20
-294.3325361534289
 30
0.0
 11
373.2216046231906
 21
-290.970913513307
 31
0.0
  0
LINE
  5
90136
330
1E
100
AcDbEntity
  8
DETAIL
  6
Continuous
100
AcDbLine
 10
383.2182525200091
 20
-290.6345649181439
 30
0.0
 11
373.2216046231906
 21
-290.970913513307
 31
0.0
  0
ARC
  5
90137
330
1E
100
AcDbEntity
  8
DETAIL
  6
Continuous
100
AcDbCircle
 10
377.6236350862141
 20
-251.0915589986213
 30
0.0
 40
4.014992665627922
100
AcDbArc
 50
56.91472058201129
 51
93.51734466517562
  0
ARC
  5
90138
330
1E
100
AcDbEntity
  8
DETAIL
  6
Continuous
100
AcDbCircle
 10
378.3106079400454
 20
-249.147178966812
 30
0.0
 40
2.057800082831695
100
AcDbArc
 50
359.8009693605321
 51
45.67410735744959
  0
LINE
  5
90139
330
1E
100
AcDbEntity
  8
DETAIL
  6
Continuous
100
AcDbLine
 10
378.5122586572483
 20
-244.5793963887363
 30
0.0
 11
396.7619471124571
 21
-243.8701395695234
 31
0.0
  0
LINE
  5
9013A
330
1E
100
AcDbEntity
  8
DETAIL
  6
Continuous
100
AcDbLine
 10
396.3993660960545
 20
-243.7490830749657
 30
0.0
 11
378.5120005798185
 21
-244.4120985901972
 31
0.0
  0
LINE
  5
9013B
330
1E
100
AcDbEntity
  8
DETAIL
  6
Continuous
100
AcDbLine
 10
378.5012420668049
 20
-243.4017068902594
 30
0.0
 11
396.5600587206404
 21
-242.2439432231149
 31
0.0
  0
LINE
  5
9013C
330
1E
100
AcDbEntity
  8
DETAIL
  6
Continuous
100
AcDbLine
 10
378.5012442754196
 20
-243.6468298860599
 30
0.0
 11
395.9596774493252
 21
-242.966610180002
 31
0.0
  0
LINE
  5
9013D
330
1E
100
AcDbEntity
  8
DETAIL
  6
Continuous
100
AcDbLine
 10
395.9596774672734
 20
-242.9666101793028
 30
0.0
 11
396.5600587206404
 21
-242.2439432231149
 31
0.0
  0
LINE
  5
9013E
330
1E
100
AcDbEntity
  8
DETAIL
  6
Continuous
100
AcDbLine
 10
396.5642824381571
 20
-243.6757877023546
 30
0.0
 11
397.1837347347059
 21
-242.9589748662901
 31
0.0
  0
LINE
  5
9013F
330
1E
100
AcDbEntity
  8
DETAIL
  6
Continuous
100
AcDbLine
 10
396.7619471124571
 20
-243.8701395695234
 30
0.0
 11
397.5574885305646
 21
-243.0666864819568
 31
0.0
  0
LINE
  5
90140
330
1E
100
AcDbEntity
  8
DETAIL
  6
Continuous
100
AcDbLine
 10
395.9596774672734
 20
-242.9666101793028
 30
0.0
 11
396.5642741528458
 21
-243.6757914717954
 31
0.0
  0
LINE
  5
90141
330
1E
100
AcDbEntity
  8
DETAIL
  6
Continuous
100
AcDbLine
 10
396.5600587206404
 20
-242.2439432231149
 30
0.0
 11
397.1837347347058
 21
-242.9589748662902
 31
0.0
  0
LINE
  5
90142
330
1E
100
AcDbEntity
  8
DETAIL
  6
Continuous
100
AcDbLine
 10
397.1837347347058
 20
-242.9589748662902
 30
0.0
 11
397.5574885291712
 21
-243.0666864858914
 31
0.0
  0
LINE
  5
90143
330
1E
100
AcDbEntity
  8
DETAIL
  6
Continuous
100
AcDbLine
 10
398.4790312899958
 20
-241.2228012266556
 30
0.0
 11
397.5574885305646
 21
-243.0666864819568
 31
0.0
  0
ARC
  5
90144
330
1E
100
AcDbEntity
  8
DETAIL
  6
Continuous
100
AcDbCircle
 10
395.4651183348324
 20
-239.5566265004971
 30
0.0
 40
3.443807416129797
100
AcDbArc
 50
331.0649645535932
 51
358.4075531465997
  0
LINE
  5
90145
330
1E
100
AcDbEntity
  8
DETAIL
  6
Continuous
100
AcDbLine
 10
374.3999835544887
 20
-53.21037950715162
 30
0.0
 11
378.5126255406398
 21
-243.4016956552495
 31
0.0
  0
LINE
  5
90147
330
1E
100
AcDbEntity
  8
DETAIL
  6
Continuous
100
AcDbLine
 10
380.3763374999988
 20
-281.1968398199885
 30
0.0
 11
380.3683956072872
 21
-249.154327214836
 31
0.0
  0
LINE
  5
90148
330
1E
100
AcDbEntity
  8
DETAIL
  6
Continuous
100
AcDbLine
 10
-374.3999835544887
 20
-53.21037950715162
 30
0.0
 11
-378.5126255406398
 21
-243.4016956552495
 31
0.0
  0
LINE
  5
90149
330
1E
100
AcDbEntity
  8
DETAIL
  6
Continuous
100
AcDbLine
 10
-399.5700974999995
 20
-10.00079028381787
 30
0.0
 11
-399.5700372622518
 21
-283.2963317486073
 31
0.0
  0
SPLINE
  5
9014D
330
1E
100
AcDbEntity
  8
DETAIL
  6
Continuous
100
AcDbSpline
210
0.0
220
0.0
230
1.0
 70
     8
 71
     3
 72
     9
 73
     5
 74
     3
 42
0.0000000001
 43
0.0000000001
 44
0.0000000001
 12
0.8421964752242885
 22
-0.5391707495031458
 32
0.0
 13
0.9664175141578674
 23
-0.2569770190677141
 33
0.0
 40
0.0
 40
0.0
 40
0.0
 40
0.0
 40
0.0914676904935821
 40
0.1810090488365469
 40
0.1810090488365469
 40
0.1810090488365469
 40
0.1810090488365469
 10
-396.5642741528458
 20
-243.6757914717954
 30
0.0
 10
-396.538596230669
 20
-243.6922303728751
 30
0.0
 10
-396.485359772984
 20
-243.7211707599856
 30
0.0
 10
-396.4282108750359
 20
-243.7414130511823
 30
0.0
 10
-396.3993660960545
 20
-243.7490830749657
 30
0.0
 11
-396.5642741528458
 21
-243.6757914717954
 31
0.0
 11
-396.4837941813416
 21
-243.7192576953593
 31
0.0
 11
-396.3993660960545
 21
-243.7490830749657
 31
0.0
  0
ARC
  5
9014E
330
1E
100
AcDbEntity
  8
DETAIL
  6
Continuous
100
AcDbCircle
 10
-394.9298899907486
 20
-248.75388662739
 30
0.0
 40
5.216073103631143
100
AcDbArc
 50
106.3629322222353
 51
110.5627508323389
  0
ARC
  5
9014F
330
1E
100
AcDbEntity
  8
DETAIL
  6
Continuous
100
AcDbCircle
 10
1086.809189187306
 20
-216.8617496405677
 30
0.0
 40
1485.4879867313
100
AcDbArc
 50
180.7500840421242
 51
180.9396583669986
  0
LINE
  5
90150
330
1E
100
AcDbEntity
  8
DETAIL
  6
Continuous
100
AcDbLine
 10
-398.5705324202631
 20
-243.8787340886838
 30
0.0
 11
-398.5704165845886
 21
-241.0122990416084
 31
0.0
  0
LINE
  5
90151
330
1E
100
AcDbEntity
  8
DETAIL
  6
Continuous
100
AcDbLine
 10
-380.3763400991533
 20
-256.8664912499971
 30
0.0
 11
-384.364948792176
 21
-256.8780011122604
 31
0.0
  0
LINE
  5
90152
330
1E
100
AcDbEntity
  8
DETAIL
  6
Continuous
100
AcDbLine
 10
-380.3763374999988
 20
-281.1968398199885
 30
0.0
 11
-380.3683956072872
 21
-249.154327214836
 31
0.0
  0
ARC
  5
90153
330
1E
100
AcDbEntity
  8
DETAIL
  6
Continuous
100
AcDbCircle
 10
-395.4651183348324
 20
-239.5566265004971
 30
0.0
 40
3.443807416129797
100
AcDbArc
 50
181.5924468534002
 51
208.9350354464067
  0
ARC
  5
90154
330
1E
100
AcDbEntity
  8
DETAIL
  6
Continuous
100
AcDbCircle
 10
38.06484928207692
 20
-194.3202416896965
 30
0.0
 40
439.3175734746161
100
AcDbArc
 50
185.484460634003
 51
185.9227516666147
  0
SPLINE
  5
90155
330
1E
100
AcDbEntity
  8
DETAIL
  6
Continuous
100
AcDbSpline
210
0.0
220
0.0
230
1.0
 70
     8
 71
     3
 72
     9
 73
     5
 74
     3
 42
0.0000000001
 43
0.0000000001
 44
0.0000000001
 12
0.1854365826386415
 22
-0.9826562337965917
 32
0.0
 13
0.4307567112487524
 23
-0.9024680912443159
 33
0.0
 40
0.0
 40
0.0
 40
0.0
 40
0.0
 40
3.261367544643952
 40
6.289697115165623
 40
6.289697115165623
 40
6.289697115165623
 40
6.289697115165623
 10
-398.551481337879
 20
-236.3083650611724
 30
0.0
 10
-398.3498890538099
 20
-237.3766327773212
 30
0.0
 10
-397.8142000634324
 20
-239.4117065175288
 30
0.0
 10
-397.0204392876522
 20
-241.3581003025222
 30
0.0
 10
-396.5856148588605
 20
-242.269090571578
 30
0.0
 11
-398.551481337879
 21
-236.3083650611724
 31
0.0
 11
-397.7249649963519
 21
-239.463264266923
 31
0.0
 11
-396.5856148588605
 21
-242.269090571578
 31
0.0
  0
LINE
  5
90156
330
1E
100
AcDbEntity
  8
DETAIL
  6
Continuous
100
AcDbLine
 10
-398.4790312899958
 20
-241.2228012266556
 30
0.0
 11
-397.5574885305646
 21
-243.0666864819568
 31
0.0
  0
LINE
  5
90157
330
1E
100
AcDbEntity
  8
DETAIL
  6
Continuous
100
AcDbLine
 10
-397.1837347347058
 20
-242.9589748662902
 30
0.0
 11
-397.5574885291712
 21
-243.0666864858914
 31
0.0
  0
LINE
  5
90158
330
1E
100
AcDbEntity
  8
DETAIL
  6
Continuous
100
AcDbLine
 10
-396.5600587206404
 20
-242.2439432231149
 30
0.0
 11
-397.1837347347058
 21
-242.9589748662902
 31
0.0
  0
LINE
  5
90159
330
1E
100
AcDbEntity
  8
DETAIL
  6
Continuous
100
AcDbLine
 10
-395.9596774672734
 20
-242.9666101793028
 30
0.0
 11
-396.5642741528458
 21
-243.6757914717954
 31
0.0
  0
LINE
  5
9015A
330
1E
100
AcDbEntity
  8
DETAIL
  6
Continuous
100
AcDbLine
 10
-396.7619471124571
 20
-243.8701395695234
 30
0.0
 11
-397.5574885305646
 21
-243.0666864819568
 31
0.0
  0
LINE
  5
9015B
330
1E
100
AcDbEntity
  8
DETAIL
  6
Continuous
100
AcDbLine
 10
-396.5642824381571
 20
-243.6757877023546
 30
0.0
 11
-397.1837347347059
 21
-242.9589748662901
 31
0.0
  0
LINE
  5
9015C
330
1E
100
AcDbEntity
  8
DETAIL
  6
Continuous
100
AcDbLine
 10
-395.9596774672734
 20
-242.9666101793028
 30
0.0
 11
-396.5600587206404
 21
-242.2439432231149
 31
0.0
  0
LINE
  5
9015D
330
1E
100
AcDbEntity
  8
DETAIL
  6
Continuous
100
AcDbLine
 10
-378.5012442754196
 20
-243.6468298860599
 30
0.0
 11
-395.9596774493252
 21
-242.966610180002
 31
0.0
  0
LINE
  5
9015E
330
1E
100
AcDbEntity
  8
DETAIL
  6
Continuous
100
AcDbLine
 10
-378.5012420668049
 20
-243.4017068902594
 30
0.0
 11
-396.5600587206404
 21
-242.2439432231149
 31
0.0
  0
LINE
  5
9015F
330
1E
100
AcDbEntity
  8
DETAIL
  6
Continuous
100
AcDbLine
 10
-396.3993660960545
 20
-243.7490830749657
 30
0.0
 11
-378.5120005798185
 21
-244.4120985901972
 31
0.0
  0
LINE
  5
90160
330
1E
100
AcDbEntity
  8
DETAIL
  6
Continuous
100
AcDbLine
 10
-378.5122586572483
 20
-244.5793963887363
 30
0.0
 11
-396.7619471124571
 21
-243.8701395695234
 31
0.0
  0
ARC
  5
90161
330
1E
100
AcDbEntity
  8
DETAIL
  6
Continuous
100
AcDbCircle
 10
-382.8277062777392
 20
-246.2030893452937
 30
0.0
 40
1.868350477355493
100
AcDbArc
 50
102.6091868319251
 51
174.7384336483553
  0
ARC
  5
90162
330
1E
100
AcDbEntity
  8
DETAIL
  6
Continuous
100
AcDbCircle
 10
-378.3106079400454
 20
-249.147178966812
 30
0.0
 40
2.057800082831695
100
AcDbArc
 50
134.3258926425503
 51
180.1990306394679
  0
ARC
  5
90163
330
1E
100
AcDbEntity
  8
DETAIL
  6
Continuous
100
AcDbCircle
 10
-377.6236350862141
 20
-251.0915589986213
 30
0.0
 40
4.014992665627922
100
AcDbArc
 50
86.48265533482438
 51
123.0852794179887
  0
LINE
  5
90164
330
1E
100
AcDbEntity
  8
DETAIL
  6
Continuous
100
AcDbLine
 10
-384.3750653602778
 20
-246.8287287978255
 30
0.0
 11
-384.3332945908555
 21
-288.3216375079355
 31
0.0
  0
LINE
  5
90165
330
1E
100
AcDbEntity
  8
DETAIL
  6
Continuous
100
AcDbLine
 10
-399.3951770396311
 20
-249.6992755937071
 30
0.0
 11
-399.5700378144006
 21
-280.7912614946198
 31
0.0
  0
LINE
  5
90166
330
1E
100
AcDbEntity
  8
DETAIL
  6
Continuous
100
AcDbLine
 10
-399.3962981889048
 20
-245.8862996870875
 30
0.0
 11
-399.3951770396311
 21
-249.6992755937071
 31
0.0
  0
LINE
  5
90167
330
1E
100
AcDbEntity
  8
DETAIL
  6
Continuous
100
AcDbLine
 10
-399.2922947519576
 20
-245.8862996870875
 30
0.0
 11
-399.3962981889048
 21
-245.8862996870875
 31
0.0
  0
LINE
  5
90168
330
1E
100
AcDbEntity
  8
DETAIL
  6
Continuous
100
AcDbLine
 10
-399.2922947519576
 20
-245.8862996870875
 30
0.0
 11
-399.2504431747633
 21
-244.8008985024862
 31
0.0
  0
LINE
  5
90169
330
1E
100
AcDbEntity
  8
DETAIL
  6
Continuous
100
AcDbLine
 10
-397.729626050349
 20
-243.8442184339237
 30
0.0
 11
-398.321249105013
 21
-243.8442184339237
 31
0.0
  0
ARC
  5
9016A
330
1E
100
AcDbEntity
  8
DETAIL
  6
Continuous
100
AcDbCircle
 10
-398.3343775946512
 20
-244.763421477235
 30
0.0
 40
0.9192967921585125
100
AcDbArc
 50
89.1817303999613
 51
180.8973210198707
  0
ARC
  5
9016B
330
1E
100
AcDbEntity
  8
DETAIL
  6
Continuous
100
AcDbCircle
 10
-386.7809183768092
 20
-211.9263235038204
 30
0.0
 40
33.74533505304212
100
AcDbArc
 50
251.0676827377987
 51
272.1883762576652
  0
ARC
  5
9016C
330
1E
100
AcDbEntity
  8
DETAIL
  6
Continuous
100
AcDbCircle
 10
-385.5165977031115
 20
-246.7890131482347
 30
0.0
 40
1.142223017872493
100
AcDbArc
 50
358.0073962507501
 51
88.78359809620544
  0
LINE
  5
9016E
330
1E
100
AcDbEntity
  8
DETAIL
  6
Continuous
100
AcDbLine
 10
-378.5126255406398
 20
-243.4016956552495
 30
0.0
 11
-378.5122586572483
 21
-244.5793963887363
 31
0.0
  0
LINE
  5
9016F
330
1E
100
AcDbEntity
  8
DETAIL
  6
Continuous
100
AcDbLine
 10
-378.5012420668049
 20
-243.4017068902594
 30
0.0
 11
-378.5012442754196
 21
-243.6468298860599
 31
0.0
  0
LINE
  5
90170
330
1E
100
AcDbEntity
  8
DETAIL
  6
Continuous
100
AcDbLine
 10
-396.5600587206404
 20
-242.2439432231149
 30
0.0
 11
-396.5856251901691
 21
-242.2690561507633
 31
0.0
  0
LINE
  5
90171
330
1E
100
AcDbEntity
  8
DETAIL
  6
Continuous
100
AcDbLine
 10
-378.5012442754196
 20
-243.6468298860599
 30
0.0
 11
-378.5119861658363
 21
-243.6468351256899
 31
0.0
  0
LINE
  5
90172
330
1E
100
AcDbEntity
  8
DETAIL
  6
Continuous
100
AcDbLine
 10
-378.5012573671624
 20
-243.4016963376943
 30
0.0
 11
-378.5126255406398
 21
-243.4016965229648
 31
0.0
  0
ARC
  5
90173
330
1E
100
AcDbEntity
  8
DETAIL
  6
Continuous
100
AcDbCircle
 10
-385.3349555914271
 20
-291.5596884498605
 30
0.0
 40
1.001670328709445
100
AcDbArc
 50
263.5158431137522
 51
359.7527290942592
  0
ARC
  5
90174
330
1E
100
AcDbEntity
  8
DETAIL
  6
Continuous
100
AcDbCircle
 10
-387.6775940884317
 20
-280.7832669313888
 30
0.0
 40
11.89244641309675
100
AcDbArc
 50
179.6888560087696
 51
223.4664365570547
  0
ARC
  5
90175
330
1E
100
AcDbEntity
  8
DETAIL
  6
Continuous
100
AcDbCircle
 10
-382.1443093770026
 20
-264.339899526678
 30
0.0
 40
28.4077842992217
100
AcDbArc
 50
240.0915720561069
 51
263.321512558193
  0
ARC
  5
90176
330
1E
100
AcDbEntity
  8
DETAIL
  6
Continuous
100
AcDbCircle
 10
-387.0784547955425
 20
-283.5159657916776
 30
0.0
 40
12.44317307765686
100
AcDbArc
 50
191.781551383613
 51
222.2997527308679
  0
ARC
  5
90177
330
1E
100
AcDbEntity
  8
DETAIL
  6
Continuous
100
AcDbCircle
 10
-382.3751002335893
 20
-266.5371558515407
 30
0.0
 40
28.91680237456469
100
AcDbArc
 50
241.2543136686063
 51
269.9988363925931
  0
ARC
  5
90178
330
1E
100
AcDbEntity
  8
DETAIL
  6
Continuous
100
AcDbCircle
 10
-386.445304656942
 20
-283.217344880222
 30
0.0
 40
13.12497028134768
100
AcDbArc
 50
180.3448115627135
 51
192.4933607330665
  0
LINE
  5
9017D
330
1E
100
AcDbEntity
  8
DETAIL
  6
Continuous
100
AcDbLine
 10
-357.0398056092544
 20
-290.7070206383778
 30
0.0
 11
-383.2182525200091
 21
-290.6345649181439
 31
0.0
  0
LINE
  5
9017E
330
1E
100
AcDbEntity
  8
DETAIL
  6
Continuous
100
AcDbLine
 10
-358.4968807618761
 20
-289.3642721988344
 30
0.0
 11
-383.3753625000003
 21
-289.797601481031
 31
0.0
  0
LINE
  5
9017F
330
1E
100
AcDbEntity
  8
DETAIL
  6
Continuous
100
AcDbLine
 10
-358.4968807618761
 20
-289.4326862863499
 30
0.0
 11
-383.3753625000003
 21
-289.8660155685602
 31
0.0
  0
LINE
  5
90180
330
1E
100
AcDbEntity
  8
DETAIL
  6
Continuous
100
AcDbLine
 10
-383.2182525200091
 20
-290.6345649181439
 30
0.0
 11
-373.2216046231906
 21
-290.970913513307
 31
0.0
  0
LINE
  5
90181
330
1E
100
AcDbEntity
  8
DETAIL
  6
Continuous
100
AcDbLine
 10
-383.2303525235634
 20
-292.8574314569905
 30
0.0
 11
-373.2307632399674
 21
-292.0444593321507
 31
0.0
  0
LINE
  5
90182
330
1E
100
AcDbEntity
  8
DETAIL
  6
Continuous
100
AcDbLine
 10
-357.6254071068938
 20
-290.970913513307
 30
0.0
 11
-373.221604506853
 21
-290.970913513307
 31
0.0
  0
LINE
  5
90183
330
1E
100
AcDbEntity
  8
DETAIL
  6
Continuous
100
AcDbLine
 10
-373.230763241299
 20
-294.3325361534289
 30
0.0
 11
-373.2216046231906
 21
-290.970913513307
 31
0.0
  0
LINE
  5
90184
330
1E
100
AcDbEntity
  8
DETAIL
  6
Continuous
100
AcDbLine
 10
-382.2621576238739
 20
-294.1512522272014
 30
0.0
 11
-373.230763241299
 21
-294.3325361534289
 31
0.0
  0
LINE
  5
90185
330
1E
100
AcDbEntity
  8
DETAIL
  6
Continuous
100
AcDbLine
 10
-381.4199337359264
 20
-293.6666987933683
 30
0.0
 11
-382.2621576238739
 21
-294.1512522272014
 31
0.0
  0
LINE
  5
90186
330
1E
100
AcDbEntity
  8
DETAIL
  6
Continuous
100
AcDbLine
 10
-382.2621480096636
 20
-294.1512527390214
 30
0.0
 11
-382.3756875000004
 21
-295.4539462500024
 31
0.0
  0
LINE
  5
90187
330
1E
100
AcDbEntity
  8
DETAIL
  6
Continuous
100
AcDbLine
 10
-382.262157623872
 20
-294.1512522271941
 30
0.0
 11
-382.3756875000004
 21
-295.4539462500024
 31
0.0
  0
ARC
  5
90188
330
1E
100
AcDbEntity
  8
DETAIL
  6
Continuous
100
AcDbCircle
 10
-357.6257111560457
 20
-290.4619822817412
 30
0.0
 40
0.5089372242948001
100
AcDbArc
 50
270.0342300277974
 51
300.6087656666366
  0
LINE
  5
90189
330
1E
100
AcDbEntity
  8
DETAIL
  6
Continuous
100
AcDbLine
 10
-351.660930657275
 20
-286.6899326830771
 30
0.0
 11
-356.9599798437288
 21
-290.0631847903932
 31
0.0
  0
LINE
  5
9018A
330
1E
100
AcDbEntity
  8
DETAIL
  6
Continuous
100
AcDbLine
 10
-356.9597268473125
 20
-288.9179091926362
 30
0.0
 11
-353.3865979197494
 21
-286.6899326830771
 31
0.0
  0
LINE
  5
9018B
330
1E
100
AcDbEntity
  8
DETAIL
  6
Continuous
100
AcDbLine
 10
-356.9597268473125
 20
-288.9759364663095
 30
0.0
 11
-353.293536377249
 21
-286.6899326830771
 31
0.0
  0
ARC
  5
9018C
330
1E
100
AcDbEntity
  8
DETAIL
  6
Continuous
100
AcDbCircle
 10
800.8205627575994
 20
-2249.214424636152
 30
0.0
 40
2275.168743485541
100
AcDbArc
 50
120.3920160800982
 51
120.6009368049929
  0
ARC
  5
9018D
330
1E
100
AcDbEntity
  8
DETAIL
  6
Continuous
100
AcDbCircle
 10
-358.5513666175488
 20
-287.5685683536476
 30
0.0
 40
2.9589383763882
100
AcDbArc
 50
271.0551176675954
 51
302.5349615481908
  0
ARC
  5
9018E
330
1E
100
AcDbEntity
  8
DETAIL
  6
Continuous
100
AcDbCircle
 10
-358.5474618816661
 20
-286.4308434517852
 30
0.0
 40
2.9997391398291
100
AcDbArc
 50
270.9712587165006
 51
301.9576327783662
  0
ARC
  5
9018F
330
1E
100
AcDbEntity
  8
DETAIL
  6
Continuous
100
AcDbCircle
 10
-358.5491765388878
 20
-286.4327072885034
 30
0.0
 40
3.0004354281285
100
AcDbArc
 50
270.9986816204076
 51
301.9821983499206
  0
ARC
  5
90190
330
1E
100
AcDbEntity
  8
DETAIL
  6
Continuous
100
AcDbCircle
 10
-358.548675772357
 20
-286.3483040444752
 30
0.0
 40
3.016419784856999
100
AcDbArc
 50
270.9838776968007
 51
301.781917906905
  0
ARC
  5
90191
330
1E
100
AcDbEntity
  8
DETAIL
  6
Continuous
100
AcDbCircle
 10
-358.5524976671708
 20
-286.3557174330107
 30
0.0
 40
3.0169275171237
100
AcDbArc
 50
271.0613775015954
 51
301.8668974410719
  0
LINE
  5
90192
330
1E
100
AcDbEntity
  8
DETAIL
  6
Continuous
100
AcDbLine
 10
-356.9599798437288
 20
-288.9124147762295
 30
0.0
 11
-356.9599798437288
 21
-286.6899326830771
 31
0.0
  0
LINE
  5
90193
330
1E
100
AcDbEntity
  8
DETAIL
  6
Continuous
100
AcDbLine
 10
-356.9599798437288
 20
-290.0631847903932
 30
0.0
 11
-356.9599798437288
 21
-288.9777128194773
 31
0.0
  0
LINE
  5
90194
330
1E
100
AcDbEntity
  8
DETAIL
  6
Continuous
100
AcDbLine
 10
-358.4968807618761
 20
-289.3642721988344
 30
0.0
 11
-358.4968807618761
 21
-286.6899326830771
 31
0.0
  0
LINE
  5
90195
330
1E
100
AcDbEntity
  8
DETAIL
  6
Continuous
100
AcDbLine
 10
-358.4968807618761
 20
-290.5269651314392
 30
0.0
 11
-358.4968807618761
 21
-289.4326862863499
 31
0.0
  0
SPLINE
  5
90196
330
1E
100
AcDbEntity
  8
DETAIL
  6
Continuous
100
AcDbSpline
210
0.0
220
0.0
230
1.0
 70
     8
 71
     3
 72
     8
 73
     4
 74
     2
 42
0.0000000001
 43
0.0000000001
 44
0.0000000001
 12
0.29784593464296
 22
0.9546139529761031
 32
0.0
 13
-0.1183363471849745
 23
0.9929735691018755
 33
0.0
 40
0.0
 40
0.0
 40
0.0
 40
0.0
 40
0.0580272736697225
 40
0.0580272736697225
 40
0.0580272736697225
 40
0.0580272736697225
 10
-356.9597268473112
 20
-288.9759364663104
 30
0.0
 10
-356.9539657847909
 20
-288.9574719179444
 30
0.0
 10
-356.9574379354435
 20
-288.9371157089878
 30
0.0
 10
-356.9597268473112
 20
-288.9179091926407
 30
0.0
 11
-356.9597268473112
 21
-288.9759364663104
 31
0.0
 11
-356.9597268473112
 21
-288.9179091926407
 31
0.0
  0
SPLINE
  5
90197
330
1E
100
AcDbEntity
  8
DETAIL
  6
Continuous
100
AcDbSpline
210
0.0
220
0.0
230
1.0
 70
     8
 71
     3
 72
     8
 73
     4
 74
     2
 42
0.0000000001
 43
0.0000000001
 44
0.0000000001
 12
0.1847663038236711
 22
0.9827824850755833
 32
0.0
 13
-0.0678582940485232
 23
0.9976949693813356
 33
0.0
 40
0.0
 40
0.0
 40
0.0
 40
0.0
 40
0.0580272736697225
 40
0.0580272736697225
 40
0.0580272736697225
 40
0.0580272736697225
 10
-358.4966137740043
 20
-289.4301502828229
 30
0.0
 10
-358.493039945712
 20
-289.4111408867498
 30
0.0
 10
-358.4953012300711
 20
-289.3914208488289
 30
0.0
 10
-358.4966137740043
 20
-289.3721230091532
 30
0.0
 11
-358.4966137740043
 21
-289.4301502828229
 31
0.0
 11
-358.4966137740043
 21
-289.3721230091532
 31
0.0
  0
LINE
  5
90198
330
1E
100
AcDbEntity
  8
DETAIL
  6
Continuous
100
AcDbLine
 10
-356.9597268473125
 20
-288.9179091926362
 30
0.0
 11
-356.9599798437288
 21
-288.9124147762295
 31
0.0
  0
LINE
  5
90199
330
1E
100
AcDbEntity
  8
DETAIL
  6
Continuous
100
AcDbLine
 10
-358.4966137740071
 20
-289.3721230091496
 30
0.0
 11
-358.4968807618761
 21
-289.3642721988344
 31
0.0
  0
LINE
  5
9019A
330
1E
100
AcDbEntity
  8
DETAIL
  6
Continuous
100
AcDbLine
 10
-356.9599798437288
 20
-288.9777128194773
 30
0.0
 11
-356.9597268473125
 21
-288.9759364663095
 31
0.0
  0
LINE
  5
9019B
330
1E
100
AcDbEntity
  8
DETAIL
  6
Continuous
100
AcDbLine
 10
-358.4968807618761
 20
-289.4326862863499
 30
0.0
 11
-358.4966137740071
 21
-289.4301502828229
 31
0.0
  0
ARC
  5
9019C
330
1E
100
AcDbEntity
  8
DETAIL
  6
Continuous
100
AcDbCircle
 10
-379.4264138439383
 20
-284.1371301291077
 30
0.0
 40
0.9468045029659645
100
AcDbArc
 50
97.96578072436261
 51
182.3144317632737
  0
ARC
  5
9019D
330
1E
100
AcDbEntity
  8
DETAIL
  6
Continuous
100
AcDbCircle
 10
-121.179838268202
 20
-285.2505904341226
 30
0.0
 40
259.1948379299977
100
AcDbArc
 50
179.762317665018
 51
180.1007115916616
  0
ARC
  5
9019E
330
1E
100
AcDbEntity
  8
DETAIL
  6
Continuous
100
AcDbCircle
 10
-379.3748220276816
 20
-285.68878657201
 30
0.0
 40
0.9995804867267999
100
AcDbArc
 50
181.0136254290789
 51
269.999886646202
  0
ARC
  5
9019F
330
1E
100
AcDbEntity
  8
DETAIL
  6
Continuous
100
AcDbCircle
 10
-377.5157966238973
 20
-275.7141479520995
 30
0.0
 40
7.385971220003339
100
AcDbArc
 50
254.9429098702784
 51
270.379644773937
  0
ARC
  5
901A0
330
1E
100
AcDbEntity
  8
DETAIL
  6
Continuous
100
AcDbCircle
 10
-378.7230299813637
 20
-281.3466620250277
 30
0.0
 40
1.660082059507404
100
AcDbArc
 50
174.8220173941003
 51
244.6215130941159
  0
LINE
  5
901A1
330
1E
100
AcDbEntity
  8
DETAIL
  6
Continuous
100
AcDbLine
 10
-310.3910612760369
 20
-283.3888642564297
 30
0.0
 11
-312.7263011190157
 21
-283.1003489517316
 31
0.0
  0
LINE
  5
901A2
330
1E
100
AcDbEntity
  8
DETAIL
  6
Continuous
100
AcDbLine
 10
-379.5573951654546
 20
-283.1970825617481
 30
0.0
 11
-311.9433402965309
 21
-283.1970825617481
 31
0.0
  0
LINE
  5
901A3
330
1E
100
AcDbEntity
  8
DETAIL
  6
Continuous
100
AcDbLine
 10
-312.7263011190157
 20
-283.1994405658124
 30
0.0
 11
-377.3773125000002
 21
-283.1994405658124
 31
0.0
  0
LINE
  5
901A4
330
1E
100
AcDbEntity
  8
DETAIL
  6
Continuous
100
AcDbLine
 10
-377.4668571578563
 20
-283.0999570338035
 30
0.0
 11
-312.7263011190157
 21
-283.1003489517316
 31
0.0
  0
LINE
  5
901A7
330
1E
100
AcDbEntity
  8
DETAIL
  6
Continuous
100
AcDbLine
 10
-2.001301438909194
 20
-286.6899307317053
 30
0.0
 11
-379.3748240052486
 21
-286.6883670587348
 31
0.0
  0
ARC
  5
901A8
330
1E
100
AcDbEntity
  8
DETAIL
  6
Continuous
100
AcDbCircle
 10
1.767329633098361
 20
-282.6337336050432
 30
0.0
 40
0.7559566839185158
100
AcDbArc
 50
179.3318487761005
 51
267.3212800977601
  0
ARC
  5
901A9
330
1E
100
AcDbEntity
  8
DETAIL
  6
Continuous
100
AcDbCircle
 10
1.999927976752651
 20
-285.690866501708
 30
0.0
 40
0.9982656120547691
100
AcDbArc
 50
183.6164248951053
 51
267.3935006999266
  0
ARC
  5
901AA
330
1E
100
AcDbEntity
  8
DETAIL
  6
Continuous
100
AcDbCircle
 10
-2.001174121259909
 20
-285.6905268081561
 30
0.0
 40
0.9994039316588786
100
AcDbArc
 50
269.9927008852474
 51
0.1577789837038167
  0
ARC
  5
901AB
330
1E
100
AcDbEntity
  8
DETAIL
  6
Continuous
100
AcDbCircle
 10
-1.774424008004432
 20
-282.6275424565767
 30
0.0
 40
0.7630530372763094
100
AcDbArc
 50
274.0944687219425
 51
0.4547489565567752
  0
ARC
  5
901AD
330
1E
100
AcDbEntity
  8
DETAIL
  6
Continuous
100
AcDbCircle
 10
-6.74861177230867
 20
-257.2944949917777
 30
0.0
 40
10.21340800583436
100
AcDbArc
 50
64.33015565643806
 51
91.39762870012264
  0
ARC
  5
901AE
330
1E
100
AcDbEntity
  8
DETAIL
  6
Continuous
100
AcDbCircle
 10
5.954544338371482
 20
-254.0527492026055
 30
0.0
 40
6.935199478267207
100
AcDbArc
 50
89.18598086553641
 51
128.3229891567416
  0
ARC
  5
901AF
330
1E
100
AcDbEntity
  8
DETAIL
  6
Continuous
100
AcDbCircle
 10
3.789985391995214
 20
-250.3745847955398
 30
0.0
 40
2.766869616284337
100
AcDbArc
 50
138.2956668837078
 51
181.1311047800316
  0
ARC
  5
901B0
330
1E
100
AcDbEntity
  8
DETAIL
  6
Continuous
100
AcDbCircle
 10
-3.518379659819792
 20
-250.2727394496081
 30
0.0
 40
2.488789167095726
100
AcDbArc
 50
359.532808873251
 51
61.32924217580247
  0
LINE
  5
901DD
330
1E
100
AcDbEntity
  8
SIZE
  6
Continuous
100
AcDbLine
 10
-399.5697737865528
 20
9.999209812572189
 30
0.0
 11
-399.5697737865528
 21
142.2262578441682
 31
0.0
  0
LINE
  5
901DE
330
1E
100
AcDbEntity
  8
SIZE
  6
Continuous
100
AcDbLine
 10
399.5700970095347
 20
7.773996315770318
 30
0.0
 11
399.5700970095347
 21
142.2262578441682
 31
0.0
  0
LINE
  5
901DF
330
1E
100
AcDbEntity
  8
SIZE
  6
Continuous
100
AcDbLine
 10
-389.5697737865529
 20
122.2262578441682
 30
0.0
 11
389.5700970095347
 21
122.2262578441682
 31
0.0
  0
LINE
  5
901E3
330
1E
100
AcDbEntity
  8
SIZE
  6
Continuous
100
AcDbLine
 10
-409.5733472954251
 20
0.0002480425093893
 30
0.0
 11
-525.1781638064722
 21
0.000248042509422
 31
0.0
  0
LINE
  5
901E4
330
1E
100
AcDbEntity
  8
SIZE
  6
Continuous
100
AcDbLine
 10
-402.3756874995583
 20
-295.453958220142
 30
0.0
 11
-525.1781638064723
 21
-295.453958220142
 31
0.0
  0
LINE
  5
901E5
330
1E
100
AcDbEntity
  8
SIZE
  6
Continuous
100
AcDbLine
 10
-505.1781638064722
 20
-9.999751957490584
 30
0.0
 11
-505.1781638064722
 21
-285.453958220142
 31
0.0
  0
CIRCLE
  5
901E9
330
1E
100
AcDbEntity
  8
SIZE
  6
ByBlock
100
AcDbCircle
 10
-505.1781638064722
 20
-295.453958220142
 30
0.0
 40
5.0
  0
LINE
  5
901EA
330
1E
100
AcDbEntity
  8
SIZE
  6
ByBlock
100
AcDbLine
 10
-505.1781638064722
 20
-295.453958220142
 30
0.0
 11
-505.1781638064722
 21
-285.453958220142
 31
0.0
  0
TEXT
  5
901EB
330
1E
100
AcDbEntity
  8
SIZE
  6
Continuous
100
AcDbText
 10
-515.1781638064721
 20
-205.5839979459592
 30
0.0
 40
50.0
  1
295
 50
90.0
 41
0.9
100
AcDbText
  0
CIRCLE
  5
901EC
330
1E
100
AcDbEntity
  8
SIZE
  6
ByBlock
100
AcDbCircle
 10
-505.1781638064722
 20
0.0002480425094163
 30
0.0
 40
5.0
  0
LINE
  5
901ED
330
1E
100
AcDbEntity
  8
SIZE
  6
ByBlock
100
AcDbLine
 10
-505.1781638064722
 20
0.0002480425094163
 30
0.0
 11
-505.1781638064722
 21
-9.999751957490584
 31
0.0
  0
CIRCLE
  5
901EE
330
1E
100
AcDbEntity
  8
SIZE
  6
ByBlock
100
AcDbCircle
 10
-399.5697737865528
 20
122.2262578441682
 30
0.0
 40
5.0
  0
LINE
  5
901EF
330
1E
100
AcDbEntity
  8
SIZE
  6
ByBlock
100
AcDbLine
 10
-399.5697737865528
 20
122.2262578441682
 30
0.0
 11
-389.5697737865529
 21
122.2262578441682
 31
0.0
  0
TEXT
  5
901F0
330
1E
100
AcDbEntity
  8
SIZE
  6
Continuous
100
AcDbText
 10
-56.78555267422336
 20
132.2262578441682
 30
0.0
 40
50.0
  1
799
 41
0.9
100
AcDbText
  0
CIRCLE
  5
901F1
330
1E
100
AcDbEntity
  8
SIZE
  6
ByBlock
100
AcDbCircle
 10
399.5700970095347
 20
122.2262578441682
 30
0.0
 40
5.0
  0
LINE
  5
901F2
330
1E
100
AcDbEntity
  8
SIZE
  6
ByBlock
100
AcDbLine
 10
399.5700970095347
 20
122.2262578441682
 30
0.0
 11
389.5700970095347
 21
122.2262578441682
 31
0.0
  0
LINE
  5
901FA
330
1E
100
AcDbEntity
  8
OUTLINE
  6
Continuous
100
AcDbLine
 10
-344.6983398922707
 20
0.0
 30
0.0
 11
272.5433846245764
 21
0.0
 31
0.0
  0
LINE
  5
90200
330
1E
100
AcDbEntity
  8
OUTLINE
  6
Continuous
100
AcDbLine
 10
-297.1034099999992
 20
-295.4539462500024
 30
0.0
 11
281.0586262500009
 21
-295.4539462500024
 31
0.0
  0
LINE
  5
90209
330
1E
100
AcDbEntity
  8
OUTLINE
  6
Continuous
100
AcDbLine
 10
-382.3756874999999
 20
-295.4539462500024
 30
0.0
 11
-297.1034099999992
 21
-295.4539462500024
 31
0.0
  0
LINE
  5
9020B
330
1E
100
AcDbEntity
  8
OUTLINE
  6
Continuous
100
AcDbLine
 10
-389.5733472954251
 20
0.0002480425092699
 30
0.0
 11
-344.6983398922707
 21
0.0
 31
0.0
  0
LINE
  5
9021A
330
1E
100
AcDbEntity
  8
OUTLINE
  6
Continuous
100
AcDbLine
 10
-399.5700974999995
 20
-10.00079028381787
 30
0.0
 11
-399.5700372622518
 21
-283.2963317486073
 31
0.0
  0
ARC
  5
9022A
330
1E
100
AcDbEntity
  8
OUTLINE
  6
Continuous
100
AcDbCircle
 10
-386.4453046569419
 20
-283.217344880222
 30
0.0
 40
13.12497028134768
100
AcDbArc
 50
180.3448115627135
 51
192.4933607330665
  0
ARC
  5
9022B
330
1E
100
AcDbEntity
  8
OUTLINE
  6
Continuous
100
AcDbCircle
 10
-382.3751002335893
 20
-266.5371558515407
 30
0.0
 40
28.91680237456469
100
AcDbArc
 50
241.2543136686063
 51
269.9988363925931
  0
ARC
  5
9022C
330
1E
100
AcDbEntity
  8
OUTLINE
  6
Continuous
100
AcDbCircle
 10
-387.0784547955425
 20
-283.5159657916776
 30
0.0
 40
12.44317307765686
100
AcDbArc
 50
191.781551383613
 51
222.2997527308679
  0
ARC
  5
9025D
330
1E
100
AcDbEntity
  8
OUTLINE
  6
Continuous
100
AcDbCircle
 10
-389.5717269661858
 20
-9.998122715863473
 30
0.0
 40
9.998370889667532
100
AcDbArc
 50
90.00928531540401
 51
180.0152865290606
  0
LINE
  5
90331
330
1E
100
AcDbEntity
  8
OUTLINE
  6
Continuous
100
AcDbLine
 10
399.5700970095347
 20
-12.22600368423548
 30
0.0
 11
399.5700372622518
 21
-283.2963317486073
 31
0.0
  0
LINE
  5
90333
330
1E
100
AcDbEntity
  8
OUTLINE
  6
Continuous
100
AcDbLine
 10
382.3756875000004
 20
-295.4539462500024
 30
0.0
 11
281.2585612499992
 21
-295.4539462500024
 31
0.0
  0
ARC
  5
90391
330
1E
100
AcDbEntity
  8
OUTLINE
  6
Continuous
100
AcDbCircle
 10
386.4453046569419
 20
-283.217344880222
 30
0.0
 40
13.12497028134768
100
AcDbArc
 50
347.5066392669333
 51
359.6551884372863
  0
ARC
  5
90393
330
1E
100
AcDbEntity
  8
OUTLINE
  6
Continuous
100
AcDbCircle
 10
387.0784547955425
 20
-283.5159657916776
 30
0.0
 40
12.44317307765686
100
AcDbArc
 50
317.700247269132
 51
348.218448616387
  0
ARC
  5
90398
330
1E
100
AcDbEntity
  8
OUTLINE
  6
Continuous
100
AcDbCircle
 10
382.3751002335893
 20
-266.5371558515407
 30
0.0
 40
28.91680237456469
100
AcDbArc
 50
270.0011636074069
 51
298.7456863313937
  0
SPLINE
  5
903E1
330
1E
100
AcDbEntity
  8
OUTLINE
  6
Continuous
100
AcDbSpline
210
0.0
220
0.0
230
1.0
 70
     8
 71
     3
 72
    11
 73
     7
 74
     5
 42
0.0000000001
 43
0.0000000001
 44
0.0000000001
 12
0.7422585604408861
 22
0.6701135944391994
 32
0.0
 13
0.0000010026557412
 23
0.9999999999994972
 33
0.0
 40
0.0
 40
0.0
 40
0.0
 40
0.0
 40
0.0352668483859296
 40
0.15302037920841
 40
0.2608344404916753
 40
0.3629662815965788
 40
0.3629662815965788
 40
0.3629662815965788
 40
0.3629662815965788
 10
399.4106409575574
 20
-205.9504814156162
 30
0.0
 10
399.4193666642622
 20
-205.9426038174373
 30
0.0
 10
399.4563105457255
 20
-205.9074340990178
 30
0.0
 10
399.5119301224663
 20
-205.8395829946961
 30
0.0
 10
399.5592052789798
 20
-205.7397603725624
 30
0.0
 10
399.5700974658652
 20
-205.669382839925
 30
0.0
 10
399.5700974999995
 20
-205.6353388928901
 30
0.0
 11
399.4106409575574
 21
-205.9504814156162
 31
0.0
 11
399.4361665323808
 21
-205.9261463457578
 31
0.0
 11
399.5098097185614
 21
-205.8342628589371
 31
0.0
 11
399.5549101454958
 21
-205.7363352157472
 31
0.0
 11
399.5700974999995
 21
-205.6353388928901
 31
0.0
  0
ARC
  5
903E2
330
1E
100
AcDbEntity
  8
OUTLINE
  6
Continuous
100
AcDbCircle
 10
397.4869578178313
 20
-205.6355357795555
 30
0.0
 40
2.0831418601254
100
AcDbArc
 50
337.4586314934211
 51
0.0054877512759058
  0
SPLINE
  5
903E3
330
1E
100
AcDbEntity
  8
OUTLINE
  6
Continuous
100
AcDbSpline
210
0.0
220
0.0
230
1.0
 70
     8
 71
     3
 72
    10
 73
     6
 74
     4
 42
0.0000000001
 43
0.0000000001
 44
0.0000000001
 12
0.0000045595127303
 22
-0.9999999999896054
 32
0.0
 13
-0.6875031450090875
 23
-0.7261813999288426
 33
0.0
 40
0.0
 40
0.0
 40
0.0
 40
0.0
 40
0.1573469367518695
 40
0.3297524170022585
 40
0.4134898400555108
 40
0.4134898400555108
 40
0.4134898400555108
 40
0.4134898400555108
 10
399.570097575975
 20
-214.7522945150331
 30
0.0
 10
399.5700978151169
 20
-214.8047434939498
 30
0.0
 10
399.5487485883154
 20
-214.9154122914954
 30
0.0
 10
399.4778981923655
 20
-215.0360258226641
 30
0.0
 10
399.422276268835
 20
-215.1009074402387
 30
0.0
 10
399.4030863549337
 20
-215.1211769599385
 30
0.0
 11
399.570097575975
 21
-214.7522945150331
 31
0.0
 11
399.5417196058147
 21
-214.9070612728164
 31
0.0
 11
399.457389845898
 21
-215.0574346122512
 31
0.0
 11
399.4030863549337
 21
-215.1211769599385
 31
0.0
  0
LINE
  5
903E6
330
1E
100
AcDbEntity
  8
OUTLINE
  6
Continuous
100
AcDbLine
 10
272.5433846245764
 20
0.0
 30
0.0
 11
389.5733472600772
 21
0.0
 31
0.0
  0
ARC
  5
903F6
330
1E
100
AcDbEntity
  8
OUTLINE
  6
Continuous
100
AcDbCircle
 10
388.0164879183489
 20
-11.47274132763982
 30
0.0
 40
11.57813833091467
100
AcDbArc
 50
356.2697579718872
 51
82.27229042755629
  0
ENDSEC
  0
SECTION
  2
OBJECTS
  0
DICTIONARY
  5
C
330
0
100
AcDbDictionary
281
     1
  3
ACAD_GROUP
350
D
  3
ACAD_LAYOUT
350
19
  3
ACAD_MLINESTYLE
350
16
  3
ACAD_PLOTSETTINGS
350
18
  3
ACAD_PLOTSTYLENAME
350
E
  0
DICTIONARY
  5
66E76
330
1E
100
AcDbDictionary
280
     1
281
     1
  0
DICTIONARY
  5
66E74
330
1A
100
AcDbDictionary
280
     1
281
     1
  0
DICTIONARY
  5
D
102
{ACAD_REACTORS
330
C
102
}
330
C
100
AcDbDictionary
281
     1
  3
*A1
350
677EB
  0
DICTIONARY
  5
19
102
{ACAD_REACTORS
330
C
102
}
330
C
100
AcDbDictionary
281
     1
  3
Model
350
67C8F
  3
ﾚｲｱｳﾄ1
350
67C90
  0
DICTIONARY
  5
16
102
{ACAD_REACTORS
330
C
102
}
330
C
100
AcDbDictionary
281
     1
  3
STANDARD
350
17
  0
DICTIONARY
  5
18
102
{ACAD_REACTORS
330
C
102
}
330
C
100
AcDbDictionary
281
     1
  0
ACDBDICTIONARYWDFLT
  5
E
102
{ACAD_REACTORS
330
C
102
}
330
C
100
AcDbDictionary
281
     1
  3
Normal
350
F
100
AcDbDictionaryWithDefault
340
F
  0
GROUP
  5
677EB
102
{ACAD_REACTORS
330
D
102
}
330
D
100
AcDbGroup
300

 70
     1
 71
     1
  0
LAYOUT
  5
67C8F
102
{ACAD_REACTORS
330
19
102
}
330
19
100
AcDbPlotSettings
  1

  2
EPSON LP-8900.pc3
  4
A3
  6
ALL
 40
5.873749732971191
 41
5.873747825622558
 42
5.873748779296875
 43
5.873748779296875
 44
297.0106506347656
 45
419.9466552734374
 46
0.0
 47
0.0
 48
0.0
 49
0.0
140
0.0
141
0.0
142
1.0
143
16.78949592457062
 70
 11952
 72
     1
 73
     1
 74
     2
  7

 75
     0
147
0.0595610496284494
148
2181.302972627799
149
1786.160193653948
100
AcDbLayout
  1
Model
 70
     1
 71
     0
 10
0.0
 20
0.0
 11
12.0
 21
9.0
 12
0.0
 22
0.0
 32
0.0
 14
0.0
 24
0.0
 34
0.0
 15
0.0
 25
0.0
 35
0.0
146
0.0
 13
0.0
 23
0.0
 33
0.0
 16
1.0
 26
0.0
 36
0.0
 17
0.0
 27
1.0
 37
0.0
 76
     0
330
1E
  0
LAYOUT
  5
67C90
102
{ACAD_REACTORS
330
19
102
}
330
19
100
AcDbPlotSettings
  1

  2
Microsoft XPS Document Writer
  4

  6

 40
0.0
 41
0.0
 42
0.0
 43
0.0
 44
0.0
 45
0.0
 46
0.0
 47
0.0
 48
0.0
 49
0.0
140
0.0
141
0.0
142
1.0
143
1.0
 70
   688
 72
     0
 73
     0
 74
     5
  7

 75
    16
147
1.0
148
0.0
149
0.0
100
AcDbLayout
  1
ﾚｲｱｳﾄ1
 70
     1
 71
     1
 10
0.0
 20
0.0
 11
12.0
 21
9.0
 12
0.0
 22
0.0
 32
0.0
 14
1.000000000000000E+20
 24
1.000000000000000E+20
 34
1.000000000000000E+20
 15
-1.000000000000000E+20
 25
-1.000000000000000E+20
 35
-1.000000000000000E+20
146
0.0
 13
0.0
 23
0.0
 33
0.0
 16
1.0
 26
0.0
 36
0.0
 17
0.0
 27
1.0
 37
0.0
 76
     0
330
1A
  0
MLINESTYLE
  5
17
102
{ACAD_REACTORS
330
16
102
}
330
16
100
AcDbMlineStyle
  2
STANDARD
 70
     0
  3

 62
   256
 51
90.0
 52
90.0
 71
     2
 49
0.5
 62
   256
  6
BYLAYER
 49
-0.5
 62
   256
  6
BYLAYER
  0
ACDBPLACEHOLDER
  5
F
102
{ACAD_REACTORS
330
E
102
}
330
E
  0
ENDSEC
  0
EOF
