  0
SECTION
  2
HEADER
  9
$ACADVER
  1
AC1015
  9
$ACADMAINTVER
 70
    10
  9
$DWGCODEPAGE
  3
ANSI_932
  9
$INSBASE
 10
0.0
 20
0.0
 30
0.0
  9
$EXTMIN
 10
-346.7354551586504
 20
-462.5714270423286
 30
-0.0015258207003583
  9
$EXTMAX
 10
806.2091132849236
 20
461.0687274456377
 30
0.0000000349246037
  9
$LIMMIN
 10
-488.6544763212477
 20
-679.0075875847196
  9
$LIMMAX
 10
1039.324809946236
 20
598.804512134051
  9
$ORTHOMODE
 70
     1
  9
$REGENMODE
 70
     1
  9
$FILLMODE
 70
     1
  9
$QTEXTMODE
 70
     0
  9
$MIRRTEXT
 70
     0
  9
$LTSCALE
 40
20.0
  9
$ATTMODE
 70
     1
  9
$TEXTSIZE
 40
64.0
  9
$TRACEWID
 40
0.05
  9
$TEXTSTYLE
  7
STANDARD
  9
$CLAYER
  8
OUTLINE
  9
$CELTYPE
  6
CONTINUOUS
  9
$CECOLOR
 62
   256
  9
$CELTSCALE
 40
1.0
  9
$DISPSILH
 70
     0
  9
$DIMSCALE
 40
1.0
  9
$DIMASZ
 40
10.0
  9
$DIMEXO
 40
20.0
  9
$DIMDLI
 40
200.0
  9
$DIMRND
 40
0.0
  9
$DIMDLE
 40
0.0
  9
$DIMEXE
 40
20.0
  9
$DIMTP
 40
0.0
  9
$DIMTM
 40
0.0
  9
$DIMTXT
 40
50.0
  9
$DIMCEN
 40
0.082
  9
$DIMTSZ
 40
0.0
  9
$DIMTOL
 70
     0
  9
$DIMLIM
 70
     0
  9
$DIMTIH
 70
     0
  9
$DIMTOH
 70
     0
  9
$DIMSE1
 70
     0
  9
$DIMSE2
 70
     0
  9
$DIMTAD
 70
     1
  9
$DIMZIN
 70
     8
  9
$DIMBLK
  1
ORIGIN
  9
$DIMASO
 70
     1
  9
$DIMSHO
 70
     0
  9
$DIMPOST
  1

  9
$DIMAPOST
  1

  9
$DIMALT
 70
     0
  9
$DIMALTD
 70
     2
  9
$DIMALTF
 40
25.4
  9
$DIMLFAC
 40
1.0
  9
$DIMTOFL
 70
     1
  9
$DIMTVP
 40
0.0
  9
$DIMTIX
 70
     0
  9
$DIMSOXD
 70
     0
  9
$DIMSAH
 70
     0
  9
$DIMBLK1
  1

  9
$DIMBLK2
  1

  9
$DIMSTYLE
  2
STANDARD
  9
$DIMCLRD
 70
     0
  9
$DIMCLRE
 70
     0
  9
$DIMCLRT
 70
     0
  9
$DIMTFAC
 40
1.0
  9
$DIMGAP
 40
10.0
  9
$DIMJUST
 70
     0
  9
$DIMSD1
 70
     0
  9
$DIMSD2
 70
     0
  9
$DIMTOLJ
 70
     1
  9
$DIMTZIN
 70
     0
  9
$DIMALTZ
 70
     0
  9
$DIMALTTZ
 70
     0
  9
$DIMUPT
 70
     0
  9
$DIMDEC
 70
     0
  9
$DIMTDEC
 70
     0
  9
$DIMALTU
 70
     2
  9
$DIMALTTD
 70
     2
  9
$DIMTXSTY
  7
STANDARD
  9
$DIMAUNIT
 70
     0
  9
$DIMADEC
 70
     0
  9
$DIMALTRND
 40
0.0
  9
$DIMAZIN
 70
     0
  9
$DIMDSEP
 70
    46
  9
$DIMATFIT
 70
     3
  9
$DIMFRAC
 70
     0
  9
$DIMLDRBLK
  1
ORIGIN
  9
$DIMLUNIT
 70
     2
  9
$DIMLWD
 70
    -2
  9
$DIMLWE
 70
    -2
  9
$DIMTMOVE
 70
     0
  9
$LUNITS
 70
     2
  9
$LUPREC
 70
     4
  9
$SKETCHINC
 40
0.1
  9
$FILLETRAD
 40
10.0
  9
$AUNITS
 70
     1
  9
$AUPREC
 70
     3
  9
$MENU
  1
ACAD
  9
$ELEVATION
 40
0.0
  9
$PELEVATION
 40
0.0
  9
$THICKNESS
 40
0.0
  9
$LIMCHECK
 70
     0
  9
$CHAMFERA
 40
0.0
  9
$CHAMFERB
 40
0.0
  9
$CHAMFERC
 40
0.0
  9
$CHAMFERD
 40
0.0
  9
$SKPOLY
 70
     0
  9
$TDCREATE
 40
2450330.393205995
  9
$TDUCREATE
 40
2450330.018205995
  9
$TDUPDATE
 40
2455513.383492835
  9
$TDUUPDATE
 40
2455513.008492836
  9
$TDINDWG
 40
3.2048284028
  9
$TDUSRTIMER
 40
3.2048278472
  9
$USRTIMER
 70
     1
  9
$ANGBASE
 50
0.0
  9
$ANGDIR
 70
     0
  9
$PDMODE
 70
     3
  9
$PDSIZE
 40
-2.0
  9
$PLINEWID
 40
0.0
  9
$SPLFRAME
 70
     0
  9
$SPLINETYPE
 70
     6
  9
$SPLINESEGS
 70
     8
  9
$HANDSEED
  5
D7139
  9
$SURFTAB1
 70
     6
  9
$SURFTAB2
 70
     6
  9
$SURFTYPE
 70
     6
  9
$SURFU
 70
     6
  9
$SURFV
 70
     6
  9
$UCSBASE
  2

  9
$UCSNAME
  2

  9
$UCSORG
 10
0.0
 20
0.0
 30
0.0
  9
$UCSXDIR
 10
1.0
 20
0.0
 30
0.0
  9
$UCSYDIR
 10
0.0
 20
1.0
 30
0.0
  9
$UCSORTHOREF
  2

  9
$UCSORTHOVIEW
 70
     0
  9
$UCSORGTOP
 10
0.0
 20
0.0
 30
0.0
  9
$UCSORGBOTTOM
 10
0.0
 20
0.0
 30
0.0
  9
$UCSORGLEFT
 10
0.0
 20
0.0
 30
0.0
  9
$UCSORGRIGHT
 10
0.0
 20
0.0
 30
0.0
  9
$UCSORGFRONT
 10
0.0
 20
0.0
 30
0.0
  9
$UCSORGBACK
 10
0.0
 20
0.0
 30
0.0
  9
$PUCSBASE
  2

  9
$PUCSNAME
  2

  9
$PUCSORG
 10
0.0
 20
0.0
 30
0.0
  9
$PUCSXDIR
 10
1.0
 20
0.0
 30
0.0
  9
$PUCSYDIR
 10
0.0
 20
1.0
 30
0.0
  9
$PUCSORTHOREF
  2

  9
$PUCSORTHOVIEW
 70
     0
  9
$PUCSORGTOP
 10
0.0
 20
0.0
 30
0.0
  9
$PUCSORGBOTTOM
 10
0.0
 20
0.0
 30
0.0
  9
$PUCSORGLEFT
 10
0.0
 20
0.0
 30
0.0
  9
$PUCSORGRIGHT
 10
0.0
 20
0.0
 30
0.0
  9
$PUCSORGFRONT
 10
0.0
 20
0.0
 30
0.0
  9
$PUCSORGBACK
 10
0.0
 20
0.0
 30
0.0
  9
$USERI1
 70
     0
  9
$USERI2
 70
     0
  9
$USERI3
 70
     0
  9
$USERI4
 70
     0
  9
$USERI5
 70
     0
  9
$USERR1
 40
20.0
  9
$USERR2
 40
0.0
  9
$USERR3
 40
0.0
  9
$USERR4
 40
0.0
  9
$USERR5
 40
0.0
  9
$WORLDVIEW
 70
     1
  9
$SHADEDGE
 70
     3
  9
$SHADEDIF
 70
    70
  9
$TILEMODE
 70
     1
  9
$MAXACTVP
 70
    64
  9
$PINSBASE
 10
0.0
 20
0.0
 30
0.0
  9
$PLIMCHECK
 70
     0
  9
$PEXTMIN
 10
1.000000000000000E+20
 20
1.000000000000000E+20
 30
1.000000000000000E+20
  9
$PEXTMAX
 10
-1.000000000000000E+20
 20
-1.000000000000000E+20
 30
-1.000000000000000E+20
  9
$PLIMMIN
 10
0.0
 20
0.0
  9
$PLIMMAX
 10
12.0
 20
9.0
  9
$UNITMODE
 70
     0
  9
$VISRETAIN
 70
     1
  9
$PLINEGEN
 70
     0
  9
$PSLTSCALE
 70
     1
  9
$TREEDEPTH
 70
  3020
  9
$CMLSTYLE
  2
STANDARD
  9
$CMLJUST
 70
     0
  9
$CMLSCALE
 40
1.0
  9
$PROXYGRAPHICS
 70
     1
  9
$MEASUREMENT
 70
     0
  9
$CELWEIGHT
370
    -1
  9
$ENDCAPS
280
     0
  9
$JOINSTYLE
280
     0
  9
$LWDISPLAY
290
     0
  9
$INSUNITS
 70
     0
  9
$HYPERLINKBASE
  1

  9
$STYLESHEET
  1

  9
$XEDIT
290
     1
  9
$CEPSNTYPE
380
     0
  9
$PSTYLEMODE
290
     1
  9
$FINGERPRINTGUID
  2
{97DA8DB6-C4F0-4C3D-ABEB-53C4FBBC7EFF}
  9
$VERSIONGUID
  2
{FC893378-1751-43BF-8269-B697FEA19D52}
  9
$EXTNAMES
290
     1
  9
$PSVPSCALE
 40
0.0
  9
$OLESTARTUP
290
     0
  0
ENDSEC
  0
SECTION
  2
CLASSES
  0
CLASS
  1
ACDBDICTIONARYWDFLT
  2
AcDbDictionaryWithDefault
  3
AutoCAD 2000
 90
        0
280
     0
281
     0
  0
CLASS
  1
ACDBPLACEHOLDER
  2
AcDbPlaceHolder
  3
AutoCAD 2000
 90
        0
280
     0
281
     0
  0
CLASS
  1
LAYOUT
  2
AcDbLayout
  3
AutoCAD 2000
 90
        0
280
     0
281
     0
  0
CLASS
  1
LONG_TRANSACTION
  2
AcDbLongTransaction
  3
AutoCAD 2000
 90
    32768
280
     0
281
     0
  0
CLASS
  1
LWPOLYLINE
  2
AcDbPolyline
  3
AutoCAD 2000
 90
    32768
280
     0
281
     1
  0
CLASS
  1
HATCH
  2
AcDbHatch
  3
AutoCAD 2000
 90
    32768
280
     0
281
     1
  0
CLASS
  1
XRECORD
  2
AcDbXrecord
  3
AutoCAD 2000
 90
    32768
280
     0
281
     0
  0
CLASS
  1
LONG_TRANSACTION
  2
AcDbLongTransaction
  3
AutoCAD 2000
 90
    32768
280
     0
281
     0
  0
CLASS
  1
LWPOLYLINE
  2
AcDbPolyline
  3
AutoCAD 2000
 90
    32768
280
     0
281
     1
  0
CLASS
  1
HATCH
  2
AcDbHatch
  3
AutoCAD 2000
 90
    32768
280
     0
281
     1
  0
CLASS
  1
XRECORD
  2
AcDbXrecord
  3
AutoCAD 2000
 90
    32768
280
     0
281
     0
  0
CLASS
  1
LONG_TRANSACTION
  2
AcDbLongTransaction
  3
AutoCAD 2000
 90
    32768
280
     0
281
     0
  0
CLASS
  1
LWPOLYLINE
  2
AcDbPolyline
  3
AutoCAD 2000
 90
    32768
280
     0
281
     1
  0
CLASS
  1
HATCH
  2
AcDbHatch
  3
AutoCAD 2000
 90
    32768
280
     0
281
     1
  0
CLASS
  1
XRECORD
  2
AcDbXrecord
  3
AutoCAD 2000
 90
    32768
280
     0
281
     0
  0
ENDSEC
  0
SECTION
  2
TABLES
  0
TABLE
  2
VPORT
  5
8
330
0
100
AcDbSymbolTable
 70
    11
  0
VPORT
  5
D7138
330
8
100
AcDbSymbolTableRecord
100
AcDbViewportTableRecord
  2
*Active
 70
     0
 10
0.0
 20
0.0
 11
1.0
 21
1.0
 12
295.904121660229
 22
-117.9452618509476
 13
0.0
 23
0.0
 14
50.0
 24
50.0
 15
100.0
 25
100.0
 16
0.0
 26
0.0
 36
1.0
 17
0.0
 27
0.0
 37
0.0
 40
2200.186789720163
 41
1.307486631016042
 42
50.0
 43
0.0
 44
0.0
 50
0.0
 51
0.0
 71
     0
 72
   500
 73
     1
 74
     0
 75
     0
 76
     0
 77
     0
 78
     0
281
     0
 65
     1
110
0.0
120
0.0
130
0.0
111
1.0
121
0.0
131
0.0
112
0.0
122
1.0
132
0.0
 79
     0
146
0.0
  0
ENDTAB
  0
TABLE
  2
LTYPE
  5
5
330
0
100
AcDbSymbolTable
 70
     3
  0
LTYPE
  5
13
330
5
100
AcDbSymbolTableRecord
100
AcDbLinetypeTableRecord
  2
BYBLOCK
 70
     0
  3

 72
    65
 73
     0
 40
0.0
  0
LTYPE
  5
14
330
5
100
AcDbSymbolTableRecord
100
AcDbLinetypeTableRecord
  2
BYLAYER
 70
     0
  3

 72
    65
 73
     0
 40
0.0
  0
LTYPE
  5
15
330
5
100
AcDbSymbolTableRecord
100
AcDbLinetypeTableRecord
  2
CONTINUOUS
 70
     0
  3
実線
 72
    65
 73
     0
 40
0.0
  0
LTYPE
  5
23
330
5
100
AcDbSymbolTableRecord
100
AcDbLinetypeTableRecord
  2
DASHDOT
 70
     0
  3
____ _ ____ _ ____ _ ____ _ ____ _ ____ _ ____
 72
    65
 73
     4
 40
5.5
 49
4.0
 74
     0
 49
-0.6
 74
     0
 49
0.3
 74
     0
 49
-0.6
 74
     0
  0
LTYPE
  5
901BD
330
5
100
AcDbSymbolTableRecord
100
AcDbLinetypeTableRecord
  2
CENTER
 70
     0
  3
____ _ ____ _ ____ _ ____ _ ____ _ ____ _ ____
 72
    65
 73
     4
 40
0.6
 49
0.375
 74
     0
 49
-0.075
 74
     0
 49
0.075
 74
     0
 49
-0.075
 74
     0
  0
ENDTAB
  0
TABLE
  2
LAYER
  5
2
330
0
100
AcDbSymbolTable
 70
     9
  0
LAYER
  5
10
330
2
100
AcDbSymbolTableRecord
100
AcDbLayerTableRecord
  2
0
 70
     0
 62
     7
  6
CONTINUOUS
370
    -3
390
F
  0
LAYER
  5
22
330
2
100
AcDbSymbolTableRecord
100
AcDbLayerTableRecord
  2
SIZE
 70
     0
 62
    32
  6
CONTINUOUS
370
    -3
390
F
  0
LAYER
  5
31
330
2
100
AcDbSymbolTableRecord
100
AcDbLayerTableRecord
  2
DETAIL
 70
     0
 62
     5
  6
CONTINUOUS
370
    -3
390
F
  0
LAYER
  5
32
330
2
100
AcDbSymbolTableRecord
100
AcDbLayerTableRecord
  2
OUTLINE
 70
     0
 62
     3
  6
CONTINUOUS
370
    -3
390
F
  0
LAYER
  5
33
330
2
100
AcDbSymbolTableRecord
100
AcDbLayerTableRecord
  2
BASIS
 70
     0
 62
     6
  6
CONTINUOUS
370
    -3
390
F
  0
LAYER
  5
34
330
2
100
AcDbSymbolTableRecord
100
AcDbLayerTableRecord
  2
NOTE
 70
     0
 62
     4
  6
CONTINUOUS
370
    -3
390
F
  0
LAYER
  5
35
330
2
100
AcDbSymbolTableRecord
100
AcDbLayerTableRecord
  2
ARRANGE
 70
     0
 62
     1
  6
CONTINUOUS
370
    -3
390
F
  0
LAYER
  5
37
330
2
100
AcDbSymbolTableRecord
100
AcDbLayerTableRecord
  2
ETC
 70
     0
 62
    83
  6
CONTINUOUS
370
    -3
390
F
  0
LAYER
  5
3A
330
2
100
AcDbSymbolTableRecord
100
AcDbLayerTableRecord
  2
DEFPOINTS
 70
     0
 62
     7
  6
CONTINUOUS
290
     0
370
    -3
390
F
  0
ENDTAB
  0
TABLE
  2
STYLE
  5
3
330
0
100
AcDbSymbolTable
 70
     1
  0
STYLE
  5
11
330
3
100
AcDbSymbolTableRecord
100
AcDbTextStyleTableRecord
  2
STANDARD
 70
     0
 40
0.0
 41
0.9
 50
0.0
 71
     0
 42
64.0
  3
SIMPLEX
  4
BIGFONT
  0
ENDTAB
  0
TABLE
  2
VIEW
  5
6
330
0
100
AcDbSymbolTable
 70
     1
  0
VIEW
  5
3C
330
6
100
AcDbSymbolTableRecord
100
AcDbViewTableRecord
  2
ALL
 70
     0
 40
4282.62
 10
0.0
 20
41.30990399999999
 41
5940.0
 11
0.0
 21
0.0
 31
1.0
 12
0.0
 22
0.0
 32
0.0
 42
50.0
 43
0.0
 44
0.0
 50
0.0
 71
     0
281
     0
 72
     0
  0
ENDTAB
  0
TABLE
  2
UCS
  5
7
330
0
100
AcDbSymbolTable
 70
     0
  0
ENDTAB
  0
TABLE
  2
APPID
  5
9
330
0
100
AcDbSymbolTable
 70
     1
  0
APPID
  5
12
330
9
100
AcDbSymbolTableRecord
100
AcDbRegAppTableRecord
  2
ACAD
 70
     0
  0
ENDTAB
  0
TABLE
  2
DIMSTYLE
  5
A
330
0
100
AcDbSymbolTable
 70
     1
100
AcDbDimStyleTable
 71
     1
340
213
  0
DIMSTYLE
105
213
330
A
100
AcDbSymbolTableRecord
100
AcDbDimStyleTableRecord
  2
STANDARD
 70
     0
340
11
  0
ENDTAB
  0
TABLE
  2
BLOCK_RECORD
  5
1
330
0
100
AcDbSymbolTable
 70
    30
  0
BLOCK_RECORD
  5
1E
102
{ACAD_XDICTIONARY
360
66E76
102
}
330
1
100
AcDbSymbolTableRecord
100
AcDbBlockTableRecord
  2
*MODEL_SPACE
340
67C8F
  0
BLOCK_RECORD
  5
1A
102
{ACAD_XDICTIONARY
360
66E74
102
}
330
1
100
AcDbSymbolTableRecord
100
AcDbBlockTableRecord
  2
*PAPER_SPACE
340
67C90
  0
BLOCK_RECORD
  5
46
330
1
100
AcDbSymbolTableRecord
100
AcDbBlockTableRecord
  2
_ORIGIN
340
0
102
{BLKREFS
331
C66AC
331
C66AD
331
C66B6
331
C66B7
331
C66BF
331
C66C0
331
C66C8
331
C66C9
331
C66D1
331
C66D2
331
C66DA
331
C66DB
331
D1839
331
D183A
331
D1842
331
D1843
331
D1937
331
D1938
331
D1941
331
D1942
331
D194A
331
D194B
331
D19EC
331
D19ED
331
D19F6
331
D19F7
331
D19FF
331
D1A00
331
D1AA2
331
D1AA3
331
D1AAB
331
D1AAC
331
D1AB4
331
D1AB5
331
D1ABE
331
D1ABF
331
D1AC8
331
D1AC9
331
D1AD2
331
D1AD3
331
D1ADC
331
D1ADD
331
D1AE5
331
D1AE6
331
D1BA4
331
D1BA5
331
D1BCA
331
D1BCB
331
D4487
331
D4488
331
D44AC
331
D44AD
331
D44B6
331
D44B7
331
D44ED
331
D44EE
331
D6B0A
331
D6B0B
331
D6B1D
331
D6B1E
331
D6B26
331
D6B27
331
D6B30
331
D6B31
331
D6B3A
331
D6B3B
331
D6B44
331
D6B45
331
D6B4B
331
D6B4C
331
D6B52
331
D6B53
331
D6B58
331
D6B59
102
}
  0
BLOCK_RECORD
  5
8EB2F
330
1
100
AcDbSymbolTableRecord
100
AcDbBlockTableRecord
  2
*D1
340
0
  0
BLOCK_RECORD
  5
8EB3D
330
1
100
AcDbSymbolTableRecord
100
AcDbBlockTableRecord
  2
*D2
340
0
  0
BLOCK_RECORD
  5
8EBED
330
1
100
AcDbSymbolTableRecord
100
AcDbBlockTableRecord
  2
*D3
340
0
  0
BLOCK_RECORD
  5
8EBFB
330
1
100
AcDbSymbolTableRecord
100
AcDbBlockTableRecord
  2
*D4
340
0
  0
BLOCK_RECORD
  5
8EC29
330
1
100
AcDbSymbolTableRecord
100
AcDbBlockTableRecord
  2
*D5
340
0
  0
BLOCK_RECORD
  5
8EC36
330
1
100
AcDbSymbolTableRecord
100
AcDbBlockTableRecord
  2
*D6
340
0
  0
BLOCK_RECORD
  5
8EC51
330
1
100
AcDbSymbolTableRecord
100
AcDbBlockTableRecord
  2
*D7
340
0
  0
BLOCK_RECORD
  5
8EC5F
330
1
100
AcDbSymbolTableRecord
100
AcDbBlockTableRecord
  2
*D8
340
0
  0
BLOCK_RECORD
  5
8EC6C
330
1
100
AcDbSymbolTableRecord
100
AcDbBlockTableRecord
  2
*D9
340
0
  0
BLOCK_RECORD
  5
8ECB6
330
1
100
AcDbSymbolTableRecord
100
AcDbBlockTableRecord
  2
*D10
340
0
  0
BLOCK_RECORD
  5
8ED57
330
1
100
AcDbSymbolTableRecord
100
AcDbBlockTableRecord
  2
*D11
340
0
  0
BLOCK_RECORD
  5
8ED67
330
1
100
AcDbSymbolTableRecord
100
AcDbBlockTableRecord
  2
*D12
340
0
  0
BLOCK_RECORD
  5
8ED82
330
1
100
AcDbSymbolTableRecord
100
AcDbBlockTableRecord
  2
*D13
340
0
  0
BLOCK_RECORD
  5
8ED8F
330
1
100
AcDbSymbolTableRecord
100
AcDbBlockTableRecord
  2
*D14
340
0
  0
BLOCK_RECORD
  5
8EDCC
330
1
100
AcDbSymbolTableRecord
100
AcDbBlockTableRecord
  2
*D15
340
0
  0
BLOCK_RECORD
  5
8EDDA
330
1
100
AcDbSymbolTableRecord
100
AcDbBlockTableRecord
  2
*D16
340
0
  0
BLOCK_RECORD
  5
8EE1B
330
1
100
AcDbSymbolTableRecord
100
AcDbBlockTableRecord
  2
*D17
340
0
  0
BLOCK_RECORD
  5
8EE28
330
1
100
AcDbSymbolTableRecord
100
AcDbBlockTableRecord
  2
*D18
340
0
  0
BLOCK_RECORD
  5
8EE35
330
1
100
AcDbSymbolTableRecord
100
AcDbBlockTableRecord
  2
*D19
340
0
  0
BLOCK_RECORD
  5
8EE43
330
1
100
AcDbSymbolTableRecord
100
AcDbBlockTableRecord
  2
*D20
340
0
  0
BLOCK_RECORD
  5
90025
330
1
100
AcDbSymbolTableRecord
100
AcDbBlockTableRecord
  2
*D21
340
0
  0
BLOCK_RECORD
  5
90031
330
1
100
AcDbSymbolTableRecord
100
AcDbBlockTableRecord
  2
*D22
340
0
  0
BLOCK_RECORD
  5
9003E
330
1
100
AcDbSymbolTableRecord
100
AcDbBlockTableRecord
  2
*D23
340
0
  0
BLOCK_RECORD
  5
9004A
330
1
100
AcDbSymbolTableRecord
100
AcDbBlockTableRecord
  2
*D24
340
0
  0
BLOCK_RECORD
  5
90056
330
1
100
AcDbSymbolTableRecord
100
AcDbBlockTableRecord
  2
*D25
340
0
  0
BLOCK_RECORD
  5
D185E
330
1
100
AcDbSymbolTableRecord
100
AcDbBlockTableRecord
  2
*D26
340
0
  0
BLOCK_RECORD
  5
D186A
330
1
100
AcDbSymbolTableRecord
100
AcDbBlockTableRecord
  2
*D27
340
0
  0
BLOCK_RECORD
  5
D1876
330
1
100
AcDbSymbolTableRecord
100
AcDbBlockTableRecord
  2
*D28
340
0
  0
BLOCK_RECORD
  5
D1883
330
1
100
AcDbSymbolTableRecord
100
AcDbBlockTableRecord
  2
*D29
340
0
  0
ENDTAB
  0
ENDSEC
  0
SECTION
  2
BLOCKS
  0
BLOCK
  5
1F
330
1E
100
AcDbEntity
  8
0
100
AcDbBlockBegin
  2
*MODEL_SPACE
 70
     0
 10
0.0
 20
0.0
 30
0.0
  3
*MODEL_SPACE
  1

  0
ENDBLK
  5
20
330
1E
100
AcDbEntity
  8
0
100
AcDbBlockEnd
  0
BLOCK
  5
1B
330
1A
100
AcDbEntity
 67
     1
  8
0
100
AcDbBlockBegin
  2
*PAPER_SPACE
 70
     0
 10
0.0
 20
0.0
 30
0.0
  3
*PAPER_SPACE
  1

  0
ENDBLK
  5
1C
330
1A
100
AcDbEntity
 67
     1
  8
0
100
AcDbBlockEnd
  0
BLOCK
  5
47
330
46
100
AcDbEntity
  8
0
100
AcDbBlockBegin
  2
_ORIGIN
 70
     0
 10
0.0
 20
0.0
 30
0.0
  3
_ORIGIN
  1

  0
CIRCLE
  5
48
330
46
100
AcDbEntity
  8
0
  6
ByBlock
 62
     0
100
AcDbCircle
 10
0.0
 20
0.0
 30
0.0
 40
0.5
  0
LINE
  5
49
330
46
100
AcDbEntity
  8
0
  6
ByBlock
 62
     0
100
AcDbLine
 10
0.0
 20
0.0
 30
0.0
 11
-1.0
 21
0.0
 31
0.0
  0
ENDBLK
  5
4A
330
46
100
AcDbEntity
  8
0
100
AcDbBlockEnd
  0
BLOCK
  5
8EB39
330
8EB2F
100
AcDbEntity
  8
0
100
AcDbBlockBegin
  2
*D1
 70
     1
 10
0.0
 20
0.0
 30
0.0
  3
*D1
  1

  0
LINE
  5
D183F
330
8EB2F
100
AcDbEntity
  8
SIZE
  6
Continuous
 62
     0
370
    -2
100
AcDbLine
 10
-413.9846826451596
 20
90.44974465787209
 30
0.0
 11
-525.1780120783044
 21
90.44974465787213
 31
0.0
  0
LINE
  5
D1840
330
8EB2F
100
AcDbEntity
  8
SIZE
  6
Continuous
 62
     0
370
    -2
100
AcDbLine
 10
-414.1660504243617
 20
-204.3899320101281
 30
0.0
 11
-525.1780120783044
 21
-204.3899320101281
 31
0.0
  0
LINE
  5
D1841
330
8EB2F
100
AcDbEntity
  8
SIZE
  6
Continuous
 62
     0
370
    -2
100
AcDbLine
 10
-505.1780120783043
 20
80.44974465787211
 30
0.0
 11
-505.1780120783044
 21
-194.3899320101281
 31
0.0
  0
INSERT
  5
D1842
330
8EB2F
100
AcDbEntity
  8
SIZE
  6
Continuous
 62
     0
370
    -2
100
AcDbBlockReference
  2
_ORIGIN
 10
-505.1780120783043
 20
90.44974465787211
 30
0.0
 41
10.0
 42
10.0
 43
10.0
 50
90.0
  0
INSERT
  5
D1843
330
8EB2F
100
AcDbEntity
  8
SIZE
  6
Continuous
 62
     0
370
    -2
100
AcDbBlockReference
  2
_ORIGIN
 10
-505.1780120783044
 20
-204.3899320101281
 30
0.0
 41
10.0
 42
10.0
 43
10.0
 50
270.0
  0
MTEXT
  5
D1844
330
8EB2F
100
AcDbEntity
  8
SIZE
  6
Continuous
 62
     0
100
AcDbMText
 10
-540.1780120783043
 20
-56.97009367612809
 30
0.0
 40
50.0
 41
0.0
 71
     5
 72
     1
  1
\A1;295
 11
0.0000000000000001
 21
1.0
 31
0.0
 73
     1
 44
1.0
  0
POINT
  5
D1845
330
8EB2F
100
AcDbEntity
  8
DEFPOINTS
  6
Continuous
 62
     0
100
AcDbPoint
 10
-393.9846826451596
 20
90.44974465787209
 30
0.0
  0
POINT
  5
D1846
330
8EB2F
100
AcDbEntity
  8
DEFPOINTS
  6
Continuous
 62
     0
100
AcDbPoint
 10
-394.1660504243617
 20
-204.3899320101281
 30
0.0
  0
POINT
  5
D1847
330
8EB2F
100
AcDbEntity
  8
DEFPOINTS
  6
Continuous
 62
     0
100
AcDbPoint
 10
-505.1780120783044
 20
-204.3899320101281
 30
0.0
  0
ENDBLK
  5
8EB3A
330
8EB2F
100
AcDbEntity
  8
0
100
AcDbBlockEnd
  0
BLOCK
  5
8EB47
330
8EB3D
100
AcDbEntity
  8
0
100
AcDbBlockBegin
  2
*D2
 70
     1
 10
0.0
 20
0.0
 30
0.0
  3
*D2
  1

  0
LINE
  5
D1836
330
8EB3D
100
AcDbEntity
  8
SIZE
  6
Continuous
 62
     0
370
    -2
100
AcDbLine
 10
-398.9998482718322
 20
105.2372221296645
 30
0.0
 11
-398.9998482718322
 21
232.83632583404
 31
0.0
  0
LINE
  5
D1837
330
8EB3D
100
AcDbEntity
  8
SIZE
  6
Continuous
 62
     0
370
    -2
100
AcDbLine
 10
399.0001517281677
 20
105.238431719556
 30
0.0
 11
399.0001517281677
 21
232.83632583404
 31
0.0
  0
LINE
  5
D1838
330
8EB3D
100
AcDbEntity
  8
SIZE
  6
Continuous
 62
     0
370
    -2
100
AcDbLine
 10
-388.9998482718322
 20
212.83632583404
 30
0.0
 11
389.0001517281678
 21
212.83632583404
 31
0.0
  0
INSERT
  5
D1839
330
8EB3D
100
AcDbEntity
  8
SIZE
  6
Continuous
 62
     0
370
    -2
100
AcDbBlockReference
  2
_ORIGIN
 10
-398.9998482718322
 20
212.83632583404
 30
0.0
 41
10.0
 42
10.0
 43
10.0
 50
180.0
  0
INSERT
  5
D183A
330
8EB3D
100
AcDbEntity
  8
SIZE
  6
Continuous
 62
     0
370
    -2
100
AcDbBlockReference
  2
_ORIGIN
 10
399.0001517281677
 20
212.83632583404
 30
0.0
 41
10.0
 42
10.0
 43
10.0
  0
MTEXT
  5
D183B
330
8EB3D
100
AcDbEntity
  8
SIZE
  6
Continuous
 62
     0
100
AcDbMText
 10
0.0001517281677956
 20
247.83632583404
 30
0.0
 40
50.0
 41
0.0
 71
     5
 72
     1
  1
\A1;798
 73
     1
 44
1.0
  0
POINT
  5
D183C
330
8EB3D
100
AcDbEntity
  8
DEFPOINTS
  6
Continuous
 62
     0
100
AcDbPoint
 10
-398.9998482718322
 20
85.23722212966459
 30
0.0
  0
POINT
  5
D183D
330
8EB3D
100
AcDbEntity
  8
DEFPOINTS
  6
Continuous
 62
     0
100
AcDbPoint
 10
399.0001517281677
 20
85.23843171955604
 30
0.0
  0
POINT
  5
D183E
330
8EB3D
100
AcDbEntity
  8
DEFPOINTS
  6
Continuous
 62
     0
100
AcDbPoint
 10
399.0001517281677
 20
212.83632583404
 30
0.0
  0
ENDBLK
  5
8EB48
330
8EB3D
100
AcDbEntity
  8
0
100
AcDbBlockEnd
  0
BLOCK
  5
8EBF8
330
8EBED
100
AcDbEntity
  8
0
100
AcDbBlockBegin
  2
*D3
 70
     1
 10
0.0
 20
0.0
 30
0.0
  3
*D3
  1

  0
LINE
  5
D1AC4
330
8EBED
100
AcDbEntity
  8
SIZE
  6
Continuous
 62
     0
370
    -2
100
AcDbLine
 10
3071.586065023253
 20
-204.3899320101206
 30
0.0
 11
2960.682832272934
 21
-204.3899320101206
 31
0.0
  0
LINE
  5
D1AC5
330
8EBED
100
AcDbEntity
  8
SIZE
  6
Continuous
 62
     0
370
    -2
100
AcDbLine
 10
3100.585965023245
 20
-162.3899320101218
 30
0.0
 11
2960.682832272934
 21
-162.3899320101218
 31
0.0
  0
LINE
  5
D1AC6
330
8EBED
100
AcDbEntity
  8
SIZE
  6
Continuous
 62
     0
370
    -2
100
AcDbLine
 10
2980.682832272934
 20
-194.3899320101206
 30
0.0
 11
2980.682832272934
 21
-172.3899320101217
 31
0.0
  0
LINE
  5
D1AC7
330
8EBED
100
AcDbEntity
  8
SIZE
  6
Continuous
 62
     0
370
    -2
100
AcDbLine
 10
2980.682832272934
 20
-162.3899320101218
 30
0.0
 11
2980.682832272934
 21
-59.53278915297896
 31
0.0
  0
INSERT
  5
D1AC8
330
8EBED
100
AcDbEntity
  8
SIZE
  6
Continuous
 62
     0
370
    -2
100
AcDbBlockReference
  2
_ORIGIN
 10
2980.682832272934
 20
-204.3899320101206
 30
0.0
 41
10.0
 42
10.0
 43
10.0
 50
270.0
  0
INSERT
  5
D1AC9
330
8EBED
100
AcDbEntity
  8
SIZE
  6
Continuous
 62
     0
370
    -2
100
AcDbBlockReference
  2
_ORIGIN
 10
2980.682832272934
 20
-162.3899320101218
 30
0.0
 41
10.0
 42
10.0
 43
10.0
 50
90.0
  0
MTEXT
  5
D1ACA
330
8EBED
100
AcDbEntity
  8
SIZE
  6
Continuous
 62
     0
100
AcDbMText
 10
2945.682832272934
 20
-105.9613605815499
 30
0.0
 40
50.0
 41
0.0
 71
     5
 72
     1
  1
\A1;42
 11
0.0000000000000001
 21
1.0
 31
0.0
 73
     1
 44
1.0
  0
POINT
  5
D1ACB
330
8EBED
100
AcDbEntity
  8
DEFPOINTS
  6
Continuous
 62
     0
100
AcDbPoint
 10
3091.586065023253
 20
-204.3899320101206
 30
0.0
  0
POINT
  5
D1ACC
330
8EBED
100
AcDbEntity
  8
DEFPOINTS
  6
Continuous
 62
     0
100
AcDbPoint
 10
3120.585965023245
 20
-162.3899320101218
 30
0.0
  0
POINT
  5
D1ACD
330
8EBED
100
AcDbEntity
  8
DEFPOINTS
  6
Continuous
 62
     0
100
AcDbPoint
 10
2980.682832272934
 20
-162.3899320101218
 30
0.0
  0
ENDBLK
  5
8EBF9
330
8EBED
100
AcDbEntity
  8
0
100
AcDbBlockEnd
  0
BLOCK
  5
8EC05
330
8EBFB
100
AcDbEntity
  8
0
100
AcDbBlockBegin
  2
*D4
 70
     1
 10
0.0
 20
0.0
 30
0.0
  3
*D4
  1

  0
LINE
  5
D1AB1
330
8EBFB
100
AcDbEntity
  8
SIZE
  6
Continuous
 62
     0
370
    -2
100
AcDbLine
 10
3071.586065023253
 20
-204.3899320101206
 30
0.0
 11
2838.040053157397
 21
-204.3899320101206
 31
0.0
  0
LINE
  5
D1AB2
330
8EBFB
100
AcDbEntity
  8
SIZE
  6
Continuous
 62
     0
370
    -2
100
AcDbLine
 10
3071.586065023253
 20
90.61006798987182
 30
0.0
 11
2838.040053157397
 21
90.6100679898719
 31
0.0
  0
LINE
  5
D1AB3
330
8EBFB
100
AcDbEntity
  8
SIZE
  6
Continuous
 62
     0
370
    -2
100
AcDbLine
 10
2858.040053157397
 20
-194.3899320101206
 30
0.0
 11
2858.040053157397
 21
80.61006798987188
 31
0.0
  0
INSERT
  5
D1AB4
330
8EBFB
100
AcDbEntity
  8
SIZE
  6
Continuous
 62
     0
370
    -2
100
AcDbBlockReference
  2
_ORIGIN
 10
2858.040053157397
 20
-204.3899320101206
 30
0.0
 41
10.0
 42
10.0
 43
10.0
 50
270.0
  0
INSERT
  5
D1AB5
330
8EBFB
100
AcDbEntity
  8
SIZE
  6
Continuous
 62
     0
370
    -2
100
AcDbBlockReference
  2
_ORIGIN
 10
2858.040053157397
 20
90.61006798987188
 30
0.0
 41
10.0
 42
10.0
 43
10.0
 50
90.0
  0
MTEXT
  5
D1AB6
330
8EBFB
100
AcDbEntity
  8
SIZE
  6
Continuous
 62
     0
100
AcDbMText
 10
2823.040053157397
 20
-56.88993201012389
 30
0.0
 40
50.0
 41
0.0
 71
     5
 72
     1
  1
\A1;295
 11
0.0000000000000001
 21
1.0
 31
0.0
 73
     1
 44
1.0
  0
POINT
  5
D1AB7
330
8EBFB
100
AcDbEntity
  8
DEFPOINTS
  6
Continuous
 62
     0
100
AcDbPoint
 10
3091.586065023253
 20
-204.3899320101206
 30
0.0
  0
POINT
  5
D1AB8
330
8EBFB
100
AcDbEntity
  8
DEFPOINTS
  6
Continuous
 62
     0
100
AcDbPoint
 10
3091.586065023253
 20
90.61006798987182
 30
0.0
  0
POINT
  5
D1AB9
330
8EBFB
100
AcDbEntity
  8
DEFPOINTS
  6
Continuous
 62
     0
100
AcDbPoint
 10
2858.040053157397
 20
90.61006798987188
 30
0.0
  0
ENDBLK
  5
8EC06
330
8EBFB
100
AcDbEntity
  8
0
100
AcDbBlockEnd
  0
BLOCK
  5
8EC33
330
8EC29
100
AcDbEntity
  8
0
100
AcDbBlockBegin
  2
*D5
 70
     1
 10
0.0
 20
0.0
 30
0.0
  3
*D5
  1

  0
LINE
  5
D1A9F
330
8EC29
100
AcDbEntity
  8
SIZE
  6
Continuous
 62
     0
370
    -2
100
AcDbLine
 10
3160.586065023242
 20
-222.3900320101204
 30
0.0
 11
3160.586065023242
 21
-349.1396979861858
 31
0.0
  0
LINE
  5
D1AA0
330
8EC29
100
AcDbEntity
  8
SIZE
  6
Continuous
 62
     0
370
    -2
100
AcDbLine
 10
3490.586065023235
 20
-257.1408844611744
 30
0.0
 11
3490.586065023235
 21
-349.1396979861858
 31
0.0
  0
LINE
  5
D1AA1
330
8EC29
100
AcDbEntity
  8
SIZE
  6
Continuous
 62
     0
370
    -2
100
AcDbLine
 10
3170.586065023242
 20
-329.1396979861858
 30
0.0
 11
3480.586065023235
 21
-329.1396979861858
 31
0.0
  0
INSERT
  5
D1AA2
330
8EC29
100
AcDbEntity
  8
SIZE
  6
Continuous
 62
     0
370
    -2
100
AcDbBlockReference
  2
_ORIGIN
 10
3160.586065023242
 20
-329.1396979861858
 30
0.0
 41
10.0
 42
10.0
 43
10.0
 50
180.0
  0
INSERT
  5
D1AA3
330
8EC29
100
AcDbEntity
  8
SIZE
  6
Continuous
 62
     0
370
    -2
100
AcDbBlockReference
  2
_ORIGIN
 10
3490.586065023235
 20
-329.1396979861858
 30
0.0
 41
10.0
 42
10.0
 43
10.0
  0
MTEXT
  5
D1AA4
330
8EC29
100
AcDbEntity
  8
SIZE
  6
Continuous
 62
     0
100
AcDbMText
 10
3325.586065023239
 20
-294.1396979861858
 30
0.0
 40
50.0
 41
0.0
 71
     5
 72
     1
  1
\A1;330
 73
     1
 44
1.0
  0
POINT
  5
D1AA5
330
8EC29
100
AcDbEntity
  8
DEFPOINTS
  6
Continuous
 62
     0
100
AcDbPoint
 10
3160.586065023242
 20
-202.3900320101204
 30
0.0
  0
POINT
  5
D1AA6
330
8EC29
100
AcDbEntity
  8
DEFPOINTS
  6
Continuous
 62
     0
100
AcDbPoint
 10
3490.586065023235
 20
-237.1408844611744
 30
0.0
  0
POINT
  5
D1AA7
330
8EC29
100
AcDbEntity
  8
DEFPOINTS
  6
Continuous
 62
     0
100
AcDbPoint
 10
3490.586065023235
 20
-329.1396979861858
 30
0.0
  0
ENDBLK
  5
8EC34
330
8EC29
100
AcDbEntity
  8
0
100
AcDbBlockEnd
  0
BLOCK
  5
8EC40
330
8EC36
100
AcDbEntity
  8
0
100
AcDbBlockBegin
  2
*D6
 70
     1
 10
0.0
 20
0.0
 30
0.0
  3
*D6
  1

  0
LINE
  5
D1AE2
330
8EC36
100
AcDbEntity
  8
SIZE
  6
Continuous
 62
     0
370
    -2
100
AcDbLine
 10
3490.586065023235
 20
-257.1408844611744
 30
0.0
 11
3490.586065023235
 21
-349.1396979861858
 31
0.0
  0
LINE
  5
D1AE3
330
8EC36
100
AcDbEntity
  8
SIZE
  6
Continuous
 62
     0
370
    -2
100
AcDbLine
 10
3835.586065023226
 20
-223.3900320101206
 30
0.0
 11
3835.586065023226
 21
-349.1396979861858
 31
0.0
  0
LINE
  5
D1AE4
330
8EC36
100
AcDbEntity
  8
SIZE
  6
Continuous
 62
     0
370
    -2
100
AcDbLine
 10
3500.586065023235
 20
-329.1396979861858
 30
0.0
 11
3825.586065023226
 21
-329.1396979861858
 31
0.0
  0
INSERT
  5
D1AE5
330
8EC36
100
AcDbEntity
  8
SIZE
  6
Continuous
 62
     0
370
    -2
100
AcDbBlockReference
  2
_ORIGIN
 10
3490.586065023235
 20
-329.1396979861858
 30
0.0
 41
10.0
 42
10.0
 43
10.0
 50
180.0
  0
INSERT
  5
D1AE6
330
8EC36
100
AcDbEntity
  8
SIZE
  6
Continuous
 62
     0
370
    -2
100
AcDbBlockReference
  2
_ORIGIN
 10
3835.586065023226
 20
-329.1396979861858
 30
0.0
 41
10.0
 42
10.0
 43
10.0
  0
MTEXT
  5
D1AE7
330
8EC36
100
AcDbEntity
  8
SIZE
  6
Continuous
 62
     0
100
AcDbMText
 10
3663.086065023231
 20
-294.1396979861858
 30
0.0
 40
50.0
 41
0.0
 71
     5
 72
     1
  1
\A1;345
 73
     1
 44
1.0
  0
POINT
  5
D1AE8
330
8EC36
100
AcDbEntity
  8
DEFPOINTS
  6
Continuous
 62
     0
100
AcDbPoint
 10
3490.586065023235
 20
-237.1408844611744
 30
0.0
  0
POINT
  5
D1AE9
330
8EC36
100
AcDbEntity
  8
DEFPOINTS
  6
Continuous
 62
     0
100
AcDbPoint
 10
3835.586065023226
 20
-203.3900320101206
 30
0.0
  0
POINT
  5
D1AEA
330
8EC36
100
AcDbEntity
  8
DEFPOINTS
  6
Continuous
 62
     0
100
AcDbPoint
 10
3835.586065023226
 20
-329.1396979861858
 30
0.0
  0
ENDBLK
  5
8EC41
330
8EC36
100
AcDbEntity
  8
0
100
AcDbBlockEnd
  0
BLOCK
  5
8EC5C
330
8EC51
100
AcDbEntity
  8
0
100
AcDbBlockBegin
  2
*D7
 70
     1
 10
0.0
 20
0.0
 30
0.0
  3
*D7
  1

  0
LINE
  5
D1AD8
330
8EC51
100
AcDbEntity
  8
SIZE
  6
Continuous
 62
     0
370
    -2
100
AcDbLine
 10
3909.586065023226
 20
-204.3899320101207
 30
0.0
 11
4007.642583193905
 21
-204.3899320101207
 31
0.0
  0
LINE
  5
D1AD9
330
8EC51
100
AcDbEntity
  8
SIZE
  6
Continuous
 62
     0
370
    -2
100
AcDbLine
 10
3895.586165023234
 20
-163.3899320101216
 30
0.0
 11
4007.642583193905
 21
-163.3899320101216
 31
0.0
  0
LINE
  5
D1ADA
330
8EC51
100
AcDbEntity
  8
SIZE
  6
Continuous
 62
     0
370
    -2
100
AcDbLine
 10
3987.642583193905
 20
-194.3899320101207
 30
0.0
 11
3987.642583193905
 21
-173.3899320101216
 31
0.0
  0
LINE
  5
D1ADB
330
8EC51
100
AcDbEntity
  8
SIZE
  6
Continuous
 62
     0
370
    -2
100
AcDbLine
 10
3987.642583193905
 20
-163.3899320101216
 30
0.0
 11
3987.642583193905
 21
-79.81850343869306
 31
0.0
  0
INSERT
  5
D1ADC
330
8EC51
100
AcDbEntity
  8
SIZE
  6
Continuous
 62
     0
370
    -2
100
AcDbBlockReference
  2
_ORIGIN
 10
3987.642583193905
 20
-204.3899320101207
 30
0.0
 41
10.0
 42
10.0
 43
10.0
 50
270.0
  0
INSERT
  5
D1ADD
330
8EC51
100
AcDbEntity
  8
SIZE
  6
Continuous
 62
     0
370
    -2
100
AcDbBlockReference
  2
_ORIGIN
 10
3987.642583193905
 20
-163.3899320101216
 30
0.0
 41
10.0
 42
10.0
 43
10.0
 50
90.0
  0
MTEXT
  5
D1ADE
330
8EC51
100
AcDbEntity
  8
SIZE
  6
Continuous
 62
     0
100
AcDbMText
 10
3952.642583193905
 20
-116.6042177244067
 30
0.0
 40
50.0
 41
0.0
 71
     5
 72
     1
  1
\A1;41
 11
0.0000000000000001
 21
1.0
 31
0.0
 73
     1
 44
1.0
  0
POINT
  5
D1ADF
330
8EC51
100
AcDbEntity
  8
DEFPOINTS
  6
Continuous
 62
     0
100
AcDbPoint
 10
3889.586065023226
 20
-204.3899320101206
 30
0.0
  0
POINT
  5
D1AE0
330
8EC51
100
AcDbEntity
  8
DEFPOINTS
  6
Continuous
 62
     0
100
AcDbPoint
 10
3875.586165023234
 20
-163.3899320101216
 30
0.0
  0
POINT
  5
D1AE1
330
8EC51
100
AcDbEntity
  8
DEFPOINTS
  6
Continuous
 62
     0
100
AcDbPoint
 10
3987.642583193905
 20
-163.3899320101216
 30
0.0
  0
ENDBLK
  5
8EC5D
330
8EC51
100
AcDbEntity
  8
0
100
AcDbBlockEnd
  0
BLOCK
  5
8EC69
330
8EC5F
100
AcDbEntity
  8
0
100
AcDbBlockBegin
  2
*D8
 70
     1
 10
0.0
 20
0.0
 30
0.0
  3
*D8
  1

  0
LINE
  5
D1AA8
330
8EC5F
100
AcDbEntity
  8
SIZE
  6
Continuous
 62
     0
370
    -2
100
AcDbLine
 10
3091.586065023253
 20
110.6100679898718
 30
0.0
 11
3091.586065023253
 21
306.0752057448478
 31
0.0
  0
LINE
  5
D1AA9
330
8EC5F
100
AcDbEntity
  8
SIZE
  6
Continuous
 62
     0
370
    -2
100
AcDbLine
 10
3889.586065023226
 20
110.6100679898718
 30
0.0
 11
3889.586065023226
 21
306.0752057448478
 31
0.0
  0
LINE
  5
D1AAA
330
8EC5F
100
AcDbEntity
  8
SIZE
  6
Continuous
 62
     0
370
    -2
100
AcDbLine
 10
3101.586065023253
 20
286.0752057448478
 30
0.0
 11
3879.586065023226
 21
286.0752057448478
 31
0.0
  0
INSERT
  5
D1AAB
330
8EC5F
100
AcDbEntity
  8
SIZE
  6
Continuous
 62
     0
370
    -2
100
AcDbBlockReference
  2
_ORIGIN
 10
3091.586065023253
 20
286.0752057448478
 30
0.0
 41
10.0
 42
10.0
 43
10.0
 50
180.0
  0
INSERT
  5
D1AAC
330
8EC5F
100
AcDbEntity
  8
SIZE
  6
Continuous
 62
     0
370
    -2
100
AcDbBlockReference
  2
_ORIGIN
 10
3889.586065023226
 20
286.0752057448478
 30
0.0
 41
10.0
 42
10.0
 43
10.0
  0
MTEXT
  5
D1AAD
330
8EC5F
100
AcDbEntity
  8
SIZE
  6
Continuous
 62
     0
100
AcDbMText
 10
3490.58606502324
 20
321.0752057448478
 30
0.0
 40
50.0
 41
0.0
 71
     5
 72
     1
  1
\A1;798
 73
     1
 44
1.0
  0
POINT
  5
D1AAE
330
8EC5F
100
AcDbEntity
  8
DEFPOINTS
  6
Continuous
 62
     0
100
AcDbPoint
 10
3091.586065023253
 20
90.61006798987182
 30
0.0
  0
POINT
  5
D1AAF
330
8EC5F
100
AcDbEntity
  8
DEFPOINTS
  6
Continuous
 62
     0
100
AcDbPoint
 10
3889.586065023226
 20
90.61006798987182
 30
0.0
  0
POINT
  5
D1AB0
330
8EC5F
100
AcDbEntity
  8
DEFPOINTS
  6
Continuous
 62
     0
100
AcDbPoint
 10
3889.586065023226
 20
286.0752057448478
 30
0.0
  0
ENDBLK
  5
8EC6A
330
8EC5F
100
AcDbEntity
  8
0
100
AcDbBlockEnd
  0
BLOCK
  5
8EC76
330
8EC6C
100
AcDbEntity
  8
0
100
AcDbBlockBegin
  2
*D9
 70
     1
 10
0.0
 20
0.0
 30
0.0
  3
*D9
  1

  0
LINE
  5
C66C5
330
8EC6C
100
AcDbEntity
  8
SIZE
  6
Continuous
 62
     0
370
    -2
100
AcDbLine
 10
-399.0000000193294
 20
846.2414422810175
 30
0.0
 11
-399.0000000193294
 21
485.1752537602221
 31
0.0
  0
LINE
  5
C66C6
330
8EC6C
100
AcDbEntity
  8
SIZE
  6
Continuous
 62
     0
370
    -2
100
AcDbLine
 10
398.9999999806705
 20
846.2414422810175
 30
0.0
 11
398.9999999806705
 21
485.1752537602221
 31
0.0
  0
LINE
  5
C66C7
330
8EC6C
100
AcDbEntity
  8
SIZE
  6
Continuous
 62
     0
370
    -2
100
AcDbLine
 10
-389.0000000193294
 20
505.1752537602221
 30
0.0
 11
388.9999999806704
 21
505.1752537602221
 31
0.0
  0
INSERT
  5
C66C8
330
8EC6C
100
AcDbEntity
  8
SIZE
  6
Continuous
 62
     0
370
    -2
100
AcDbBlockReference
  2
_ORIGIN
 10
-399.0000000193294
 20
505.1752537602221
 30
0.0
 41
10.0
 42
10.0
 43
10.0
 50
180.0
  0
INSERT
  5
C66C9
330
8EC6C
100
AcDbEntity
  8
SIZE
  6
Continuous
 62
     0
370
    -2
100
AcDbBlockReference
  2
_ORIGIN
 10
398.9999999806705
 20
505.1752537602221
 30
0.0
 41
10.0
 42
10.0
 43
10.0
  0
MTEXT
  5
C66CA
330
8EC6C
100
AcDbEntity
  8
SIZE
  6
Continuous
 62
     0
100
AcDbMText
 10
-0.0000000193294888
 20
540.1752537602221
 30
0.0
 40
50.0
 41
0.0
 71
     5
 72
     1
  1
\A1;798
 73
     1
 44
1.0
  0
POINT
  5
C66CB
330
8EC6C
100
AcDbEntity
  8
DEFPOINTS
  6
Continuous
 62
     0
100
AcDbPoint
 10
-399.0000000193294
 20
866.2414422810174
 30
0.0
  0
POINT
  5
C66CC
330
8EC6C
100
AcDbEntity
  8
DEFPOINTS
  6
Continuous
 62
     0
100
AcDbPoint
 10
398.9999999806705
 20
866.2414422810174
 30
0.0
  0
POINT
  5
C66CD
330
8EC6C
100
AcDbEntity
  8
DEFPOINTS
  6
Continuous
 62
     0
100
AcDbPoint
 10
398.9999999806705
 20
505.1752537602221
 30
0.0
  0
ENDBLK
  5
8EC77
330
8EC6C
100
AcDbEntity
  8
0
100
AcDbBlockEnd
  0
BLOCK
  5
8ECC0
330
8ECB6
100
AcDbEntity
  8
0
100
AcDbBlockBegin
  2
*D10
 70
     1
 10
0.0
 20
0.0
 30
0.0
  3
*D10
  1

  0
LINE
  5
C66BC
330
8ECB6
100
AcDbEntity
  8
SIZE
  6
Continuous
 62
     0
370
    -2
100
AcDbLine
 10
-408.9633022594003
 20
659.1207515465928
 30
0.0
 11
-557.9212808433063
 21
659.1207515465928
 31
0.0
  0
LINE
  5
C66BD
330
8ECB6
100
AcDbEntity
  8
SIZE
  6
Continuous
 62
     0
370
    -2
100
AcDbLine
 10
-354.2914717281699
 20
962.1497191650227
 30
0.0
 11
-557.9212808433062
 21
962.1497191650227
 31
0.0
  0
LINE
  5
C66BE
330
8ECB6
100
AcDbEntity
  8
SIZE
  6
Continuous
 62
     0
370
    -2
100
AcDbLine
 10
-537.9212808433063
 20
669.1207515465928
 30
0.0
 11
-537.9212808433062
 21
952.1497191650228
 31
0.0
  0
INSERT
  5
C66BF
330
8ECB6
100
AcDbEntity
  8
SIZE
  6
Continuous
 62
     0
370
    -2
100
AcDbBlockReference
  2
_ORIGIN
 10
-537.9212808433063
 20
659.1207515465928
 30
0.0
 41
10.0
 42
10.0
 43
10.0
 50
270.0
  0
INSERT
  5
C66C0
330
8ECB6
100
AcDbEntity
  8
SIZE
  6
Continuous
 62
     0
370
    -2
100
AcDbBlockReference
  2
_ORIGIN
 10
-537.9212808433062
 20
962.1497191650227
 30
0.0
 41
10.0
 42
10.0
 43
10.0
 50
90.0
  0
MTEXT
  5
C66C1
330
8ECB6
100
AcDbEntity
  8
SIZE
  6
Continuous
 62
     0
100
AcDbMText
 10
-572.9212808433064
 20
810.6352353558076
 30
0.0
 40
50.0
 41
0.0
 71
     5
 72
     1
  1
\A1;303
 11
0.0000000000000001
 21
1.0
 31
0.0
 73
     1
 44
1.0
  0
POINT
  5
C66C2
330
8ECB6
100
AcDbEntity
  8
DEFPOINTS
  6
Continuous
 62
     0
100
AcDbPoint
 10
-388.9633022594003
 20
659.1207515465928
 30
0.0
  0
POINT
  5
C66C3
330
8ECB6
100
AcDbEntity
  8
DEFPOINTS
  6
Continuous
 62
     0
100
AcDbPoint
 10
-334.2914717281698
 20
962.1497191650227
 30
0.0
  0
POINT
  5
C66C4
330
8ECB6
100
AcDbEntity
  8
DEFPOINTS
  6
Continuous
 62
     0
100
AcDbPoint
 10
-537.9212808433062
 20
962.1497191650227
 30
0.0
  0
ENDBLK
  5
8ECC1
330
8ECB6
100
AcDbEntity
  8
0
100
AcDbBlockEnd
  0
BLOCK
  5
8ED62
330
8ED57
100
AcDbEntity
  8
0
100
AcDbBlockBegin
  2
*D11
 70
     1
 10
0.0
 20
0.0
 30
0.0
  3
*D11
  1

  0
LINE
  5
C66B2
330
8ED57
100
AcDbEntity
  8
SIZE
  6
Continuous
 62
     0
370
    -2
100
AcDbLine
 10
330.0699457718317
 20
1002.149719165022
 30
0.0
 11
330.0699457718317
 21
1220.45766407801
 31
0.0
  0
LINE
  5
C66B3
330
8ED57
100
AcDbEntity
  8
SIZE
  6
Continuous
 62
     0
370
    -2
100
AcDbLine
 10
398.9999999999927
 20
899.545662793017
 30
0.0
 11
398.9999999999927
 21
1220.45766407801
 31
0.0
  0
LINE
  5
C66B4
330
8ED57
100
AcDbEntity
  8
SIZE
  6
Continuous
 62
     0
370
    -2
100
AcDbLine
 10
340.0699457718317
 20
1200.45766407801
 30
0.0
 11
388.9999999999927
 21
1200.45766407801
 31
0.0
  0
LINE
  5
C66B5
330
8ED57
100
AcDbEntity
  8
SIZE
  6
Continuous
 62
     0
370
    -2
100
AcDbLine
 10
398.9999999999927
 20
1200.45766407801
 30
0.0
 11
499.7142857142784
 21
1200.45766407801
 31
0.0
  0
INSERT
  5
C66B6
330
8ED57
100
AcDbEntity
  8
SIZE
  6
Continuous
 62
     0
370
    -2
100
AcDbBlockReference
  2
_ORIGIN
 10
330.0699457718317
 20
1200.45766407801
 30
0.0
 41
10.0
 42
10.0
 43
10.0
 50
180.0
  0
INSERT
  5
C66B7
330
8ED57
100
AcDbEntity
  8
SIZE
  6
Continuous
 62
     0
370
    -2
100
AcDbBlockReference
  2
_ORIGIN
 10
398.9999999999927
 20
1200.45766407801
 30
0.0
 41
10.0
 42
10.0
 43
10.0
  0
MTEXT
  5
C66B8
330
8ED57
100
AcDbEntity
  8
SIZE
  6
Continuous
 62
     0
100
AcDbMText
 10
454.3571428571355
 20
1235.45766407801
 30
0.0
 40
50.0
 41
0.0
 71
     5
 72
     1
  1
\A1;69
 73
     1
 44
1.0
  0
POINT
  5
C66B9
330
8ED57
100
AcDbEntity
  8
DEFPOINTS
  6
Continuous
 62
     0
100
AcDbPoint
 10
330.0699457718317
 20
982.1497191650228
 30
0.0
  0
POINT
  5
C66BA
330
8ED57
100
AcDbEntity
  8
DEFPOINTS
  6
Continuous
 62
     0
100
AcDbPoint
 10
398.9999999999927
 20
879.5456627930171
 30
0.0
  0
POINT
  5
C66BB
330
8ED57
100
AcDbEntity
  8
DEFPOINTS
  6
Continuous
 62
     0
100
AcDbPoint
 10
398.9999999999927
 20
1200.45766407801
 30
0.0
  0
ENDBLK
  5
8ED63
330
8ED57
100
AcDbEntity
  8
0
100
AcDbBlockEnd
  0
BLOCK
  5
8ED72
330
8ED67
100
AcDbEntity
  8
0
100
AcDbBlockBegin
  2
*D12
 70
     1
 10
0.0
 20
0.0
 30
0.0
  3
*D12
  1

  0
LINE
  5
C66A8
330
8ED67
100
AcDbEntity
  8
SIZE
  6
Continuous
 62
     0
370
    -2
100
AcDbLine
 10
-345.0702492281673
 20
1002.149719165021
 30
0.0
 11
-345.0702492281673
 21
1220.45766407801
 31
0.0
  0
LINE
  5
C66A9
330
8ED67
100
AcDbEntity
  8
SIZE
  6
Continuous
 62
     0
370
    -2
100
AcDbLine
 10
-398.9999999999927
 20
899.545662793017
 30
0.0
 11
-398.9999999999927
 21
1220.45766407801
 31
0.0
  0
LINE
  5
C66AA
330
8ED67
100
AcDbEntity
  8
SIZE
  6
Continuous
 62
     0
370
    -2
100
AcDbLine
 10
-355.0702492281673
 20
1200.45766407801
 30
0.0
 11
-388.9999999999927
 21
1200.45766407801
 31
0.0
  0
LINE
  5
C66AB
330
8ED67
100
AcDbEntity
  8
SIZE
  6
Continuous
 62
     0
370
    -2
100
AcDbLine
 10
-398.9999999999927
 20
1200.45766407801
 30
0.0
 11
-503.9999999999927
 21
1200.45766407801
 31
0.0
  0
INSERT
  5
C66AC
330
8ED67
100
AcDbEntity
  8
SIZE
  6
Continuous
 62
     0
370
    -2
100
AcDbBlockReference
  2
_ORIGIN
 10
-345.0702492281673
 20
1200.45766407801
 30
0.0
 41
10.0
 42
10.0
 43
10.0
  0
INSERT
  5
C66AD
330
8ED67
100
AcDbEntity
  8
SIZE
  6
Continuous
 62
     0
370
    -2
100
AcDbBlockReference
  2
_ORIGIN
 10
-398.9999999999927
 20
1200.45766407801
 30
0.0
 41
10.0
 42
10.0
 43
10.0
 50
180.0
  0
MTEXT
  5
C66AE
330
8ED67
100
AcDbEntity
  8
SIZE
  6
Continuous
 62
     0
100
AcDbMText
 10
-456.4999999999927
 20
1235.45766407801
 30
0.0
 40
50.0
 41
0.0
 71
     5
 72
     1
  1
\A1;54
 73
     1
 44
1.0
  0
POINT
  5
C66AF
330
8ED67
100
AcDbEntity
  8
DEFPOINTS
  6
Continuous
 62
     0
100
AcDbPoint
 10
-345.0702492281673
 20
982.149719165022
 30
0.0
  0
POINT
  5
C66B0
330
8ED67
100
AcDbEntity
  8
DEFPOINTS
  6
Continuous
 62
     0
100
AcDbPoint
 10
-398.9999999999927
 20
879.5456627930171
 30
0.0
  0
POINT
  5
C66B1
330
8ED67
100
AcDbEntity
  8
DEFPOINTS
  6
Continuous
 62
     0
100
AcDbPoint
 10
-398.9999999999927
 20
1200.45766407801
 30
0.0
  0
ENDBLK
  5
8ED73
330
8ED67
100
AcDbEntity
  8
0
100
AcDbBlockEnd
  0
BLOCK
  5
8ED8C
330
8ED82
100
AcDbEntity
  8
0
100
AcDbBlockBegin
  2
*D13
 70
     1
 10
0.0
 20
0.0
 30
0.0
  3
*D13
  1

  0
LINE
  5
C66CE
330
8ED82
100
AcDbEntity
  8
SIZE
  6
Continuous
 62
     0
370
    -2
100
AcDbLine
 10
-0.0000000193294897
 20
1003.562187025454
 30
0.0
 11
-0.0000000193294764
 21
1220.45766407801
 31
0.0
  0
LINE
  5
C66CF
330
8ED82
100
AcDbEntity
  8
SIZE
  6
Continuous
 62
     0
370
    -2
100
AcDbLine
 10
330.0699457718317
 20
1002.149719165022
 30
0.0
 11
330.0699457718317
 21
1220.45766407801
 31
0.0
  0
LINE
  5
C66D0
330
8ED82
100
AcDbEntity
  8
SIZE
  6
Continuous
 62
     0
370
    -2
100
AcDbLine
 10
9.999999980670521
 20
1200.45766407801
 30
0.0
 11
320.0699457718317
 21
1200.45766407801
 31
0.0
  0
INSERT
  5
C66D1
330
8ED82
100
AcDbEntity
  8
SIZE
  6
Continuous
 62
     0
370
    -2
100
AcDbBlockReference
  2
_ORIGIN
 10
-0.0000000193294776
 20
1200.45766407801
 30
0.0
 41
10.0
 42
10.0
 43
10.0
 50
180.0
  0
INSERT
  5
C66D2
330
8ED82
100
AcDbEntity
  8
SIZE
  6
Continuous
 62
     0
370
    -2
100
AcDbBlockReference
  2
_ORIGIN
 10
330.0699457718317
 20
1200.45766407801
 30
0.0
 41
10.0
 42
10.0
 43
10.0
  0
MTEXT
  5
C66D3
330
8ED82
100
AcDbEntity
  8
SIZE
  6
Continuous
 62
     0
100
AcDbMText
 10
165.0349728762511
 20
1235.45766407801
 30
0.0
 40
50.0
 41
0.0
 71
     5
 72
     1
  1
\A1;330
 73
     1
 44
1.0
  0
POINT
  5
C66D4
330
8ED82
100
AcDbEntity
  8
DEFPOINTS
  6
Continuous
 62
     0
100
AcDbPoint
 10
-0.0000000193294909
 20
983.5621870254549
 30
0.0
  0
POINT
  5
C66D5
330
8ED82
100
AcDbEntity
  8
DEFPOINTS
  6
Continuous
 62
     0
100
AcDbPoint
 10
330.0699457718317
 20
982.1497191650228
 30
0.0
  0
POINT
  5
C66D6
330
8ED82
100
AcDbEntity
  8
DEFPOINTS
  6
Continuous
 62
     0
100
AcDbPoint
 10
330.0699457718317
 20
1200.45766407801
 30
0.0
  0
ENDBLK
  5
8ED8D
330
8ED82
100
AcDbEntity
  8
0
100
AcDbBlockEnd
  0
BLOCK
  5
8ED99
330
8ED8F
100
AcDbEntity
  8
0
100
AcDbBlockBegin
  2
*D14
 70
     1
 10
0.0
 20
0.0
 30
0.0
  3
*D14
  1

  0
LINE
  5
C66D7
330
8ED8F
100
AcDbEntity
  8
SIZE
  6
Continuous
 62
     0
370
    -2
100
AcDbLine
 10
-345.0702492281673
 20
1002.149719165021
 30
0.0
 11
-345.0702492281673
 21
1220.45766407801
 31
0.0
  0
LINE
  5
C66D8
330
8ED8F
100
AcDbEntity
  8
SIZE
  6
Continuous
 62
     0
370
    -2
100
AcDbLine
 10
-0.0000000193294897
 20
1003.562187025454
 30
0.0
 11
-0.0000000193294764
 21
1220.45766407801
 31
0.0
  0
LINE
  5
C66D9
330
8ED8F
100
AcDbEntity
  8
SIZE
  6
Continuous
 62
     0
370
    -2
100
AcDbLine
 10
-335.0702492281673
 20
1200.45766407801
 30
0.0
 11
-10.00000001932947
 21
1200.45766407801
 31
0.0
  0
INSERT
  5
C66DA
330
8ED8F
100
AcDbEntity
  8
SIZE
  6
Continuous
 62
     0
370
    -2
100
AcDbBlockReference
  2
_ORIGIN
 10
-345.0702492281673
 20
1200.45766407801
 30
0.0
 41
10.0
 42
10.0
 43
10.0
 50
180.0
  0
INSERT
  5
C66DB
330
8ED8F
100
AcDbEntity
  8
SIZE
  6
Continuous
 62
     0
370
    -2
100
AcDbBlockReference
  2
_ORIGIN
 10
-0.0000000193294776
 20
1200.45766407801
 30
0.0
 41
10.0
 42
10.0
 43
10.0
  0
MTEXT
  5
C66DC
330
8ED8F
100
AcDbEntity
  8
SIZE
  6
Continuous
 62
     0
100
AcDbMText
 10
-172.5351246237484
 20
1235.45766407801
 30
0.0
 40
50.0
 41
0.0
 71
     5
 72
     1
  1
\A1;345
 73
     1
 44
1.0
  0
POINT
  5
C66DD
330
8ED8F
100
AcDbEntity
  8
DEFPOINTS
  6
Continuous
 62
     0
100
AcDbPoint
 10
-345.0702492281673
 20
982.149719165022
 30
0.0
  0
POINT
  5
C66DE
330
8ED8F
100
AcDbEntity
  8
DEFPOINTS
  6
Continuous
 62
     0
100
AcDbPoint
 10
-0.0000000193294909
 20
983.5621870254549
 30
0.0
  0
POINT
  5
C66DF
330
8ED8F
100
AcDbEntity
  8
DEFPOINTS
  6
Continuous
 62
     0
100
AcDbPoint
 10
-0.0000000193294776
 20
1200.45766407801
 30
0.0
  0
ENDBLK
  5
8ED9A
330
8ED8F
100
AcDbEntity
  8
0
100
AcDbBlockEnd
  0
BLOCK
  5
8EDD7
330
8EDCC
100
AcDbEntity
  8
0
100
AcDbBlockBegin
  2
*D15
 70
     1
 10
0.0
 20
0.0
 30
0.0
  3
*D15
  1

  0
LINE
  5
D1ABA
330
8EDCC
100
AcDbEntity
  8
SIZE
  6
Continuous
 62
     0
370
    -2
100
AcDbLine
 10
3160.586065023242
 20
-222.3900320101204
 30
0.0
 11
3160.586065023242
 21
-349.1396979861858
 31
0.0
  0
LINE
  5
D1ABB
330
8EDCC
100
AcDbEntity
  8
SIZE
  6
Continuous
 62
     0
370
    -2
100
AcDbLine
 10
3091.586065023253
 20
-224.3899320101206
 30
0.0
 11
3091.586065023253
 21
-349.1396979861858
 31
0.0
  0
LINE
  5
D1ABC
330
8EDCC
100
AcDbEntity
  8
SIZE
  6
Continuous
 62
     0
370
    -2
100
AcDbLine
 10
3150.586065023242
 20
-329.1396979861858
 30
0.0
 11
3101.586065023253
 21
-329.1396979861858
 31
0.0
  0
LINE
  5
D1ABD
330
8EDCC
100
AcDbEntity
  8
SIZE
  6
Continuous
 62
     0
370
    -2
100
AcDbLine
 10
3091.586065023253
 20
-329.1396979861858
 30
0.0
 11
2990.871779308967
 21
-329.1396979861858
 31
0.0
  0
INSERT
  5
D1ABE
330
8EDCC
100
AcDbEntity
  8
SIZE
  6
Continuous
 62
     0
370
    -2
100
AcDbBlockReference
  2
_ORIGIN
 10
3160.586065023242
 20
-329.1396979861858
 30
0.0
 41
10.0
 42
10.0
 43
10.0
  0
INSERT
  5
D1ABF
330
8EDCC
100
AcDbEntity
  8
SIZE
  6
Continuous
 62
     0
370
    -2
100
AcDbBlockReference
  2
_ORIGIN
 10
3091.586065023253
 20
-329.1396979861858
 30
0.0
 41
10.0
 42
10.0
 43
10.0
 50
180.0
  0
MTEXT
  5
D1AC0
330
8EDCC
100
AcDbEntity
  8
SIZE
  6
Continuous
 62
     0
100
AcDbMText
 10
3036.22892216611
 20
-294.1396979861858
 30
0.0
 40
50.0
 41
0.0
 71
     5
 72
     1
  1
\A1;69
 73
     1
 44
1.0
  0
POINT
  5
D1AC1
330
8EDCC
100
AcDbEntity
  8
DEFPOINTS
  6
Continuous
 62
     0
100
AcDbPoint
 10
3160.586065023242
 20
-202.3900320101204
 30
0.0
  0
POINT
  5
D1AC2
330
8EDCC
100
AcDbEntity
  8
DEFPOINTS
  6
Continuous
 62
     0
100
AcDbPoint
 10
3091.586065023253
 20
-204.3899320101206
 30
0.0
  0
POINT
  5
D1AC3
330
8EDCC
100
AcDbEntity
  8
DEFPOINTS
  6
Continuous
 62
     0
100
AcDbPoint
 10
3091.586065023253
 20
-329.1396979861858
 30
0.0
  0
ENDBLK
  5
8EDD8
330
8EDCC
100
AcDbEntity
  8
0
100
AcDbBlockEnd
  0
BLOCK
  5
8EDE5
330
8EDDA
100
AcDbEntity
  8
0
100
AcDbBlockBegin
  2
*D16
 70
     1
 10
0.0
 20
0.0
 30
0.0
  3
*D16
  1

  0
LINE
  5
D1ACE
330
8EDDA
100
AcDbEntity
  8
SIZE
  6
Continuous
 62
     0
370
    -2
100
AcDbLine
 10
3835.586065023226
 20
-223.3900320101206
 30
0.0
 11
3835.586065023226
 21
-349.1396979861858
 31
0.0
  0
LINE
  5
D1ACF
330
8EDDA
100
AcDbEntity
  8
SIZE
  6
Continuous
 62
     0
370
    -2
100
AcDbLine
 10
3889.586065023226
 20
-224.3899320101206
 30
0.0
 11
3889.586065023226
 21
-349.1396979861858
 31
0.0
  0
LINE
  5
D1AD0
330
8EDDA
100
AcDbEntity
  8
SIZE
  6
Continuous
 62
     0
370
    -2
100
AcDbLine
 10
3845.586065023226
 20
-329.1396979861858
 30
0.0
 11
3879.586065023226
 21
-329.1396979861858
 31
0.0
  0
LINE
  5
D1AD1
330
8EDDA
100
AcDbEntity
  8
SIZE
  6
Continuous
 62
     0
370
    -2
100
AcDbLine
 10
3889.586065023226
 20
-329.1396979861858
 30
0.0
 11
3994.586065023226
 21
-329.1396979861858
 31
0.0
  0
INSERT
  5
D1AD2
330
8EDDA
100
AcDbEntity
  8
SIZE
  6
Continuous
 62
     0
370
    -2
100
AcDbBlockReference
  2
_ORIGIN
 10
3835.586065023226
 20
-329.1396979861858
 30
0.0
 41
10.0
 42
10.0
 43
10.0
 50
180.0
  0
INSERT
  5
D1AD3
330
8EDDA
100
AcDbEntity
  8
SIZE
  6
Continuous
 62
     0
370
    -2
100
AcDbBlockReference
  2
_ORIGIN
 10
3889.586065023226
 20
-329.1396979861858
 30
0.0
 41
10.0
 42
10.0
 43
10.0
  0
MTEXT
  5
D1AD4
330
8EDDA
100
AcDbEntity
  8
SIZE
  6
Continuous
 62
     0
100
AcDbMText
 10
3947.086065023226
 20
-294.1396979861858
 30
0.0
 40
50.0
 41
0.0
 71
     5
 72
     1
  1
\A1;54
 73
     1
 44
1.0
  0
POINT
  5
D1AD5
330
8EDDA
100
AcDbEntity
  8
DEFPOINTS
  6
Continuous
 62
     0
100
AcDbPoint
 10
3835.586065023226
 20
-203.3900320101206
 30
0.0
  0
POINT
  5
D1AD6
330
8EDDA
100
AcDbEntity
  8
DEFPOINTS
  6
Continuous
 62
     0
100
AcDbPoint
 10
3889.586065023226
 20
-204.3899320101206
 30
0.0
  0
POINT
  5
D1AD7
330
8EDDA
100
AcDbEntity
  8
DEFPOINTS
  6
Continuous
 62
     0
100
AcDbPoint
 10
3889.586065023226
 20
-329.1396979861858
 30
0.0
  0
ENDBLK
  5
8EDE6
330
8EDDA
100
AcDbEntity
  8
0
100
AcDbBlockEnd
  0
BLOCK
  5
8EE25
330
8EE1B
100
AcDbEntity
  8
0
100
AcDbBlockBegin
  2
*D17
 70
     1
 10
0.0
 20
0.0
 30
0.0
  3
*D17
  1

  0
LINE
  5
D6B07
330
8EE1B
100
AcDbEntity
  8
SIZE
  6
Continuous
 62
     0
370
    -2
100
AcDbLine
 10
-1005.95571521655
 20
-0.9073842090773069
 30
0.0
 11
-1005.95571521655
 21
206.7513777051483
 31
0.0
  0
LINE
  5
D6B08
330
8EE1B
100
AcDbEntity
  8
SIZE
  6
Continuous
 62
     0
370
    -2
100
AcDbLine
 10
-1308.95571521655
 20
110.6100679898718
 30
0.0
 11
-1308.95571521655
 21
206.7513777051483
 31
0.0
  0
LINE
  5
D6B09
330
8EE1B
100
AcDbEntity
  8
SIZE
  6
Continuous
 62
     0
370
    -2
100
AcDbLine
 10
-1015.95571521655
 20
186.7513777051483
 30
0.0
 11
-1298.95571521655
 21
186.7513777051483
 31
0.0
  0
INSERT
  5
D6B0A
330
8EE1B
100
AcDbEntity
  8
SIZE
  6
Continuous
 62
     0
370
    -2
100
AcDbBlockReference
  2
_ORIGIN
 10
-1005.95571521655
 20
186.7513777051483
 30
0.0
 41
10.0
 42
10.0
 43
10.0
  0
INSERT
  5
D6B0B
330
8EE1B
100
AcDbEntity
  8
SIZE
  6
Continuous
 62
     0
370
    -2
100
AcDbBlockReference
  2
_ORIGIN
 10
-1308.95571521655
 20
186.7513777051483
 30
0.0
 41
10.0
 42
10.0
 43
10.0
 50
180.0
  0
MTEXT
  5
D6B0C
330
8EE1B
100
AcDbEntity
  8
SIZE
  6
Continuous
 62
     0
100
AcDbMText
 10
-1157.45571521655
 20
221.7513777051483
 30
0.0
 40
50.0
 41
0.0
 71
     5
 72
     1
  1
\A1;303
 73
     1
 44
1.0
  0
POINT
  5
D6B0D
330
8EE1B
100
AcDbEntity
  8
DEFPOINTS
  6
Continuous
 62
     0
100
AcDbPoint
 10
-1005.95571521655
 20
-20.9073842090773
 30
0.0
  0
POINT
  5
D6B0E
330
8EE1B
100
AcDbEntity
  8
DEFPOINTS
  6
Continuous
 62
     0
100
AcDbPoint
 10
-1308.95571521655
 20
90.61006798987182
 30
0.0
  0
POINT
  5
D6B0F
330
8EE1B
100
AcDbEntity
  8
DEFPOINTS
  6
Continuous
 62
     0
100
AcDbPoint
 10
-1308.95571521655
 20
186.7513777051483
 30
0.0
  0
ENDBLK
  5
8EE26
330
8EE1B
100
AcDbEntity
  8
0
100
AcDbBlockEnd
  0
BLOCK
  5
8EE32
330
8EE28
100
AcDbEntity
  8
0
100
AcDbBlockBegin
  2
*D18
 70
     1
 10
0.0
 20
0.0
 30
0.0
  3
*D18
  1

  0
LINE
  5
D19FC
330
8EE28
100
AcDbEntity
  8
SIZE
  6
Continuous
 62
     0
370
    -2
100
AcDbLine
 10
-1328.95571521655
 20
90.61006798987184
 30
0.0
 11
-1726.242299839724
 21
90.61006798987195
 31
0.0
  0
LINE
  5
D19FD
330
8EE28
100
AcDbEntity
  8
SIZE
  6
Continuous
 62
     0
370
    -2
100
AcDbLine
 10
-1328.95571521655
 20
-204.389932010128
 30
0.0
 11
-1726.242299839724
 21
-204.3899320101279
 31
0.0
  0
LINE
  5
D19FE
330
8EE28
100
AcDbEntity
  8
SIZE
  6
Continuous
 62
     0
370
    -2
100
AcDbLine
 10
-1706.242299839724
 20
80.61006798987195
 30
0.0
 11
-1706.242299839724
 21
-194.3899320101279
 31
0.0
  0
INSERT
  5
D19FF
330
8EE28
100
AcDbEntity
  8
SIZE
  6
Continuous
 62
     0
370
    -2
100
AcDbBlockReference
  2
_ORIGIN
 10
-1706.242299839724
 20
90.61006798987195
 30
0.0
 41
10.0
 42
10.0
 43
10.0
 50
90.0
  0
INSERT
  5
D1A00
330
8EE28
100
AcDbEntity
  8
SIZE
  6
Continuous
 62
     0
370
    -2
100
AcDbBlockReference
  2
_ORIGIN
 10
-1706.242299839724
 20
-204.3899320101279
 30
0.0
 41
10.0
 42
10.0
 43
10.0
 50
270.0
  0
MTEXT
  5
D1A01
330
8EE28
100
AcDbEntity
  8
SIZE
  6
Continuous
 62
     0
100
AcDbMText
 10
-1741.242299839724
 20
-56.88993201012827
 30
0.0
 40
50.0
 41
0.0
 71
     5
 72
     1
  1
\A1;295
 11
0.0000000000000001
 21
1.0
 31
0.0
 73
     1
 44
1.0
  0
POINT
  5
D1A02
330
8EE28
100
AcDbEntity
  8
DEFPOINTS
  6
Continuous
 62
     0
100
AcDbPoint
 10
-1308.95571521655
 20
90.61006798987182
 30
0.0
  0
POINT
  5
D1A03
330
8EE28
100
AcDbEntity
  8
DEFPOINTS
  6
Continuous
 62
     0
100
AcDbPoint
 10
-1308.95571521655
 20
-204.389932010128
 30
0.0
  0
POINT
  5
D1A04
330
8EE28
100
AcDbEntity
  8
DEFPOINTS
  6
Continuous
 62
     0
100
AcDbPoint
 10
-1706.242299839724
 20
-204.3899320101279
 30
0.0
  0
ENDBLK
  5
8EE33
330
8EE28
100
AcDbEntity
  8
0
100
AcDbBlockEnd
  0
BLOCK
  5
8EE40
330
8EE35
100
AcDbEntity
  8
0
100
AcDbBlockBegin
  2
*D19
 70
     1
 10
0.0
 20
0.0
 30
0.0
  3
*D19
  1

  0
LINE
  5
D19F2
330
8EE35
100
AcDbEntity
  8
SIZE
  6
Continuous
 62
     0
370
    -2
100
AcDbLine
 10
-1328.95571521655
 20
-204.389932010128
 30
0.0
 11
-1515.651939780844
 21
-204.389932010128
 31
0.0
  0
LINE
  5
D19F3
330
8EE35
100
AcDbEntity
  8
SIZE
  6
Continuous
 62
     0
370
    -2
100
AcDbLine
 10
-1348.955715216554
 20
-163.3899319466308
 30
0.0
 11
-1515.651939780844
 21
-163.3899319466308
 31
0.0
  0
LINE
  5
D19F4
330
8EE35
100
AcDbEntity
  8
SIZE
  6
Continuous
 62
     0
370
    -2
100
AcDbLine
 10
-1495.651939780844
 20
-194.389932010128
 30
0.0
 11
-1495.651939780844
 21
-173.3899319466308
 31
0.0
  0
LINE
  5
D19F5
330
8EE35
100
AcDbEntity
  8
SIZE
  6
Continuous
 62
     0
370
    -2
100
AcDbLine
 10
-1495.651939780844
 20
-163.3899319466308
 30
0.0
 11
-1495.651939780844
 21
-79.8185033752023
 31
0.0
  0
INSERT
  5
D19F6
330
8EE35
100
AcDbEntity
  8
SIZE
  6
Continuous
 62
     0
370
    -2
100
AcDbBlockReference
  2
_ORIGIN
 10
-1495.651939780844
 20
-204.389932010128
 30
0.0
 41
10.0
 42
10.0
 43
10.0
 50
270.0
  0
INSERT
  5
D19F7
330
8EE35
100
AcDbEntity
  8
SIZE
  6
Continuous
 62
     0
370
    -2
100
AcDbBlockReference
  2
_ORIGIN
 10
-1495.651939780844
 20
-163.3899319466308
 30
0.0
 41
10.0
 42
10.0
 43
10.0
 50
90.0
  0
MTEXT
  5
D19F8
330
8EE35
100
AcDbEntity
  8
SIZE
  6
Continuous
 62
     0
100
AcDbMText
 10
-1530.651939780844
 20
-116.6042176609167
 30
0.0
 40
50.0
 41
0.0
 71
     5
 72
     1
  1
\A1;41
 11
0.0000000000000001
 21
1.0
 31
0.0
 73
     1
 44
1.0
  0
POINT
  5
D19F9
330
8EE35
100
AcDbEntity
  8
DEFPOINTS
  6
Continuous
 62
     0
100
AcDbPoint
 10
-1308.95571521655
 20
-204.389932010128
 30
0.0
  0
POINT
  5
D19FA
330
8EE35
100
AcDbEntity
  8
DEFPOINTS
  6
Continuous
 62
     0
100
AcDbPoint
 10
-1328.955715216554
 20
-163.3899319466308
 30
0.0
  0
POINT
  5
D19FB
330
8EE35
100
AcDbEntity
  8
DEFPOINTS
  6
Continuous
 62
     0
100
AcDbPoint
 10
-1495.651939780844
 20
-163.3899319466308
 30
0.0
  0
ENDBLK
  5
8EE41
330
8EE35
100
AcDbEntity
  8
0
100
AcDbBlockEnd
  0
BLOCK
  5
8EE4E
330
8EE43
100
AcDbEntity
  8
0
100
AcDbBlockBegin
  2
*D20
 70
     1
 10
0.0
 20
0.0
 30
0.0
  3
*D20
  1

  0
LINE
  5
D19E8
330
8EE43
100
AcDbEntity
  8
SIZE
  6
Continuous
 62
     0
370
    -2
100
AcDbLine
 10
-1328.95571521655
 20
-204.389932010128
 30
0.0
 11
-1610.756662835032
 21
-204.3899320101279
 31
0.0
  0
LINE
  5
D19E9
330
8EE43
100
AcDbEntity
  8
SIZE
  6
Continuous
 62
     0
370
    -2
100
AcDbLine
 10
-1348.955715216554
 20
-162.38993194688
 30
0.0
 11
-1610.756662835032
 21
-162.3899319468799
 31
0.0
  0
LINE
  5
D19EA
330
8EE43
100
AcDbEntity
  8
SIZE
  6
Continuous
 62
     0
370
    -2
100
AcDbLine
 10
-1590.756662835032
 20
-194.3899320101279
 30
0.0
 11
-1590.756662835032
 21
-172.38993194688
 31
0.0
  0
LINE
  5
D19EB
330
8EE43
100
AcDbEntity
  8
SIZE
  6
Continuous
 62
     0
370
    -2
100
AcDbLine
 10
-1590.756662835032
 20
-162.38993194688
 30
0.0
 11
-1590.756662835032
 21
-59.53278908973716
 31
0.0
  0
INSERT
  5
D19EC
330
8EE43
100
AcDbEntity
  8
SIZE
  6
Continuous
 62
     0
370
    -2
100
AcDbBlockReference
  2
_ORIGIN
 10
-1590.756662835032
 20
-204.3899320101279
 30
0.0
 41
10.0
 42
10.0
 43
10.0
 50
270.0
  0
INSERT
  5
D19ED
330
8EE43
100
AcDbEntity
  8
SIZE
  6
Continuous
 62
     0
370
    -2
100
AcDbBlockReference
  2
_ORIGIN
 10
-1590.756662835032
 20
-162.38993194688
 30
0.0
 41
10.0
 42
10.0
 43
10.0
 50
90.0
  0
MTEXT
  5
D19EE
330
8EE43
100
AcDbEntity
  8
SIZE
  6
Continuous
 62
     0
100
AcDbMText
 10
-1625.756662835033
 20
-105.9613605183088
 30
0.0
 40
50.0
 41
0.0
 71
     5
 72
     1
  1
\A1;42
 11
0.0000000000000001
 21
1.0
 31
0.0
 73
     1
 44
1.0
  0
POINT
  5
D19EF
330
8EE43
100
AcDbEntity
  8
DEFPOINTS
  6
Continuous
 62
     0
100
AcDbPoint
 10
-1308.95571521655
 20
-204.389932010128
 30
0.0
  0
POINT
  5
D19F0
330
8EE43
100
AcDbEntity
  8
DEFPOINTS
  6
Continuous
 62
     0
100
AcDbPoint
 10
-1328.955715216554
 20
-162.38993194688
 30
0.0
  0
POINT
  5
D19F1
330
8EE43
100
AcDbEntity
  8
DEFPOINTS
  6
Continuous
 62
     0
100
AcDbPoint
 10
-1590.756662835032
 20
-162.38993194688
 30
0.0
  0
ENDBLK
  5
8EE4F
330
8EE43
100
AcDbEntity
  8
0
100
AcDbBlockEnd
  0
BLOCK
  5
9002F
330
90025
100
AcDbEntity
  8
0
100
AcDbBlockBegin
  2
*D21
 70
     1
 10
0.0
 20
0.0
 30
0.0
  3
*D21
  1

  0
LINE
  5
D1BA1
330
90025
100
AcDbEntity
  8
SIZE
  6
Continuous
 62
     0
370
    -2
100
AcDbLine
 10
-0.0000107718317383
 20
-858.1423350993217
 30
0.0
 11
-0.0000107718317249
 21
-640.7451004090416
 31
0.0
  0
LINE
  5
D1BA2
330
90025
100
AcDbEntity
  8
SIZE
  6
Continuous
 62
     0
370
    -2
100
AcDbLine
 10
-345.0701082718312
 20
-864.5909912452808
 30
0.0
 11
-345.0701082718312
 21
-640.7451004090416
 31
0.0
  0
LINE
  5
D1BA3
330
90025
100
AcDbEntity
  8
SIZE
  6
Continuous
 62
     0
370
    -2
100
AcDbLine
 10
-10.00001077183172
 20
-660.7451004090417
 30
0.0
 11
-335.0701082718312
 21
-660.7451004090417
 31
0.0
  0
INSERT
  5
D1BA4
330
90025
100
AcDbEntity
  8
SIZE
  6
Continuous
 62
     0
370
    -2
100
AcDbBlockReference
  2
_ORIGIN
 10
-0.0000107718317262
 20
-660.7451004090417
 30
0.0
 41
10.0
 42
10.0
 43
10.0
  0
INSERT
  5
D1BA5
330
90025
100
AcDbEntity
  8
SIZE
  6
Continuous
 62
     0
370
    -2
100
AcDbBlockReference
  2
_ORIGIN
 10
-345.0701082718312
 20
-660.7451004090417
 30
0.0
 41
10.0
 42
10.0
 43
10.0
 50
180.0
  0
MTEXT
  5
D1BA6
330
90025
100
AcDbEntity
  8
SIZE
  6
Continuous
 62
     0
100
AcDbMText
 10
-172.5350595218315
 20
-625.7451004090417
 30
0.0
 40
50.0
 41
0.0
 71
     5
 72
     1
  1
\A1;345
 73
     1
 44
1.0
  0
POINT
  5
D1BA7
330
90025
100
AcDbEntity
  8
DEFPOINTS
  6
Continuous
 62
     0
100
AcDbPoint
 10
-0.0000107718317395
 20
-878.1423350993218
 30
0.0
  0
POINT
  5
D1BA8
330
90025
100
AcDbEntity
  8
DEFPOINTS
  6
Continuous
 62
     0
100
AcDbPoint
 10
-345.0701082718312
 20
-884.5909912452807
 30
0.0
  0
POINT
  5
D1BA9
330
90025
100
AcDbEntity
  8
DEFPOINTS
  6
Continuous
 62
     0
100
AcDbPoint
 10
-345.0701082718312
 20
-660.7451004090417
 30
0.0
  0
ENDBLK
  5
90030
330
90025
100
AcDbEntity
  8
0
100
AcDbBlockEnd
  0
BLOCK
  5
9003C
330
90031
100
AcDbEntity
  8
0
100
AcDbBlockBegin
  2
*D22
 70
     1
 10
0.0
 20
0.0
 30
0.0
  3
*D22
  1

  0
LINE
  5
D44A8
330
90031
100
AcDbEntity
  8
SIZE
  6
Continuous
 62
     0
370
    -2
100
AcDbLine
 10
330.0700867281677
 20
-864.5909912452808
 30
0.0
 11
330.0700867281677
 21
-640.7451004090416
 31
0.0
  0
LINE
  5
D44A9
330
90031
100
AcDbEntity
  8
SIZE
  6
Continuous
 62
     0
370
    -2
100
AcDbLine
 10
399.0001517281482
 20
-982.6031126319525
 30
0.0
 11
399.0001517281482
 21
-640.7451004090416
 31
0.0
  0
LINE
  5
D44AA
330
90031
100
AcDbEntity
  8
SIZE
  6
Continuous
 62
     0
370
    -2
100
AcDbLine
 10
340.0700867281678
 20
-660.7451004090417
 30
0.0
 11
389.0001517281482
 21
-660.7451004090417
 31
0.0
  0
LINE
  5
D44AB
330
90031
100
AcDbEntity
  8
SIZE
  6
Continuous
 62
     0
370
    -2
100
AcDbLine
 10
399.0001517281482
 20
-660.7451004090417
 30
0.0
 11
499.714437442434
 21
-660.7451004090417
 31
0.0
  0
INSERT
  5
D44AC
330
90031
100
AcDbEntity
  8
SIZE
  6
Continuous
 62
     0
370
    -2
100
AcDbBlockReference
  2
_ORIGIN
 10
330.0700867281677
 20
-660.7451004090417
 30
0.0
 41
10.0
 42
10.0
 43
10.0
 50
180.0
  0
INSERT
  5
D44AD
330
90031
100
AcDbEntity
  8
SIZE
  6
Continuous
 62
     0
370
    -2
100
AcDbBlockReference
  2
_ORIGIN
 10
399.0001517281482
 20
-660.7451004090417
 30
0.0
 41
10.0
 42
10.0
 43
10.0
  0
MTEXT
  5
D44AE
330
90031
100
AcDbEntity
  8
SIZE
  6
Continuous
 62
     0
100
AcDbMText
 10
454.357294585291
 20
-625.7451004090417
 30
0.0
 40
50.0
 41
0.0
 71
     5
 72
     1
  1
\A1;69
 73
     1
 44
1.0
  0
POINT
  5
D44AF
330
90031
100
AcDbEntity
  8
DEFPOINTS
  6
Continuous
 62
     0
100
AcDbPoint
 10
330.0700867281677
 20
-884.5909912452807
 30
0.0
  0
POINT
  5
D44B0
330
90031
100
AcDbEntity
  8
DEFPOINTS
  6
Continuous
 62
     0
100
AcDbPoint
 10
399.0001517281482
 20
-1002.603112631952
 30
0.0
  0
POINT
  5
D44B1
330
90031
100
AcDbEntity
  8
DEFPOINTS
  6
Continuous
 62
     0
100
AcDbPoint
 10
399.0001517281482
 20
-660.7451004090417
 30
0.0
  0
ENDBLK
  5
9003D
330
90031
100
AcDbEntity
  8
0
100
AcDbBlockEnd
  0
BLOCK
  5
90048
330
9003E
100
AcDbEntity
  8
0
100
AcDbBlockBegin
  2
*D23
 70
     1
 10
0.0
 20
0.0
 30
0.0
  3
*D23
  1

  0
LINE
  5
D1BC7
330
9003E
100
AcDbEntity
  8
SIZE
  6
Continuous
 62
     0
370
    -2
100
AcDbLine
 10
-0.0000107718317383
 20
-858.1423350993217
 30
0.0
 11
-0.0000107718317249
 21
-640.7451004090416
 31
0.0
  0
LINE
  5
D1BC8
330
9003E
100
AcDbEntity
  8
SIZE
  6
Continuous
 62
     0
370
    -2
100
AcDbLine
 10
330.0700867281677
 20
-864.5909912452808
 30
0.0
 11
330.0700867281677
 21
-640.7451004090416
 31
0.0
  0
LINE
  5
D1BC9
330
9003E
100
AcDbEntity
  8
SIZE
  6
Continuous
 62
     0
370
    -2
100
AcDbLine
 10
9.999989228168272
 20
-660.7451004090417
 30
0.0
 11
320.0700867281677
 21
-660.7451004090417
 31
0.0
  0
INSERT
  5
D1BCA
330
9003E
100
AcDbEntity
  8
SIZE
  6
Continuous
 62
     0
370
    -2
100
AcDbBlockReference
  2
_ORIGIN
 10
-0.0000107718317262
 20
-660.7451004090417
 30
0.0
 41
10.0
 42
10.0
 43
10.0
 50
180.0
  0
INSERT
  5
D1BCB
330
9003E
100
AcDbEntity
  8
SIZE
  6
Continuous
 62
     0
370
    -2
100
AcDbBlockReference
  2
_ORIGIN
 10
330.0700867281677
 20
-660.7451004090417
 30
0.0
 41
10.0
 42
10.0
 43
10.0
  0
MTEXT
  5
D1BCC
330
9003E
100
AcDbEntity
  8
SIZE
  6
Continuous
 62
     0
100
AcDbMText
 10
165.035037978168
 20
-625.7451004090417
 30
0.0
 40
50.0
 41
0.0
 71
     5
 72
     1
  1
\A1;330
 73
     1
 44
1.0
  0
POINT
  5
D1BCD
330
9003E
100
AcDbEntity
  8
DEFPOINTS
  6
Continuous
 62
     0
100
AcDbPoint
 10
-0.0000107718317395
 20
-878.1423350993218
 30
0.0
  0
POINT
  5
D1BCE
330
9003E
100
AcDbEntity
  8
DEFPOINTS
  6
Continuous
 62
     0
100
AcDbPoint
 10
330.0700867281677
 20
-884.5909912452807
 30
0.0
  0
POINT
  5
D1BCF
330
9003E
100
AcDbEntity
  8
DEFPOINTS
  6
Continuous
 62
     0
100
AcDbPoint
 10
330.0700867281677
 20
-660.7451004090417
 30
0.0
  0
ENDBLK
  5
90049
330
9003E
100
AcDbEntity
  8
0
100
AcDbBlockEnd
  0
BLOCK
  5
90054
330
9004A
100
AcDbEntity
  8
0
100
AcDbBlockBegin
  2
*D24
 70
     1
 10
0.0
 20
0.0
 30
0.0
  3
*D24
  1

  0
LINE
  5
D4484
330
9004A
100
AcDbEntity
  8
SIZE
  6
Continuous
 62
     0
370
    -2
100
AcDbLine
 10
-398.9998482718322
 20
-1024.103112631953
 30
0.0
 11
-398.9998482718322
 21
-1379.566107552449
 31
0.0
  0
LINE
  5
D4485
330
9004A
100
AcDbEntity
  8
SIZE
  6
Continuous
 62
     0
370
    -2
100
AcDbLine
 10
399.0001517281677
 20
-1024.103112631953
 30
0.0
 11
399.0001517281677
 21
-1379.566107552449
 31
0.0
  0
LINE
  5
D4486
330
9004A
100
AcDbEntity
  8
SIZE
  6
Continuous
 62
     0
370
    -2
100
AcDbLine
 10
-388.9998482718322
 20
-1359.566107552449
 30
0.0
 11
389.0001517281678
 21
-1359.566107552449
 31
0.0
  0
INSERT
  5
D4487
330
9004A
100
AcDbEntity
  8
SIZE
  6
Continuous
 62
     0
370
    -2
100
AcDbBlockReference
  2
_ORIGIN
 10
-398.9998482718322
 20
-1359.566107552449
 30
0.0
 41
10.0
 42
10.0
 43
10.0
 50
180.0
  0
INSERT
  5
D4488
330
9004A
100
AcDbEntity
  8
SIZE
  6
Continuous
 62
     0
370
    -2
100
AcDbBlockReference
  2
_ORIGIN
 10
399.0001517281677
 20
-1359.566107552449
 30
0.0
 41
10.0
 42
10.0
 43
10.0
  0
MTEXT
  5
D4489
330
9004A
100
AcDbEntity
  8
SIZE
  6
Continuous
 62
     0
100
AcDbMText
 10
0.0001517281677956
 20
-1324.566107552449
 30
0.0
 40
50.0
 41
0.0
 71
     5
 72
     1
  1
\A1;798
 73
     1
 44
1.0
  0
POINT
  5
D448A
330
9004A
100
AcDbEntity
  8
DEFPOINTS
  6
Continuous
 62
     0
100
AcDbPoint
 10
-398.9998482718322
 20
-1004.103112631953
 30
0.0
  0
POINT
  5
D448B
330
9004A
100
AcDbEntity
  8
DEFPOINTS
  6
Continuous
 62
     0
100
AcDbPoint
 10
399.0001517281677
 20
-1004.103112631953
 30
0.0
  0
POINT
  5
D448C
330
9004A
100
AcDbEntity
  8
DEFPOINTS
  6
Continuous
 62
     0
100
AcDbPoint
 10
399.0001517281677
 20
-1359.566107552449
 30
0.0
  0
ENDBLK
  5
90055
330
9004A
100
AcDbEntity
  8
0
100
AcDbBlockEnd
  0
BLOCK
  5
90061
330
90056
100
AcDbEntity
  8
0
100
AcDbBlockBegin
  2
*D25
 70
     1
 10
0.0
 20
0.0
 30
0.0
  3
*D25
  1

  0
LINE
  5
D44B2
330
90056
100
AcDbEntity
  8
SIZE
  6
Continuous
 62
     0
370
    -2
100
AcDbLine
 10
-345.0701082718312
 20
-864.5909912452808
 30
0.0
 11
-345.0701082718312
 21
-640.7451004090416
 31
0.0
  0
LINE
  5
D44B3
330
90056
100
AcDbEntity
  8
SIZE
  6
Continuous
 62
     0
370
    -2
100
AcDbLine
 10
-398.9998482718244
 20
-982.5987491986197
 30
0.0
 11
-398.9998482718244
 21
-640.7451004090416
 31
0.0
  0
LINE
  5
D44B4
330
90056
100
AcDbEntity
  8
SIZE
  6
Continuous
 62
     0
370
    -2
100
AcDbLine
 10
-355.0701082718312
 20
-660.7451004090417
 30
0.0
 11
-388.9998482718244
 21
-660.7451004090417
 31
0.0
  0
LINE
  5
D44B5
330
90056
100
AcDbEntity
  8
SIZE
  6
Continuous
 62
     0
370
    -2
100
AcDbLine
 10
-398.9998482718244
 20
-660.7451004090417
 30
0.0
 11
-503.9998482718244
 21
-660.7451004090417
 31
0.0
  0
INSERT
  5
D44B6
330
90056
100
AcDbEntity
  8
SIZE
  6
Continuous
 62
     0
370
    -2
100
AcDbBlockReference
  2
_ORIGIN
 10
-345.0701082718312
 20
-660.7451004090417
 30
0.0
 41
10.0
 42
10.0
 43
10.0
  0
INSERT
  5
D44B7
330
90056
100
AcDbEntity
  8
SIZE
  6
Continuous
 62
     0
370
    -2
100
AcDbBlockReference
  2
_ORIGIN
 10
-398.9998482718244
 20
-660.7451004090417
 30
0.0
 41
10.0
 42
10.0
 43
10.0
 50
180.0
  0
MTEXT
  5
D44B8
330
90056
100
AcDbEntity
  8
SIZE
  6
Continuous
 62
     0
100
AcDbMText
 10
-456.4998482718245
 20
-625.7451004090417
 30
0.0
 40
50.0
 41
0.0
 71
     5
 72
     1
  1
\A1;54
 73
     1
 44
1.0
  0
POINT
  5
D44B9
330
90056
100
AcDbEntity
  8
DEFPOINTS
  6
Continuous
 62
     0
100
AcDbPoint
 10
-345.0701082718312
 20
-884.5909912452807
 30
0.0
  0
POINT
  5
D44BA
330
90056
100
AcDbEntity
  8
DEFPOINTS
  6
Continuous
 62
     0
100
AcDbPoint
 10
-398.9998482718244
 20
-1002.598749198619
 30
0.0
  0
POINT
  5
D44BB
330
90056
100
AcDbEntity
  8
DEFPOINTS
  6
Continuous
 62
     0
100
AcDbPoint
 10
-398.9998482718244
 20
-660.7451004090417
 30
0.0
  0
ENDBLK
  5
90062
330
90056
100
AcDbEntity
  8
0
100
AcDbBlockEnd
  0
BLOCK
  5
D1868
330
D185E
100
AcDbEntity
  8
0
100
AcDbBlockBegin
  2
*D26
 70
     1
 10
0.0
 20
0.0
 30
0.0
  3
*D26
  1

  0
LINE
  5
D6B1A
330
D185E
100
AcDbEntity
  8
SIZE
  6
Continuous
 62
     0
370
    -2
100
AcDbLine
 10
-303.0000000000011
 20
-71.51745219896199
 30
0.0
 11
-303.0000000000011
 21
139.2137109924633
 31
0.0
  0
LINE
  5
D6B1B
330
D185E
100
AcDbEntity
  8
SIZE
  6
Continuous
 62
     0
370
    -2
100
AcDbLine
 10
-0.0000000000004535
 20
19.99999999999998
 30
0.0
 11
-0.0000000000004462
 21
139.2137109924633
 31
0.0
  0
LINE
  5
D6B1C
330
D185E
100
AcDbEntity
  8
SIZE
  6
Continuous
 62
     0
370
    -2
100
AcDbLine
 10
-293.0000000000011
 20
119.2137109924633
 30
0.0
 11
-10.00000000000044
 21
119.2137109924633
 31
0.0
  0
INSERT
  5
D6B1D
330
D185E
100
AcDbEntity
  8
SIZE
  6
Continuous
 62
     0
370
    -2
100
AcDbBlockReference
  2
_ORIGIN
 10
-303.0000000000011
 20
119.2137109924633
 30
0.0
 41
10.0
 42
10.0
 43
10.0
 50
180.0
  0
INSERT
  5
D6B1E
330
D185E
100
AcDbEntity
  8
SIZE
  6
Continuous
 62
     0
370
    -2
100
AcDbBlockReference
  2
_ORIGIN
 10
-0.0000000000004474
 20
119.2137109924633
 30
0.0
 41
10.0
 42
10.0
 43
10.0
  0
MTEXT
  5
D6B1F
330
D185E
100
AcDbEntity
  8
SIZE
  6
Continuous
 62
     0
100
AcDbMText
 10
-151.5000000000007
 20
154.2137109924633
 30
0.0
 40
50.0
 41
0.0
 71
     5
 72
     1
  1
\A1;303
 73
     1
 44
1.0
  0
POINT
  5
D6B20
330
D185E
100
AcDbEntity
  8
DEFPOINTS
  6
Continuous
 62
     0
100
AcDbPoint
 10
-303.0000000000011
 20
-91.51745219896199
 30
0.0
  0
POINT
  5
D6B21
330
D185E
100
AcDbEntity
  8
DEFPOINTS
  6
Continuous
 62
     0
100
AcDbPoint
 10
-0.0000000000004547
 20
-0.0000000000000142
 30
0.0
  0
POINT
  5
D6B22
330
D185E
100
AcDbEntity
  8
DEFPOINTS
  6
Continuous
 62
     0
100
AcDbPoint
 10
-0.0000000000004474
 20
119.2137109924633
 30
0.0
  0
ENDBLK
  5
D1869
330
D185E
100
AcDbEntity
  8
0
100
AcDbBlockEnd
  0
BLOCK
  5
D1874
330
D186A
100
AcDbEntity
  8
0
100
AcDbBlockBegin
  2
*D27
 70
     1
 10
0.0
 20
0.0
 30
0.0
  3
*D27
  1

  0
LINE
  5
D6B23
330
D186A
100
AcDbEntity
  8
SIZE
  6
Continuous
 62
     0
370
    -2
100
AcDbLine
 10
19.99999999999954
 20
-0.0000000000000057
 30
0.0
 11
412.2882096231704
 21
-0.0000000000001168
 31
0.0
  0
LINE
  5
D6B24
330
D186A
100
AcDbEntity
  8
SIZE
  6
Continuous
 62
     0
370
    -2
100
AcDbLine
 10
19.99999999999772
 20
-295.0
 30
0.0
 11
412.2882096231704
 21
-295.0000000000001
 31
0.0
  0
LINE
  5
D6B25
330
D186A
100
AcDbEntity
  8
SIZE
  6
Continuous
 62
     0
370
    -2
100
AcDbLine
 10
392.2882096231704
 20
-10.00000000000011
 30
0.0
 11
392.2882096231703
 21
-285.0000000000001
 31
0.0
  0
INSERT
  5
D6B26
330
D186A
100
AcDbEntity
  8
SIZE
  6
Continuous
 62
     0
370
    -2
100
AcDbBlockReference
  2
_ORIGIN
 10
392.2882096231704
 20
-0.0000000000001111
 30
0.0
 41
10.0
 42
10.0
 43
10.0
 50
90.0
  0
INSERT
  5
D6B27
330
D186A
100
AcDbEntity
  8
SIZE
  6
Continuous
 62
     0
370
    -2
100
AcDbBlockReference
  2
_ORIGIN
 10
392.2882096231703
 20
-295.0000000000001
 30
0.0
 41
10.0
 42
10.0
 43
10.0
 50
270.0
  0
MTEXT
  5
D6B28
330
D186A
100
AcDbEntity
  8
SIZE
  6
Continuous
 62
     0
100
AcDbMText
 10
357.2882096231704
 20
-147.5
 30
0.0
 40
50.0
 41
0.0
 71
     5
 72
     1
  1
\A1;295
 11
0.0000000000000001
 21
1.0
 31
0.0
 73
     1
 44
1.0
  0
POINT
  5
D6B29
330
D186A
100
AcDbEntity
  8
DEFPOINTS
  6
Continuous
 62
     0
100
AcDbPoint
 10
-0.0000000000004547
 20
0.0
 30
0.0
  0
POINT
  5
D6B2A
330
D186A
100
AcDbEntity
  8
DEFPOINTS
  6
Continuous
 62
     0
100
AcDbPoint
 10
-0.0000000000022737
 20
-295.0
 30
0.0
  0
POINT
  5
D6B2B
330
D186A
100
AcDbEntity
  8
DEFPOINTS
  6
Continuous
 62
     0
100
AcDbPoint
 10
392.2882096231703
 20
-295.0000000000001
 30
0.0
  0
ENDBLK
  5
D1875
330
D186A
100
AcDbEntity
  8
0
100
AcDbBlockEnd
  0
BLOCK
  5
D1881
330
D1876
100
AcDbEntity
  8
0
100
AcDbBlockBegin
  2
*D28
 70
     1
 10
0.0
 20
0.0
 30
0.0
  3
*D28
  1

  0
LINE
  5
D6B2C
330
D1876
100
AcDbEntity
  8
SIZE
  6
Continuous
 62
     0
370
    -2
100
AcDbLine
 10
19.99999999999772
 20
-295.0
 30
0.0
 11
201.6978495642915
 21
-295.0
 31
0.0
  0
LINE
  5
D6B2D
330
D1876
100
AcDbEntity
  8
SIZE
  6
Continuous
 62
     0
370
    -2
100
AcDbLine
 10
35.00162500000169
 20
-254.3498861865009
 30
0.0
 11
201.6978495642915
 21
-254.349886186501
 31
0.0
  0
LINE
  5
D6B2E
330
D1876
100
AcDbEntity
  8
SIZE
  6
Continuous
 62
     0
370
    -2
100
AcDbLine
 10
181.6978495642915
 20
-285.0
 30
0.0
 11
181.6978495642915
 21
-264.349886186501
 31
0.0
  0
LINE
  5
D6B2F
330
D1876
100
AcDbEntity
  8
SIZE
  6
Continuous
 62
     0
370
    -2
100
AcDbLine
 10
181.6978495642915
 20
-254.349886186501
 30
0.0
 11
181.6978495642915
 21
-170.7784576150724
 31
0.0
  0
INSERT
  5
D6B30
330
D1876
100
AcDbEntity
  8
SIZE
  6
Continuous
 62
     0
370
    -2
100
AcDbBlockReference
  2
_ORIGIN
 10
181.6978495642915
 20
-295.0
 30
0.0
 41
10.0
 42
10.0
 43
10.0
 50
270.0
  0
INSERT
  5
D6B31
330
D1876
100
AcDbEntity
  8
SIZE
  6
Continuous
 62
     0
370
    -2
100
AcDbBlockReference
  2
_ORIGIN
 10
181.6978495642915
 20
-254.349886186501
 30
0.0
 41
10.0
 42
10.0
 43
10.0
 50
90.0
  0
MTEXT
  5
D6B32
330
D1876
100
AcDbEntity
  8
SIZE
  6
Continuous
 62
     0
100
AcDbMText
 10
146.6978495642916
 20
-207.5641719007866
 30
0.0
 40
50.0
 41
0.0
 71
     5
 72
     1
  1
\A1;41
 11
0.0000000000000001
 21
1.0
 31
0.0
 73
     1
 44
1.0
  0
POINT
  5
D6B33
330
D1876
100
AcDbEntity
  8
DEFPOINTS
  6
Continuous
 62
     0
100
AcDbPoint
 10
-0.0000000000022737
 20
-295.0
 30
0.0
  0
POINT
  5
D6B34
330
D1876
100
AcDbEntity
  8
DEFPOINTS
  6
Continuous
 62
     0
100
AcDbPoint
 10
15.00162500000169
 20
-254.3498861865009
 30
0.0
  0
POINT
  5
D6B35
330
D1876
100
AcDbEntity
  8
DEFPOINTS
  6
Continuous
 62
     0
100
AcDbPoint
 10
181.6978495642915
 20
-254.349886186501
 30
0.0
  0
ENDBLK
  5
D1882
330
D1876
100
AcDbEntity
  8
0
100
AcDbBlockEnd
  0
BLOCK
  5
D188E
330
D1883
100
AcDbEntity
  8
0
100
AcDbBlockBegin
  2
*D29
 70
     1
 10
0.0
 20
0.0
 30
0.0
  3
*D29
  1

  0
LINE
  5
D6B36
330
D1883
100
AcDbEntity
  8
SIZE
  6
Continuous
 62
     0
370
    -2
100
AcDbLine
 10
19.99999999999772
 20
-295.0
 30
0.0
 11
296.8025726184796
 21
-295.0
 31
0.0
  0
LINE
  5
D6B37
330
D1883
100
AcDbEntity
  8
SIZE
  6
Continuous
 62
     0
370
    -2
100
AcDbLine
 10
35.00162500000169
 20
-253.3498861867501
 30
0.0
 11
296.8025726184796
 21
-253.3498861867502
 31
0.0
  0
LINE
  5
D6B38
330
D1883
100
AcDbEntity
  8
SIZE
  6
Continuous
 62
     0
370
    -2
100
AcDbLine
 10
276.8025726184796
 20
-285.0
 30
0.0
 11
276.8025726184796
 21
-263.3498861867502
 31
0.0
  0
LINE
  5
D6B39
330
D1883
100
AcDbEntity
  8
SIZE
  6
Continuous
 62
     0
370
    -2
100
AcDbLine
 10
276.8025726184796
 20
-253.3498861867502
 30
0.0
 11
276.8025726184796
 21
-150.4927433296074
 31
0.0
  0
INSERT
  5
D6B3A
330
D1883
100
AcDbEntity
  8
SIZE
  6
Continuous
 62
     0
370
    -2
100
AcDbBlockReference
  2
_ORIGIN
 10
276.8025726184796
 20
-295.0
 30
0.0
 41
10.0
 42
10.0
 43
10.0
 50
270.0
  0
INSERT
  5
D6B3B
330
D1883
100
AcDbEntity
  8
SIZE
  6
Continuous
 62
     0
370
    -2
100
AcDbBlockReference
  2
_ORIGIN
 10
276.8025726184796
 20
-253.3498861867502
 30
0.0
 41
10.0
 42
10.0
 43
10.0
 50
90.0
  0
MTEXT
  5
D6B3C
330
D1883
100
AcDbEntity
  8
SIZE
  6
Continuous
 62
     0
100
AcDbMText
 10
241.8025726184797
 20
-196.9213147581788
 30
0.0
 40
50.0
 41
0.0
 71
     5
 72
     1
  1
\A1;42
 11
0.0000000000000001
 21
1.0
 31
0.0
 73
     1
 44
1.0
  0
POINT
  5
D6B3D
330
D1883
100
AcDbEntity
  8
DEFPOINTS
  6
Continuous
 62
     0
100
AcDbPoint
 10
-0.0000000000022737
 20
-295.0
 30
0.0
  0
POINT
  5
D6B3E
330
D1883
100
AcDbEntity
  8
DEFPOINTS
  6
Continuous
 62
     0
100
AcDbPoint
 10
15.00162500000169
 20
-253.3498861867501
 30
0.0
  0
POINT
  5
D6B3F
330
D1883
100
AcDbEntity
  8
DEFPOINTS
  6
Continuous
 62
     0
100
AcDbPoint
 10
276.8025726184796
 20
-253.3498861867502
 30
0.0
  0
ENDBLK
  5
D188F
330
D1883
100
AcDbEntity
  8
0
100
AcDbBlockEnd
  0
ENDSEC
  0
SECTION
  2
ENTITIES
  0
MTEXT
  5
38341
330
1E
100
AcDbEntity
  8
0
  6
Continuous
100
AcDbMText
 10
383.9605305094082
 20
4023.282340837186
 30
0.0
 40
64.0
 41
187.9848
 71
     1
 72
     5
  1

 73
     1
 44
1.0
1001
ACAD
1000
MTEXTBEGIN
1070
    73
1070
     1
1070
    44
1040
1.0
1070
    74
1070
     0
1000
MTEXTEND
1000
MTEXTBEGIN
1070
    73
1070
     1
1070
    44
1040
1.0
1070
    74
1070
     0
1000
MTEXTEND
1000
MTEXTBEGIN
1070
    73
1070
     1
1070
    44
1040
1.0
1070
    74
1070
     0
1000
MTEXTEND
  0
LINE
  5
68495
330
1E
100
AcDbEntity
  8
BASIS
100
AcDbLine
 10
-346.4188795705058
 20
-147.7269782201422
 30
0.0
 11
30.46708436607969
 21
-147.7269782201422
 31
0.0
  0
TEXT
  5
6867A
330
1E
100
AcDbEntity
  8
ETC
100
AcDbText
 10
209.2162214753766
 20
284.9536109962591
 30
0.0
 40
64.0
  1
SMSZ5574
 41
0.8805031515330238
 72
     5
 11
635.8828914753789
 21
284.9536109962591
 31
0.0
100
AcDbText
  0
TEXT
  5
6867F
330
1E
100
AcDbEntity
  8
ETC
100
AcDbText
 10
210.4724985673929
 20
396.9133073763414
 30
0.0
 40
64.0
  1
室内機
 41
0.75
 72
     5
 11
370.4724985673929
 21
396.9133073763414
 31
0.0
100
AcDbText
  0
LINE
  5
BD1A2
330
1E
100
AcDbEntity
  8
DETAIL
  6
Continuous
100
AcDbLine
 10
-94.43229474134614
 20
-295.0
 30
0.0
 11
-0.0000000000022737
 21
-295.0
 31
0.0
  0
LINE
  5
BD1A3
330
1E
100
AcDbEntity
  8
DETAIL
  6
Continuous
100
AcDbLine
 10
-87.29516615734656
 20
0.0000000000073896
 30
0.0
 11
-17.26188978267828
 21
0.0000000000073896
 31
0.0
  0
LINE
  5
BD1A4
330
1E
100
AcDbEntity
  8
DETAIL
  6
Continuous
100
AcDbLine
 10
-94.38866040134644
 20
-0.349999999992292
 30
0.0
 11
-12.59576718267317
 21
-0.349999999992292
 31
0.0
  0
LINE
  5
BD1A5
330
1E
100
AcDbEntity
  8
DETAIL
  6
Continuous
100
AcDbLine
 10
-94.38866040134644
 20
-5.349999999992178
 30
0.0
 11
-8.095797326679985
 21
-5.349969855992753
 31
0.0
  0
LINE
  5
BD1A7
330
1E
100
AcDbEntity
  8
DETAIL
  6
Continuous
100
AcDbLine
 10
-94.38866040134644
 20
-290.3499999999855
 30
0.0
 11
-3.464836248011579
 21
-290.3499999999855
 31
0.0
  0
LINE
  5
BD1A9
330
1E
100
AcDbEntity
  8
DETAIL
  6
Continuous
100
AcDbLine
 10
-94.38866040134644
 20
-213.4499999999872
 30
0.0
 11
-4.388660401348261
 21
-213.4499999999872
 31
0.0
  0
LINE
  5
BD1AA
330
1E
100
AcDbEntity
  8
DETAIL
  6
Continuous
100
AcDbLine
 10
-71.01301509067389
 20
-213.6004424399874
 30
0.0
 11
-82.19482965067664
 21
-213.6541961039875
 31
0.0
  0
LINE
  5
BD1AB
330
1E
100
AcDbEntity
  8
DETAIL
  6
Continuous
100
AcDbLine
 10
-95.88866040134826
 20
-295.0
 30
0.0
 11
-95.88866040134828
 21
-0.1499999999903251
 31
0.0
  0
LINE
  5
BD1AC
330
1E
100
AcDbEntity
  8
DETAIL
  6
Continuous
100
AcDbLine
 10
-94.39274822533889
 20
-292.463025822652
 30
0.0
 11
-94.38866040134644
 21
-213.6543634346539
 31
0.0
  0
LINE
  5
BD1AD
330
1E
100
AcDbEntity
  8
DETAIL
  6
Continuous
100
AcDbLine
 10
-80.38911614667677
 20
-290.3499999999855
 30
0.0
 11
-80.38911614667677
 21
-213.6486367106539
 31
0.0
  0
LINE
  5
BD1AE
330
1E
100
AcDbEntity
  8
DETAIL
  6
Continuous
100
AcDbLine
 10
-82.58436528134053
 20
-290.3497637279855
 30
0.0
 11
-82.58436528134053
 21
-213.6543634346539
 31
0.0
  0
LINE
  5
BD1BA
330
1E
100
AcDbEntity
  8
DETAIL
  6
Continuous
100
AcDbLine
 10
-94.94099635733846
 20
-231.7499999999867
 30
0.0
 11
-94.94099635733846
 21
-7.741855341325845
 31
0.0
  0
LINE
  5
BD1C4
330
1E
100
AcDbEntity
  8
DETAIL
  6
Continuous
100
AcDbLine
 10
-245.2229542720019
 20
-241.3657695399864
 30
0.0
 11
-240.2975404226731
 21
-236.6093526733202
 31
0.0
  0
LINE
  5
BD1C5
330
1E
100
AcDbEntity
  8
DETAIL
  6
Continuous
100
AcDbLine
 10
-246.5853093453393
 20
-241.3249190026532
 30
0.0
 11
-240.9573009933433
 21
-235.8900145106535
 31
0.0
  0
LINE
  5
BD1C6
330
1E
100
AcDbEntity
  8
DETAIL
  6
Continuous
100
AcDbLine
 10
-242.1926868720115
 20
-235.2758001186537
 30
0.0
 11
-246.9492289120012
 21
-239.8691393733201
 31
0.0
  0
LINE
  5
BD1C7
330
1E
100
AcDbEntity
  8
DETAIL
  6
Continuous
100
AcDbLine
 10
-243.1387796986714
 20
-234.7992677506534
 30
0.0
 11
-246.9492289120012
 21
-238.4789757826531
 31
0.0
  0
LINE
  5
BD1C8
330
1E
100
AcDbEntity
  8
DETAIL
  6
Continuous
100
AcDbLine
 10
-242.6545330813392
 20
-234.8639937573201
 30
0.0
 11
-246.9492289120012
 21
-239.0193125333201
 31
0.0
  0
ARC
  5
BD1CB
330
1E
100
AcDbEntity
  8
DETAIL
  6
Continuous
100
AcDbCircle
 10
-245.8908747786777
 20
-242.0444749279865
 30
0.0
 40
0.9999999999999751
100
AcDbArc
 50
134.0000590875882
 51
226.5959817538188
  0
LINE
  5
BD207
330
1E
100
AcDbEntity
  8
DETAIL
  6
Continuous
100
AcDbLine
 10
-248.9215343213404
 20
-237.8266880346533
 30
0.0
 11
-247.7662644920042
 21
-238.5601849426533
 31
0.0
  0
LINE
  5
BD218
330
1E
100
AcDbEntity
  8
DETAIL
  6
Continuous
100
AcDbLine
 10
-247.9825230920037
 20
-239.9787378466536
 30
0.0
 11
-246.9492289120012
 21
-240.0691393733199
 31
0.0
  0
LINE
  5
BD219
330
1E
100
AcDbEntity
  8
DETAIL
  6
Continuous
100
AcDbLine
 10
-247.7662644920042
 20
-238.5601849426533
 30
0.0
 11
-246.9492289120012
 21
-238.6312100946535
 31
0.0
  0
LINE
  5
BD21A
330
1E
100
AcDbEntity
  8
DETAIL
  6
Continuous
100
AcDbLine
 10
-246.9470404120115
 20
-240.0273803293198
 30
0.0
 11
-245.3557606040053
 21
-240.1107757706532
 31
0.0
  0
LINE
  5
BD21B
330
1E
100
AcDbEntity
  8
DETAIL
  6
Continuous
100
AcDbLine
 10
-243.2502097306701
 20
-238.1042507413201
 30
0.0
 11
-245.0563214933413
 21
-238.0411799279867
 31
0.0
  0
LINE
  5
BD21C
330
1E
100
AcDbEntity
  8
DETAIL
  6
Continuous
100
AcDbLine
 10
-244.1405502920029
 20
-238.9640426279868
 30
0.0
 11
-246.1984100506711
 21
-239.1440820279865
 31
0.0
  0
LINE
  5
BD21D
330
1E
100
AcDbEntity
  8
DETAIL
  6
Continuous
100
AcDbLine
 10
-244.8913691533348
 20
-239.68909997332
 30
0.0
 11
-246.9492289120012
 21
-239.8691393733201
 31
0.0
  0
LINE
  5
BD241
330
1E
100
AcDbEntity
  8
DETAIL
  6
Continuous
100
AcDbLine
 10
-246.9492289120012
 20
-240.0691393733199
 30
0.0
 11
-246.9492289120012
 21
-238.4789757826531
 31
0.0
  0
ARC
  5
BD285
330
1E
100
AcDbEntity
  8
DETAIL
  6
Continuous
100
AcDbCircle
 10
-240.6120466746711
 20
-234.6742208839866
 30
0.0
 40
0.499999997333321
100
AcDbArc
 50
328.0559757001062
 51
85.00000275520731
  0
ARC
  5
BD286
330
1E
100
AcDbEntity
  8
DETAIL
  6
Continuous
100
AcDbCircle
 10
-243.8334380693381
 20
-234.0799279506534
 30
0.0
 40
0.9999999999999751
100
AcDbArc
 50
314.0000000000142
 51
0.0
  0
ARC
  5
BD287
330
1E
100
AcDbEntity
  8
DETAIL
  6
Continuous
100
AcDbCircle
 10
-243.8334380693381
 20
-231.4161781373204
 30
0.0
 40
0.9999999999999751
100
AcDbArc
 50
0.0
 51
44.69523258489915
  0
ARC
  5
BD289
330
1E
100
AcDbEntity
  8
DETAIL
  6
Continuous
100
AcDbCircle
 10
-244.9713203546675
 20
-232.3984409173201
 30
0.0
 40
3.9999999999999
100
AcDbArc
 50
314.0000000000142
 51
44.66245800621037
  0
ARC
  5
BD28A
330
1E
100
AcDbEntity
  8
DETAIL
  6
Continuous
100
AcDbCircle
 10
-244.4305911480082
 20
-232.2933138706538
 30
0.0
 40
4.999999999999875
100
AcDbArc
 50
313.999972970296
 51
44.81064289000867
  0
LINE
  5
BD2FD
330
1E
100
AcDbEntity
  8
DETAIL
  6
Continuous
100
AcDbLine
 10
-244.814849736002
 20
-226.8059156346539
 30
0.0
 11
-243.5115319240107
 21
-228.1692035333202
 31
0.0
  0
LINE
  5
BD307
330
1E
100
AcDbEntity
  8
DETAIL
  6
Continuous
100
AcDbLine
 10
-242.1947964946671
 20
-228.1335317813203
 30
0.0
 11
-243.161054045337
 21
-227.1376459506536
 31
0.0
  0
LINE
  5
BD311
330
1E
100
AcDbEntity
  8
DETAIL
  6
Continuous
100
AcDbLine
 10
-241.2206593306677
 20
-229.1218696826538
 30
0.0
 11
-242.1947964946671
 21
-228.1335317813203
 31
0.0
  0
LINE
  5
BD334
330
1E
100
AcDbEntity
  8
DETAIL
  6
Continuous
100
AcDbLine
 10
-241.6285889266714
 20
-234.6252854986536
 30
0.0
 11
-241.6472910853394
 21
-234.6200539679869
 31
0.0
  0
LINE
  5
BD335
330
1E
100
AcDbEntity
  8
DETAIL
  6
Continuous
100
AcDbLine
 10
-239.9538230536395
 20
-231.2082746388747
 30
0.0
 11
-241.1827061760018
 21
-231.1200830733205
 31
0.0
  0
LINE
  5
BD336
330
1E
100
AcDbEntity
  8
DETAIL
  6
Continuous
100
AcDbLine
 10
-240.5684688293408
 20
-234.1761235546532
 30
0.0
 11
-241.3557539786747
 21
-234.10724502932
 31
0.0
  0
LINE
  5
BD337
330
1E
100
AcDbEntity
  8
DETAIL
  6
Continuous
100
AcDbLine
 10
-241.6244016453461
 20
-234.5856513226534
 30
0.0
 11
-240.1139784760093
 21
-234.7177962266532
 31
0.0
  0
LINE
  5
BD338
330
1E
100
AcDbEntity
  8
DETAIL
  6
Continuous
100
AcDbLine
 10
-241.9589485160108
 20
-235.0273602693199
 30
0.0
 11
-240.34043747867
 21
-235.1689616359867
 31
0.0
  0
LINE
  5
BD339
330
1E
100
AcDbEntity
  8
DETAIL
  6
Continuous
100
AcDbLine
 10
-242.4886604013431
 20
-236.8188241053201
 30
0.0
 11
-243.682386762674
 21
-236.7143865813201
 31
0.0
  0
LINE
  5
BD33A
330
1E
100
AcDbEntity
  8
DETAIL
  6
Continuous
100
AcDbLine
 10
-242.1570514840118
 20
-237.04860009332
 30
0.0
 11
-243.873013678673
 21
-236.8984728546536
 31
0.0
  0
LINE
  5
BD33B
330
1E
100
AcDbEntity
  8
DETAIL
  6
Continuous
100
AcDbLine
 10
-242.5674841000077
 20
-237.4449502626532
 30
0.0
 11
-244.373595862668
 21
-237.3818794506533
 31
0.0
  0
LINE
  5
BD33C
330
1E
100
AcDbEntity
  8
DETAIL
  6
Continuous
100
AcDbLine
 10
-240.5512769586698
 20
-235.4475678559868
 30
0.0
 11
-242.4749552946709
 21
-235.5483835666534
 31
0.0
  0
LINE
  5
BD33D
330
1E
100
AcDbEntity
  8
DETAIL
  6
Continuous
100
AcDbLine
 10
-241.024081522672
 20
-235.9545037186535
 30
0.0
 11
-243.0028949186785
 21
-236.0582089346535
 31
0.0
  0
LINE
  5
BD3A7
330
1E
100
AcDbEntity
  8
DETAIL
  6
Continuous
100
AcDbLine
 10
-241.4624924240056
 20
-236.37787220532
 30
0.0
 11
-241.4624924240056
 21
-235.9774798599866
 31
0.0
  0
LINE
  5
BD3A8
330
1E
100
AcDbEntity
  8
DETAIL
  6
Continuous
100
AcDbLine
 10
-242.4886604013431
 20
-237.0195880733202
 30
0.0
 11
-242.4886604013431
 21
-236.0312590453198
 31
0.0
  0
LINE
  5
BD3A9
330
1E
100
AcDbEntity
  8
DETAIL
  6
Continuous
100
AcDbLine
 10
-242.8334380693399
 20
-231.4161781373204
 30
0.0
 11
-242.8334380693399
 21
-234.0799279506534
 31
0.0
  0
LINE
  5
BD3AA
330
1E
100
AcDbEntity
  8
DETAIL
  6
Continuous
100
AcDbLine
 10
-243.5148283800013
 20
-236.7290460399867
 30
0.0
 11
-243.5148283800013
 21
-236.9298100079868
 31
0.0
  0
LINE
  5
BD4EC
330
1E
100
AcDbEntity
  8
DETAIL
  6
Continuous
100
AcDbLine
 10
-151.8886604013446
 20
-288.7471643519853
 30
0.0
 11
-150.9235598986783
 21
-288.7471643519853
 31
0.0
  0
LINE
  5
BD4F8
330
1E
100
AcDbEntity
  8
DETAIL
  6
Continuous
100
AcDbLine
 10
-151.0626277786764
 20
-291.3266645439855
 30
0.0
 11
-151.0497049626778
 21
-291.1073904453187
 31
0.0
  0
LINE
  5
BD4FA
330
1E
100
AcDbEntity
  8
DETAIL
  6
Continuous
100
AcDbLine
 10
-150.951321517336
 20
-289.2799687573189
 30
0.0
 11
-150.9235598986783
 21
-288.7471643519853
 31
0.0
  0
LINE
  5
BD4FB
330
1E
100
AcDbEntity
  8
DETAIL
  6
Continuous
100
AcDbLine
 10
-150.9235598986783
 20
-288.7471643506522
 30
0.0
 11
-150.9235598986783
 21
-278.6628846026524
 31
0.0
  0
LINE
  5
BD4FC
330
1E
100
AcDbEntity
  8
DETAIL
  6
Continuous
100
AcDbLine
 10
-151.8886604013446
 20
-288.7471643519853
 30
0.0
 11
-151.8886604013446
 21
-278.6629134599855
 31
0.0
  0
LINE
  5
BD503
330
1E
100
AcDbEntity
  8
DETAIL
  6
Continuous
100
AcDbLine
 10
-95.88866040134826
 20
-295.0
 30
0.0
 11
-122.6524377080081
 21
-294.615388302652
 31
0.0
  0
LINE
  5
BD504
330
1E
100
AcDbEntity
  8
DETAIL
  6
Continuous
100
AcDbLine
 10
-94.88866040133917
 20
-231.7499999999867
 30
0.0
 11
-94.88866040133917
 21
-245.7499999999865
 31
0.0
  0
LINE
  5
BD505
330
1E
100
AcDbEntity
  8
DETAIL
  6
Continuous
100
AcDbLine
 10
-95.88866040134826
 20
-290.3612080933186
 30
0.0
 11
-122.6524416373399
 21
-290.6152631999857
 31
0.0
  0
ARC
  5
BD521
330
1E
100
AcDbEntity
  8
DETAIL
  6
Continuous
100
AcDbCircle
 10
-94.88866040133917
 20
-294.8396151319851
 30
0.0
 40
0.9999999999999751
100
AcDbArc
 50
93.00000000000558
 51
180.0
  0
LINE
  5
BD528
330
1E
100
AcDbEntity
  8
DETAIL
  6
Continuous
100
AcDbLine
 10
-95.88866040134826
 20
-245.7499999999865
 30
0.0
 11
-94.3930238360067
 21
-245.7499999999865
 31
0.0
  0
LINE
  5
BD529
330
1E
100
AcDbEntity
  8
DETAIL
  6
Continuous
100
AcDbLine
 10
-95.88866040134826
 20
-290.645371086652
 30
0.0
 11
-94.94099635733846
 21
-290.645371086652
 31
0.0
  0
LINE
  5
BD52A
330
1E
100
AcDbEntity
  8
DETAIL
  6
Continuous
100
AcDbLine
 10
-94.38866040134644
 20
-290.6164221919855
 30
0.0
 11
-94.94099635733846
 21
-290.6453689866523
 31
0.0
  0
LINE
  5
BD52B
330
1E
100
AcDbEntity
  8
DETAIL
  6
Continuous
100
AcDbLine
 10
-94.40723386001309
 20
-293.813012290652
 30
0.0
 11
-94.94099635733846
 21
-293.8409855973188
 31
0.0
  0
LINE
  5
BD547
330
1E
100
AcDbEntity
  8
DETAIL
  6
Continuous
100
AcDbLine
 10
-94.94099635733846
 20
-245.7499999999865
 30
0.0
 11
-94.94099635733846
 21
-290.6453689866523
 31
0.0
  0
LINE
  5
BD560
330
1E
100
AcDbEntity
  8
DETAIL
  6
Continuous
100
AcDbLine
 10
-95.88866040134826
 20
-231.7499999999867
 30
0.0
 11
-94.3930238360067
 21
-231.7499999999867
 31
0.0
  0
ARC
  5
BD561
330
1E
100
AcDbEntity
  8
DETAIL
  6
Continuous
100
AcDbCircle
 10
-156.3483075346798
 20
-230.4552157613207
 30
0.0
 40
229.2149728266609
100
AcDbArc
 50
90.99999999997569
 51
122.0921874907908
  0
LINE
  5
BD563
330
1E
100
AcDbEntity
  8
DETAIL
  6
Continuous
100
AcDbLine
 10
-96.88866040134644
 20
-5.36507947199243
 30
0.0
 11
-96.88866040134644
 21
-46.76682577865813
 31
0.0
  0
LINE
  5
BD564
330
1E
100
AcDbEntity
  8
DETAIL
  6
Continuous
100
AcDbLine
 10
-104.6996394480088
 20
-5.490389334659198
 30
0.0
 11
-104.6996412520097
 21
-46.0408133999914
 31
0.0
  0
LINE
  5
BD565
330
1E
100
AcDbEntity
  8
DETAIL
  6
Continuous
100
AcDbLine
 10
-110.1687165106818
 20
-5.596883713326064
 30
0.0
 11
-110.1687148266742
 21
-46.23118467065853
 31
0.0
  0
LINE
  5
BD566
330
1E
100
AcDbEntity
  8
DETAIL
  6
Continuous
100
AcDbLine
 10
-80.38907880934903
 20
-5.349999999992178
 30
0.0
 11
-80.38907631467782
 21
-213.4499999999872
 31
0.0
  0
LINE
  5
BD567
330
1E
100
AcDbEntity
  8
DETAIL
  6
Continuous
100
AcDbLine
 10
-82.58443977067736
 20
-213.4499999999872
 30
0.0
 11
-82.58443988934823
 21
-5.349999999992178
 31
0.0
  0
LINE
  5
BD568
330
1E
100
AcDbEntity
  8
DETAIL
  6
Continuous
100
AcDbLine
 10
-94.38866040134644
 20
-213.4499999999872
 30
0.0
 11
-94.38866040134643
 21
-0.1238174025965008
 31
0.0
  0
LINE
  5
BD569
330
1E
100
AcDbEntity
  8
DETAIL
  6
Continuous
100
AcDbLine
 10
-284.4235497346694
 20
-52.31629759332474
 30
0.0
 11
-104.6996412520097
 21
-46.0408133999914
 31
0.0
  0
LINE
  5
BD56A
330
1E
100
AcDbEntity
  8
DETAIL
  6
Continuous
100
AcDbLine
 10
-284.4235494960071
 20
-53.315688411991
 30
0.0
 11
-96.88866040134644
 21
-46.76682577865813
 31
0.0
  0
LINE
  5
BD73D
330
1E
100
AcDbEntity
  8
DETAIL
  6
Continuous
100
AcDbLine
 10
-269.4705456493434
 20
-193.7123629226546
 30
0.0
 11
-270.0524487520019
 21
-194.0464286479875
 31
0.0
  0
LINE
  5
BD8B0
330
1E
100
AcDbEntity
  8
DETAIL
  6
Continuous
100
AcDbLine
 10
-226.638422352004
 20
-172.318900690655
 30
0.0
 11
-242.1384186040054
 21
-172.318900690655
 31
0.0
  0
LINE
  5
BD8B1
330
1E
100
AcDbEntity
  8
DETAIL
  6
Continuous
100
AcDbLine
 10
-226.6386624986721
 20
-172.449999999988
 30
0.0
 11
-242.1386583120042
 21
-172.449999999988
 31
0.0
  0
LINE
  5
BD8B2
330
1E
100
AcDbEntity
  8
DETAIL
  6
Continuous
100
AcDbLine
 10
-242.1386583120042
 20
-174.9499999999879
 30
0.0
 11
-226.6386624986721
 21
-174.9499999999879
 31
0.0
  0
LINE
  5
BD8B3
330
1E
100
AcDbEntity
  8
DETAIL
  6
Continuous
100
AcDbLine
 10
-242.1384186040054
 20
-175.0810993106548
 30
0.0
 11
-226.638422352004
 21
-175.0810993106548
 31
0.0
  0
LINE
  5
BD8B4
330
1E
100
AcDbEntity
  8
DETAIL
  6
Continuous
100
AcDbLine
 10
-226.638422352004
 20
-177.8189006906548
 30
0.0
 11
-242.1384186040054
 21
-177.8189006906548
 31
0.0
  0
LINE
  5
BD8B5
330
1E
100
AcDbEntity
  8
DETAIL
  6
Continuous
100
AcDbLine
 10
-226.6386624986721
 20
-177.9499999999882
 30
0.0
 11
-242.1386583120042
 21
-177.9499999999882
 31
0.0
  0
LINE
  5
BD8B6
330
1E
100
AcDbEntity
  8
DETAIL
  6
Continuous
100
AcDbLine
 10
-242.1386583120042
 20
-180.4499999999881
 30
0.0
 11
-226.6386624986721
 21
-180.4499999999881
 31
0.0
  0
LINE
  5
BD8B7
330
1E
100
AcDbEntity
  8
DETAIL
  6
Continuous
100
AcDbLine
 10
-242.1384186040054
 20
-180.5810993106549
 30
0.0
 11
-226.638422352004
 21
-180.5810993106549
 31
0.0
  0
LINE
  5
BD939
330
1E
100
AcDbEntity
  8
DETAIL
  6
Continuous
100
AcDbLine
 10
-226.638422352004
 20
-177.8189006906548
 30
0.0
 11
-226.6386624986721
 21
-177.9499999999882
 31
0.0
  0
LINE
  5
BD93A
330
1E
100
AcDbEntity
  8
DETAIL
  6
Continuous
100
AcDbLine
 10
-226.638422352004
 20
-172.318900690655
 30
0.0
 11
-226.6386624986721
 21
-172.449999999988
 31
0.0
  0
LINE
  5
BD93B
330
1E
100
AcDbEntity
  8
DETAIL
  6
Continuous
100
AcDbLine
 10
-242.1386583120042
 20
-177.9499999999882
 30
0.0
 11
-242.1384186040054
 21
-177.8189006906548
 31
0.0
  0
LINE
  5
BD93C
330
1E
100
AcDbEntity
  8
DETAIL
  6
Continuous
100
AcDbLine
 10
-242.1386583120042
 20
-172.449999999988
 30
0.0
 11
-242.1384186040054
 21
-172.318900690655
 31
0.0
  0
LINE
  5
BD93D
330
1E
100
AcDbEntity
  8
DETAIL
  6
Continuous
100
AcDbLine
 10
-226.638422352004
 20
-175.0810993106548
 30
0.0
 11
-226.6386624986721
 21
-174.9499999999879
 31
0.0
  0
LINE
  5
BD93E
330
1E
100
AcDbEntity
  8
DETAIL
  6
Continuous
100
AcDbLine
 10
-226.638422352004
 20
-180.5810993106549
 30
0.0
 11
-226.6386624986721
 21
-180.4499999999881
 31
0.0
  0
LINE
  5
BD93F
330
1E
100
AcDbEntity
  8
DETAIL
  6
Continuous
100
AcDbLine
 10
-242.1386583120042
 20
-174.9499999999879
 30
0.0
 11
-242.1384186040054
 21
-175.0810993106548
 31
0.0
  0
LINE
  5
BD940
330
1E
100
AcDbEntity
  8
DETAIL
  6
Continuous
100
AcDbLine
 10
-242.1386583120042
 20
-180.4499999999881
 30
0.0
 11
-242.1384186040054
 21
-180.5810993106549
 31
0.0
  0
ARC
  5
BD9D7
330
1E
100
AcDbEntity
  8
DETAIL
  6
Continuous
100
AcDbCircle
 10
-272.8135104346752
 20
-44.73752456132524
 30
0.0
 40
9.999999999999751
100
AcDbArc
 50
122.0921713980192
 51
164.054620431999
  0
ARC
  5
BD9D8
330
1E
100
AcDbEntity
  8
DETAIL
  6
Continuous
100
AcDbCircle
 10
-285.8808814093395
 20
-57.65160693332412
 30
0.0
 40
0.499999970666917
100
AcDbArc
 50
275.0000005719182
 51
330.4357992414711
  0
ARC
  5
BD9D9
330
1E
100
AcDbEntity
  8
DETAIL
  6
Continuous
100
AcDbCircle
 10
-287.5741297773315
 20
-53.2770943453246
 30
0.0
 40
0.6999999999999825
100
AcDbArc
 50
0.000375504998686
 51
88.0000131045773
  0
ARC
  5
BD9DA
330
1E
100
AcDbEntity
  8
DETAIL
  6
Continuous
100
AcDbCircle
 10
-284.3886504773349
 20
-53.31568842932449
 30
0.0
 40
0.9999999999999751
100
AcDbArc
 50
91.99998627117912
 51
179.9996959365004
  0
ARC
  5
BD9DB
330
1E
100
AcDbEntity
  8
DETAIL
  6
Continuous
100
AcDbCircle
 10
-297.7361631413391
 20
-54.6768772333246
 30
0.0
 40
1.99999999999995
100
AcDbArc
 50
92.00000000000361
 51
170.8508711292963
  0
LINE
  5
BD9F0
330
1E
100
AcDbEntity
  8
DETAIL
  6
Continuous
100
AcDbLine
 10
-288.3741111906733
 20
-52.54872710932431
 30
0.0
 11
-287.5497001293429
 21
-52.57751617865778
 31
0.0
  0
LINE
  5
BD9F1
330
1E
100
AcDbEntity
  8
DETAIL
  6
Continuous
100
AcDbLine
 10
-288.3741111906733
 20
-54.34761390665812
 30
0.0
 11
-287.5497001293429
 21
-54.37640184932468
 31
0.0
  0
LINE
  5
BD9F2
330
1E
100
AcDbEntity
  8
DETAIL
  6
Continuous
100
AcDbLine
 10
-285.3886499986715
 20
-53.31568312132436
 30
0.0
 11
-284.4235494960071
 21
-53.315688411991
 31
0.0
  0
LINE
  5
BD9F3
330
1E
100
AcDbEntity
  8
DETAIL
  6
Continuous
100
AcDbLine
 10
-286.8741297773344
 20
-54.37640877865795
 30
0.0
 11
-287.5497001253411
 21
-54.37640184932468
 31
0.0
  0
LINE
  5
BD9F4
330
1E
100
AcDbEntity
  8
DETAIL
  6
Continuous
100
AcDbLine
 10
-285.4515061857782
 20
-58.65007454843258
 30
0.0
 11
-285.859303206666
 21
-58.65201220932431
 31
0.0
  0
LINE
  5
BD9F5
330
1E
100
AcDbEntity
  8
DETAIL
  6
Continuous
100
AcDbLine
 10
-286.9681088019256
 20
-58.31272563607567
 30
0.0
 11
-287.6500506267579
 21
-58.3152677962972
 31
0.0
  0
LINE
  5
BD9F6
330
1E
100
AcDbEntity
  8
DETAIL
  6
Continuous
100
AcDbLine
 10
-297.8355308866671
 20
-54.66884609732495
 30
0.0
 11
-288.3741111906733
 21
-54.34650352932442
 31
0.0
  0
LINE
  5
BD9F7
330
1E
100
AcDbEntity
  8
DETAIL
  6
Continuous
100
AcDbLine
 10
-297.8059621346697
 20
-52.67809557865769
 30
0.0
 11
-288.3741111906733
 21
-52.34872808665807
 31
0.0
  0
LINE
  5
BD9F8
330
1E
100
AcDbEntity
  8
DETAIL
  6
Continuous
100
AcDbLine
 10
-285.8373035333429
 20
-58.14970422265776
 30
0.0
 11
-286.9667773615683
 21
-58.24512448524512
 31
0.0
  0
LINE
  5
BD9F9
330
1E
100
AcDbEntity
  8
DETAIL
  6
Continuous
100
AcDbLine
 10
-285.8593032079993
 20
-58.65201222665769
 30
0.0
 11
-286.9764213778919
 21
-58.74671721287588
 31
0.0
  0
LINE
  5
BDA4C
330
1E
100
AcDbEntity
  8
DETAIL
  6
Continuous
100
AcDbLine
 10
-286.8741297773344
 20
-53.27708975732434
 30
0.0
 11
-286.8741297773344
 21
-54.37640877866233
 31
0.0
  0
LINE
  5
BDA4E
330
1E
100
AcDbEntity
  8
DETAIL
  6
Continuous
100
AcDbLine
 10
-288.3741111906733
 20
-54.34761390665816
 30
0.0
 11
-288.3741111906733
 21
-52.34872808665807
 31
0.0
  0
LINE
  5
BDA81
330
1E
100
AcDbEntity
  8
DETAIL
  6
Continuous
100
AcDbLine
 10
-280.1093828853431
 20
-52.16564356665765
 30
0.0
 11
-277.6103027653357
 21
-43.41886314799149
 31
0.0
  0
LINE
  5
BDA82
330
1E
100
AcDbEntity
  8
DETAIL
  6
Continuous
100
AcDbLine
 10
-286.0458146520072
 20
-58.16794658265803
 30
0.0
 11
-285.4270650864848
 21
-56.00232310460157
 31
0.0
  0
LINE
  5
BDA83
330
1E
100
AcDbEntity
  8
DETAIL
  6
Continuous
100
AcDbLine
 10
-286.960588973184
 20
-57.9372608583952
 30
0.0
 11
-282.4287499106708
 21
-41.99031328265834
 31
0.0
  0
LINE
  5
BDA8B
330
1E
100
AcDbEntity
  8
DETAIL
  6
Continuous
100
AcDbLine
 10
-299.7107188000104
 20
-54.35886787865797
 30
0.0
 11
-299.8839631293417
 21
-55.44887909199132
 31
0.0
  0
LINE
  5
BDB2F
330
1E
100
AcDbEntity
  8
DETAIL
  6
Continuous
100
AcDbLine
 10
-284.6581406306672
 20
-121.0696027079895
 30
0.0
 11
-284.3446498773433
 21
-124.0352540253231
 31
0.0
  0
LINE
  5
BDB71
330
1E
100
AcDbEntity
  8
DETAIL
  6
Continuous
100
AcDbLine
 10
-272.6713044680059
 20
-38.89881291465826
 30
0.0
 11
-271.2244399200012
 21
-38.02901161065847
 31
0.0
  0
LINE
  5
BDB72
330
1E
100
AcDbEntity
  8
DETAIL
  6
Continuous
100
AcDbLine
 10
-274.1115298773443
 20
-39.77946702132499
 30
0.0
 11
-272.6713044680059
 21
-38.89881291465826
 31
0.0
  0
LINE
  5
BDB7B
330
1E
100
AcDbEntity
  8
DETAIL
  6
Continuous
100
AcDbLine
 10
-84.75480411200488
 20
-216.4552365199871
 30
0.0
 11
-85.58436528134416
 21
-215.2705003906538
 31
0.0
  0
LINE
  5
BDB7C
330
1E
100
AcDbEntity
  8
DETAIL
  6
Continuous
100
AcDbLine
 10
-83.07430602001341
 20
-218.8552365199872
 30
0.0
 11
-83.29170158267562
 21
-218.5447634813205
 31
0.0
  0
LINE
  5
BDB7D
330
1E
100
AcDbEntity
  8
DETAIL
  6
Continuous
100
AcDbLine
 10
-83.63447205067723
 20
-218.0552365199871
 30
0.0
 11
-83.85186761333944
 21
-217.7447634813204
 31
0.0
  0
LINE
  5
BDB7E
330
1E
100
AcDbEntity
  8
DETAIL
  6
Continuous
100
AcDbLine
 10
-84.19463808134105
 20
-217.2552365199872
 30
0.0
 11
-84.412033644016
 21
-216.9447634813205
 31
0.0
  0
LINE
  5
BDB7F
330
1E
100
AcDbEntity
  8
DETAIL
  6
Continuous
100
AcDbLine
 10
-84.76486337201505
 20
-216.4499999999871
 30
0.0
 11
-85.58436528134416
 21
-215.2796299839874
 31
0.0
  0
LINE
  5
BDB80
330
1E
100
AcDbEntity
  8
DETAIL
  6
Continuous
100
AcDbLine
 10
-84.20469734133849
 20
-217.249999999987
 30
0.0
 11
-84.41475960400612
 21
-216.9499999999869
 31
0.0
  0
LINE
  5
BDB81
330
1E
100
AcDbEntity
  8
DETAIL
  6
Continuous
100
AcDbLine
 10
-83.64453131200798
 20
-218.0499999999871
 30
0.0
 11
-83.8545935733423
 21
-217.749999999987
 31
0.0
  0
LINE
  5
BDB82
330
1E
100
AcDbEntity
  8
DETAIL
  6
Continuous
100
AcDbLine
 10
-83.08436528134416
 20
-218.849999999987
 30
0.0
 11
-83.29442754267848
 21
-218.549999999987
 31
0.0
  0
LINE
  5
BDB83
330
1E
100
AcDbEntity
  8
DETAIL
  6
Continuous
100
AcDbLine
 10
-80.77868813201394
 20
-213.6376399013206
 30
0.0
 11
-80.91749924267833
 21
-213.5688401306544
 31
0.0
  0
LINE
  5
BDB84
330
1E
100
AcDbEntity
  8
DETAIL
  6
Continuous
100
AcDbLine
 10
-80.91749924267833
 20
-213.5688401306544
 30
0.0
 11
-86.75694306934065
 21
-213.5688399146539
 31
0.0
  0
LINE
  5
BDB85
330
1E
100
AcDbEntity
  8
DETAIL
  6
Continuous
100
AcDbLine
 10
-94.38866040134644
 20
-213.6543634346539
 30
0.0
 11
-82.19482965067664
 21
-213.6541961039875
 31
0.0
  0
LINE
  5
BDB86
330
1E
100
AcDbEntity
  8
DETAIL
  6
Continuous
100
AcDbLine
 10
-86.40386718933996
 20
-216.4499999999871
 30
0.0
 11
-84.76486337201505
 21
-216.4499999999871
 31
0.0
  0
LINE
  5
BDB87
330
1E
100
AcDbEntity
  8
DETAIL
  6
Continuous
100
AcDbLine
 10
-86.41392644935013
 20
-216.4552365199871
 30
0.0
 11
-84.75480411200488
 21
-216.4552365199871
 31
0.0
  0
LINE
  5
BDB88
330
1E
100
AcDbEntity
  8
DETAIL
  6
Continuous
100
AcDbLine
 10
-84.412033644016
 20
-216.9447634813205
 30
0.0
 11
-86.75669691733901
 21
-216.9447634813205
 31
0.0
  0
LINE
  5
BDB89
330
1E
100
AcDbEntity
  8
DETAIL
  6
Continuous
100
AcDbLine
 10
-84.41475960400612
 20
-216.9499999999869
 30
0.0
 11
-86.7539709586822
 21
-216.9499999999869
 31
0.0
  0
LINE
  5
BDB8A
330
1E
100
AcDbEntity
  8
DETAIL
  6
Continuous
100
AcDbLine
 10
-86.96403322000378
 20
-217.249999999987
 30
0.0
 11
-84.20469734133849
 21
-217.249999999987
 31
0.0
  0
LINE
  5
BDB8B
330
1E
100
AcDbEntity
  8
DETAIL
  6
Continuous
100
AcDbLine
 10
-86.97409248001395
 20
-217.2552365199872
 30
0.0
 11
-84.19463808134105
 21
-217.2552365199872
 31
0.0
  0
LINE
  5
BDB8C
330
1E
100
AcDbEntity
  8
DETAIL
  6
Continuous
100
AcDbLine
 10
-83.85186761333944
 20
-217.7447634813204
 30
0.0
 11
-87.31686294800283
 21
-217.7447634813204
 31
0.0
  0
LINE
  5
BDB8D
330
1E
100
AcDbEntity
  8
DETAIL
  6
Continuous
100
AcDbLine
 10
-83.8545935733423
 20
-217.749999999987
 30
0.0
 11
-87.31413698934602
 21
-217.749999999987
 31
0.0
  0
LINE
  5
BDB8E
330
1E
100
AcDbEntity
  8
DETAIL
  6
Continuous
100
AcDbLine
 10
-87.52419925068034
 20
-218.0499999999871
 30
0.0
 11
-83.64453131200798
 21
-218.0499999999871
 31
0.0
  0
LINE
  5
BDB8F
330
1E
100
AcDbEntity
  8
DETAIL
  6
Continuous
100
AcDbLine
 10
-87.53425851067778
 20
-218.0552365199871
 30
0.0
 11
-83.63447205067723
 21
-218.0552365199871
 31
0.0
  0
LINE
  5
BDB90
330
1E
100
AcDbEntity
  8
DETAIL
  6
Continuous
100
AcDbLine
 10
-83.29170158267562
 20
-218.5447634813205
 30
0.0
 11
-87.87702897867939
 21
-218.5447634813205
 31
0.0
  0
LINE
  5
BDB91
330
1E
100
AcDbEntity
  8
DETAIL
  6
Continuous
100
AcDbLine
 10
-83.29442754267848
 20
-218.549999999987
 30
0.0
 11
-87.87430302000984
 21
-218.549999999987
 31
0.0
  0
LINE
  5
BDB92
330
1E
100
AcDbEntity
  8
DETAIL
  6
Continuous
100
AcDbLine
 10
-88.08436528134416
 20
-218.849999999987
 30
0.0
 11
-83.08436528134416
 21
-218.849999999987
 31
0.0
  0
LINE
  5
BDB93
330
1E
100
AcDbEntity
  8
DETAIL
  6
Continuous
100
AcDbLine
 10
-83.07430602001341
 20
-218.8552365199872
 30
0.0
 11
-88.0944245413416
 21
-218.8552365199872
 31
0.0
  0
LINE
  5
BDB94
330
1E
100
AcDbEntity
  8
DETAIL
  6
Continuous
100
AcDbLine
 10
-86.75472729600414
 20
-213.4499999999872
 30
0.0
 11
-86.75694306934065
 21
-213.5688399146539
 31
0.0
  0
LINE
  5
BDB95
330
1E
100
AcDbEntity
  8
DETAIL
  6
Continuous
100
AcDbLine
 10
-92.8886604013428
 20
-213.4499999999872
 30
0.0
 11
-92.8886604013428
 21
-213.649999999987
 31
0.0
  0
LINE
  5
BDB96
330
1E
100
AcDbEntity
  8
DETAIL
  6
Continuous
100
AcDbLine
 10
-93.3624924240089
 20
-213.4499999999872
 30
0.0
 11
-93.3624924240089
 21
-213.649999999987
 31
0.0
  0
LINE
  5
BDB97
330
1E
100
AcDbEntity
  8
DETAIL
  6
Continuous
100
AcDbLine
 10
-80.9195739200136
 20
-213.4499999999872
 30
0.0
 11
-80.91749924267833
 21
-213.5688401306544
 31
0.0
  0
LINE
  5
BDB98
330
1E
100
AcDbEntity
  8
DETAIL
  6
Continuous
100
AcDbLine
 10
-86.7539709586822
 20
-216.9499999999869
 30
0.0
 11
-86.96403322000378
 21
-217.249999999987
 31
0.0
  0
LINE
  5
BDB99
330
1E
100
AcDbEntity
  8
DETAIL
  6
Continuous
100
AcDbLine
 10
-87.31413698934602
 20
-217.749999999987
 30
0.0
 11
-87.52419925068034
 21
-218.0499999999871
 31
0.0
  0
LINE
  5
BDB9A
330
1E
100
AcDbEntity
  8
DETAIL
  6
Continuous
100
AcDbLine
 10
-87.87430302000984
 20
-218.549999999987
 30
0.0
 11
-88.08436528134416
 21
-218.849999999987
 31
0.0
  0
LINE
  5
BDB9B
330
1E
100
AcDbEntity
  8
DETAIL
  6
Continuous
100
AcDbLine
 10
-85.58436528134416
 20
-215.2796299839874
 30
0.0
 11
-86.40386718933996
 21
-216.4499999999871
 31
0.0
  0
LINE
  5
BDB9C
330
1E
100
AcDbEntity
  8
DETAIL
  6
Continuous
100
AcDbLine
 10
-87.87702897867939
 20
-218.5447634813205
 30
0.0
 11
-88.0944245413416
 21
-218.8552365199872
 31
0.0
  0
LINE
  5
BDB9D
330
1E
100
AcDbEntity
  8
DETAIL
  6
Continuous
100
AcDbLine
 10
-87.31686294800283
 20
-217.7447634813204
 30
0.0
 11
-87.53425851067778
 21
-218.0552365199871
 31
0.0
  0
LINE
  5
BDB9E
330
1E
100
AcDbEntity
  8
DETAIL
  6
Continuous
100
AcDbLine
 10
-86.75669691733901
 20
-216.9447634813205
 30
0.0
 11
-86.97409248001395
 21
-217.2552365199872
 31
0.0
  0
LINE
  5
BDB9F
330
1E
100
AcDbEntity
  8
DETAIL
  6
Continuous
100
AcDbLine
 10
-85.58436528134416
 20
-215.2705003906538
 30
0.0
 11
-86.41392644935013
 21
-216.4552365199871
 31
0.0
  0
LINE
  5
BDBA0
330
1E
100
AcDbEntity
  8
DETAIL
  6
Continuous
100
AcDbLine
 10
-86.75550257334771
 20
-213.5688654973211
 30
0.0
 11
-86.91303876934444
 21
-213.6500190386541
 31
0.0
  0
LINE
  5
BDBA1
330
1E
100
AcDbEntity
  8
DETAIL
  6
Continuous
100
AcDbLine
 10
-97.96421015467831
 20
-46.30643949999148
 30
0.0
 11
-97.89421780134262
 21
-46.319351377325
 31
0.0
  0
LINE
  5
BDBA2
330
1E
100
AcDbEntity
  8
DETAIL
  6
Continuous
100
AcDbLine
 10
-98.03806946133818
 20
-46.2934680813247
 30
0.0
 11
-97.96421015467831
 21
-46.30643949999148
 31
0.0
  0
LINE
  5
BDBA3
330
1E
100
AcDbEntity
  8
DETAIL
  6
Continuous
100
AcDbLine
 10
-98.11599113067723
 20
-46.28045087999169
 30
0.0
 11
-98.03806946133818
 21
-46.2934680813247
 31
0.0
  0
LINE
  5
BDBA4
330
1E
100
AcDbEntity
  8
DETAIL
  6
Continuous
100
AcDbLine
 10
-98.19814441734024
 20
-46.26740047732505
 30
0.0
 11
-98.11599113067723
 21
-46.28045087999169
 31
0.0
  0
LINE
  5
BDBA5
330
1E
100
AcDbEntity
  8
DETAIL
  6
Continuous
100
AcDbLine
 10
-98.28477169867301
 20
-46.25432961999138
 30
0.0
 11
-98.19814441734024
 21
-46.26740047732505
 31
0.0
  0
LINE
  5
BDBA6
330
1E
100
AcDbEntity
  8
DETAIL
  6
Continuous
100
AcDbLine
 10
-98.37608487067564
 20
-46.24124926399178
 30
0.0
 11
-98.28477169867301
 21
-46.25432961999138
 31
0.0
  0
LINE
  5
BDBA7
330
1E
100
AcDbEntity
  8
DETAIL
  6
Continuous
100
AcDbLine
 10
-98.4723446333378
 20
-46.22817737065838
 30
0.0
 11
-98.37608487067564
 21
-46.24124926399178
 31
0.0
  0
LINE
  5
BDBA8
330
1E
100
AcDbEntity
  8
DETAIL
  6
Continuous
100
AcDbLine
 10
-98.57379357067339
 20
-46.21512727199148
 30
0.0
 11
-98.4723446333378
 21
-46.22817737065838
 31
0.0
  0
LINE
  5
BDBA9
330
1E
100
AcDbEntity
  8
DETAIL
  6
Continuous
100
AcDbLine
 10
-98.68069794267876
 20
-46.20212381865849
 30
0.0
 11
-98.57379357067339
 21
-46.21512727199148
 31
0.0
  0
LINE
  5
BDBAA
330
1E
100
AcDbEntity
  8
DETAIL
  6
Continuous
100
AcDbLine
 10
-98.79330381467344
 20
-46.18918681199136
 30
0.0
 11
-98.68069794267876
 21
-46.20212381865849
 31
0.0
  0
LINE
  5
BDBAB
330
1E
100
AcDbEntity
  8
DETAIL
  6
Continuous
100
AcDbLine
 10
-98.91191436000781
 20
-46.17634474265798
 30
0.0
 11
-98.79330381467344
 21
-46.18918681199136
 31
0.0
  0
LINE
  5
BDBAC
330
1E
100
AcDbEntity
  8
DETAIL
  6
Continuous
100
AcDbLine
 10
-99.03680219067656
 20
-46.16362128532523
 30
0.0
 11
-98.91191436000781
 21
-46.17634474265798
 31
0.0
  0
LINE
  5
BDBAD
330
1E
100
AcDbEntity
  8
DETAIL
  6
Continuous
100
AcDbLine
 10
-99.16830506267842
 20
-46.1510506999914
 30
0.0
 11
-99.03680219067656
 21
-46.16362128532523
 31
0.0
  0
LINE
  5
BDBAE
330
1E
100
AcDbEntity
  8
DETAIL
  6
Continuous
100
AcDbLine
 10
-99.30672542000365
 20
-46.13866137732486
 30
0.0
 11
-99.16830506267842
 21
-46.1510506999914
 31
0.0
  0
LINE
  5
BDBAF
330
1E
100
AcDbEntity
  8
DETAIL
  6
Continuous
100
AcDbLine
 10
-99.4524418026781
 20
-46.1264945893248
 30
0.0
 11
-99.30672542000365
 21
-46.13866137732486
 31
0.0
  0
LINE
  5
BDBB0
330
1E
100
AcDbEntity
  8
DETAIL
  6
Continuous
100
AcDbLine
 10
-99.60579480934621
 20
-46.11458421065833
 30
0.0
 11
-99.4524418026781
 21
-46.1264945893248
 31
0.0
  0
LINE
  5
BDBB1
330
1E
100
AcDbEntity
  8
DETAIL
  6
Continuous
100
AcDbLine
 10
-99.76720070801139
 20
-46.10298082932468
 30
0.0
 11
-99.60579480934621
 21
-46.11458421065833
 31
0.0
  0
LINE
  5
BDBB2
330
1E
100
AcDbEntity
  8
DETAIL
  6
Continuous
100
AcDbLine
 10
-99.93701060400827
 20
-46.09172694532446
 30
0.0
 11
-99.76720070801139
 21
-46.10298082932468
 31
0.0
  0
LINE
  5
BDBB3
330
1E
100
AcDbEntity
  8
DETAIL
  6
Continuous
100
AcDbLine
 10
-100.1157605760095
 20
-46.08088068932511
 30
0.0
 11
-99.93701060400827
 21
-46.09172694532446
 31
0.0
  0
LINE
  5
BDBB4
330
1E
100
AcDbEntity
  8
DETAIL
  6
Continuous
100
AcDbLine
 10
-100.3039289133453
 20
-46.07048850799162
 30
0.0
 11
-100.1157605760095
 21
-46.08088068932511
 31
0.0
  0
LINE
  5
BDBB5
330
1E
100
AcDbEntity
  8
DETAIL
  6
Continuous
100
AcDbLine
 10
-100.5020400920079
 20
-46.06062796532478
 30
0.0
 11
-100.3039289133453
 21
-46.07048850799162
 31
0.0
  0
LINE
  5
BDBB6
330
1E
100
AcDbEntity
  8
DETAIL
  6
Continuous
100
AcDbLine
 10
-100.7105731800043
 20
-46.0513606879914
 30
0.0
 11
-100.5020400920079
 21
-46.06062796532478
 31
0.0
  0
LINE
  5
BDBB7
330
1E
100
AcDbEntity
  8
DETAIL
  6
Continuous
100
AcDbLine
 10
-100.9301426986717
 20
-46.04278093599134
 30
0.0
 11
-100.7105731800043
 21
-46.0513606879914
 31
0.0
  0
LINE
  5
BDBB8
330
1E
100
AcDbEntity
  8
DETAIL
  6
Continuous
100
AcDbLine
 10
-101.1612872106711
 20
-46.0349642519917
 30
0.0
 11
-100.9301426986717
 21
-46.04278093599134
 31
0.0
  0
LINE
  5
BDBB9
330
1E
100
AcDbEntity
  8
DETAIL
  6
Continuous
100
AcDbLine
 10
-101.40471366268
 20
-46.02802840399158
 30
0.0
 11
-101.1612872106711
 21
-46.0349642519917
 31
0.0
  0
LINE
  5
BDBBA
330
1E
100
AcDbEntity
  8
DETAIL
  6
Continuous
100
AcDbLine
 10
-101.6610261906794
 20
-46.02206657465808
 30
0.0
 11
-101.40471366268
 21
-46.02802840399158
 31
0.0
  0
LINE
  5
BDBBB
330
1E
100
AcDbEntity
  8
DETAIL
  6
Continuous
100
AcDbLine
 10
-101.9310717960129
 20
-46.0172280626582
 30
0.0
 11
-101.6610261906794
 21
-46.02206657465808
 31
0.0
  0
LINE
  5
BDBBC
330
1E
100
AcDbEntity
  8
DETAIL
  6
Continuous
100
AcDbLine
 10
-102.2155665440118
 20
-46.01362845599157
 30
0.0
 11
-101.9310717960129
 21
-46.0172280626582
 31
0.0
  0
LINE
  5
BDBBD
330
1E
100
AcDbEntity
  8
DETAIL
  6
Continuous
100
AcDbLine
 10
-102.5155073946739
 20
-46.01146206265809
 30
0.0
 11
-102.2155665440118
 21
-46.01362845599157
 31
0.0
  0
LINE
  5
BDBBE
330
1E
100
AcDbEntity
  8
DETAIL
  6
Continuous
100
AcDbLine
 10
-102.8317414360085
 20
-46.01087568932507
 30
0.0
 11
-102.5155073946739
 21
-46.01146206265809
 31
0.0
  0
LINE
  5
BDBBF
330
1E
100
AcDbEntity
  8
DETAIL
  6
Continuous
100
AcDbLine
 10
-103.1654343493451
 20
-46.01212743065832
 30
0.0
 11
-102.8317414360085
 21
-46.01087568932507
 31
0.0
  0
LINE
  5
BDBC0
330
1E
100
AcDbEntity
  8
DETAIL
  6
Continuous
100
AcDbLine
 10
-103.5174768040092
 20
-46.01540428665828
 30
0.0
 11
-103.1654343493451
 21
-46.01212743065832
 31
0.0
  0
LINE
  5
BDBC1
330
1E
100
AcDbEntity
  8
DETAIL
  6
Continuous
100
AcDbLine
 10
-103.8895409306737
 20
-46.02106635199163
 30
0.0
 11
-103.5174768040092
 21
-46.01540428665828
 31
0.0
  0
LINE
  5
BDBC2
330
1E
100
AcDbEntity
  8
DETAIL
  6
Continuous
100
AcDbLine
 10
-104.2838418733413
 20
-46.02958885999157
 30
0.0
 11
-103.8895409306737
 21
-46.02106635199163
 31
0.0
  0
LINE
  5
BDBC3
330
1E
100
AcDbEntity
  8
DETAIL
  6
Continuous
100
AcDbLine
 10
-104.6996412520097
 20
-46.0408133999914
 30
0.0
 11
-104.2838418733413
 21
-46.02958885999157
 31
0.0
  0
LINE
  5
BDBC4
330
1E
100
AcDbEntity
  8
DETAIL
  6
Continuous
100
AcDbLine
 10
-96.89645221734508
 20
-46.7232273999914
 30
0.0
 11
-96.89432246667502
 21
-46.72962809732496
 31
0.0
  0
LINE
  5
BDBC5
330
1E
100
AcDbEntity
  8
DETAIL
  6
Continuous
100
AcDbLine
 10
-96.89897648801025
 20
-46.71671728265835
 30
0.0
 11
-96.89645221734508
 21
-46.7232273999914
 31
0.0
  0
LINE
  5
BDBC6
330
1E
100
AcDbEntity
  8
DETAIL
  6
Continuous
100
AcDbLine
 10
-96.90191724000442
 20
-46.71007768532513
 30
0.0
 11
-96.89897648801025
 21
-46.71671728265835
 31
0.0
  0
LINE
  5
BDBC7
330
1E
100
AcDbEntity
  8
DETAIL
  6
Continuous
100
AcDbLine
 10
-96.90531921734191
 20
-46.70328679732529
 30
0.0
 11
-96.90191724000442
 21
-46.71007768532513
 31
0.0
  0
LINE
  5
BDBC8
330
1E
100
AcDbEntity
  8
DETAIL
  6
Continuous
100
AcDbLine
 10
-96.90921395867963
 20
-46.69632462665788
 30
0.0
 11
-96.90531921734191
 21
-46.70328679732529
 31
0.0
  0
LINE
  5
BDBC9
330
1E
100
AcDbEntity
  8
DETAIL
  6
Continuous
100
AcDbLine
 10
-96.91366303068253
 20
-46.68916566665814
 30
0.0
 11
-96.90921395867963
 21
-46.69632462665788
 31
0.0
  0
LINE
  5
BDBCA
330
1E
100
AcDbEntity
  8
DETAIL
  6
Continuous
100
AcDbLine
 10
-96.91871652267991
 20
-46.68178113065835
 30
0.0
 11
-96.91366303068253
 21
-46.68916566665814
 31
0.0
  0
LINE
  5
BDBCB
330
1E
100
AcDbEntity
  8
DETAIL
  6
Continuous
100
AcDbLine
 10
-96.92444040534656
 20
-46.67416087732499
 30
0.0
 11
-96.91871652267991
 21
-46.68178113065835
 31
0.0
  0
LINE
  5
BDBCC
330
1E
100
AcDbEntity
  8
DETAIL
  6
Continuous
100
AcDbLine
 10
-96.93090039201024
 20
-46.66628028665832
 30
0.0
 11
-96.92444040534656
 21
-46.67416087732499
 31
0.0
  0
LINE
  5
BDBCD
330
1E
100
AcDbEntity
  8
DETAIL
  6
Continuous
100
AcDbLine
 10
-96.93814733733825
 20
-46.65815401465784
 30
0.0
 11
-96.93090039201024
 21
-46.66628028665832
 31
0.0
  0
LINE
  5
BDBCE
330
1E
100
AcDbEntity
  8
DETAIL
  6
Continuous
100
AcDbLine
 10
-96.94623878534958
 20
-46.6497833106581
 30
0.0
 11
-96.93814733733825
 21
-46.65815401465784
 31
0.0
  0
LINE
  5
BDBCF
330
1E
100
AcDbEntity
  8
DETAIL
  6
Continuous
100
AcDbLine
 10
-96.95522039467732
 20
-46.6411837693247
 30
0.0
 11
-96.94623878534958
 21
-46.6497833106581
 31
0.0
  0
LINE
  5
BDBD0
330
1E
100
AcDbEntity
  8
DETAIL
  6
Continuous
100
AcDbLine
 10
-96.96513770800493
 20
-46.63237025732485
 30
0.0
 11
-96.95522039467732
 21
-46.6411837693247
 31
0.0
  0
LINE
  5
BDBD1
330
1E
100
AcDbEntity
  8
DETAIL
  6
Continuous
100
AcDbLine
 10
-96.97604862133857
 20
-46.62334620932461
 30
0.0
 11
-96.96513770800493
 21
-46.63237025732485
 31
0.0
  0
LINE
  5
BDBD2
330
1E
100
AcDbEntity
  8
DETAIL
  6
Continuous
100
AcDbLine
 10
-96.98800704800897
 20
-46.61411795332492
 30
0.0
 11
-96.97604862133857
 21
-46.62334620932461
 31
0.0
  0
LINE
  5
BDBD3
330
1E
100
AcDbEntity
  8
DETAIL
  6
Continuous
100
AcDbLine
 10
-97.00107048134714
 20
-46.60469168265819
 30
0.0
 11
-96.98800704800897
 21
-46.61411795332492
 31
0.0
  0
LINE
  5
BDBD4
330
1E
100
AcDbEntity
  8
DETAIL
  6
Continuous
100
AcDbLine
 10
-97.0152970506756
 20
-46.59507229732503
 30
0.0
 11
-97.00107048134714
 21
-46.60469168265819
 31
0.0
  0
LINE
  5
BDBD5
330
1E
100
AcDbEntity
  8
DETAIL
  6
Continuous
100
AcDbLine
 10
-97.03073877734505
 20
-46.58526999065793
 30
0.0
 11
-97.0152970506756
 21
-46.59507229732503
 31
0.0
  0
LINE
  5
BDBD6
330
1E
100
AcDbEntity
  8
DETAIL
  6
Continuous
100
AcDbLine
 10
-97.04744554934814
 20
-46.5752955186582
 30
0.0
 11
-97.03073877734505
 21
-46.58526999065793
 31
0.0
  0
LINE
  5
BDBD7
330
1E
100
AcDbEntity
  8
DETAIL
  6
Continuous
100
AcDbLine
 10
-97.0654819106735
 20
-46.56515209865824
 30
0.0
 11
-97.04744554934814
 21
-46.5752955186582
 31
0.0
  0
LINE
  5
BDBD8
330
1E
100
AcDbEntity
  8
DETAIL
  6
Continuous
100
AcDbLine
 10
-97.08490426000981
 20
-46.55484613865815
 30
0.0
 11
-97.0654819106735
 21
-46.56515209865824
 31
0.0
  0
LINE
  5
BDBD9
330
1E
100
AcDbEntity
  8
DETAIL
  6
Continuous
100
AcDbLine
 10
-97.10578692134777
 20
-46.54437881865852
 30
0.0
 11
-97.08490426000981
 21
-46.55484613865815
 31
0.0
  0
LINE
  5
BDBDA
330
1E
100
AcDbEntity
  8
DETAIL
  6
Continuous
100
AcDbLine
 10
-97.12819865334722
 20
-46.53375184532456
 30
0.0
 11
-97.10578692134777
 21
-46.54437881865852
 31
0.0
  0
LINE
  5
BDBDB
330
1E
100
AcDbEntity
  8
DETAIL
  6
Continuous
100
AcDbLine
 10
-97.15221255068218
 20
-46.52297003865806
 30
0.0
 11
-97.12819865334722
 21
-46.53375184532456
 31
0.0
  0
LINE
  5
BDBDC
330
1E
100
AcDbEntity
  8
DETAIL
  6
Continuous
100
AcDbLine
 10
-97.17789878800658
 20
-46.51203710265781
 30
0.0
 11
-97.15221255068218
 21
-46.52297003865806
 31
0.0
  0
LINE
  5
BDBDD
330
1E
100
AcDbEntity
  8
DETAIL
  6
Continuous
100
AcDbLine
 10
-97.20533489601303
 20
-46.50095808399157
 30
0.0
 11
-97.17789878800658
 21
-46.51203710265781
 31
0.0
  0
LINE
  5
BDBDE
330
1E
100
AcDbEntity
  8
DETAIL
  6
Continuous
100
AcDbLine
 10
-97.23458510533646
 20
-46.48974043332464
 30
0.0
 11
-97.20533489601303
 21
-46.50095808399157
 31
0.0
  0
LINE
  5
BDBDF
330
1E
100
AcDbEntity
  8
DETAIL
  6
Continuous
100
AcDbLine
 10
-97.2657594960151
 20
-46.47838064399161
 30
0.0
 11
-97.23458510533646
 21
-46.48974043332464
 31
0.0
  0
LINE
  5
BDBE0
330
1E
100
AcDbEntity
  8
DETAIL
  6
Continuous
100
AcDbLine
 10
-97.29895741467817
 20
-46.46687566799164
 30
0.0
 11
-97.2657594960151
 21
-46.47838064399161
 31
0.0
  0
LINE
  5
BDBE1
330
1E
100
AcDbEntity
  8
DETAIL
  6
Continuous
100
AcDbLine
 10
-97.33427529600385
 20
-46.45523157732498
 30
0.0
 11
-97.29895741467817
 21
-46.46687566799164
 31
0.0
  0
LINE
  5
BDBE2
330
1E
100
AcDbEntity
  8
DETAIL
  6
Continuous
100
AcDbLine
 10
-97.37180678400591
 20
-46.44345163332468
 30
0.0
 11
-97.33427529600385
 21
-46.45523157732498
 31
0.0
  0
LINE
  5
BDBE3
330
1E
100
AcDbEntity
  8
DETAIL
  6
Continuous
100
AcDbLine
 10
-97.41165960001353
 20
-46.43154122265833
 30
0.0
 11
-97.37180678400591
 21
-46.44345163332468
 31
0.0
  0
LINE
  5
BDBE4
330
1E
100
AcDbEntity
  8
DETAIL
  6
Continuous
100
AcDbLine
 10
-97.45393256400939
 20
-46.41950503065856
 30
0.0
 11
-97.41165960001353
 21
-46.43154122265833
 31
0.0
  0
LINE
  5
BDBE5
330
1E
100
AcDbEntity
  8
DETAIL
  6
Continuous
100
AcDbLine
 10
-97.49874602667341
 20
-46.40734842665802
 30
0.0
 11
-97.45393256400939
 21
-46.41950503065856
 31
0.0
  0
LINE
  5
BDBE6
330
1E
100
AcDbEntity
  8
DETAIL
  6
Continuous
100
AcDbLine
 10
-97.54621072667442
 20
-46.39507590399171
 30
0.0
 11
-97.49874602667341
 21
-46.40734842665802
 31
0.0
  0
LINE
  5
BDBE7
330
1E
100
AcDbEntity
  8
DETAIL
  6
Continuous
100
AcDbLine
 10
-97.59645431867511
 20
-46.38269477332516
 30
0.0
 11
-97.54621072667442
 21
-46.39507590399171
 31
0.0
  0
LINE
  5
BDBE8
330
1E
100
AcDbEntity
  8
DETAIL
  6
Continuous
100
AcDbLine
 10
-97.64958507467463
 20
-46.37021299865807
 30
0.0
 11
-97.59645431867511
 21
-46.38269477332516
 31
0.0
  0
LINE
  5
BDBE9
330
1E
100
AcDbEntity
  8
DETAIL
  6
Continuous
100
AcDbLine
 10
-97.70577187201206
 20
-46.35763310399158
 30
0.0
 11
-97.64958507467463
 21
-46.37021299865807
 31
0.0
  0
LINE
  5
BDBEA
330
1E
100
AcDbEntity
  8
DETAIL
  6
Continuous
100
AcDbLine
 10
-97.76516492534256
 20
-46.34495713732485
 30
0.0
 11
-97.70577187201206
 21
-46.35763310399158
 31
0.0
  0
LINE
  5
BDBEB
330
1E
100
AcDbEntity
  8
DETAIL
  6
Continuous
100
AcDbLine
 10
-97.82792849334009
 20
-46.33219450265812
 30
0.0
 11
-97.76516492534256
 21
-46.34495713732485
 31
0.0
  0
LINE
  5
BDBEC
330
1E
100
AcDbEntity
  8
DETAIL
  6
Continuous
100
AcDbLine
 10
-97.89421780134262
 20
-46.319351377325
 30
0.0
 11
-97.82792849334009
 21
-46.33219450265812
 31
0.0
  0
LINE
  5
BDBED
330
1E
100
AcDbEntity
  8
DETAIL
  6
Continuous
100
AcDbLine
 10
-96.89004426668043
 20
-46.74837407332518
 30
0.0
 11
-96.88927424534313
 21
-46.75453223065858
 31
0.0
  0
LINE
  5
BDBEE
330
1E
100
AcDbEntity
  8
DETAIL
  6
Continuous
100
AcDbLine
 10
-96.89113588267582
 20
-46.74218321999148
 30
0.0
 11
-96.89004426668043
 21
-46.74837407332518
 31
0.0
  0
LINE
  5
BDBEF
330
1E
100
AcDbEntity
  8
DETAIL
  6
Continuous
100
AcDbLine
 10
-96.89255465068209
 20
-46.73594077199163
 30
0.0
 11
-96.89113588267582
 21
-46.74218321999148
 31
0.0
  0
LINE
  5
BDBF0
330
1E
100
AcDbEntity
  8
DETAIL
  6
Continuous
100
AcDbLine
 10
-96.89432246667502
 20
-46.72962809732496
 30
0.0
 11
-96.89255465068209
 21
-46.73594077199163
 31
0.0
  0
LINE
  5
BDBF1
330
1E
100
AcDbEntity
  8
DETAIL
  6
Continuous
100
AcDbLine
 10
-96.88881134934536
 20
-46.76068593732509
 30
0.0
 11
-96.88866040134644
 21
-46.76682577865813
 31
0.0
  0
LINE
  5
BDBF2
330
1E
100
AcDbEntity
  8
DETAIL
  6
Continuous
100
AcDbLine
 10
-96.88927424534313
 20
-46.75453223065858
 30
0.0
 11
-96.88881134934536
 21
-46.76068593732509
 31
0.0
  0
LINE
  5
BDC0E
330
1E
100
AcDbEntity
  8
DETAIL
  6
Continuous
100
AcDbLine
 10
-160.3486604013455
 20
-1.2751534853262
 30
0.0
 11
-95.88866040134828
 21
-0.1499999999903251
 31
0.0
  0
LINE
  5
BDC0F
330
1E
100
AcDbEntity
  8
DETAIL
  6
Continuous
100
AcDbLine
 10
-160.4393852706784
 20
-6.474361499992255
 30
0.0
 11
-110.1687165106818
 21
-5.596883713326064
 31
0.0
  0
LINE
  5
BDC50
330
1E
100
AcDbEntity
  8
DETAIL
  6
Continuous
100
AcDbLine
 10
-94.85171094134102
 20
-3.642423391992792
 30
0.0
 11
-94.85571564000611
 21
-5.985449819992709
 31
0.0
  0
LINE
  5
BDC51
330
1E
100
AcDbEntity
  8
DETAIL
  6
Continuous
100
AcDbLine
 10
-94.95586926668011
 20
-5.759020657325663
 30
0.0
 11
-94.96236772668135
 21
-4.026570027992647
 31
0.0
  0
LINE
  5
BDC5B
330
1E
100
AcDbEntity
  8
DETAIL
  6
Continuous
100
AcDbLine
 10
-94.57413522800607
 20
-9.087177877325984
 30
0.0
 11
-94.54661697334859
 21
-9.137960947992155
 31
0.0
  0
LINE
  5
BDC62
330
1E
100
AcDbEntity
  8
DETAIL
  6
Continuous
100
AcDbLine
 10
-94.86249242401072
 20
-7.745969705325705
 30
0.0
 11
-94.94099635733846
 21
-7.741855341325845
 31
0.0
  0
LINE
  5
BDC63
330
1E
100
AcDbEntity
  8
DETAIL
  6
Continuous
100
AcDbLine
 10
-94.94099635733846
 20
-7.741853317325762
 30
0.0
 11
-95.88866040134826
 21
-7.741853317325762
 31
0.0
  0
LINE
  5
BDC64
330
1E
100
AcDbEntity
  8
DETAIL
  6
Continuous
100
AcDbLine
 10
-94.38866040134644
 20
-7.745967533325483
 30
0.0
 11
-94.86249242401072
 21
-7.745967533325483
 31
0.0
  0
LINE
  5
BDC65
330
1E
100
AcDbEntity
  8
DETAIL
  6
Continuous
100
AcDbLine
 10
-94.38866040134644
 20
-7.921572875992183
 30
0.0
 11
-94.86249242401072
 21
-7.921572875992183
 31
0.0
  0
LINE
  5
BDC6D
330
1E
100
AcDbEntity
  8
DETAIL
  6
Continuous
100
AcDbLine
 10
-94.85571564000611
 20
-5.985449819992709
 30
0.0
 11
-94.86249243600514
 21
-7.745969703992614
 31
0.0
  0
LINE
  5
BDC6E
330
1E
100
AcDbEntity
  8
DETAIL
  6
Continuous
100
AcDbLine
 10
-94.86249242401072
 20
-7.745969705325705
 30
0.0
 11
-94.86249242401072
 21
-7.921572875992183
 31
0.0
  0
LINE
  5
BDC6F
330
1E
100
AcDbEntity
  8
DETAIL
  6
Continuous
100
AcDbLine
 10
-94.94099634134409
 20
-7.741855341325845
 30
0.0
 11
-94.95586926668011
 21
-5.759020657325663
 31
0.0
  0
LINE
  5
BDC75
330
1E
100
AcDbEntity
  8
DETAIL
  6
Continuous
100
AcDbLine
 10
-104.6996394480088
 20
-5.490389334659198
 30
0.0
 11
-96.8887552026722
 21
-5.354049842659037
 31
0.0
  0
LINE
  5
BDC76
330
1E
100
AcDbEntity
  8
DETAIL
  6
Continuous
100
AcDbLine
 10
-110.1687165106818
 20
-5.596883717326022
 30
0.0
 11
-104.6996394480088
 21
-5.49038933065924
 31
0.0
  0
ARC
  5
BDCDB
330
1E
100
AcDbEntity
  8
DETAIL
  6
Continuous
100
AcDbCircle
 10
-94.88866040133917
 20
-2.553093966659048
 30
0.0
 40
0.4999999999999876
100
AcDbArc
 50
0.0000015664979873
 51
87.00000008202405
  0
ARC
  5
BDCDC
330
1E
100
AcDbEntity
  8
DETAIL
  6
Continuous
100
AcDbCircle
 10
-94.88866040133917
 20
-1.051035433325978
 30
0.0
 40
0.9999999999999751
100
AcDbArc
 50
180.0
 51
266.9999999999943
  0
LINE
  5
BDD01
330
1E
100
AcDbEntity
  8
DETAIL
  6
Continuous
100
AcDbLine
 10
-95.2038416360051
 20
-1.999999999992269
 30
0.0
 11
-94.47402583334451
 21
-1.999999999992269
 31
0.0
  0
LINE
  5
BDD02
330
1E
100
AcDbEntity
  8
DETAIL
  6
Continuous
100
AcDbLine
 10
-95.88866040134826
 20
-5.347624406659519
 30
0.0
 11
-96.88866040134644
 21
-5.36507947199243
 31
0.0
  0
LINE
  5
BDD24
330
1E
100
AcDbEntity
  8
DETAIL
  6
Continuous
100
AcDbLine
 10
-94.95930387867748
 20
-2.708238786659421
 30
0.0
 11
-94.95706304609143
 21
-2.048693229461932
 31
0.0
  0
LINE
  5
BDD26
330
1E
100
AcDbEntity
  8
DETAIL
  6
Continuous
100
AcDbLine
 10
-94.96175161867222
 20
-3.160399359992538
 30
0.0
 11
-94.95930387867748
 21
-2.708238786659421
 31
0.0
  0
LINE
  5
BDD28
330
1E
100
AcDbEntity
  8
DETAIL
  6
Continuous
100
AcDbLine
 10
-94.96236772668135
 20
-4.026570027992647
 30
0.0
 11
-94.96175161867222
 21
-3.160399359992538
 31
0.0
  0
LINE
  5
BDD29
330
1E
100
AcDbEntity
  8
DETAIL
  6
Continuous
100
AcDbLine
 10
-94.85371639876234
 20
-2.054316544672147
 30
0.0
 11
-94.85171094134102
 21
-3.642423391992792
 31
0.0
  0
LINE
  5
BDD39
330
1E
100
AcDbEntity
  8
DETAIL
  6
Continuous
100
AcDbLine
 10
-90.89336209067051
 20
-0.0628067439927236
 30
0.0
 11
-90.88333308133996
 21
-0.349999999992292
 31
0.0
  0
LINE
  5
BDD3A
330
1E
100
AcDbEntity
  8
DETAIL
  6
Continuous
100
AcDbLine
 10
-94.47402583334451
 20
-1.999999999992269
 30
0.0
 11
-94.46392403334584
 21
-2.289277694659517
 31
0.0
  0
LINE
  5
BDD72
330
1E
100
AcDbEntity
  8
DETAIL
  6
Continuous
100
AcDbLine
 10
-68.49866040134703
 20
-295.0
 30
0.0
 11
-68.49866040134703
 21
-213.5976387933205
 31
0.0
  0
LINE
  5
BDD73
330
1E
100
AcDbEntity
  8
DETAIL
  6
Continuous
100
AcDbLine
 10
-0.0000000000022737
 20
-295.0
 30
0.0
 11
-0.0000000000004547
 21
0.0
 31
0.0
  0
LINE
  5
BDD74
330
1E
100
AcDbEntity
  8
DETAIL
  6
Continuous
100
AcDbLine
 10
-73.98678323734248
 20
-290.3499999999855
 30
0.0
 11
-73.98678323734248
 21
-213.6119556026538
 31
0.0
  0
LINE
  5
BDD75
330
1E
100
AcDbEntity
  8
DETAIL
  6
Continuous
100
AcDbLine
 10
-4.393023836008524
 20
-213.5976387933205
 30
0.0
 11
-4.393023836008524
 21
-233.3414247826538
 31
0.0
  0
LINE
  5
BDD76
330
1E
100
AcDbEntity
  8
DETAIL
  6
Continuous
100
AcDbLine
 10
-68.49866040134703
 20
-291.3508336866522
 30
0.0
 11
-3.03404173433114
 21
-291.3508336866522
 31
0.0
  0
LINE
  5
BDD78
330
1E
100
AcDbEntity
  8
DETAIL
  6
Continuous
100
AcDbLine
 10
-3.688610901350784
 20
-289.3386555039852
 30
0.0
 11
-8.710157826683371
 21
-289.2948331279852
 31
0.0
  0
LINE
  5
BDD79
330
1E
100
AcDbEntity
  8
DETAIL
  6
Continuous
100
AcDbLine
 10
-5.392985758677696
 20
-277.3456365666524
 30
0.0
 11
-8.393061912007851
 21
-277.3456365666524
 31
0.0
  0
LINE
  5
BDD7A
330
1E
100
AcDbEntity
  8
DETAIL
  6
Continuous
100
AcDbLine
 10
-3.889667305340935
 20
-289.3587275333188
 30
0.0
 11
-25.38866040134644
 21
-289.3587275333188
 31
0.0
  0
LINE
  5
BDD7B
330
1E
100
AcDbEntity
  8
DETAIL
  6
Continuous
100
AcDbLine
 10
-4.393023836008524
 20
-233.3414247826538
 30
0.0
 11
-25.38866040134644
 21
-233.341424783987
 31
0.0
  0
LINE
  5
BDD7E
330
1E
100
AcDbEntity
  8
DETAIL
  6
Continuous
100
AcDbLine
 10
-25.38866040134644
 20
-234.5936376626533
 30
0.0
 11
-4.393023836008524
 21
-234.5934853479867
 31
0.0
  0
ARC
  5
BDD7F
330
1E
100
AcDbEntity
  8
DETAIL
  6
Continuous
100
AcDbCircle
 10
-25.38866040134644
 20
-253.3499999999863
 30
0.0
 40
18.75636233733286
100
AcDbArc
 50
90.0
 51
180.0
  0
ARC
  5
BDD83
330
1E
100
AcDbEntity
  8
DETAIL
  6
Continuous
100
AcDbCircle
 10
-25.38866040134644
 20
-269.3499999999861
 30
0.0
 40
18.75636233733286
100
AcDbArc
 50
180.0
 51
270.0
  0
LINE
  5
BDDBF
330
1E
100
AcDbEntity
  8
DETAIL
  6
Continuous
100
AcDbLine
 10
-44.14502274001324
 20
-269.3499999999861
 30
0.0
 11
-44.14502274001324
 21
-253.3499999999863
 31
0.0
  0
LINE
  5
BDDC2
330
1E
100
AcDbEntity
  8
DETAIL
  6
Continuous
100
AcDbLine
 10
-45.39731177600924
 20
-253.3499999999863
 30
0.0
 11
-45.39723561734763
 21
-269.3499999999861
 31
0.0
  0
LINE
  5
BDE1F
330
1E
100
AcDbEntity
  8
DETAIL
  6
Continuous
100
AcDbLine
 10
-9.393023836008524
 20
-288.106514653319
 30
0.0
 11
-25.38866040134644
 21
-288.1063623386522
 31
0.0
  0
LINE
  5
BDE3F
330
1E
100
AcDbEntity
  8
DETAIL
  6
Continuous
100
AcDbLine
 10
-9.393023836008524
 20
-288.106514653319
 30
0.0
 11
-9.393023836008524
 21
-278.3455984893192
 31
0.0
  0
LINE
  5
BDF2C
330
1E
100
AcDbEntity
  8
DETAIL
  6
Continuous
100
AcDbLine
 10
-2.371209762679882
 20
-294.6799221226522
 30
0.0
 11
-2.365045658211329
 21
-295.0
 31
0.0
  0
LINE
  5
BDF2D
330
1E
100
AcDbEntity
  8
DETAIL
  6
Continuous
100
AcDbLine
 10
-4.393023836008524
 20
-234.5934853479867
 30
0.0
 11
-4.393023836008524
 21
-276.3456746439857
 31
0.0
  0
ARC
  5
BDF2E
330
1E
100
AcDbEntity
  8
DETAIL
  6
Continuous
100
AcDbCircle
 10
-3.424197464012195
 20
-291.6499999999854
 30
0.0
 40
0.9999999999999751
100
AcDbArc
 50
322.1106787361151
 51
358.0000134935008
  0
ARC
  5
BDF2F
330
1E
100
AcDbEntity
  8
DETAIL
  6
Continuous
100
AcDbCircle
 10
-3.700054832008845
 20
-290.6499999999855
 30
0.0
 40
1.311394430666634
100
AcDbArc
 50
0.0
 51
89.49869654468841
  0
LINE
  5
BDF33
330
1E
100
AcDbEntity
  8
DETAIL
  6
Continuous
100
AcDbLine
 10
-3.275710325350246
 20
-290.7908567439856
 30
0.0
 11
-3.889667305340935
 21
-289.3587275333188
 31
0.0
  0
LINE
  5
BDF34
330
1E
100
AcDbEntity
  8
DETAIL
  6
Continuous
100
AcDbLine
 10
-2.387179474683307
 20
-292.8496960293188
 30
0.0
 11
-3.275710325350246
 21
-290.7908567439856
 31
0.0
  0
LINE
  5
BDF49
330
1E
100
AcDbEntity
  8
DETAIL
  6
Continuous
100
AcDbLine
 10
-3.334955500009982
 20
-290.6417418079852
 30
0.0
 11
-2.388660401340985
 21
-290.6499999999855
 31
0.0
  0
LINE
  5
BDF52
330
1E
100
AcDbEntity
  8
DETAIL
  6
Continuous
100
AcDbLine
 10
-3.888660401342804
 20
-289.3499999999857
 30
0.0
 11
-3.889667305340935
 21
-289.3587275333188
 31
0.0
  0
LINE
  5
BDF54
330
1E
100
AcDbEntity
  8
DETAIL
  6
Continuous
100
AcDbLine
 10
-2.424799888009602
 20
-291.6848994973188
 30
0.0
 11
-2.388660401340985
 21
-290.6499999999855
 31
0.0
  0
LINE
  5
BDF57
330
1E
100
AcDbEntity
  8
DETAIL
  6
Continuous
100
AcDbLine
 10
-2.388660401340985
 20
-290.6499999999855
 30
0.0
 11
-2.388660401340985
 21
-292.8334435466522
 31
0.0
  0
LINE
  5
BDF59
330
1E
100
AcDbEntity
  8
DETAIL
  6
Continuous
100
AcDbLine
 10
-2.387179474683307
 20
-292.8496960293188
 30
0.0
 11
-2.378161916011322
 21
-294.1089221053184
 31
0.0
  0
LINE
  5
BDF5A
330
1E
100
AcDbEntity
  8
DETAIL
  6
Continuous
100
AcDbLine
 10
-2.378161916011322
 20
-294.1089221053184
 30
0.0
 11
-2.371209762679882
 21
-294.6799221226522
 31
0.0
  0
LINE
  5
BDF69
330
1E
100
AcDbEntity
  8
DETAIL
  6
Continuous
100
AcDbLine
 10
-4.392294385350851
 20
-234.5864211653203
 30
0.0
 11
-4.393023836008524
 21
-234.5950083306537
 31
0.0
  0
LINE
  5
BDF6A
330
1E
100
AcDbEntity
  8
DETAIL
  6
Continuous
100
AcDbLine
 10
-4.391617634672456
 20
-234.5668854999864
 30
0.0
 11
-4.392294385350851
 21
-234.5864211653203
 31
0.0
  0
LINE
  5
BDF6B
330
1E
100
AcDbEntity
  8
DETAIL
  6
Continuous
100
AcDbLine
 10
-4.39099118934655
 20
-234.5360660759867
 30
0.0
 11
-4.391617634672456
 21
-234.5668854999864
 31
0.0
  0
LINE
  5
BDF6C
330
1E
100
AcDbEntity
  8
DETAIL
  6
Continuous
100
AcDbLine
 10
-4.38991227467568
 20
-234.4439386573201
 30
0.0
 11
-4.39099118934655
 21
-234.5360660759867
 31
0.0
  0
LINE
  5
BDF6D
330
1E
100
AcDbEntity
  8
DETAIL
  6
Continuous
100
AcDbLine
 10
-4.38886928668262
 20
-234.2464109933201
 30
0.0
 11
-4.38991227467568
 21
-234.4439386573201
 31
0.0
  0
LINE
  5
BDF6E
330
1E
100
AcDbEntity
  8
DETAIL
  6
Continuous
100
AcDbLine
 10
-4.38886928668262
 20
-233.6884991373203
 30
0.0
 11
-4.38886928668262
 21
-234.2464109933201
 31
0.0
  0
LINE
  5
BDF6F
330
1E
100
AcDbEntity
  8
DETAIL
  6
Continuous
100
AcDbLine
 10
-4.38991227467568
 20
-233.4909714733204
 30
0.0
 11
-4.38886928668262
 21
-233.6884991373203
 31
0.0
  0
LINE
  5
BDF70
330
1E
100
AcDbEntity
  8
DETAIL
  6
Continuous
100
AcDbLine
 10
-4.39099118934655
 20
-233.3988440546531
 30
0.0
 11
-4.38991227467568
 21
-233.4909714733204
 31
0.0
  0
LINE
  5
BDF71
330
1E
100
AcDbEntity
  8
DETAIL
  6
Continuous
100
AcDbLine
 10
-4.391617634672456
 20
-233.3680246319868
 30
0.0
 11
-4.39099118934655
 21
-233.3988440546531
 31
0.0
  0
LINE
  5
BDF72
330
1E
100
AcDbEntity
  8
DETAIL
  6
Continuous
100
AcDbLine
 10
-4.392294385350851
 20
-233.3484889653202
 30
0.0
 11
-4.391617634672456
 21
-233.3680246319868
 31
0.0
  0
LINE
  5
BDF73
330
1E
100
AcDbEntity
  8
DETAIL
  6
Continuous
100
AcDbLine
 10
-4.393023836008524
 20
-233.3399018013203
 30
0.0
 11
-4.392294385350851
 21
-233.3484889653202
 31
0.0
  0
LINE
  5
BDF74
330
1E
100
AcDbEntity
  8
DETAIL
  6
Continuous
100
AcDbLine
 10
-2.388660401340985
 20
-13.04134863199226
 30
0.0
 11
-2.388660401340985
 21
-121.3428932199897
 31
0.0
  0
LINE
  5
BDF75
330
1E
100
AcDbEntity
  8
DETAIL
  6
Continuous
100
AcDbLine
 10
-2.879934198683713
 20
-12.54142478399251
 30
0.0
 11
-2.879934198683713
 21
-121.3428932199897
 31
0.0
  0
LINE
  5
BDF76
330
1E
100
AcDbEntity
  8
DETAIL
  6
Continuous
100
AcDbLine
 10
-4.388660401348261
 20
-9.178427125325811
 30
0.0
 11
-4.388660401348261
 21
-213.5932753599871
 31
0.0
  0
LINE
  5
BDF77
330
1E
100
AcDbEntity
  8
DETAIL
  6
Continuous
100
AcDbLine
 10
-4.888660401340985
 20
-9.178427125325811
 30
0.0
 11
-4.888660401340985
 21
-213.4499999999872
 31
0.0
  0
LINE
  5
BDF78
330
1E
100
AcDbEntity
  8
DETAIL
  6
Continuous
100
AcDbLine
 10
-68.49921197868252
 20
-0.349999999992292
 30
0.0
 11
-68.49921197868252
 21
-213.4499999999872
 31
0.0
  0
LINE
  5
BDF79
330
1E
100
AcDbEntity
  8
DETAIL
  6
Continuous
100
AcDbLine
 10
-73.98762061868229
 20
-213.4499999999872
 30
0.0
 11
-73.98762061868229
 21
-5.349999999992178
 31
0.0
  0
LINE
  5
BDF7A
330
1E
100
AcDbEntity
  8
DETAIL
  6
Continuous
100
AcDbLine
 10
-71.01301509067389
 20
-213.6004424399874
 30
0.0
 11
-4.393023836008524
 21
-213.5976387933205
 31
0.0
  0
LINE
  5
BDF7B
330
1E
100
AcDbEntity
  8
DETAIL
  6
Continuous
100
AcDbLine
 10
-27.97093037601053
 20
-213.5932753599871
 30
0.0
 11
-44.38866040134644
 21
-213.4499999999872
 31
0.0
  0
LINE
  5
BDF7C
330
1E
100
AcDbEntity
  8
DETAIL
  6
Continuous
100
AcDbLine
 10
-49.82743615601112
 20
-213.5932753599871
 30
0.0
 11
-49.82493527601082
 21
-213.4499999999872
 31
0.0
  0
LINE
  5
BDF7D
330
1E
100
AcDbEntity
  8
DETAIL
  6
Continuous
100
AcDbLine
 10
-50.33353130134355
 20
-213.5932753599871
 30
0.0
 11
-50.33103042000994
 21
-213.4499999999872
 31
0.0
  0
LINE
  5
BDF7E
330
1E
100
AcDbEntity
  8
DETAIL
  6
Continuous
100
AcDbLine
 10
-44.38864109067663
 20
-213.4499999999872
 30
0.0
 11
-44.38864201334081
 21
-213.5932753599871
 31
0.0
  0
LINE
  5
BDF7F
330
1E
100
AcDbEntity
  8
DETAIL
  6
Continuous
100
AcDbLine
 10
-50.38866040134462
 20
-213.4499999999872
 30
0.0
 11
-50.38866040134462
 21
-213.5932753599871
 31
0.0
  0
LINE
  5
BDF80
330
1E
100
AcDbEntity
  8
DETAIL
  6
Continuous
100
AcDbLine
 10
-44.44629038268295
 20
-213.4499999999872
 30
0.0
 11
-44.44378950268265
 21
-213.5932753599871
 31
0.0
  0
LINE
  5
BDF81
330
1E
100
AcDbEntity
  8
DETAIL
  6
Continuous
100
AcDbLine
 10
-44.95238552801356
 20
-213.4499999999872
 30
0.0
 11
-44.94988464801326
 21
-213.5932753599871
 31
0.0
  0
LINE
  5
BDF82
330
1E
100
AcDbEntity
  8
DETAIL
  6
Continuous
100
AcDbLine
 10
-11.417086781345
 20
-216.5152365199872
 30
0.0
 11
-12.28866040134426
 21
-215.2705003906538
 31
0.0
  0
LINE
  5
BDF83
330
1E
100
AcDbEntity
  8
DETAIL
  6
Continuous
100
AcDbLine
 10
-10.870924901345
 20
-217.2952365199873
 30
0.0
 11
-11.07431631200824
 21
-217.0047634813205
 31
0.0
  0
LINE
  5
BDF84
330
1E
100
AcDbEntity
  8
DETAIL
  6
Continuous
100
AcDbLine
 10
-10.32476302134682
 20
-218.0752365199871
 30
0.0
 11
-10.52815443334338
 21
-217.7847634813206
 31
0.0
  0
LINE
  5
BDF85
330
1E
100
AcDbEntity
  8
DETAIL
  6
Continuous
100
AcDbLine
 10
-9.778601141348644
 20
-218.8552365199872
 30
0.0
 11
-9.981992553345207
 21
-218.5647634813203
 31
0.0
  0
LINE
  5
BDF86
330
1E
100
AcDbEntity
  8
DETAIL
  6
Continuous
100
AcDbLine
 10
-10.33482228134426
 20
-218.0699999999869
 30
0.0
 11
-10.53088039201293
 21
-217.7899999999872
 31
0.0
  0
LINE
  5
BDF87
330
1E
100
AcDbEntity
  8
DETAIL
  6
Continuous
100
AcDbLine
 10
-10.88098416134243
 20
-217.2899999999868
 30
0.0
 11
-11.07704227201111
 21
-217.0099999999871
 31
0.0
  0
LINE
  5
BDF88
330
1E
100
AcDbEntity
  8
DETAIL
  6
Continuous
100
AcDbLine
 10
-11.42714604134062
 20
-216.5099999999871
 30
0.0
 11
-12.28866040134426
 21
-215.2796299839874
 31
0.0
  0
LINE
  5
BDF89
330
1E
100
AcDbEntity
  8
DETAIL
  6
Continuous
100
AcDbLine
 10
-9.788660401344259
 20
-218.849999999987
 30
0.0
 11
-9.984718512012932
 21
-218.5699999999869
 31
0.0
  0
LINE
  5
BDF8A
330
1E
100
AcDbEntity
  8
DETAIL
  6
Continuous
100
AcDbLine
 10
-9.267338202677365
 20
-213.5426595266538
 30
0.0
 11
-9.16521518933996
 21
-213.5932753599871
 31
0.0
  0
LINE
  5
BDF8B
330
1E
100
AcDbEntity
  8
DETAIL
  6
Continuous
100
AcDbLine
 10
-9.267338202677365
 20
-213.5426595266538
 30
0.0
 11
-15.30998260001297
 21
-213.5426595266538
 31
0.0
  0
LINE
  5
BDF8C
330
1E
100
AcDbEntity
  8
DETAIL
  6
Continuous
100
AcDbLine
 10
-13.15017476268303
 20
-216.5099999999871
 30
0.0
 11
-11.42714604134062
 21
-216.5099999999871
 31
0.0
  0
LINE
  5
BDF8D
330
1E
100
AcDbEntity
  8
DETAIL
  6
Continuous
100
AcDbLine
 10
-13.16023402267865
 20
-216.5152365199872
 30
0.0
 11
-11.417086781345
 21
-216.5152365199872
 31
0.0
  0
LINE
  5
BDF8E
330
1E
100
AcDbEntity
  8
DETAIL
  6
Continuous
100
AcDbLine
 10
-11.07431631200824
 20
-217.0047634813205
 30
0.0
 11
-13.50300449068208
 21
-217.0047634813205
 31
0.0
  0
LINE
  5
BDF8F
330
1E
100
AcDbEntity
  8
DETAIL
  6
Continuous
100
AcDbLine
 10
-11.07704227201111
 20
-217.0099999999871
 30
0.0
 11
-13.50027853201254
 21
-217.0099999999871
 31
0.0
  0
LINE
  5
BDF90
330
1E
100
AcDbEntity
  8
DETAIL
  6
Continuous
100
AcDbLine
 10
-13.69633664268121
 20
-217.2899999999868
 30
0.0
 11
-10.88098416134243
 21
-217.2899999999868
 31
0.0
  0
LINE
  5
BDF91
330
1E
100
AcDbEntity
  8
DETAIL
  6
Continuous
100
AcDbLine
 10
-13.70639590267865
 20
-217.2952365199873
 30
0.0
 11
-10.870924901345
 21
-217.2952365199873
 31
0.0
  0
LINE
  5
BDF92
330
1E
100
AcDbEntity
  8
DETAIL
  6
Continuous
100
AcDbLine
 10
-10.52815443334338
 20
-217.7847634813206
 30
0.0
 11
-14.04916637068026
 21
-217.7847634813206
 31
0.0
  0
LINE
  5
BDF93
330
1E
100
AcDbEntity
  8
DETAIL
  6
Continuous
100
AcDbLine
 10
-10.53088039201293
 20
-217.7899999999872
 30
0.0
 11
-14.0464404106774
 21
-217.7899999999872
 31
0.0
  0
LINE
  5
BDF94
330
1E
100
AcDbEntity
  8
DETAIL
  6
Continuous
100
AcDbLine
 10
-14.24249852134607
 20
-218.0699999999869
 30
0.0
 11
-10.33482228134426
 21
-218.0699999999869
 31
0.0
  0
LINE
  5
BDF95
330
1E
100
AcDbEntity
  8
DETAIL
  6
Continuous
100
AcDbLine
 10
-14.25255778267683
 20
-218.0752365199871
 30
0.0
 11
-10.32476302134682
 21
-218.0752365199871
 31
0.0
  0
LINE
  5
BDF96
330
1E
100
AcDbEntity
  8
DETAIL
  6
Continuous
100
AcDbLine
 10
-9.981992553345207
 20
-218.5647634813203
 30
0.0
 11
-14.59532825067844
 21
-218.5647634813203
 31
0.0
  0
LINE
  5
BDF97
330
1E
100
AcDbEntity
  8
DETAIL
  6
Continuous
100
AcDbLine
 10
-9.984718512012932
 20
-218.5699999999869
 30
0.0
 11
-14.59260229067558
 21
-218.5699999999869
 31
0.0
  0
LINE
  5
BDF98
330
1E
100
AcDbEntity
  8
DETAIL
  6
Continuous
100
AcDbLine
 10
-14.78866040134426
 20
-218.849999999987
 30
0.0
 11
-9.788660401344259
 21
-218.849999999987
 31
0.0
  0
LINE
  5
BDF99
330
1E
100
AcDbEntity
  8
DETAIL
  6
Continuous
100
AcDbLine
 10
-14.79871966267501
 20
-218.8552365199872
 30
0.0
 11
-9.778601141348644
 21
-218.8552365199872
 31
0.0
  0
LINE
  5
BDF9A
330
1E
100
AcDbEntity
  8
DETAIL
  6
Continuous
100
AcDbLine
 10
-15.30998260001297
 20
-213.5426595266538
 30
0.0
 11
-15.30836497601057
 21
-213.4499999999872
 31
0.0
  0
LINE
  5
BDF9B
330
1E
100
AcDbEntity
  8
DETAIL
  6
Continuous
100
AcDbLine
 10
-16.3886604013428
 20
-213.5932753599871
 30
0.0
 11
-16.3886604013428
 21
-213.4499999999872
 31
0.0
  0
LINE
  5
BDF9C
330
1E
100
AcDbEntity
  8
DETAIL
  6
Continuous
100
AcDbLine
 10
-37.06575274000761
 20
-213.5139060479872
 30
0.0
 11
-37.06575274000761
 21
-213.5932753599871
 31
0.0
  0
LINE
  5
BDF9D
330
1E
100
AcDbEntity
  8
DETAIL
  6
Continuous
100
AcDbLine
 10
-38.46867042000713
 20
-213.5932753599871
 30
0.0
 11
-38.46867042000713
 21
-213.5016629706541
 31
0.0
  0
LINE
  5
BDF9E
330
1E
100
AcDbEntity
  8
DETAIL
  6
Continuous
100
AcDbLine
 10
-9.267338202677365
 20
-213.5426595266538
 30
0.0
 11
-9.268955828013076
 21
-213.4499999999872
 31
0.0
  0
LINE
  5
BDF9F
330
1E
100
AcDbEntity
  8
DETAIL
  6
Continuous
100
AcDbLine
 10
-14.59260229067558
 20
-218.5699999999869
 30
0.0
 11
-14.78866040134426
 21
-218.849999999987
 31
0.0
  0
LINE
  5
BDFA0
330
1E
100
AcDbEntity
  8
DETAIL
  6
Continuous
100
AcDbLine
 10
-14.0464404106774
 20
-217.7899999999872
 30
0.0
 11
-14.24249852134607
 21
-218.0699999999869
 31
0.0
  0
LINE
  5
BDFA1
330
1E
100
AcDbEntity
  8
DETAIL
  6
Continuous
100
AcDbLine
 10
-13.50027853201254
 20
-217.0099999999871
 30
0.0
 11
-13.69633664268121
 21
-217.2899999999868
 31
0.0
  0
LINE
  5
BDFA2
330
1E
100
AcDbEntity
  8
DETAIL
  6
Continuous
100
AcDbLine
 10
-12.28866040134426
 20
-215.2796299839874
 30
0.0
 11
-13.15017476268303
 21
-216.5099999999871
 31
0.0
  0
LINE
  5
BDFA3
330
1E
100
AcDbEntity
  8
DETAIL
  6
Continuous
100
AcDbLine
 10
-14.59532825067844
 20
-218.5647634813203
 30
0.0
 11
-14.79871966267501
 21
-218.8552365199872
 31
0.0
  0
LINE
  5
BDFA4
330
1E
100
AcDbEntity
  8
DETAIL
  6
Continuous
100
AcDbLine
 10
-14.04916637068026
 20
-217.7847634813206
 30
0.0
 11
-14.25255778267683
 21
-218.0752365199871
 31
0.0
  0
LINE
  5
BDFA5
330
1E
100
AcDbEntity
  8
DETAIL
  6
Continuous
100
AcDbLine
 10
-12.28866040134426
 20
-215.2705003906538
 30
0.0
 11
-13.16023402267865
 21
-216.5152365199872
 31
0.0
  0
LINE
  5
BDFA6
330
1E
100
AcDbEntity
  8
DETAIL
  6
Continuous
100
AcDbLine
 10
-13.50300449068208
 20
-217.0047634813205
 30
0.0
 11
-13.70639590267865
 21
-217.2952365199873
 31
0.0
  0
LINE
  5
BDFA7
330
1E
100
AcDbEntity
  8
DETAIL
  6
Continuous
100
AcDbLine
 10
-15.30998260001297
 20
-213.5426595266538
 30
0.0
 11
-15.41210561468369
 21
-213.5932753599871
 31
0.0
  0
LINE
  5
BDFA8
330
1E
100
AcDbEntity
  8
DETAIL
  6
Continuous
100
AcDbLine
 10
-4.393023836008524
 20
-213.5976387933205
 30
0.0
 11
-4.388660401348261
 21
-213.5932753599871
 31
0.0
  0
ARC
  5
BDFA9
330
1E
100
AcDbEntity
  8
DETAIL
  6
Continuous
100
AcDbCircle
 10
-2.888660401346442
 20
-121.3428932199897
 30
0.0
 40
0.4999999999999876
100
AcDbArc
 50
315.0000000000046
 51
359.9999991324009
  0
LINE
  5
BDFB3
330
1E
100
AcDbEntity
  8
DETAIL
  6
Continuous
100
AcDbLine
 10
-2.388660401340985
 20
-121.3428932199897
 30
0.0
 11
-2.879934198683713
 21
-121.3428932199897
 31
0.0
  0
LINE
  5
BDFB4
330
1E
100
AcDbEntity
  8
DETAIL
  6
Continuous
100
AcDbLine
 10
-4.388660401348261
 20
-123.5499999999893
 30
0.0
 11
-2.53510701067762
 21
-121.6964466093227
 31
0.0
  0
LINE
  5
BDFB5
330
1E
100
AcDbEntity
  8
DETAIL
  6
Continuous
100
AcDbLine
 10
-2.879934198683713
 20
-121.3428932199897
 30
0.0
 11
-4.388660401348261
 21
-122.8516194226565
 31
0.0
  0
LINE
  5
BDFB6
330
1E
100
AcDbEntity
  8
DETAIL
  6
Continuous
100
AcDbLine
 10
-17.26188978369146
 20
0.0
 30
0.0
 11
-0.0000000000004547
 21
0.0
 31
0.0
  0
LINE
  5
BDFB7
330
1E
100
AcDbEntity
  8
DETAIL
  6
Continuous
100
AcDbLine
 10
-12.24221379201708
 20
-0.4964466093257443
 30
0.0
 11
-4.97444684001357
 21
-7.764213562658937
 31
0.0
  0
LINE
  5
BDFB8
330
1E
100
AcDbEntity
  8
DETAIL
  6
Continuous
100
AcDbLine
 10
-8.095797326679985
 20
-5.349969855992753
 30
0.0
 11
-5.328000229349072
 21
-8.117766953325826
 31
0.0
  0
LINE
  5
BDFB9
330
1E
100
AcDbEntity
  8
DETAIL
  6
Continuous
100
AcDbLine
 10
-7.742213792009806
 20
-4.99644660932563
 30
0.0
 11
-8.095767182678628
 21
-5.349999999992178
 31
0.0
  0
ARC
  5
BDFC7
330
1E
100
AcDbEntity
  8
DETAIL
  6
Continuous
100
AcDbCircle
 10
-12.59576424801389
 20
-0.8500029346595283
 30
0.0
 40
0.4999999999999876
100
AcDbArc
 50
45.00047554290887
 51
90.0003362575833
  0
ARC
  5
BDFC8
330
1E
100
AcDbEntity
  8
DETAIL
  6
Continuous
100
AcDbCircle
 10
-17.26189364268293
 20
-0.9999999999924966
 30
0.0
 40
0.9999999999999751
100
AcDbArc
 50
40.54328854708841
 51
89.99977889607521
  0
LINE
  5
BDFC9
330
1E
100
AcDbEntity
  8
DETAIL
  6
Continuous
100
AcDbLine
 10
-12.59576718267317
 20
-0.349999999992292
 30
0.0
 11
-8.095794229341208
 21
-5.349969855992753
 31
0.0
  0
LINE
  5
BDFCA
330
1E
100
AcDbEntity
  8
DETAIL
  6
Continuous
100
AcDbLine
 10
-19.26190427735173
 20
-0.0011421946595647
 30
0.0
 11
-19.26188978400796
 21
0.0000000000073896
 31
0.0
  0
LINE
  5
BDFCB
330
1E
100
AcDbEntity
  8
DETAIL
  6
Continuous
100
AcDbLine
 10
-19.2623529680136
 20
-0.349999999992292
 30
0.0
 11
-19.26190427735173
 21
-0.0011421946595647
 31
0.0
  0
LINE
  5
BDFCC
330
1E
100
AcDbEntity
  8
DETAIL
  6
Continuous
100
AcDbLine
 10
-27.52834348000988
 20
-0.349999999992292
 30
0.0
 11
-27.54056574934702
 21
0.0000000000073896
 31
0.0
  0
LINE
  5
BDFCD
330
1E
100
AcDbEntity
  8
DETAIL
  6
Continuous
100
AcDbLine
 10
-35.45023502534832
 20
-0.349999999992292
 30
0.0
 11
-35.4624524240121
 21
0.0000000000073896
 31
0.0
  0
ARC
  5
BDFCE
330
1E
100
AcDbEntity
  8
DETAIL
  6
Continuous
100
AcDbCircle
 10
-2.888660401346442
 20
-13.04134863199226
 30
0.0
 40
0.4999999999999876
100
AcDbArc
 50
0.0
 51
89.0000000000243
  0
ARC
  5
BDFD2
330
1E
100
AcDbEntity
  8
DETAIL
  6
Continuous
100
AcDbCircle
 10
-6.388660401342804
 20
-9.178427125325811
 30
0.0
 40
1.499999529333296
100
AcDbArc
 50
0.0
 51
44.99999999999539
  0
ARC
  5
BDFD3
330
1E
100
AcDbEntity
  8
DETAIL
  6
Continuous
100
AcDbCircle
 10
-6.388660401342804
 20
-9.178427125325811
 30
0.0
 40
1.99999999999995
100
AcDbArc
 50
0.0
 51
44.99999999999539
  0
LINE
  5
BDFF0
330
1E
100
AcDbEntity
  8
DETAIL
  6
Continuous
100
AcDbLine
 10
-4.388660401348261
 20
-12.51508987065938
 30
0.0
 11
-2.879934198683713
 21
-12.54142478399251
 31
0.0
  0
LINE
  5
BDFF2
330
1E
100
AcDbEntity
  8
DETAIL
  6
Continuous
100
AcDbLine
 10
-4.388660401348261
 20
-9.178427125325811
 30
0.0
 11
-4.888660401340985
 21
-9.178427125325811
 31
0.0
  0
LINE
  5
BE012
330
1E
100
AcDbEntity
  8
DETAIL
  6
Continuous
100
AcDbLine
 10
-4.97444684001357
 20
-7.764213562658937
 30
0.0
 11
-5.328000229349072
 21
-8.117766953325826
 31
0.0
  0
POINT
  5
D184A
330
1E
100
AcDbEntity
  8
ARRANGE
  6
Continuous
100
AcDbPoint
 10
0.0
 20
0.0
 30
0.0
  0
CIRCLE
  5
D184C
330
1E
100
AcDbEntity
  8
ARRANGE
  6
Continuous
100
AcDbCircle
 10
0.0
 20
0.0
 30
0.0
 40
13.00138232471456
  0
LINE
  5
D184F
330
1E
100
AcDbEntity
  8
NOTE
  6
Continuous
 62
     4
100
AcDbLine
 10
-0.0000000000004547
 20
-253.3498861867501
 30
0.0
 11
288.3621088557006
 21
59.75440375000106
 31
0.0
  0
LINE
  5
D1850
330
1E
100
AcDbEntity
  8
NOTE
  6
Continuous
 62
     4
100
AcDbLine
 10
-0.0000000000004547
 20
-254.3498861865009
 30
0.0
 11
263.2260939860966
 21
-462.4745262499982
 31
0.0
  0
LINE
  5
D1851
330
1E
100
AcDbEntity
  8
NOTE
  6
Continuous
 62
     4
100
AcDbLine
 10
-0.0000000000004547
 20
-254.3498861865009
 30
0.0
 11
23.92112999999835
 21
-286.4088861865002
 31
0.0
  0
LINE
  5
D1852
330
1E
100
AcDbEntity
  8
NOTE
  6
Continuous
 62
     4
100
AcDbLine
 10
36.74580999999989
 20
-270.1532361865011
 30
0.0
 11
-0.0000000000004547
 21
-254.3498861865009
 31
0.0
  0
LINE
  5
D1853
330
1E
100
AcDbEntity
  8
NOTE
  6
DASHDOT
 62
     4
100
AcDbLine
 10
19.99999999999954
 20
-254.3498861865009
 30
0.0
 11
-20.00000000000045
 21
-254.3498861865009
 31
0.0
  0
LINE
  5
D1854
330
1E
100
AcDbEntity
  8
NOTE
  6
DASHDOT
 62
     4
100
AcDbLine
 10
19.99999999999954
 20
-253.3498861867501
 30
0.0
 11
-20.00000000000045
 21
-253.3498861867501
 31
0.0
  0
LINE
  5
D1855
330
1E
100
AcDbEntity
  8
NOTE
  6
DASHDOT
 62
     4
100
AcDbLine
 10
19.99999999999954
 20
-253.3498861867501
 30
0.0
 11
-20.00000000000045
 21
-253.3498861867501
 31
0.0
  0
LINE
  5
D1856
330
1E
100
AcDbEntity
  8
NOTE
  6
Continuous
 62
     4
100
AcDbLine
 10
-0.0000000000004547
 20
-253.3498861867501
 30
0.0
 11
33.21935999999868
 21
-231.0681861867506
 31
0.0
  0
LINE
  5
D1857
330
1E
100
AcDbEntity
  8
NOTE
  6
Continuous
 62
     4
100
AcDbLine
 10
17.62795999999752
 20
-217.4436861867507
 30
0.0
 11
-0.0000000000004547
 21
-253.3498861867501
 31
0.0
  0
TEXT
  5
D1858
330
1E
100
AcDbEntity
  8
NOTE
 62
     4
100
AcDbText
 10
319.8292171428579
 20
80.94946375000107
 30
0.0
 40
64.0
  1
D,RL,RG%%C65
 41
0.9
100
AcDbText
  0
LINE
  5
D1859
330
1E
100
AcDbEntity
  8
NOTE
  6
Continuous
 62
     4
100
AcDbLine
 10
288.3621088557006
 20
59.75440375000106
 30
0.0
 11
805.81536
 21
59.75440375000106
 31
0.0
  0
TEXT
  5
D185A
330
1E
100
AcDbEntity
  8
NOTE
 62
     4
100
AcDbText
 10
295.7860671428566
 20
-441.2794562499985
 30
0.0
 40
64.0
  1
D,RL,RG%%C65
 41
0.9
100
AcDbText
  0
LINE
  5
D185B
330
1E
100
AcDbEntity
  8
NOTE
  6
Continuous
 62
     4
100
AcDbLine
 10
263.2260939860966
 20
-462.4745262499982
 30
0.0
 11
781.7722099999987
 21
-462.4745262499982
 31
0.0
  0
LINE
  5
D185C
330
1E
100
AcDbEntity
  8
NOTE
  6
DASHDOT
 62
     4
100
AcDbLine
 10
-0.0000000000004547
 20
-234.3498861865009
 30
0.0
 11
-0.0000000000004547
 21
-274.3498861865009
 31
0.0
  0
LINE
  5
D185D
330
1E
100
AcDbEntity
  8
NOTE
  6
DASHDOT
 62
     4
100
AcDbLine
 10
-0.0000000000004547
 20
-233.3498861867501
 30
0.0
 11
-0.0000000000004547
 21
-273.3498861867501
 31
0.0
  0
ARC
  5
D44BD
330
1E
100
AcDbEntity
  8
DETAIL
  6
Continuous
100
AcDbCircle
 10
-8.355098713452207
 20
-288.2957304636184
 30
0.0
 40
1.055031365837455
100
AcDbArc
 50
169.6683229641307
 51
267.1805403257993
  0
ARC
  5
D44BE
330
1E
100
AcDbEntity
  8
DETAIL
  6
Continuous
100
AcDbCircle
 10
-25.36150436736375
 20
-269.322996489482
 30
0.0
 40
20.03574944720461
100
AcDbArc
 50
180.0772213515849
 51
269.922342480075
  0
ARC
  5
D44BF
330
1E
100
AcDbEntity
  8
DETAIL
  6
Continuous
100
AcDbCircle
 10
-25.36285351360493
 20
-253.375883144765
 30
0.0
 40
20.03447498202047
100
AcDbArc
 50
90.07380408821239
 51
179.9259778272096
  0
ARC
  5
D44C0
330
1E
100
AcDbEntity
  8
DETAIL
  6
Continuous
100
AcDbCircle
 10
-3.695691765161654
 20
-290.6500001996901
 30
0.0
 40
0.8113946315359083
100
AcDbArc
 50
0.305453132912552
 51
89.49998589393233
  0
LINE
  5
D44C1
330
1E
100
AcDbEntity
  8
DETAIL
  6
Continuous
100
AcDbLine
 10
-2.88037059600947
 20
-291.6980407866521
 30
0.0
 11
-2.424799888009602
 21
-291.6848994973188
 31
0.0
  0
LINE
  5
D44C2
330
1E
100
AcDbEntity
  8
DETAIL
  6
Continuous
100
AcDbLine
 10
-3.688610901350784
 20
-289.3386555039852
 30
0.0
 11
-3.683905825564806
 21
-289.8386911711978
 31
0.0
  0
ARC
  5
D44C3
330
1E
100
AcDbEntity
  8
DETAIL
  6
Continuous
100
AcDbCircle
 10
-5.392969989105949
 20
-276.3456904135553
 30
0.0
 40
0.9999461532215448
100
AcDbArc
 50
269.9990964214393
 51
0.0009035784368524
  0
ARC
  5
D44C4
330
1E
100
AcDbEntity
  8
DETAIL
  6
Continuous
100
AcDbCircle
 10
-8.397351888428602
 20
-278.3438123254237
 30
0.0
 40
0.9956735497034438
100
AcDbArc
 50
93.54226769716255
 51
180.1027843992197
  0
LINE
  5
D44C5
330
1E
100
AcDbEntity
  8
DETAIL
  6
Continuous
100
AcDbLine
 10
-2.879934198683713
 20
-121.3428932199897
 30
0.0
 11
-2.536810501348099
 21
-121.6937736893231
 31
0.0
  0
ARC
  5
D44C6
330
1E
100
AcDbEntity
  8
DETAIL
  6
Continuous
100
AcDbCircle
 10
-78.84466212494317
 20
-4.697840257848469
 30
0.0
 40
4.900628992569757
100
AcDbArc
 50
352.3525781067272
 51
62.29326908941837
  0
ARC
  5
D44C7
330
1E
100
AcDbEntity
  8
DETAIL
  6
Continuous
100
AcDbCircle
 10
-85.31411411602903
 20
-4.589680477684694
 30
0.0
 40
4.983411055013054
100
AcDbArc
 50
351.2217420034211
 51
57.8036579299619
  0
ARC
  5
D44C8
330
1E
100
AcDbEntity
  8
DETAIL
  6
Continuous
100
AcDbCircle
 10
-108.3612047762962
 20
-4.340043163867164
 30
0.0
 40
25.79654264661814
100
AcDbArc
 50
357.756256659509
 51
8.887734971893932
  0
ARC
  5
D44C9
330
1E
100
AcDbEntity
  8
DETAIL
  6
Continuous
100
AcDbCircle
 10
-92.36291331561643
 20
-7.92161337304195
 30
0.0
 40
2.499579108722358
100
AcDbArc
 50
179.9990717197041
 51
215.8615190845286
  0
LINE
  5
D44CA
330
1E
100
AcDbEntity
  8
DETAIL
  6
Continuous
100
AcDbLine
 10
-94.94099635758221
 20
-2.04966496808052
 30
0.0
 11
-94.86249242393251
 21
-2.053779199244317
 31
0.0
  0
ARC
  5
D44CB
330
1E
100
AcDbEntity
  8
DETAIL
  6
Continuous
100
AcDbCircle
 10
-76.21227908620927
 20
-4.26114089387012
 30
0.0
 40
20.70583069266288
100
AcDbArc
 50
168.6050709329897
 51
183.0561935018069
  0
ARC
  5
D44CC
330
1E
100
AcDbEntity
  8
DETAIL
  6
Continuous
100
AcDbCircle
 10
-91.98346943575051
 20
-4.608145474430116
 30
0.0
 40
12.74674015210735
100
AcDbArc
 50
160.204013537084
 51
183.9688027843125
  0
ARC
  5
D44CD
330
1E
100
AcDbEntity
  8
DETAIL
  6
Continuous
100
AcDbCircle
 10
-54.79278205212427
 20
-3.962802151707265
 30
0.0
 40
55.40003916714826
100
AcDbArc
 50
176.3103284150747
 51
181.6902435419624
  0
ARC
  5
D44CF
330
1E
100
AcDbEntity
  8
DETAIL
  6
Continuous
100
AcDbCircle
 10
-108.4695663016959
 20
-4.780826173966474
 30
0.0
 40
51.99740518111756
100
AcDbArc
 50
176.1341776883508
 51
181.8664314016728
  0
ARC
  5
D44D1
330
1E
100
AcDbEntity
  8
DETAIL
  6
Continuous
100
AcDbCircle
 10
-156.5187378929638
 20
-230.4881152255505
 30
0.0
 40
224.0480603220556
100
AcDbArc
 50
91.00267778998103
 51
122.1105465124091
  0
LINE
  5
D44D2
330
1E
100
AcDbEntity
  8
DETAIL
  6
Continuous
100
AcDbLine
 10
-278.1263387162318
 20
-36.26557935076778
 30
0.0
 11
-275.5451563186784
 21
-40.6709979413248
 31
0.0
  0
LINE
  5
D44D3
330
1E
100
AcDbEntity
  8
DETAIL
  6
Continuous
100
AcDbLine
 10
-282.4287506942118
 20
-41.99031602330319
 30
0.0
 11
-277.6103027653357
 21
-43.41886314799149
 31
0.0
  0
ARC
  5
D44D4
330
1E
100
AcDbEntity
  8
DETAIL
  6
Continuous
100
AcDbCircle
 10
-272.9929563509608
 20
-44.73905163895365
 30
0.0
 40
4.802372909511454
100
AcDbArc
 50
122.1031805407507
 51
164.0437443422837
  0
LINE
  5
D44D5
330
1E
100
AcDbEntity
  8
DETAIL
  6
Continuous
100
AcDbLine
 10
-284.4235494960071
 20
-53.315688411991
 30
0.0
 11
-284.4235494952485
 21
-52.31629758496481
 31
0.0
  0
LINE
  5
D44D6
330
1E
100
AcDbEntity
  8
DETAIL
  6
Continuous
100
AcDbLine
 10
-286.1446079013408
 20
-58.17658987199127
 30
0.0
 11
-286.960588973184
 21
-57.9372608583952
 31
0.0
  0
LINE
  5
D44D7
330
1E
100
AcDbEntity
  8
DETAIL
  6
Continuous
100
AcDbLine
 10
-285.8593029985765
 20
-58.65201220833556
 30
0.0
 11
-285.8359069773437
 21
-58.1516187159915
 31
0.0
  0
LINE
  5
D44D8
330
1E
100
AcDbEntity
  8
DETAIL
  6
Continuous
100
AcDbLine
 10
-287.5497001253411
 20
-54.37640184932468
 30
0.0
 11
-287.5497001293429
 21
-52.57751617865778
 31
0.0
  0
ARC
  5
D44D9
330
1E
100
AcDbEntity
  8
DETAIL
  6
Continuous
100
AcDbCircle
 10
-297.7573810071683
 20
-57.95304568977506
 30
0.0
 40
3.285137148453572
100
AcDbArc
 50
91.34765553818011
 51
130.341791368876
  0
ARC
  5
D44DA
330
1E
100
AcDbEntity
  8
DETAIL
  6
Continuous
100
AcDbCircle
 10
-302.4397872271929
 20
-53.60690102870018
 30
0.0
 40
4.725993498950948
100
AcDbArc
 50
347.0149602691619
 51
11.33418935087465
  0
ARC
  5
D44DB
330
1E
100
AcDbEntity
  8
DETAIL
  6
Continuous
100
AcDbCircle
 10
-71.11524324935271
 20
-92.36391784740687
 30
0.0
 40
229.8316930415711
100
AcDbArc
 50
170.5601700256787
 51
219.1025636139426
  0
ARC
  5
D44DC
330
1E
100
AcDbEntity
  8
DETAIL
  6
Continuous
100
AcDbCircle
 10
-37.94328685955088
 20
-96.24735399047414
 30
0.0
 40
265.0989120154518
100
AcDbArc
 50
171.1471027633859
 51
178.9776729424933
  0
ARC
  5
D44E9
330
1E
100
AcDbEntity
  8
DETAIL
  6
Continuous
100
AcDbCircle
 10
-69.68151111330531
 20
-91.52051495225615
 30
0.0
 40
233.3184889067978
100
AcDbArc
 50
179.9992478828443
 51
219.0964531989309
  0
LINE
  5
D44F3
330
1E
100
AcDbEntity
  8
DETAIL
  6
Continuous
100
AcDbLine
 10
-250.7565947600074
 20
-238.6576324586534
 30
0.0
 11
-249.46881714667
 21
-237.3211867386533
 31
0.0
  0
ARC
  5
D44F4
330
1E
100
AcDbEntity
  8
DETAIL
  6
Continuous
100
AcDbCircle
 10
-249.817003725197
 20
-237.9017624705482
 30
0.0
 40
1.205890024676453
100
AcDbArc
 50
218.8155299382916
 51
245.1033123674121
  0
LINE
  5
D44F5
330
1E
100
AcDbEntity
  8
DETAIL
  6
Continuous
100
AcDbLine
 10
-250.324663378677
 20
-238.9955871493198
 30
0.0
 11
-248.3076115977317
 21
-239.8918879346799
 31
0.0
  0
ARC
  5
D44F6
330
1E
100
AcDbEntity
  8
DETAIL
  6
Continuous
100
AcDbCircle
 10
-247.8877523615726
 20
-238.9722756829964
 30
0.0
 40
1.010904245253659
100
AcDbArc
 50
245.4553301489025
 51
264.7189650518944
  0
LINE
  5
D44F7
330
1E
100
AcDbEntity
  8
DETAIL
  6
Continuous
100
AcDbLine
 10
-246.9492289120012
 20
-238.6312100946535
 30
0.0
 11
-247.7662644920042
 21
-238.5601849426533
 31
0.0
  0
LINE
  5
D44F8
330
1E
100
AcDbEntity
  8
DETAIL
  6
Continuous
100
AcDbLine
 10
-247.7662644920042
 20
-238.5601849426533
 30
0.0
 11
-248.9215343213404
 21
-237.8266880346533
 31
0.0
  0
LINE
  5
D44F9
330
1E
100
AcDbEntity
  8
DETAIL
  6
Continuous
100
AcDbLine
 10
-248.9215343213404
 20
-237.8266880346533
 30
0.0
 11
-249.46881714667
 21
-237.3211867386533
 31
0.0
  0
LINE
  5
D44FA
330
1E
100
AcDbEntity
  8
DETAIL
  6
Continuous
100
AcDbLine
 10
-245.2229542720019
 20
-241.3657695399864
 30
0.0
 11
-245.8825011386784
 21
-240.6488841733202
 31
0.0
  0
LINE
  5
D44FB
330
1E
100
AcDbEntity
  8
DETAIL
  6
Continuous
100
AcDbLine
 10
-245.2229542720019
 20
-241.3657695399864
 30
0.0
 11
-246.5728391693451
 21
-242.7622042959867
 31
0.0
  0
LINE
  5
D44FC
330
1E
100
AcDbEntity
  8
DETAIL
  6
Continuous
100
AcDbLine
 10
-242.1975457460107
 20
-235.2772709046535
 30
0.0
 11
-242.6545330800058
 21
-234.8639937626536
 31
0.0
  0
ARC
  5
D44FD
330
1E
100
AcDbEntity
  8
DETAIL
  6
Continuous
100
AcDbCircle
 10
-245.1179718612477
 20
-232.419288362703
 30
0.0
 40
3.470607313061185
100
AcDbArc
 50
315.2186851959291
 51
43.48234221611973
  0
LINE
  5
D44FE
330
1E
100
AcDbEntity
  8
DETAIL
  6
Continuous
100
AcDbLine
 10
-242.5997461240031
 20
-230.0310559079883
 30
0.0
 11
-242.1262795027939
 21
-229.5867256843556
 31
0.0
  0
ARC
  5
D44FF
330
1E
100
AcDbEntity
  8
DETAIL
  6
Continuous
100
AcDbCircle
 10
-243.6077858107778
 20
-231.9991051407218
 30
0.0
 40
3.738563455821698
100
AcDbArc
 50
324.3865270299262
 51
50.31887138473871
  0
LINE
  5
D4500
330
1E
100
AcDbEntity
  8
DETAIL
  6
Continuous
100
AcDbLine
 10
-241.220659330668
 20
-229.1218696826538
 30
0.0
 11
-240.8845940466767
 21
-228.7725952426534
 31
0.0
  0
LINE
  5
D4501
330
1E
100
AcDbEntity
  8
DETAIL
  6
Continuous
100
AcDbLine
 10
-240.9570872880035
 20
-235.8924673066535
 30
0.0
 11
-240.2975404226731
 21
-236.6093526733202
 31
0.0
  0
ARC
  5
D4502
330
1E
100
AcDbEntity
  8
DETAIL
  6
Continuous
100
AcDbCircle
 10
-244.4654908648419
 20
-232.2933138039912
 30
0.0
 40
6.000000200827832
100
AcDbArc
 50
314.0000010607869
 51
12.19815227760792
  0
ARC
  5
D4503
330
1E
100
AcDbEntity
  8
DETAIL
  6
Continuous
100
AcDbCircle
 10
157.9168273757418
 20
-69.51463133399229
 30
0.0
 40
442.6368881632338
100
AcDbArc
 50
177.9027090008942
 51
196.1786338612769
  0
ARC
  5
D4504
330
1E
100
AcDbEntity
  8
DETAIL
  6
Continuous
100
AcDbCircle
 10
218.9470242531608
 20
-61.98213279302748
 30
0.0
 40
504.4095361123804
100
AcDbArc
 50
179.0155312551809
 51
195.0713239322492
  0
ARC
  5
D4505
330
1E
100
AcDbEntity
  8
DETAIL
  6
Continuous
100
AcDbCircle
 10
197.6914734150607
 20
-64.99281645880348
 30
0.0
 40
483.5923482638205
100
AcDbArc
 50
179.2487236318994
 51
195.3842722558236
  0
LINE
  5
D4506
330
1E
100
AcDbEntity
  8
DETAIL
  6
Continuous
100
AcDbLine
 10
-267.1906030640052
 20
-192.8478683293249
 30
0.0
 11
-268.1100852026752
 21
-193.1386403086546
 31
0.0
  0
LINE
  5
D4507
330
1E
100
AcDbEntity
  8
DETAIL
  6
Continuous
100
AcDbLine
 10
-268.1100852026752
 20
-193.1386403086546
 30
0.0
 11
-268.572921160011
 21
-193.28573773998
 31
0.0
  0
LINE
  5
D4508
330
1E
100
AcDbEntity
  8
DETAIL
  6
Continuous
100
AcDbLine
 10
-268.2442899813363
 20
-194.0349422479876
 30
0.0
 11
-267.8217762526724
 21
-193.7739153699877
 31
0.0
  0
LINE
  5
D4509
330
1E
100
AcDbEntity
  8
DETAIL
  6
Continuous
100
AcDbLine
 10
-267.8217762526724
 20
-193.7739153699877
 30
0.0
 11
-267.0028138200073
 21
-193.2759851906545
 31
0.0
  0
ARC
  5
D450A
330
1E
100
AcDbEntity
  8
DETAIL
  6
Continuous
100
AcDbCircle
 10
-265.2776639720675
 20
-192.2640208241646
 30
0.0
 40
2.000053468508281
100
AcDbArc
 50
196.9726959266339
 51
210.395675075584
  0
ARC
  5
D450B
330
1E
100
AcDbEntity
  8
DETAIL
  6
Continuous
100
AcDbCircle
 10
-265.2429302184868
 20
-192.2641018231945
 30
0.0
 40
2.999869518010211
100
AcDbArc
 50
196.9632471988103
 51
210.3525486234325
  0
ARC
  5
D450C
330
1E
100
AcDbEntity
  8
DETAIL
  6
Continuous
100
AcDbCircle
 10
-265.2253640291259
 20
-192.2640424385776
 30
0.0
 40
3.500000005699674
100
AcDbArc
 50
196.972515882655
 51
210.3958555378272
  0
ARC
  5
D450E
330
1E
100
AcDbEntity
  8
DETAIL
  6
Continuous
100
AcDbCircle
 10
176.1358845671559
 20
-67.39998960573396
 30
0.0
 40
463.1931422644819
100
AcDbArc
 50
178.3888047951405
 51
195.7983081210251
  0
LINE
  5
D450F
330
1E
100
AcDbEntity
  8
DETAIL
  6
Continuous
100
AcDbLine
 10
-269.5606153793494
 20
-193.5051718117524
 30
0.0
 11
-270.2055667466706
 21
-193.6957784519881
 31
0.0
  0
ARC
  5
D4510
330
1E
100
AcDbEntity
  8
DETAIL
  6
Continuous
100
AcDbCircle
 10
-268.5947595914926
 20
-193.2011452726688
 30
0.0
 40
1.685040555374315
100
AcDbArc
 50
197.0702367607988
 51
210.1085464716019
  0
ARC
  5
D4511
330
1E
100
AcDbEntity
  8
DETAIL
  6
Continuous
100
AcDbCircle
 10
171.002567457227
 20
-68.02965085279204
 30
0.0
 40
458.7554831426673
100
AcDbArc
 50
178.2945401155475
 51
195.8981603617281
  0
ARC
  5
D4512
330
1E
100
AcDbEntity
  8
DETAIL
  6
Continuous
100
AcDbCircle
 10
165.5813306021455
 20
-68.71755471813843
 30
0.0
 40
454.1828247878147
100
AcDbArc
 50
178.186909891902
 51
195.9959628040281
  0
ARC
  5
D4513
330
1E
100
AcDbEntity
  8
DETAIL
  6
Continuous
100
AcDbCircle
 10
-268.7507774269202
 20
-193.2771063995852
 30
0.0
 40
2.343234698014121
100
AcDbArc
 50
194.8219651578439
 51
212.3475568168508
  0
ARC
  5
D4515
330
1E
100
AcDbEntity
  8
DETAIL
  6
Continuous
100
AcDbCircle
 10
-80.26351480467837
 20
-290.6509644908453
 30
0.0
 40
6.283942933632521
100
AcDbArc
 50
316.2044553667346
 51
2.745186365454821
  0
ARC
  5
D4516
330
1E
100
AcDbEntity
  8
DETAIL
  6
Continuous
100
AcDbCircle
 10
-86.94722048822018
 20
-290.712131712749
 30
0.0
 40
6.568095000223413
100
AcDbArc
 50
319.2444700360714
 51
3.160603697187763
  0
ARC
  5
D4517
330
1E
100
AcDbEntity
  8
DETAIL
  6
Continuous
100
AcDbCircle
 10
-128.8633980380329
 20
-290.7915673710061
 30
0.0
 40
46.28113990214201
100
AcDbArc
 50
354.7827783295621
 51
0.546666107250341
  0
LINE
  5
D4518
330
1E
100
AcDbEntity
  8
DETAIL
  6
Continuous
100
AcDbLine
 10
-94.94099635733846
 20
-290.6453689866523
 30
0.0
 11
-94.94315828400477
 21
-293.838228078652
 31
0.0
  0
ARC
  5
D4519
330
1E
100
AcDbEntity
  8
DETAIL
  6
Continuous
100
AcDbCircle
 10
-216.6121538489564
 20
-291.8266572133155
 30
0.0
 40
122.2210623255963
100
AcDbArc
 50
358.512207474136
 51
359.7016766211954
  0
LINE
  5
D451A
330
1E
100
AcDbEntity
  8
DETAIL
  6
Continuous
100
AcDbLine
 10
-122.6524417265357
 20
-294.6153882449034
 30
0.0
 11
-122.6524416373399
 21
-290.6152631999856
 31
0.0
  0
ARC
  5
D451B
330
1E
100
AcDbEntity
  8
DETAIL
  6
Continuous
100
AcDbCircle
 10
-519.5653712349703
 20
-269.8610457455442
 30
0.0
 40
369.1252775797947
100
AcDbArc
 50
356.6439770632691
 51
357.0672082628113
  0
ARC
  5
D451C
330
1E
100
AcDbEntity
  8
DETAIL
  6
Continuous
100
AcDbCircle
 10
-150.8790488826514
 20
-290.6200251483928
 30
0.0
 40
0.8718011656671642
100
AcDbArc
 50
180.2329730838725
 51
257.1364450306897
  0
ARC
  5
D451D
330
1E
100
AcDbEntity
  8
DETAIL
  6
Continuous
100
AcDbCircle
 10
-143.9056612704803
 20
-289.1040959531308
 30
0.0
 40
7.990974614605922
100
AcDbArc
 50
177.4399267046812
 51
190.9614668340985
  0
ARC
  5
D451F
330
1E
100
AcDbEntity
  8
DETAIL
  6
Continuous
100
AcDbCircle
 10
-116.0215372720149
 20
-104.7311310319917
 30
0.0
 40
189.9999999999935
100
AcDbArc
 50
226.5959112025932
 51
268.0000011881034
  0
ARC
  5
D4520
330
1E
100
AcDbEntity
  8
DETAIL
  6
Continuous
100
AcDbCircle
 10
-124.5429142995001
 20
-104.3685961968092
 30
0.0
 40
186.2562612549668
100
AcDbArc
 50
261.857457704573
 51
270.5815534144185
  0
ARC
  5
D4521
330
1E
100
AcDbEntity
  8
DETAIL
  6
Continuous
100
AcDbCircle
 10
-116.091931173911
 20
-104.7319616669903
 30
0.0
 40
187.9989855829932
100
AcDbArc
 50
226.6170828667436
 51
259.0215345961937
  0
LINE
  5
D4522
330
1E
100
AcDbEntity
  8
DETAIL
  6
Continuous
100
AcDbLine
 10
-151.8886604013446
 20
-278.6629134599855
 30
0.0
 11
-150.9235598986783
 21
-278.6628846026524
 31
0.0
  0
LINE
  5
D4523
330
1E
100
AcDbEntity
  8
DETAIL
  6
Continuous
100
AcDbLine
 10
-153.9862813414829
 20
-274.9350939618197
 30
0.0
 11
-154.1453820040467
 21
-275.916095827848
 31
0.0
  0
ARC
  5
D4524
330
1E
100
AcDbEntity
  8
DETAIL
  6
Continuous
100
AcDbCircle
 10
-154.688079088615
 20
-278.6624070097292
 30
0.0
 40
2.799418733081785
100
AcDbArc
 50
359.9896344687419
 51
78.82183018548506
  0
ARC
  5
D4525
330
1E
100
AcDbEntity
  8
DETAIL
  6
Continuous
100
AcDbCircle
 10
-154.7299136068122
 20
-278.6681043892843
 30
0.0
 40
3.806357287170792
100
AcDbArc
 50
0.078571667118954
 51
78.73390309065704
  0
ARC
  5
D4526
330
1E
100
AcDbEntity
  8
DETAIL
  6
Continuous
100
AcDbCircle
 10
-120.012476984971
 20
-109.6588831309105
 30
0.0
 40
168.731873986295
100
AcDbArc
 50
223.8121960037482
 51
258.3842193956164
  0
ARC
  5
D4527
330
1E
100
AcDbEntity
  8
DETAIL
  6
Continuous
100
AcDbCircle
 10
-119.9983924185448
 20
-109.6964724323688
 30
0.0
 40
169.6908368157723
100
AcDbArc
 50
223.8094819198721
 51
258.3910693255867
  0
ARC
  5
D4528
330
1E
100
AcDbEntity
  8
DETAIL
  6
Continuous
100
AcDbCircle
 10
-254.2494364085148
 20
-219.3672877093022
 30
0.0
 40
14.35847485704123
100
AcDbArc
 50
330.3454703150191
 51
4.74791131320744
  0
ARC
  5
D4529
330
1E
100
AcDbEntity
  8
DETAIL
  6
Continuous
100
AcDbCircle
 10
-254.5403879785528
 20
-218.9548932518003
 30
0.0
 40
13.97802444237765
100
AcDbArc
 50
329.5786136371363
 51
2.964311905772312
  0
LINE
  5
D452A
330
1E
100
AcDbEntity
  8
DETAIL
  6
Continuous
100
AcDbLine
 10
-241.7715746626677
 20
-226.4714247546535
 30
0.0
 11
-242.4867918850743
 21
-226.0327452230545
 31
0.0
  0
LINE
  5
D452B
330
1E
100
AcDbEntity
  8
DETAIL
  6
Continuous
100
AcDbLine
 10
-241.7720112334313
 20
-226.4711569833357
 30
0.0
 11
-242.4550508840025
 21
-227.1670938519873
 31
0.0
  0
ARC
  5
D452C
330
1E
100
AcDbEntity
  8
DETAIL
  6
Continuous
100
AcDbCircle
 10
-241.7641550030539
 20
-226.5801439629352
 30
0.0
 40
0.906557935583854
100
AcDbArc
 50
142.8568304951107
 51
220.3495307956225
  0
ARC
  5
D452E
330
1E
100
AcDbEntity
  8
DETAIL
  6
Continuous
100
AcDbCircle
 10
-116.5774654756828
 20
-105.5318533656411
 30
0.0
 40
177.9998485641926
100
AcDbArc
 50
209.9996600108475
 51
224.6895122885149
  0
ARC
  5
D452F
330
1E
100
AcDbEntity
  8
DETAIL
  6
Continuous
100
AcDbCircle
 10
-116.4153122767966
 20
-105.3006857259933
 30
0.0
 40
177.4265385760472
100
AcDbArc
 50
210.0121096283123
 51
224.6679718484798
  0
ARC
  5
D4530
330
1E
100
AcDbEntity
  8
DETAIL
  6
Continuous
100
AcDbCircle
 10
-116.5201068670314
 20
-105.4884095387399
 30
0.0
 40
176.5709564860226
100
AcDbArc
 50
209.9769498934576
 51
224.6540199744017
  0
ARC
  5
D4531
330
1E
100
AcDbEntity
  8
DETAIL
  6
Continuous
100
AcDbCircle
 10
-115.8668122324086
 20
-104.6253426518315
 30
0.0
 40
176.671933891804
100
AcDbArc
 50
210.4028711391413
 51
224.803399819013
  0
ARC
  5
D4532
330
1E
100
AcDbEntity
  8
DETAIL
  6
Continuous
100
AcDbCircle
 10
-116.0890017216622
 20
-104.8031070882623
 30
0.0
 40
175.9014600212633
100
AcDbArc
 50
214.5872717834745
 51
224.0781913440604
  0
ARC
  5
D4533
330
1E
100
AcDbEntity
  8
DETAIL
  6
Continuous
100
AcDbCircle
 10
-103.2821541606017
 20
-90.92826078650151
 30
0.0
 40
193.98750701751
100
AcDbArc
 50
216.0186000455503
 51
224.1436523001556
  0
ARC
  5
D4534
330
1E
100
AcDbEntity
  8
DETAIL
  6
Continuous
100
AcDbCircle
 10
-268.6043664643861
 20
-193.2126461400064
 30
0.0
 40
0.9999916279643578
100
AcDbArc
 50
197.0093717042138
 51
209.9848737756516
  0
LINE
  5
D4535
330
1E
100
AcDbEntity
  8
DETAIL
  6
Continuous
100
AcDbLine
 10
-267.0028138200073
 20
-193.2759851906545
 30
0.0
 11
-260.1394683973399
 21
-204.0541947439875
 31
0.0
  0
LINE
  5
D4536
330
1E
100
AcDbEntity
  8
DETAIL
  6
Continuous
100
AcDbLine
 10
-267.8304625913697
 20
-193.7819599597552
 30
0.0
 11
-260.9279185573382
 21
-204.6217496799875
 31
0.0
  0
LINE
  5
D4537
330
1E
100
AcDbEntity
  8
DETAIL
  6
Continuous
100
AcDbLine
 10
-252.4005266666758
 20
-204.9505107333205
 30
0.0
 11
-252.5265796133394
 21
-205.7768783693207
 31
0.0
  0
LINE
  5
D4538
330
1E
100
AcDbEntity
  8
DETAIL
  6
Continuous
100
AcDbLine
 10
-252.5265796133394
 20
-205.7768783693207
 30
0.0
 11
-253.3576487397299
 21
-205.6947513557433
 31
0.0
  0
LINE
  5
D4539
330
1E
100
AcDbEntity
  8
DETAIL
  6
Continuous
100
AcDbLine
 10
-253.3576487397299
 20
-205.6947513557433
 30
0.0
 11
-253.2705741573431
 21
-204.8238422919876
 31
0.0
  0
LINE
  5
D453A
330
1E
100
AcDbEntity
  8
DETAIL
  6
Continuous
100
AcDbLine
 10
-253.2705741573431
 20
-204.8238422919876
 30
0.0
 11
-252.4005262472658
 21
-204.9505079837868
 31
0.0
  0
LINE
  5
D453B
330
1E
100
AcDbEntity
  8
DETAIL
  6
Continuous
100
AcDbLine
 10
-253.254894941628
 20
-204.8261249464052
 30
0.0
 11
-260.1394834866701
 21
-204.0541935466543
 31
0.0
  0
LINE
  5
D453C
330
1E
100
AcDbEntity
  8
DETAIL
  6
Continuous
100
AcDbLine
 10
-260.1394834866701
 20
-204.0541935466543
 30
0.0
 11
-260.1843202480054
 21
-205.0021980199874
 31
0.0
  0
LINE
  5
D453D
330
1E
100
AcDbEntity
  8
DETAIL
  6
Continuous
100
AcDbLine
 10
-260.1843202480054
 20
-205.0021980199874
 30
0.0
 11
-253.3576487413379
 21
-205.6947513813206
 31
0.0
  0
LINE
  5
D453E
330
1E
100
AcDbEntity
  8
DETAIL
  6
Continuous
100
AcDbLine
 10
-253.3576487413379
 20
-205.6947513813206
 30
0.0
 11
-258.514002591831
 21
-207.2649536718175
 31
0.0
  0
LINE
  5
D453F
330
1E
100
AcDbEntity
  8
DETAIL
  6
Continuous
100
AcDbLine
 10
-260.1394735483111
 20
-204.0541866548934
 30
0.0
 11
-260.9279185573382
 21
-204.6217496799875
 31
0.0
  0
LINE
  5
D4540
330
1E
100
AcDbEntity
  8
DETAIL
  6
Continuous
100
AcDbLine
 10
-260.9279185573382
 20
-204.6217496799875
 30
0.0
 11
-260.1843202480054
 21
-205.0021980199874
 31
0.0
  0
LINE
  5
D4541
330
1E
100
AcDbEntity
  8
DETAIL
  6
Continuous
100
AcDbLine
 10
-252.5265792773357
 20
-205.7768766439877
 30
0.0
 11
-258.2252688140056
 21
-207.6843550953208
 31
0.0
  0
LINE
  5
D4542
330
1E
100
AcDbEntity
  8
DETAIL
  6
Continuous
100
AcDbLine
 10
-258.2252688140056
 20
-207.6843550953208
 30
0.0
 11
-258.6760988006749
 21
-207.7643588713207
 31
0.0
  0
LINE
  5
D4543
330
1E
100
AcDbEntity
  8
DETAIL
  6
Continuous
100
AcDbLine
 10
-258.4706455086748
 20
-207.2476553139876
 30
0.0
 11
-258.9654834846701
 21
-207.3230683346541
 31
0.0
  0
ARC
  5
D4544
330
1E
100
AcDbEntity
  8
DETAIL
  6
Continuous
100
AcDbCircle
 10
-254.4627249900024
 20
-219.3755680842293
 30
0.0
 40
14.57171995873943
100
AcDbArc
 50
4.710941471436411
 51
81.86415286684736
  0
ARC
  5
D4545
330
1E
100
AcDbEntity
  8
DETAIL
  6
Continuous
100
AcDbCircle
 10
-253.8909235965313
 20
-219.041333364563
 30
0.0
 40
13.33443840262256
100
AcDbArc
 50
3.479554179375838
 51
84.12737086679181
  0
ARC
  5
D4548
330
1E
100
AcDbEntity
  8
DETAIL
  6
Continuous
100
AcDbCircle
 10
-226.6395602781003
 20
-173.7000000006548
 30
0.0
 40
1.38109977878421
100
AcDbArc
 50
270.0472075740635
 51
89.95279242593648
  0
ARC
  5
D4549
330
1E
100
AcDbEntity
  8
DETAIL
  6
Continuous
100
AcDbCircle
 10
-226.6386604012159
 20
-173.699999999988
 30
0.0
 40
1.250000000001745
100
AcDbArc
 50
269.9999038596887
 51
90.00009614031114
  0
ARC
  5
D454A
330
1E
100
AcDbEntity
  8
DETAIL
  6
Continuous
100
AcDbCircle
 10
-242.1372805289197
 20
-173.7000000006549
 30
0.0
 40
1.381099778907074
100
AcDbArc
 50
90.04721375497599
 51
269.952786245024
  0
ARC
  5
D454B
330
1E
100
AcDbEntity
  8
DETAIL
  6
Continuous
100
AcDbCircle
 10
-242.1386604021293
 20
-173.699999999988
 30
0.0
 40
1.250000000001719
100
AcDbArc
 50
89.99990419572668
 51
270.0000958042733
  0
ARC
  5
D454C
330
1E
100
AcDbEntity
  8
DETAIL
  6
Continuous
100
AcDbCircle
 10
-226.6386604010079
 20
-179.199999999988
 30
0.0
 40
1.250000000001745
100
AcDbArc
 50
269.9999038596887
 51
90.00009614031114
  0
ARC
  5
D454D
330
1E
100
AcDbEntity
  8
DETAIL
  6
Continuous
100
AcDbCircle
 10
-226.6395602778923
 20
-179.2000000006549
 30
0.0
 40
1.38109977878421
100
AcDbArc
 50
270.0472075740635
 51
89.95279242593648
  0
ARC
  5
D454E
330
1E
100
AcDbEntity
  8
DETAIL
  6
Continuous
100
AcDbCircle
 10
-242.1386604019212
 20
-179.199999999988
 30
0.0
 40
1.250000000001719
100
AcDbArc
 50
89.99990419572668
 51
270.0000958042733
  0
ARC
  5
D454F
330
1E
100
AcDbEntity
  8
DETAIL
  6
Continuous
100
AcDbCircle
 10
-242.1372805287116
 20
-179.200000000655
 30
0.0
 40
1.381099778907074
100
AcDbArc
 50
90.04721375497599
 51
269.952786245024
  0
LINE
  5
D6B41
330
1E
100
AcDbEntity
  8
SIZE
  6
Continuous
100
AcDbLine
 10
-303.0000000000011
 20
-71.51745219896199
 30
0.0
 11
-303.0000000000011
 21
139.2137109924633
 31
0.0
  0
LINE
  5
D6B42
330
1E
100
AcDbEntity
  8
SIZE
  6
Continuous
100
AcDbLine
 10
-0.0000000000004535
 20
19.99999999999998
 30
0.0
 11
-0.0000000000004462
 21
139.2137109924633
 31
0.0
  0
LINE
  5
D6B43
330
1E
100
AcDbEntity
  8
SIZE
  6
Continuous
100
AcDbLine
 10
-293.0000000000011
 20
119.2137109924633
 30
0.0
 11
-10.00000000000044
 21
119.2137109924633
 31
0.0
  0
LINE
  5
D6B47
330
1E
100
AcDbEntity
  8
SIZE
  6
Continuous
100
AcDbLine
 10
19.99999999999772
 20
-295.0
 30
0.0
 11
296.8025726184796
 21
-295.0
 31
0.0
  0
LINE
  5
D6B48
330
1E
100
AcDbEntity
  8
SIZE
  6
Continuous
100
AcDbLine
 10
35.00162500000169
 20
-253.3498861867501
 30
0.0
 11
296.8025726184796
 21
-253.3498861867502
 31
0.0
  0
LINE
  5
D6B49
330
1E
100
AcDbEntity
  8
SIZE
  6
Continuous
100
AcDbLine
 10
276.8025726184796
 20
-285.0
 30
0.0
 11
276.8025726184796
 21
-263.3498861867502
 31
0.0
  0
LINE
  5
D6B4A
330
1E
100
AcDbEntity
  8
SIZE
  6
Continuous
100
AcDbLine
 10
276.8025726184796
 20
-253.3498861867502
 30
0.0
 11
276.8025726184796
 21
-150.4927433296074
 31
0.0
  0
LINE
  5
D6B4E
330
1E
100
AcDbEntity
  8
SIZE
  6
Continuous
100
AcDbLine
 10
19.99999999999772
 20
-295.0
 30
0.0
 11
201.6978495642915
 21
-295.0
 31
0.0
  0
LINE
  5
D6B4F
330
1E
100
AcDbEntity
  8
SIZE
  6
Continuous
100
AcDbLine
 10
35.00162500000169
 20
-254.3498861865009
 30
0.0
 11
201.6978495642915
 21
-254.349886186501
 31
0.0
  0
LINE
  5
D6B50
330
1E
100
AcDbEntity
  8
SIZE
  6
Continuous
100
AcDbLine
 10
181.6978495642915
 20
-285.0
 30
0.0
 11
181.6978495642915
 21
-264.349886186501
 31
0.0
  0
LINE
  5
D6B51
330
1E
100
AcDbEntity
  8
SIZE
  6
Continuous
100
AcDbLine
 10
181.6978495642915
 20
-254.349886186501
 30
0.0
 11
181.6978495642915
 21
-170.7784576150724
 31
0.0
  0
LINE
  5
D6B55
330
1E
100
AcDbEntity
  8
SIZE
  6
Continuous
100
AcDbLine
 10
19.99999999999954
 20
-0.0000000000000057
 30
0.0
 11
412.2882096231704
 21
-0.0000000000001168
 31
0.0
  0
LINE
  5
D6B56
330
1E
100
AcDbEntity
  8
SIZE
  6
Continuous
100
AcDbLine
 10
19.99999999999772
 20
-295.0
 30
0.0
 11
412.2882096231704
 21
-295.0000000000001
 31
0.0
  0
LINE
  5
D6B57
330
1E
100
AcDbEntity
  8
SIZE
  6
Continuous
100
AcDbLine
 10
392.2882096231704
 20
-10.00000000000011
 30
0.0
 11
392.2882096231703
 21
-285.0000000000001
 31
0.0
  0
TEXT
  5
D6B5B
330
1E
100
AcDbEntity
  8
SIZE
  6
Continuous
100
AcDbText
 10
-209.3571428571436
 20
129.2137109924633
 30
0.0
 40
50.0
  1
303
 41
0.9
100
AcDbText
  0
TEXT
  5
D6B5C
330
1E
100
AcDbEntity
  8
SIZE
  6
Continuous
100
AcDbText
 10
171.6978495642916
 20
-234.3498861865009
 30
0.0
 40
50.0
  1
41
 50
90.0
 41
0.9
100
AcDbText
  0
CIRCLE
  5
D6B5D
330
1E
100
AcDbEntity
  8
SIZE
  6
ByBlock
100
AcDbCircle
 10
-303.0000000000011
 20
119.2137109924633
 30
0.0
 40
5.0
  0
LINE
  5
D6B5E
330
1E
100
AcDbEntity
  8
SIZE
  6
ByBlock
100
AcDbLine
 10
-303.0000000000011
 20
119.2137109924633
 30
0.0
 11
-293.0000000000011
 21
119.2137109924633
 31
0.0
  0
CIRCLE
  5
D6B5F
330
1E
100
AcDbEntity
  8
SIZE
  6
ByBlock
100
AcDbCircle
 10
-0.0000000000004474
 20
119.2137109924633
 30
0.0
 40
5.0
  0
LINE
  5
D6B60
330
1E
100
AcDbEntity
  8
SIZE
  6
ByBlock
100
AcDbLine
 10
-0.0000000000004474
 20
119.2137109924633
 30
0.0
 11
-10.00000000000044
 21
119.2137109924633
 31
0.0
  0
TEXT
  5
D6B61
330
1E
100
AcDbEntity
  8
SIZE
  6
Continuous
100
AcDbText
 10
382.2882096231704
 20
-205.3571428571428
 30
0.0
 40
50.0
  1
295
 50
90.0
 41
0.9
100
AcDbText
  0
TEXT
  5
D6B62
330
1E
100
AcDbEntity
  8
SIZE
  6
Continuous
100
AcDbText
 10
266.8025726184797
 20
-233.3498861867502
 30
0.0
 40
50.0
  1
42
 50
90.0
 41
0.9
100
AcDbText
  0
CIRCLE
  5
D6B63
330
1E
100
AcDbEntity
  8
SIZE
  6
ByBlock
100
AcDbCircle
 10
181.6978495642915
 20
-254.349886186501
 30
0.0
 40
5.0
  0
LINE
  5
D6B64
330
1E
100
AcDbEntity
  8
SIZE
  6
ByBlock
100
AcDbLine
 10
181.6978495642915
 20
-254.349886186501
 30
0.0
 11
181.6978495642915
 21
-264.3498861865009
 31
0.0
  0
CIRCLE
  5
D6B65
330
1E
100
AcDbEntity
  8
SIZE
  6
ByBlock
100
AcDbCircle
 10
181.6978495642915
 20
-295.0
 30
0.0
 40
5.0
  0
LINE
  5
D6B66
330
1E
100
AcDbEntity
  8
SIZE
  6
ByBlock
100
AcDbLine
 10
181.6978495642915
 20
-295.0
 30
0.0
 11
181.6978495642915
 21
-285.0
 31
0.0
  0
CIRCLE
  5
D6B67
330
1E
100
AcDbEntity
  8
SIZE
  6
ByBlock
100
AcDbCircle
 10
276.8025726184796
 20
-253.3498861867502
 30
0.0
 40
5.0
  0
LINE
  5
D6B68
330
1E
100
AcDbEntity
  8
SIZE
  6
ByBlock
100
AcDbLine
 10
276.8025726184796
 20
-253.3498861867502
 30
0.0
 11
276.8025726184796
 21
-263.3498861867502
 31
0.0
  0
CIRCLE
  5
D6B69
330
1E
100
AcDbEntity
  8
SIZE
  6
ByBlock
100
AcDbCircle
 10
276.8025726184796
 20
-295.0
 30
0.0
 40
5.0
  0
LINE
  5
D6B6A
330
1E
100
AcDbEntity
  8
SIZE
  6
ByBlock
100
AcDbLine
 10
276.8025726184796
 20
-295.0
 30
0.0
 11
276.8025726184796
 21
-285.0
 31
0.0
  0
CIRCLE
  5
D6B6B
330
1E
100
AcDbEntity
  8
SIZE
  6
ByBlock
100
AcDbCircle
 10
392.2882096231703
 20
-295.0000000000001
 30
0.0
 40
5.0
  0
LINE
  5
D6B6C
330
1E
100
AcDbEntity
  8
SIZE
  6
ByBlock
100
AcDbLine
 10
392.2882096231703
 20
-295.0000000000001
 30
0.0
 11
392.2882096231703
 21
-285.0000000000001
 31
0.0
  0
CIRCLE
  5
D6B6D
330
1E
100
AcDbEntity
  8
SIZE
  6
ByBlock
100
AcDbCircle
 10
392.2882096231704
 20
-0.0000000000001111
 30
0.0
 40
5.0
  0
LINE
  5
D6B6E
330
1E
100
AcDbEntity
  8
SIZE
  6
ByBlock
100
AcDbLine
 10
392.2882096231704
 20
-0.0000000000001111
 30
0.0
 11
392.2882096231704
 21
-10.00000000000011
 31
0.0
  0
LINE
  5
D6F3F
330
1E
100
AcDbEntity
  8
DETAIL
  6
Continuous
100
AcDbLine
 10
-94.38866040134643
 20
-0.1238174025965004
 30
0.0
 11
-87.29516615734656
 21
0.0000000000073896
 31
0.0
  0
LINE
  5
D6F49
330
1E
100
AcDbEntity
  8
OUTLINE
  6
Continuous
100
AcDbLine
 10
-0.0000000000022737
 20
-295.0
 30
0.0
 11
-0.0000000000004547
 21
0.0
 31
0.0
  0
ARC
  5
D6F4E
330
1E
100
AcDbEntity
  8
OUTLINE
  6
Continuous
100
AcDbCircle
 10
176.1358845671559
 20
-67.39998960573394
 30
0.0
 40
463.1931422644819
100
AcDbArc
 50
178.3888047951405
 51
178.829403782215
  0
ARC
  5
D6F51
330
1E
100
AcDbEntity
  8
OUTLINE
  6
Continuous
100
AcDbCircle
 10
-69.68151111330531
 20
-91.52051495225611
 30
0.0
 40
233.3184889067978
100
AcDbArc
 50
179.9992478828443
 51
219.0964531989309
  0
LINE
  5
D6F54
330
1E
100
AcDbEntity
  8
OUTLINE
  6
Continuous
100
AcDbLine
 10
-94.43229474134614
 20
-295.0
 30
0.0
 11
-0.0000000000022737
 21
-295.0
 31
0.0
  0
ARC
  5
D6F56
330
1E
100
AcDbEntity
  8
OUTLINE
  6
Continuous
100
AcDbCircle
 10
-116.0215372720149
 20
-104.7311310319917
 30
0.0
 40
189.9999999999935
100
AcDbArc
 50
226.5959112025932
 51
268.0000011881034
  0
LINE
  5
D6F6B
330
1E
100
AcDbEntity
  8
OUTLINE
  6
Continuous
100
AcDbLine
 10
-246.5853093453393
 20
-241.3249190026532
 30
0.0
 11
-245.3423778543898
 21
-240.124634013557
 31
0.0
  0
ARC
  5
D6F6F
330
1E
100
AcDbEntity
  8
OUTLINE
  6
Continuous
100
AcDbCircle
 10
-245.8908747786777
 20
-242.0444749279865
 30
0.0
 40
0.9999999999999751
100
AcDbArc
 50
134.0000590875882
 51
226.5959817538188
  0
LINE
  5
D6F71
330
1E
100
AcDbEntity
  8
OUTLINE
  6
Continuous
100
AcDbLine
 10
-247.9825230920037
 20
-239.9787378466536
 30
0.0
 11
-246.9492289120012
 21
-240.0691393733199
 31
0.0
  0
LINE
  5
D6F73
330
1E
100
AcDbEntity
  8
OUTLINE
  6
Continuous
100
AcDbLine
 10
-246.9492289120012
 20
-240.0272656348949
 30
0.0
 11
-245.3557606040053
 21
-240.1107757706532
 31
0.0
  0
LINE
  5
D6F77
330
1E
100
AcDbEntity
  8
OUTLINE
  6
Continuous
100
AcDbLine
 10
-246.9492289120012
 20
-240.0691393733199
 30
0.0
 11
-246.9492289120012
 21
-240.0272656348949
 31
0.0
  0
ARC
  5
D6F8D
330
1E
100
AcDbEntity
  8
OUTLINE
  6
Continuous
100
AcDbCircle
 10
-249.817003725197
 20
-237.9017624705482
 30
0.0
 40
1.205890024676453
100
AcDbArc
 50
218.8155299382916
 51
245.1033123674121
  0
LINE
  5
D6F8E
330
1E
100
AcDbEntity
  8
OUTLINE
  6
Continuous
100
AcDbLine
 10
-250.324663378677
 20
-238.9955871493198
 30
0.0
 11
-248.3076115977317
 21
-239.8918879346799
 31
0.0
  0
ARC
  5
D6F8F
330
1E
100
AcDbEntity
  8
OUTLINE
  6
Continuous
100
AcDbCircle
 10
-247.8877523615726
 20
-238.9722756829964
 30
0.0
 40
1.010904245253659
100
AcDbArc
 50
245.4553301489025
 51
264.7189650518944
  0
LINE
  5
D6FCA
330
1E
100
AcDbEntity
  8
OUTLINE
  6
Continuous
100
AcDbLine
 10
-95.88866040134826
 20
-295.0
 30
0.0
 11
-122.6524377080081
 21
-294.615388302652
 31
0.0
  0
ARC
  5
D6FCC
330
1E
100
AcDbEntity
  8
OUTLINE
  6
Continuous
100
AcDbCircle
 10
-94.88866040133917
 20
-294.8396151319851
 30
0.0
 40
0.9999999999999751
100
AcDbArc
 50
93.00000000000558
 51
180.0
  0
LINE
  5
D6FD0
330
1E
100
AcDbEntity
  8
OUTLINE
  6
Continuous
100
AcDbLine
 10
-94.40723386001309
 20
-293.813012290652
 30
0.0
 11
-94.94099635733846
 21
-293.8409855973188
 31
0.0
  0
ARC
  5
D6FD3
330
1E
100
AcDbEntity
  8
OUTLINE
  6
Continuous
100
AcDbCircle
 10
-216.6121538489564
 20
-291.8266572133155
 30
0.0
 40
122.2210623255963
100
AcDbArc
 50
358.512207474136
 51
359.0687793812581
  0
LINE
  5
D7071
330
1E
100
AcDbEntity
  8
OUTLINE
  6
Continuous
100
AcDbLine
 10
-94.38866040134644
 20
-0.1238174025965009
 30
0.0
 11
-87.29516615734656
 21
0.0000000000073896
 31
0.0
  0
LINE
  5
D7074
330
1E
100
AcDbEntity
  8
OUTLINE
  6
Continuous
100
AcDbLine
 10
-160.3486604013455
 20
-1.2751534853262
 30
0.0
 11
-95.88866040134826
 21
-0.1499999999903139
 31
0.0
  0
ARC
  5
D7078
330
1E
100
AcDbEntity
  8
OUTLINE
  6
Continuous
100
AcDbCircle
 10
-156.3483075346798
 20
-230.4552157613207
 30
0.0
 40
229.2149728266609
100
AcDbArc
 50
90.99999999997569
 51
122.0921874907908
  0
ARC
  5
D707C
330
1E
100
AcDbEntity
  8
OUTLINE
  6
Continuous
100
AcDbCircle
 10
-37.94328685955088
 20
-96.24735399047416
 30
0.0
 40
265.0989120154518
100
AcDbArc
 50
171.1471027633859
 51
178.9776729424933
  0
LINE
  5
D707F
330
1E
100
AcDbEntity
  8
OUTLINE
  6
Continuous
100
AcDbLine
 10
-297.8059621346697
 20
-52.67809557865769
 30
0.0
 11
-288.3741111906733
 21
-52.34872808665807
 31
0.0
  0
ARC
  5
D7080
330
1E
100
AcDbEntity
  8
OUTLINE
  6
Continuous
100
AcDbCircle
 10
-297.7361631413391
 20
-54.6768772333246
 30
0.0
 40
1.99999999999995
100
AcDbArc
 50
92.00000000000361
 51
170.8508711292963
  0
LINE
  5
D7081
330
1E
100
AcDbEntity
  8
OUTLINE
  6
Continuous
100
AcDbLine
 10
-299.7107188000104
 20
-54.35886787865797
 30
0.0
 11
-299.8839631293417
 21
-55.44887909199132
 31
0.0
  0
ARC
  5
D7086
330
1E
100
AcDbEntity
  8
OUTLINE
  6
Continuous
100
AcDbCircle
 10
-272.8135104346752
 20
-44.73752456132524
 30
0.0
 40
9.999999999999751
100
AcDbArc
 50
122.0921713980192
 51
164.054620431999
  0
ARC
  5
D7088
330
1E
100
AcDbEntity
  8
OUTLINE
  6
Continuous
100
AcDbCircle
 10
-287.5741297773315
 20
-53.2770943453246
 30
0.0
 40
0.6999999999999825
100
AcDbArc
 50
0.000375504998686
 51
88.0000131045773
  0
LINE
  5
D708A
330
1E
100
AcDbEntity
  8
OUTLINE
  6
Continuous
100
AcDbLine
 10
-288.3741111906733
 20
-52.54872710932431
 30
0.0
 11
-287.5497001293429
 21
-52.57751617865778
 31
0.0
  0
LINE
  5
D7092
330
1E
100
AcDbEntity
  8
OUTLINE
  6
Continuous
100
AcDbLine
 10
-286.8741297773344
 20
-53.27708975732434
 30
0.0
 11
-286.8741297773344
 21
-54.37640877866233
 31
0.0
  0
LINE
  5
D7093
330
1E
100
AcDbEntity
  8
OUTLINE
  6
Continuous
100
AcDbLine
 10
-288.3741111906733
 20
-52.54872710932431
 30
0.0
 11
-288.3741111906733
 21
-52.34872808665807
 31
0.0
  0
LINE
  5
D7096
330
1E
100
AcDbEntity
  8
OUTLINE
  6
Continuous
100
AcDbLine
 10
-286.960588973184
 20
-57.93726085839523
 30
0.0
 11
-282.4287499106708
 21
-41.99031328265834
 31
0.0
  0
ARC
  5
D70AD
330
1E
100
AcDbEntity
  8
OUTLINE
  6
Continuous
100
AcDbCircle
 10
-94.88866040133917
 20
-1.051035433325978
 30
0.0
 40
0.9999999999999751
100
AcDbArc
 50
180.0
 51
266.9999999999943
  0
LINE
  5
D70AE
330
1E
100
AcDbEntity
  8
OUTLINE
  6
Continuous
100
AcDbLine
 10
-94.85371639876234
 20
-2.054316544672133
 30
0.0
 11
-94.38866040134644
 21
-2.054316544672133
 31
0.0
  0
LINE
  5
D70B6
330
1E
100
AcDbEntity
  8
OUTLINE
  6
Continuous
100
AcDbLine
 10
-94.94099635758221
 20
-2.049664968080492
 30
0.0
 11
-94.86249242393251
 21
-2.053779199244331
 31
0.0
  0
LINE
  5
D7120
330
1E
100
AcDbEntity
  8
OUTLINE
  6
Continuous
100
AcDbLine
 10
-87.29516615734656
 20
0.0000000000073896
 30
0.0
 11
-17.26188978267828
 21
0.0000000000073896
 31
0.0
  0
LINE
  5
D7128
330
1E
100
AcDbEntity
  8
OUTLINE
  6
Continuous
100
AcDbLine
 10
-17.26188978369146
 20
0.0
 30
0.0
 11
-0.0000000000004547
 21
0.0
 31
0.0
  0
LINE
  5
D7129
330
1E
100
AcDbEntity
  8
OUTLINE
  6
Continuous
100
AcDbLine
 10
-94.38866040134644
 20
-2.054316544672133
 30
0.0
 11
-94.38866040134644
 21
-0.1238174025965009
 31
0.0
  0
LINE
  5
D712A
330
1E
100
AcDbEntity
  8
OUTLINE
  6
Continuous
100
AcDbLine
 10
-95.88866040134826
 20
-1.051035433325978
 30
0.0
 11
-95.88866040134826
 21
-0.1499999999903139
 31
0.0
  0
LINE
  5
D712B
330
1E
100
AcDbEntity
  8
OUTLINE
  6
Continuous
100
AcDbLine
 10
-95.88866040134826
 20
-295.0
 30
0.0
 11
-95.88866040133916
 21
-294.8396151319851
 31
0.0
  0
ENDSEC
  0
SECTION
  2
OBJECTS
  0
DICTIONARY
  5
C
330
0
100
AcDbDictionary
281
     1
  3
ACAD_GROUP
350
D
  3
ACAD_LAYOUT
350
19
  3
ACAD_MLINESTYLE
350
16
  3
ACAD_PLOTSETTINGS
350
18
  3
ACAD_PLOTSTYLENAME
350
E
  0
DICTIONARY
  5
66E76
330
1E
100
AcDbDictionary
280
     1
281
     1
  0
DICTIONARY
  5
66E74
330
1A
100
AcDbDictionary
280
     1
281
     1
  0
DICTIONARY
  5
D
102
{ACAD_REACTORS
330
C
102
}
330
C
100
AcDbDictionary
281
     1
  3
*A1
350
677EB
  3
*A2
350
C660B
  3
*A3
350
D17EC
  0
DICTIONARY
  5
19
102
{ACAD_REACTORS
330
C
102
}
330
C
100
AcDbDictionary
281
     1
  3
Model
350
67C8F
  3
ﾚｲｱｳﾄ1
350
67C90
  0
DICTIONARY
  5
16
102
{ACAD_REACTORS
330
C
102
}
330
C
100
AcDbDictionary
281
     1
  3
STANDARD
350
17
  0
DICTIONARY
  5
18
102
{ACAD_REACTORS
330
C
102
}
330
C
100
AcDbDictionary
281
     1
  0
ACDBDICTIONARYWDFLT
  5
E
102
{ACAD_REACTORS
330
C
102
}
330
C
100
AcDbDictionary
281
     1
  3
Normal
350
F
100
AcDbDictionaryWithDefault
340
F
  0
GROUP
  5
677EB
102
{ACAD_REACTORS
330
D
102
}
330
D
100
AcDbGroup
300

 70
     1
 71
     1
  0
GROUP
  5
C660B
102
{ACAD_REACTORS
330
D
102
}
330
D
100
AcDbGroup
300

 70
     1
 71
     1
  0
GROUP
  5
D17EC
102
{ACAD_REACTORS
330
D
102
}
330
D
100
AcDbGroup
300

 70
     1
 71
     1
  0
LAYOUT
  5
67C8F
102
{ACAD_REACTORS
330
19
102
}
330
19
100
AcDbPlotSettings
  1

  2
EPSON LP-8900.pc3
  4
A4
  6
ALL
 40
5.873749732971191
 41
5.873747825622558
 42
5.873748779296875
 43
5.873748779296875
 44
209.9733276367187
 45
297.0106506347656
 46
0.0
 47
0.0
 48
0.0
 49
0.0
140
0.0
141
0.0
142
1.0
143
6.446244192105415
 70
 11952
 72
     1
 73
     1
 74
     2
  7

 75
     0
147
0.1551290907075285
148
488.6544763212477
149
679.0075875847196
100
AcDbLayout
  1
Model
 70
     1
 71
     0
 10
0.0
 20
0.0
 11
12.0
 21
9.0
 12
0.0
 22
0.0
 32
0.0
 14
0.0
 24
0.0
 34
0.0
 15
0.0
 25
0.0
 35
0.0
146
0.0
 13
0.0
 23
0.0
 33
0.0
 16
1.0
 26
0.0
 36
0.0
 17
0.0
 27
1.0
 37
0.0
 76
     0
330
1E
  0
LAYOUT
  5
67C90
102
{ACAD_REACTORS
330
19
102
}
330
19
100
AcDbPlotSettings
  1

  2
Microsoft XPS Document Writer
  4

  6

 40
0.0
 41
0.0
 42
0.0
 43
0.0
 44
0.0
 45
0.0
 46
0.0
 47
0.0
 48
0.0
 49
0.0
140
0.0
141
0.0
142
1.0
143
1.0
 70
   688
 72
     0
 73
     0
 74
     5
  7

 75
    16
147
1.0
148
0.0
149
0.0
100
AcDbLayout
  1
ﾚｲｱｳﾄ1
 70
     1
 71
     1
 10
0.0
 20
0.0
 11
12.0
 21
9.0
 12
0.0
 22
0.0
 32
0.0
 14
1.000000000000000E+20
 24
1.000000000000000E+20
 34
1.000000000000000E+20
 15
-1.000000000000000E+20
 25
-1.000000000000000E+20
 35
-1.000000000000000E+20
146
0.0
 13
0.0
 23
0.0
 33
0.0
 16
1.0
 26
0.0
 36
0.0
 17
0.0
 27
1.0
 37
0.0
 76
     0
330
1A
  0
MLINESTYLE
  5
17
102
{ACAD_REACTORS
330
16
102
}
330
16
100
AcDbMlineStyle
  2
STANDARD
 70
     0
  3

 62
   256
 51
90.0
 52
90.0
 71
     2
 49
0.5
 62
   256
  6
BYLAYER
 49
-0.5
 62
   256
  6
BYLAYER
  0
ACDBPLACEHOLDER
  5
F
102
{ACAD_REACTORS
330
E
102
}
330
E
  0
ENDSEC
  0
EOF
