  0
SECTION
  2
HEADER
  9
$ACADVER
  1
AC1014
  9
$ACADMAINTVER
 70
     9
  9
$DWGCODEPAGE
  3
ANSI_932
  9
$INSBASE
 10
0.0
 20
0.0
 30
0.0
  9
$EXTMIN
 10
-1168.913897672955
 20
-454.8035987046623
 30
-0.0015258207003583
  9
$EXTMAX
 10
1096.127212176768
 20
465.2103258336883
 30
0.0000000349246037
  9
$LIMMIN
 10
-1294.630923951088
 20
-790.4109339502829
  9
$LIMMAX
 10
1379.782034583048
 20
703.125606318983
  9
$ORTHOMODE
 70
     0
  9
$REGENMODE
 70
     1
  9
$FILLMODE
 70
     1
  9
$QTEXTMODE
 70
     0
  9
$MIRRTEXT
 70
     0
  9
$DRAGMODE
 70
     2
  9
$LTSCALE
 40
20.0
  9
$OSMODE
 70
    39
  9
$ATTMODE
 70
     1
  9
$TEXTSIZE
 40
64.0
  9
$TRACEWID
 40
0.05
  9
$TEXTSTYLE
  7
STANDARD
  9
$CLAYER
  8
SIZE
  9
$CELTYPE
  6
CONTINUOUS
  9
$CECOLOR
 62
   256
  9
$CELTSCALE
 40
1.0
  9
$DELOBJ
 70
     1
  9
$DISPSILH
 70
     0
  9
$DIMSCALE
 40
1.0
  9
$DIMASZ
 40
10.0
  9
$DIMEXO
 40
20.0
  9
$DIMDLI
 40
200.0
  9
$DIMRND
 40
0.0
  9
$DIMDLE
 40
0.0
  9
$DIMEXE
 40
20.0
  9
$DIMTP
 40
0.0
  9
$DIMTM
 40
0.0
  9
$DIMTXT
 40
50.0
  9
$DIMCEN
 40
0.082
  9
$DIMTSZ
 40
0.0
  9
$DIMTOL
 70
     0
  9
$DIMLIM
 70
     0
  9
$DIMTIH
 70
     0
  9
$DIMTOH
 70
     0
  9
$DIMSE1
 70
     0
  9
$DIMSE2
 70
     0
  9
$DIMTAD
 70
     1
  9
$DIMZIN
 70
     8
  9
$DIMBLK
  1
ORIGIN
  9
$DIMASO
 70
     1
  9
$DIMSHO
 70
     0
  9
$DIMPOST
  1

  9
$DIMAPOST
  1

  9
$DIMALT
 70
     0
  9
$DIMALTD
 70
     2
  9
$DIMALTF
 40
25.4
  9
$DIMLFAC
 40
1.0
  9
$DIMTOFL
 70
     1
  9
$DIMTVP
 40
0.0
  9
$DIMTIX
 70
     0
  9
$DIMSOXD
 70
     0
  9
$DIMSAH
 70
     0
  9
$DIMBLK1
  1

  9
$DIMBLK2
  1

  9
$DIMSTYLE
  2
STANDARD
  9
$DIMCLRD
 70
     0
  9
$DIMCLRE
 70
     0
  9
$DIMCLRT
 70
     0
  9
$DIMTFAC
 40
1.0
  9
$DIMGAP
 40
10.0
  9
$DIMJUST
 70
     0
  9
$DIMSD1
 70
     0
  9
$DIMSD2
 70
     0
  9
$DIMTOLJ
 70
     1
  9
$DIMTZIN
 70
     0
  9
$DIMALTZ
 70
     0
  9
$DIMALTTZ
 70
     0
  9
$DIMFIT
 70
     3
  9
$DIMUPT
 70
     0
  9
$DIMUNIT
 70
     2
  9
$DIMDEC
 70
     0
  9
$DIMTDEC
 70
     0
  9
$DIMALTU
 70
     2
  9
$DIMALTTD
 70
     2
  9
$DIMTXSTY
  7
STANDARD
  9
$DIMAUNIT
 70
     0
  9
$LUNITS
 70
     2
  9
$LUPREC
 70
     4
  9
$SKETCHINC
 40
0.1
  9
$FILLETRAD
 40
10.0
  9
$AUNITS
 70
     1
  9
$AUPREC
 70
     3
  9
$MENU
  1
ACAD
  9
$ELEVATION
 40
0.0
  9
$PELEVATION
 40
0.0
  9
$THICKNESS
 40
0.0
  9
$LIMCHECK
 70
     0
  9
$BLIPMODE
 70
     0
  9
$CHAMFERA
 40
0.0
  9
$CHAMFERB
 40
0.0
  9
$CHAMFERC
 40
0.0
  9
$CHAMFERD
 40
0.0
  9
$SKPOLY
 70
     0
  9
$TDCREATE
 40
2450330.393205995
  9
$TDUPDATE
 40
2455811.584977835
  9
$TDINDWG
 40
2.7768355787
  9
$TDUSRTIMER
 40
2.7768350231
  9
$USRTIMER
 70
     1
  9
$ANGBASE
 50
0.0
  9
$ANGDIR
 70
     0
  9
$PDMODE
 70
     3
  9
$PDSIZE
 40
-2.0
  9
$PLINEWID
 40
0.0
  9
$COORDS
 70
     1
  9
$SPLFRAME
 70
     0
  9
$SPLINETYPE
 70
     6
  9
$SPLINESEGS
 70
     8
  9
$ATTDIA
 70
     0
  9
$ATTREQ
 70
     1
  9
$HANDLING
 70
-16383
  9
$HANDSEED
  5
92114
  9
$SURFTAB1
 70
     6
  9
$SURFTAB2
 70
     6
  9
$SURFTYPE
 70
     6
  9
$SURFU
 70
     6
  9
$SURFV
 70
     6
  9
$UCSNAME
  2

  9
$UCSORG
 10
0.0
 20
0.0
 30
0.0
  9
$UCSXDIR
 10
1.0
 20
0.0
 30
0.0
  9
$UCSYDIR
 10
0.0
 20
1.0
 30
0.0
  9
$PUCSNAME
  2

  9
$PUCSORG
 10
0.0
 20
0.0
 30
0.0
  9
$PUCSXDIR
 10
1.0
 20
0.0
 30
0.0
  9
$PUCSYDIR
 10
0.0
 20
1.0
 30
0.0
  9
$USERI1
 70
     0
  9
$USERI2
 70
     0
  9
$USERI3
 70
     0
  9
$USERI4
 70
     0
  9
$USERI5
 70
     0
  9
$USERR1
 40
20.0
  9
$USERR2
 40
0.0
  9
$USERR3
 40
0.0
  9
$USERR4
 40
0.0
  9
$USERR5
 40
0.0
  9
$WORLDVIEW
 70
     1
  9
$SHADEDGE
 70
     3
  9
$SHADEDIF
 70
    70
  9
$TILEMODE
 70
     1
  9
$MAXACTVP
 70
    64
  9
$PINSBASE
 10
0.0
 20
0.0
 30
0.0
  9
$PLIMCHECK
 70
     0
  9
$PEXTMIN
 10
1.000000000000000E+20
 20
1.000000000000000E+20
 30
1.000000000000000E+20
  9
$PEXTMAX
 10
-1.000000000000000E+20
 20
-1.000000000000000E+20
 30
-1.000000000000000E+20
  9
$PLIMMIN
 10
0.0
 20
0.0
  9
$PLIMMAX
 10
12.0
 20
9.0
  9
$UNITMODE
 70
     0
  9
$VISRETAIN
 70
     1
  9
$PLINEGEN
 70
     0
  9
$PSLTSCALE
 70
     1
  9
$TREEDEPTH
 70
  3020
  9
$PICKSTYLE
 70
     1
  9
$CMLSTYLE
  2
STANDARD
  9
$CMLJUST
 70
     0
  9
$CMLSCALE
 40
1.0
  9
$PROXYGRAPHICS
 70
     1
  9
$MEASUREMENT
 70
     0
  0
ENDSEC
  0
SECTION
  2
CLASSES
  0
CLASS
  1
ACDBDICTIONARYWDFLT
  2
AcDbDictionaryWithDefault
  3
AutoCAD 2000
 90
        0
280
     0
281
     0
  0
CLASS
  1
ACDBPLACEHOLDER
  2
AcDbPlaceHolder
  3
AutoCAD 2000
 90
        0
280
     0
281
     0
  0
CLASS
  1
LAYOUT
  2
AcDbLayout
  3
AutoCAD 2000
 90
        0
280
     0
281
     0
  0
CLASS
  1
LONG_TRANSACTION
  2
AcDbLongTransaction
  3
AutoCAD 2000
 90
        0
280
     0
281
     0
  0
CLASS
  1
LWPOLYLINE
  2
AcDbPolyline
  3
AutoCAD 2000
 90
        0
280
     0
281
     1
  0
CLASS
  1
HATCH
  2
AcDbHatch
  3
AutoCAD 2000
 90
        0
280
     0
281
     1
  0
CLASS
  1
XRECORD
  2
AcDbXrecord
  3
AutoCAD 2000
 90
        0
280
     0
281
     0
  0
CLASS
  1
LONG_TRANSACTION
  2
AcDbLongTransaction
  3
AutoCAD 2000
 90
        0
280
     0
281
     0
  0
CLASS
  1
LWPOLYLINE
  2
AcDbPolyline
  3
AutoCAD 2000
 90
        0
280
     0
281
     1
  0
CLASS
  1
HATCH
  2
AcDbHatch
  3
AutoCAD 2000
 90
        0
280
     0
281
     1
  0
CLASS
  1
XRECORD
  2
AcDbXrecord
  3
AutoCAD 2000
 90
        0
280
     0
281
     0
  0
CLASS
  1
LONG_TRANSACTION
  2
AcDbLongTransaction
  3
AutoCAD 2000
 90
        0
280
     0
281
     0
  0
CLASS
  1
LWPOLYLINE
  2
AcDbPolyline
  3
AutoCAD 2000
 90
        0
280
     0
281
     1
  0
CLASS
  1
HATCH
  2
AcDbHatch
  3
AutoCAD 2000
 90
        0
280
     0
281
     1
  0
CLASS
  1
XRECORD
  2
AcDbXrecord
  3
AutoCAD 2000
 90
        0
280
     0
281
     0
  0
CLASS
  1
LONG_TRANSACTION
  2
AcDbLongTransaction
  3
AutoCAD 2000
 90
        0
280
     0
281
     0
  0
CLASS
  1
LWPOLYLINE
  2
AcDbPolyline
  3
AutoCAD 2000
 90
        0
280
     0
281
     1
  0
CLASS
  1
HATCH
  2
AcDbHatch
  3
AutoCAD 2000
 90
        0
280
     0
281
     1
  0
CLASS
  1
XRECORD
  2
AcDbXrecord
  3
AutoCAD 2000
 90
        0
280
     0
281
     0
  0
ENDSEC
  0
SECTION
  2
TABLES
  0
TABLE
  2
VPORT
  5
8
330
0
100
AcDbSymbolTable
 70
     5
  0
VPORT
  5
920F0
330
8
100
AcDbSymbolTableRecord
100
AcDbViewportTableRecord
  2
*ACTIVE
 70
     0
 10
0.0
 20
0.0
 11
1.0
 21
1.0
 12
-9.06828000682367
 22
-154.2750049272763
 13
0.0
 23
0.0
 14
50.0
 24
50.0
 15
100.0
 25
100.0
 16
0.0
 26
0.0
 36
1.0
 17
0.0
 27
0.0
 37
0.0
 40
2765.808398315282
 41
1.288384512683578
 42
50.0
 43
0.0
 44
0.0
 50
0.0
 51
0.0
 71
     0
 72
   500
 73
     1
 74
     0
 75
     0
 76
     0
 77
     0
 78
     0
  0
ENDTAB
  0
TABLE
  2
LTYPE
  5
5
330
0
100
AcDbSymbolTable
 70
     2
  0
LTYPE
  5
13
330
5
100
AcDbSymbolTableRecord
100
AcDbLinetypeTableRecord
  2
BYBLOCK
 70
     0
  3

 72
    65
 73
     0
 40
0.0
  0
LTYPE
  5
14
330
5
100
AcDbSymbolTableRecord
100
AcDbLinetypeTableRecord
  2
BYLAYER
 70
     0
  3

 72
    65
 73
     0
 40
0.0
  0
LTYPE
  5
15
330
5
100
AcDbSymbolTableRecord
100
AcDbLinetypeTableRecord
  2
CONTINUOUS
 70
     0
  3
実線
 72
    65
 73
     0
 40
0.0
  0
LTYPE
  5
23
330
5
100
AcDbSymbolTableRecord
100
AcDbLinetypeTableRecord
  2
DASHDOT
 70
     0
  3
____ _ ____ _ ____ _ ____ _ ____ _ ____ _ ____
 72
    65
 73
     4
 40
5.5
 49
4.0
 74
     0
 49
-0.6
 74
     0
 49
0.3
 74
     0
 49
-0.6
 74
     0
  0
ENDTAB
  0
TABLE
  2
LAYER
  5
2
330
0
100
AcDbSymbolTable
 70
     9
  0
LAYER
  5
10
330
2
100
AcDbSymbolTableRecord
100
AcDbLayerTableRecord
  2
0
 70
     0
 62
     7
  6
CONTINUOUS
  0
LAYER
  5
22
330
2
100
AcDbSymbolTableRecord
100
AcDbLayerTableRecord
  2
SIZE
 70
     0
 62
    32
  6
CONTINUOUS
  0
LAYER
  5
31
330
2
100
AcDbSymbolTableRecord
100
AcDbLayerTableRecord
  2
DETAIL
 70
     0
 62
     5
  6
CONTINUOUS
  0
LAYER
  5
32
330
2
100
AcDbSymbolTableRecord
100
AcDbLayerTableRecord
  2
OUTLINE
 70
     0
 62
     3
  6
CONTINUOUS
  0
LAYER
  5
33
330
2
100
AcDbSymbolTableRecord
100
AcDbLayerTableRecord
  2
BASIS
 70
     0
 62
     6
  6
CONTINUOUS
  0
LAYER
  5
34
330
2
100
AcDbSymbolTableRecord
100
AcDbLayerTableRecord
  2
NOTE
 70
     0
 62
     4
  6
CONTINUOUS
  0
LAYER
  5
35
330
2
100
AcDbSymbolTableRecord
100
AcDbLayerTableRecord
  2
ARRANGE
 70
     0
 62
     1
  6
CONTINUOUS
  0
LAYER
  5
37
330
2
100
AcDbSymbolTableRecord
100
AcDbLayerTableRecord
  2
ETC
 70
     0
 62
    83
  6
CONTINUOUS
  0
LAYER
  5
3A
330
2
100
AcDbSymbolTableRecord
100
AcDbLayerTableRecord
  2
DEFPOINTS
 70
     0
 62
     7
  6
CONTINUOUS
  0
ENDTAB
  0
TABLE
  2
STYLE
  5
3
330
0
100
AcDbSymbolTable
 70
     1
  0
STYLE
  5
11
330
3
100
AcDbSymbolTableRecord
100
AcDbTextStyleTableRecord
  2
STANDARD
 70
     0
 40
0.0
 41
0.9
 50
0.0
 71
     0
 42
64.0
  3
SIMPLEX
  4
BIGFONT
  0
ENDTAB
  0
TABLE
  2
VIEW
  5
6
330
0
100
AcDbSymbolTable
 70
     1
  0
VIEW
  5
3C
330
6
100
AcDbSymbolTableRecord
100
AcDbViewTableRecord
  2
ALL
 70
     0
 40
4282.62
 10
0.0
 20
41.30990399999999
 41
5940.0
 11
0.0
 21
0.0
 31
1.0
 12
0.0
 22
0.0
 32
0.0
 42
50.0
 43
0.0
 44
0.0
 50
0.0
 71
     0
  0
ENDTAB
  0
TABLE
  2
UCS
  5
7
330
0
100
AcDbSymbolTable
 70
     0
  0
ENDTAB
  0
TABLE
  2
APPID
  5
9
330
0
100
AcDbSymbolTable
 70
     1
  0
APPID
  5
12
330
9
100
AcDbSymbolTableRecord
100
AcDbRegAppTableRecord
  2
ACAD
 70
     0
  0
ENDTAB
  0
TABLE
  2
DIMSTYLE
  5
A
330
0
100
AcDbSymbolTable
 70
     1
  0
DIMSTYLE
105
213
330
A
100
AcDbSymbolTableRecord
100
AcDbDimStyleTableRecord
  2
STANDARD
 70
     0
  3

  4

  5

  6

  7

 40
1.0
 41
0.18
 42
0.0625
 43
0.38
 44
0.18
 45
0.0
 46
0.0
 47
0.0
 48
0.0
140
0.18
141
0.09
142
0.0
143
25.4
144
1.0
145
0.0
146
1.0
147
0.09
 71
     0
 72
     0
 73
     1
 74
     1
 75
     0
 76
     0
 77
     0
 78
     0
170
     0
171
     2
172
     0
173
     0
174
     0
175
     0
176
     0
177
     0
178
     0
270
     2
271
     4
272
     4
273
     2
274
     2
340
11
275
     0
280
     0
281
     0
282
     0
283
     1
284
     0
285
     0
286
     0
287
     3
288
     0
  0
ENDTAB
  0
TABLE
  2
BLOCK_RECORD
  5
1
330
0
100
AcDbSymbolTable
 70
    34
  0
BLOCK_RECORD
  5
1E
102
{ACAD_XDICTIONARY
360
66E76
102
}
330
1
100
AcDbSymbolTableRecord
100
AcDbBlockTableRecord
  2
*MODEL_SPACE
  0
BLOCK_RECORD
  5
1A
102
{ACAD_XDICTIONARY
360
66E74
102
}
330
1
100
AcDbSymbolTableRecord
100
AcDbBlockTableRecord
  2
*PAPER_SPACE
  0
BLOCK_RECORD
  5
46
330
1
100
AcDbSymbolTableRecord
100
AcDbBlockTableRecord
  2
_ORIGIN
  0
BLOCK_RECORD
  5
8EB2F
330
1
100
AcDbSymbolTableRecord
100
AcDbBlockTableRecord
  2
*D1
  0
BLOCK_RECORD
  5
8EB3D
330
1
100
AcDbSymbolTableRecord
100
AcDbBlockTableRecord
  2
*D2
  0
BLOCK_RECORD
  5
8EBED
330
1
100
AcDbSymbolTableRecord
100
AcDbBlockTableRecord
  2
*D3
  0
BLOCK_RECORD
  5
8EBFB
330
1
100
AcDbSymbolTableRecord
100
AcDbBlockTableRecord
  2
*D4
  0
BLOCK_RECORD
  5
8EC29
330
1
100
AcDbSymbolTableRecord
100
AcDbBlockTableRecord
  2
*D5
  0
BLOCK_RECORD
  5
8EC36
330
1
100
AcDbSymbolTableRecord
100
AcDbBlockTableRecord
  2
*D6
  0
BLOCK_RECORD
  5
8EC51
330
1
100
AcDbSymbolTableRecord
100
AcDbBlockTableRecord
  2
*D7
  0
BLOCK_RECORD
  5
8EC5F
330
1
100
AcDbSymbolTableRecord
100
AcDbBlockTableRecord
  2
*D8
  0
BLOCK_RECORD
  5
8EC6C
330
1
100
AcDbSymbolTableRecord
100
AcDbBlockTableRecord
  2
*D9
  0
BLOCK_RECORD
  5
8ECB6
330
1
100
AcDbSymbolTableRecord
100
AcDbBlockTableRecord
  2
*D10
  0
BLOCK_RECORD
  5
8ED57
330
1
100
AcDbSymbolTableRecord
100
AcDbBlockTableRecord
  2
*D11
  0
BLOCK_RECORD
  5
8ED67
330
1
100
AcDbSymbolTableRecord
100
AcDbBlockTableRecord
  2
*D12
  0
BLOCK_RECORD
  5
8ED82
330
1
100
AcDbSymbolTableRecord
100
AcDbBlockTableRecord
  2
*D13
  0
BLOCK_RECORD
  5
8ED8F
330
1
100
AcDbSymbolTableRecord
100
AcDbBlockTableRecord
  2
*D14
  0
BLOCK_RECORD
  5
8EDCC
330
1
100
AcDbSymbolTableRecord
100
AcDbBlockTableRecord
  2
*D15
  0
BLOCK_RECORD
  5
8EDDA
330
1
100
AcDbSymbolTableRecord
100
AcDbBlockTableRecord
  2
*D16
  0
BLOCK_RECORD
  5
8EE1B
330
1
100
AcDbSymbolTableRecord
100
AcDbBlockTableRecord
  2
*D17
  0
BLOCK_RECORD
  5
8EE28
330
1
100
AcDbSymbolTableRecord
100
AcDbBlockTableRecord
  2
*D18
  0
BLOCK_RECORD
  5
8EE35
330
1
100
AcDbSymbolTableRecord
100
AcDbBlockTableRecord
  2
*D19
  0
BLOCK_RECORD
  5
8EE43
330
1
100
AcDbSymbolTableRecord
100
AcDbBlockTableRecord
  2
*D20
  0
BLOCK_RECORD
  5
8EE57
330
1
100
AcDbSymbolTableRecord
100
AcDbBlockTableRecord
  2
*D21
  0
BLOCK_RECORD
  5
8EE64
330
1
100
AcDbSymbolTableRecord
100
AcDbBlockTableRecord
  2
*D22
  0
BLOCK_RECORD
  5
8EE71
330
1
100
AcDbSymbolTableRecord
100
AcDbBlockTableRecord
  2
*D23
  0
BLOCK_RECORD
  5
8EE7F
330
1
100
AcDbSymbolTableRecord
100
AcDbBlockTableRecord
  2
*D24
  0
BLOCK_RECORD
  5
90025
330
1
100
AcDbSymbolTableRecord
100
AcDbBlockTableRecord
  2
*D25
  0
BLOCK_RECORD
  5
90031
330
1
100
AcDbSymbolTableRecord
100
AcDbBlockTableRecord
  2
*D26
  0
BLOCK_RECORD
  5
9003E
330
1
100
AcDbSymbolTableRecord
100
AcDbBlockTableRecord
  2
*D27
  0
BLOCK_RECORD
  5
9004A
330
1
100
AcDbSymbolTableRecord
100
AcDbBlockTableRecord
  2
*D28
  0
BLOCK_RECORD
  5
90056
330
1
100
AcDbSymbolTableRecord
100
AcDbBlockTableRecord
  2
*D29
  0
BLOCK_RECORD
  5
90063
330
1
100
AcDbSymbolTableRecord
100
AcDbBlockTableRecord
  2
*D30
  0
BLOCK_RECORD
  5
91FD3
330
1
100
AcDbSymbolTableRecord
100
AcDbBlockTableRecord
  2
*D31
  0
BLOCK_RECORD
  5
91FE2
330
1
100
AcDbSymbolTableRecord
100
AcDbBlockTableRecord
  2
*D32
  0
BLOCK_RECORD
  5
91FEF
330
1
100
AcDbSymbolTableRecord
100
AcDbBlockTableRecord
  2
*D33
  0
ENDTAB
  0
ENDSEC
  0
SECTION
  2
BLOCKS
  0
BLOCK
  5
1F
330
1E
100
AcDbEntity
  8
0
100
AcDbBlockBegin
  2
*MODEL_SPACE
 70
     0
 10
0.0
 20
0.0
 30
0.0
  3
*MODEL_SPACE
  1

  0
ENDBLK
  5
20
330
1E
100
AcDbEntity
  8
0
100
AcDbBlockEnd
  0
BLOCK
  5
1B
330
1A
100
AcDbEntity
 67
     1
  8
0
100
AcDbBlockBegin
  2
*PAPER_SPACE
 70
     0
 10
0.0
 20
0.0
 30
0.0
  3
*PAPER_SPACE
  1

  0
ENDBLK
  5
1C
330
1A
100
AcDbEntity
 67
     1
  8
0
100
AcDbBlockEnd
  0
BLOCK
  5
47
330
46
100
AcDbEntity
  8
0
100
AcDbBlockBegin
  2
_ORIGIN
 70
     0
 10
0.0
 20
0.0
 30
0.0
  3
_ORIGIN
  1

  0
CIRCLE
  5
48
330
46
100
AcDbEntity
  8
0
  6
BYBLOCK
 62
     0
100
AcDbCircle
 10
0.0
 20
0.0
 30
0.0
 40
0.5
  0
LINE
  5
49
330
46
100
AcDbEntity
  8
0
  6
BYBLOCK
 62
     0
100
AcDbLine
 10
0.0
 20
0.0
 30
0.0
 11
-1.0
 21
0.0
 31
0.0
  0
ENDBLK
  5
4A
330
46
100
AcDbEntity
  8
0
100
AcDbBlockEnd
  0
BLOCK
  5
8EB39
330
8EB2F
100
AcDbEntity
  8
0
100
AcDbBlockBegin
  2
*D1
 70
     1
 10
0.0
 20
0.0
 30
0.0
  3
*D1
  1

  0
LINE
  5
8F0C5
330
8EB2F
100
AcDbEntity
  8
SIZE
  6
CONTINUOUS
 62
     0
100
AcDbLine
 10
-409.5733472954251
 20
0.0002480425093893
 30
0.0
 11
-525.1781638064722
 21
0.000248042509422
 31
0.0
  0
LINE
  5
8F0C6
330
8EB2F
100
AcDbEntity
  8
SIZE
  6
CONTINUOUS
 62
     0
100
AcDbLine
 10
-402.3756874995583
 20
-295.453958220142
 30
0.0
 11
-525.1781638064723
 21
-295.453958220142
 31
0.0
  0
LINE
  5
8F0C7
330
8EB2F
100
AcDbEntity
  8
SIZE
  6
CONTINUOUS
 62
     0
100
AcDbLine
 10
-505.1781638064722
 20
-9.999751957490584
 30
0.0
 11
-505.1781638064722
 21
-285.453958220142
 31
0.0
  0
INSERT
  5
8F0C8
330
8EB2F
100
AcDbEntity
  8
SIZE
  6
CONTINUOUS
 62
     0
100
AcDbBlockReference
  2
_ORIGIN
 10
-505.1781638064722
 20
0.0002480425094163
 30
0.0
 41
10.0
 42
10.0
 43
10.0
 50
90.0
  0
INSERT
  5
8F0C9
330
8EB2F
100
AcDbEntity
  8
SIZE
  6
CONTINUOUS
 62
     0
100
AcDbBlockReference
  2
_ORIGIN
 10
-505.1781638064722
 20
-295.453958220142
 30
0.0
 41
10.0
 42
10.0
 43
10.0
 50
270.0
  0
MTEXT
  5
8F0CA
330
8EB2F
100
AcDbEntity
  8
SIZE
  6
CONTINUOUS
 62
     0
100
AcDbMText
 10
-540.1781638064721
 20
-147.7268550888164
 30
0.0
 40
50.0
 41
0.0
 71
     5
 72
     1
  1
\A1;295
 11
0.0000000000000001
 21
1.0
 31
0.0
1001
ACAD
1000
MTEXTBEGIN
1070
    73
1070
     1
1070
    44
1040
1.0
1070
    74
1070
     0
1000
MTEXTEND
  0
POINT
  5
8F0CB
330
8EB2F
100
AcDbEntity
  8
DEFPOINTS
  6
CONTINUOUS
 62
     0
100
AcDbPoint
 10
-389.5733472954251
 20
0.0002480425093836
 30
0.0
  0
POINT
  5
8F0CC
330
8EB2F
100
AcDbEntity
  8
DEFPOINTS
  6
CONTINUOUS
 62
     0
100
AcDbPoint
 10
-382.3756874995583
 20
-295.4539582201421
 30
0.0
  0
POINT
  5
8F0CD
330
8EB2F
100
AcDbEntity
  8
DEFPOINTS
  6
CONTINUOUS
 62
     0
100
AcDbPoint
 10
-505.1781638064722
 20
-295.453958220142
 30
0.0
  0
ENDBLK
  5
8EB3A
330
8EB2F
100
AcDbEntity
  8
0
100
AcDbBlockEnd
  0
BLOCK
  5
8EB47
330
8EB3D
100
AcDbEntity
  8
0
100
AcDbBlockBegin
  2
*D2
 70
     1
 10
0.0
 20
0.0
 30
0.0
  3
*D2
  1

  0
LINE
  5
8F05E
330
8EB3D
100
AcDbEntity
  8
SIZE
  6
CONTINUOUS
 62
     0
100
AcDbLine
 10
-399.5697737865528
 20
9.999209812572189
 30
0.0
 11
-399.5697737865528
 21
142.2262578441682
 31
0.0
  0
LINE
  5
8F05F
330
8EB3D
100
AcDbEntity
  8
SIZE
  6
CONTINUOUS
 62
     0
100
AcDbLine
 10
399.5700970095347
 20
7.773996315770318
 30
0.0
 11
399.5700970095347
 21
142.2262578441682
 31
0.0
  0
LINE
  5
8F060
330
8EB3D
100
AcDbEntity
  8
SIZE
  6
CONTINUOUS
 62
     0
100
AcDbLine
 10
-389.5697737865529
 20
122.2262578441682
 30
0.0
 11
389.5700970095347
 21
122.2262578441682
 31
0.0
  0
INSERT
  5
8F061
330
8EB3D
100
AcDbEntity
  8
SIZE
  6
CONTINUOUS
 62
     0
100
AcDbBlockReference
  2
_ORIGIN
 10
-399.5697737865528
 20
122.2262578441682
 30
0.0
 41
10.0
 42
10.0
 43
10.0
 50
180.0
  0
INSERT
  5
8F062
330
8EB3D
100
AcDbEntity
  8
SIZE
  6
CONTINUOUS
 62
     0
100
AcDbBlockReference
  2
_ORIGIN
 10
399.5700970095347
 20
122.2262578441682
 30
0.0
 41
10.0
 42
10.0
 43
10.0
  0
MTEXT
  5
8F063
330
8EB3D
100
AcDbEntity
  8
SIZE
  6
CONTINUOUS
 62
     0
100
AcDbMText
 10
0.0001616114909119
 20
157.2262578441682
 30
0.0
 40
50.0
 41
0.0
 71
     5
 72
     1
  1
\A1;799
1001
ACAD
1000
MTEXTBEGIN
1070
    73
1070
     1
1070
    44
1040
1.0
1070
    74
1070
     0
1000
MTEXTEND
  0
POINT
  5
8F064
330
8EB3D
100
AcDbEntity
  8
DEFPOINTS
  6
CONTINUOUS
 62
     0
100
AcDbPoint
 10
-399.5697737865528
 20
-10.00079018742781
 30
0.0
  0
POINT
  5
8F065
330
8EB3D
100
AcDbEntity
  8
DEFPOINTS
  6
CONTINUOUS
 62
     0
100
AcDbPoint
 10
399.5700970095347
 20
-12.22600368422968
 30
0.0
  0
POINT
  5
8F066
330
8EB3D
100
AcDbEntity
  8
DEFPOINTS
  6
CONTINUOUS
 62
     0
100
AcDbPoint
 10
399.5700970095347
 20
122.2262578441682
 30
0.0
  0
ENDBLK
  5
8EB48
330
8EB3D
100
AcDbEntity
  8
0
100
AcDbBlockEnd
  0
BLOCK
  5
8EBF8
330
8EBED
100
AcDbEntity
  8
0
100
AcDbBlockBegin
  2
*D3
 70
     1
 10
0.0
 20
0.0
 30
0.0
  3
*D3
  1

  0
LINE
  5
9202F
330
8EBED
100
AcDbEntity
  8
SIZE
  6
CONTINUOUS
 62
     0
100
AcDbLine
 10
-419.3701625000008
 20
-294.9041250000009
 30
0.0
 11
-529.903232750301
 21
-294.9041250000009
 31
0.0
  0
LINE
  5
92030
330
8EBED
100
AcDbEntity
  8
SIZE
  6
CONTINUOUS
 62
     0
100
AcDbLine
 10
-389.8798499675008
 20
-252.9177749999926
 30
0.0
 11
-529.903232750301
 21
-252.9177749999925
 31
0.0
  0
LINE
  5
92031
330
8EBED
100
AcDbEntity
  8
SIZE
  6
CONTINUOUS
 62
     0
100
AcDbLine
 10
-509.9032327503009
 20
-284.9041250000009
 30
0.0
 11
-509.9032327503009
 21
-262.9177749999926
 31
0.0
  0
LINE
  5
92032
330
8EBED
100
AcDbEntity
  8
SIZE
  6
CONTINUOUS
 62
     0
100
AcDbLine
 10
-509.9032327503009
 20
-252.9177749999925
 30
0.0
 11
-509.9032327503009
 21
-150.0606321428497
 31
0.0
  0
INSERT
  5
92033
330
8EBED
100
AcDbEntity
  8
SIZE
  6
CONTINUOUS
 62
     0
100
AcDbBlockReference
  2
_ORIGIN
 10
-509.9032327503009
 20
-294.9041250000009
 30
0.0
 41
10.0
 42
10.0
 43
10.0
 50
270.0
  0
INSERT
  5
92034
330
8EBED
100
AcDbEntity
  8
SIZE
  6
CONTINUOUS
 62
     0
100
AcDbBlockReference
  2
_ORIGIN
 10
-509.9032327503009
 20
-252.9177749999925
 30
0.0
 41
10.0
 42
10.0
 43
10.0
 50
90.0
  0
MTEXT
  5
92035
330
8EBED
100
AcDbEntity
  8
SIZE
  6
CONTINUOUS
 62
     0
100
AcDbMText
 10
-544.9032327503009
 20
-196.4892035714212
 30
0.0
 40
50.0
 41
0.0
 71
     5
 72
     1
  1
\A1;42
 11
0.0000000000000001
 21
1.0
 31
0.0
1001
ACAD
1000
MTEXTBEGIN
1070
    73
1070
     1
1070
    44
1040
1.0
1070
    74
1070
     0
1000
MTEXTEND
  0
POINT
  5
92036
330
8EBED
100
AcDbEntity
  8
DEFPOINTS
  6
CONTINUOUS
 62
     0
100
AcDbPoint
 10
-399.3701625000007
 20
-294.9041250000009
 30
0.0
  0
POINT
  5
92037
330
8EBED
100
AcDbEntity
  8
DEFPOINTS
  6
CONTINUOUS
 62
     0
100
AcDbPoint
 10
-369.8798499675008
 20
-252.9177749999926
 30
0.0
  0
POINT
  5
92038
330
8EBED
100
AcDbEntity
  8
DEFPOINTS
  6
CONTINUOUS
 62
     0
100
AcDbPoint
 10
-509.9032327503009
 20
-252.9177749999925
 30
0.0
  0
ENDBLK
  5
8EBF9
330
8EBED
100
AcDbEntity
  8
0
100
AcDbBlockEnd
  0
BLOCK
  5
8EC05
330
8EBFB
100
AcDbEntity
  8
0
100
AcDbBlockBegin
  2
*D4
 70
     1
 10
0.0
 20
0.0
 30
0.0
  3
*D4
  1

  0
LINE
  5
92039
330
8EBFB
100
AcDbEntity
  8
SIZE
  6
CONTINUOUS
 62
     0
100
AcDbLine
 10
-419.3701625000008
 20
-294.9041250000009
 30
0.0
 11
-652.5460118658376
 21
-294.9041250000009
 31
0.0
  0
LINE
  5
9203A
330
8EBFB
100
AcDbEntity
  8
SIZE
  6
CONTINUOUS
 62
     0
100
AcDbLine
 10
-419.3701625000008
 20
0.0000000000000057
 30
0.0
 11
-652.5460118658375
 21
0.0000000000000717
 31
0.0
  0
LINE
  5
9203B
330
8EBFB
100
AcDbEntity
  8
SIZE
  6
CONTINUOUS
 62
     0
100
AcDbLine
 10
-632.5460118658376
 20
-284.9041250000009
 30
0.0
 11
-632.5460118658375
 21
-9.999999999999934
 31
0.0
  0
INSERT
  5
9203C
330
8EBFB
100
AcDbEntity
  8
SIZE
  6
CONTINUOUS
 62
     0
100
AcDbBlockReference
  2
_ORIGIN
 10
-632.5460118658376
 20
-294.9041250000009
 30
0.0
 41
10.0
 42
10.0
 43
10.0
 50
270.0
  0
INSERT
  5
9203D
330
8EBFB
100
AcDbEntity
  8
SIZE
  6
CONTINUOUS
 62
     0
100
AcDbBlockReference
  2
_ORIGIN
 10
-632.5460118658375
 20
0.0000000000000661
 30
0.0
 41
10.0
 42
10.0
 43
10.0
 50
90.0
  0
MTEXT
  5
9203E
330
8EBFB
100
AcDbEntity
  8
SIZE
  6
CONTINUOUS
 62
     0
100
AcDbMText
 10
-667.5460118658374
 20
-147.4520625000005
 30
0.0
 40
50.0
 41
0.0
 71
     5
 72
     1
  1
\A1;295
 11
0.0000000000000001
 21
1.0
 31
0.0
1001
ACAD
1000
MTEXTBEGIN
1070
    73
1070
     1
1070
    44
1040
1.0
1070
    74
1070
     0
1000
MTEXTEND
  0
POINT
  5
9203F
330
8EBFB
100
AcDbEntity
  8
DEFPOINTS
  6
CONTINUOUS
 62
     0
100
AcDbPoint
 10
-399.3701625000007
 20
-294.9041250000009
 30
0.0
  0
POINT
  5
92040
330
8EBFB
100
AcDbEntity
  8
DEFPOINTS
  6
CONTINUOUS
 62
     0
100
AcDbPoint
 10
-399.3701625000007
 20
0.0
 30
0.0
  0
POINT
  5
92041
330
8EBFB
100
AcDbEntity
  8
DEFPOINTS
  6
CONTINUOUS
 62
     0
100
AcDbPoint
 10
-632.5460118658375
 20
0.0000000000000661
 30
0.0
  0
ENDBLK
  5
8EC06
330
8EBFB
100
AcDbEntity
  8
0
100
AcDbBlockEnd
  0
BLOCK
  5
8EC33
330
8EC29
100
AcDbEntity
  8
0
100
AcDbBlockBegin
  2
*D5
 70
     1
 10
0.0
 20
0.0
 30
0.0
  3
*D5
  1

  0
LINE
  5
9201C
330
8EC29
100
AcDbEntity
  8
SIZE
  6
CONTINUOUS
 62
     0
100
AcDbLine
 10
-329.8927499999981
 20
-312.9178749899938
 30
0.0
 11
-329.8927499999981
 21
-454.4913684433058
 31
0.0
  0
LINE
  5
9201D
330
8EC29
100
AcDbEntity
  8
SIZE
  6
CONTINUOUS
 62
     0
100
AcDbLine
 10
-0.0000000000000012
 20
-362.4925549182944
 30
0.0
 11
-0.0000000000000069
 21
-454.4913684433058
 31
0.0
  0
LINE
  5
9201E
330
8EC29
100
AcDbEntity
  8
SIZE
  6
CONTINUOUS
 62
     0
100
AcDbLine
 10
-319.8927499999981
 20
-434.4913684433058
 30
0.0
 11
-10.0
 21
-434.4913684433058
 31
0.0
  0
INSERT
  5
9201F
330
8EC29
100
AcDbEntity
  8
SIZE
  6
CONTINUOUS
 62
     0
100
AcDbBlockReference
  2
_ORIGIN
 10
-329.8927499999981
 20
-434.4913684433058
 30
0.0
 41
10.0
 42
10.0
 43
10.0
 50
180.0
  0
INSERT
  5
92020
330
8EC29
100
AcDbEntity
  8
SIZE
  6
CONTINUOUS
 62
     0
100
AcDbBlockReference
  2
_ORIGIN
 10
-0.0000000000000056
 20
-434.4913684433058
 30
0.0
 41
10.0
 42
10.0
 43
10.0
  0
MTEXT
  5
92021
330
8EC29
100
AcDbEntity
  8
SIZE
  6
CONTINUOUS
 62
     0
100
AcDbMText
 10
-164.946374999999
 20
-399.4913684433058
 30
0.0
 40
50.0
 41
0.0
 71
     5
 72
     1
  1
\A1;330
1001
ACAD
1000
MTEXTBEGIN
1070
    73
1070
     1
1070
    44
1040
1.0
1070
    74
1070
     0
1000
MTEXTEND
  0
POINT
  5
92022
330
8EC29
100
AcDbEntity
  8
DEFPOINTS
  6
CONTINUOUS
 62
     0
100
AcDbPoint
 10
-329.8927499999981
 20
-292.9178749899938
 30
0.0
  0
POINT
  5
92023
330
8EC29
100
AcDbEntity
  8
DEFPOINTS
  6
CONTINUOUS
 62
     0
100
AcDbPoint
 10
0.0
 20
-342.4925549182944
 30
0.0
  0
POINT
  5
92024
330
8EC29
100
AcDbEntity
  8
DEFPOINTS
  6
CONTINUOUS
 62
     0
100
AcDbPoint
 10
-0.0000000000000056
 20
-434.4913684433058
 30
0.0
  0
ENDBLK
  5
8EC34
330
8EC29
100
AcDbEntity
  8
0
100
AcDbBlockEnd
  0
BLOCK
  5
8EC40
330
8EC36
100
AcDbEntity
  8
0
100
AcDbBlockBegin
  2
*D6
 70
     1
 10
0.0
 20
0.0
 30
0.0
  3
*D6
  1

  0
LINE
  5
9204C
330
8EC36
100
AcDbEntity
  8
SIZE
  6
CONTINUOUS
 62
     0
100
AcDbLine
 10
-0.0000000000000012
 20
-362.4925549182944
 30
0.0
 11
-0.0000000000000069
 21
-454.4913684433058
 31
0.0
  0
LINE
  5
9204D
330
8EC36
100
AcDbEntity
  8
SIZE
  6
CONTINUOUS
 62
     0
100
AcDbLine
 10
344.8878750000003
 20
-313.9175499899993
 30
0.0
 11
344.8878750000003
 21
-454.4913684433058
 31
0.0
  0
LINE
  5
9204E
330
8EC36
100
AcDbEntity
  8
SIZE
  6
CONTINUOUS
 62
     0
100
AcDbLine
 10
9.999999999999994
 20
-434.4913684433058
 30
0.0
 11
334.8878750000003
 21
-434.4913684433058
 31
0.0
  0
INSERT
  5
9204F
330
8EC36
100
AcDbEntity
  8
SIZE
  6
CONTINUOUS
 62
     0
100
AcDbBlockReference
  2
_ORIGIN
 10
-0.0000000000000056
 20
-434.4913684433058
 30
0.0
 41
10.0
 42
10.0
 43
10.0
 50
180.0
  0
INSERT
  5
92050
330
8EC36
100
AcDbEntity
  8
SIZE
  6
CONTINUOUS
 62
     0
100
AcDbBlockReference
  2
_ORIGIN
 10
344.8878750000003
 20
-434.4913684433058
 30
0.0
 41
10.0
 42
10.0
 43
10.0
  0
MTEXT
  5
92051
330
8EC36
100
AcDbEntity
  8
SIZE
  6
CONTINUOUS
 62
     0
100
AcDbMText
 10
172.4439375000001
 20
-399.4913684433058
 30
0.0
 40
50.0
 41
0.0
 71
     5
 72
     1
  1
\A1;345
1001
ACAD
1000
MTEXTBEGIN
1070
    73
1070
     1
1070
    44
1040
1.0
1070
    74
1070
     0
1000
MTEXTEND
  0
POINT
  5
92052
330
8EC36
100
AcDbEntity
  8
DEFPOINTS
  6
CONTINUOUS
 62
     0
100
AcDbPoint
 10
0.0
 20
-342.4925549182944
 30
0.0
  0
POINT
  5
92053
330
8EC36
100
AcDbEntity
  8
DEFPOINTS
  6
CONTINUOUS
 62
     0
100
AcDbPoint
 10
344.8878750000003
 20
-293.9175499899993
 30
0.0
  0
POINT
  5
92054
330
8EC36
100
AcDbEntity
  8
DEFPOINTS
  6
CONTINUOUS
 62
     0
100
AcDbPoint
 10
344.8878750000003
 20
-434.4913684433058
 30
0.0
  0
ENDBLK
  5
8EC41
330
8EC36
100
AcDbEntity
  8
0
100
AcDbBlockEnd
  0
BLOCK
  5
8EC5C
330
8EC51
100
AcDbEntity
  8
0
100
AcDbBlockBegin
  2
*D7
 70
     1
 10
0.0
 20
0.0
 30
0.0
  3
*D7
  1

  0
LINE
  5
92055
330
8EC51
100
AcDbEntity
  8
SIZE
  6
CONTINUOUS
 62
     0
100
AcDbLine
 10
419.3701625000012
 20
-294.9041250000009
 30
0.0
 11
517.0565181706696
 21
-294.9041250000009
 31
0.0
  0
LINE
  5
92056
330
8EC51
100
AcDbEntity
  8
SIZE
  6
CONTINUOUS
 62
     0
100
AcDbLine
 10
404.887974989997
 20
-253.9174500000026
 30
0.0
 11
517.0565181706697
 21
-253.9174500000026
 31
0.0
  0
LINE
  5
92057
330
8EC51
100
AcDbEntity
  8
SIZE
  6
CONTINUOUS
 62
     0
100
AcDbLine
 10
497.0565181706697
 20
-284.9041250000009
 30
0.0
 11
497.0565181706697
 21
-263.9174500000026
 31
0.0
  0
LINE
  5
92058
330
8EC51
100
AcDbEntity
  8
SIZE
  6
CONTINUOUS
 62
     0
100
AcDbLine
 10
497.0565181706697
 20
-253.9174500000026
 30
0.0
 11
497.0565181706697
 21
-170.3460214285741
 31
0.0
  0
INSERT
  5
92059
330
8EC51
100
AcDbEntity
  8
SIZE
  6
CONTINUOUS
 62
     0
100
AcDbBlockReference
  2
_ORIGIN
 10
497.0565181706697
 20
-294.9041250000009
 30
0.0
 41
10.0
 42
10.0
 43
10.0
 50
270.0
  0
INSERT
  5
9205A
330
8EC51
100
AcDbEntity
  8
SIZE
  6
CONTINUOUS
 62
     0
100
AcDbBlockReference
  2
_ORIGIN
 10
497.0565181706697
 20
-253.9174500000026
 30
0.0
 41
10.0
 42
10.0
 43
10.0
 50
90.0
  0
MTEXT
  5
9205B
330
8EC51
100
AcDbEntity
  8
SIZE
  6
CONTINUOUS
 62
     0
100
AcDbMText
 10
462.0565181706697
 20
-207.1317357142883
 30
0.0
 40
50.0
 41
0.0
 71
     5
 72
     1
  1
\A1;41
 11
0.0000000000000001
 21
1.0
 31
0.0
1001
ACAD
1000
MTEXTBEGIN
1070
    73
1070
     1
1070
    44
1040
1.0
1070
    74
1070
     0
1000
MTEXTEND
  0
POINT
  5
9205C
330
8EC51
100
AcDbEntity
  8
DEFPOINTS
  6
CONTINUOUS
 62
     0
100
AcDbPoint
 10
399.3701625000012
 20
-294.9041250000009
 30
0.0
  0
POINT
  5
9205D
330
8EC51
100
AcDbEntity
  8
DEFPOINTS
  6
CONTINUOUS
 62
     0
100
AcDbPoint
 10
384.887974989997
 20
-253.9174500000026
 30
0.0
  0
POINT
  5
9205E
330
8EC51
100
AcDbEntity
  8
DEFPOINTS
  6
CONTINUOUS
 62
     0
100
AcDbPoint
 10
497.0565181706697
 20
-253.9174500000026
 30
0.0
  0
ENDBLK
  5
8EC5D
330
8EC51
100
AcDbEntity
  8
0
100
AcDbBlockEnd
  0
BLOCK
  5
8EC69
330
8EC5F
100
AcDbEntity
  8
0
100
AcDbBlockBegin
  2
*D8
 70
     1
 10
0.0
 20
0.0
 30
0.0
  3
*D8
  1

  0
LINE
  5
92013
330
8EC5F
100
AcDbEntity
  8
SIZE
  6
CONTINUOUS
 62
     0
100
AcDbLine
 10
-399.3701625000007
 20
20.0
 30
0.0
 11
-399.3701625000007
 21
200.7235352877278
 31
0.0
  0
LINE
  5
92014
330
8EC5F
100
AcDbEntity
  8
SIZE
  6
CONTINUOUS
 62
     0
100
AcDbLine
 10
399.3701625000012
 20
20.0
 30
0.0
 11
399.3701625000012
 21
200.7235352877278
 31
0.0
  0
LINE
  5
92015
330
8EC5F
100
AcDbEntity
  8
SIZE
  6
CONTINUOUS
 62
     0
100
AcDbLine
 10
-389.3701625000007
 20
180.7235352877278
 30
0.0
 11
389.3701625000012
 21
180.7235352877278
 31
0.0
  0
INSERT
  5
92016
330
8EC5F
100
AcDbEntity
  8
SIZE
  6
CONTINUOUS
 62
     0
100
AcDbBlockReference
  2
_ORIGIN
 10
-399.3701625000007
 20
180.7235352877278
 30
0.0
 41
10.0
 42
10.0
 43
10.0
 50
180.0
  0
INSERT
  5
92017
330
8EC5F
100
AcDbEntity
  8
SIZE
  6
CONTINUOUS
 62
     0
100
AcDbBlockReference
  2
_ORIGIN
 10
399.3701625000012
 20
180.7235352877278
 30
0.0
 41
10.0
 42
10.0
 43
10.0
  0
MTEXT
  5
92018
330
8EC5F
100
AcDbEntity
  8
SIZE
  6
CONTINUOUS
 62
     0
100
AcDbMText
 10
0.0000000000002295
 20
215.7235352877278
 30
0.0
 40
50.0
 41
0.0
 71
     5
 72
     1
  1
\A1;799
1001
ACAD
1000
MTEXTBEGIN
1070
    73
1070
     1
1070
    44
1040
1.0
1070
    74
1070
     0
1000
MTEXTEND
  0
POINT
  5
92019
330
8EC5F
100
AcDbEntity
  8
DEFPOINTS
  6
CONTINUOUS
 62
     0
100
AcDbPoint
 10
-399.3701625000007
 20
0.0
 30
0.0
  0
POINT
  5
9201A
330
8EC5F
100
AcDbEntity
  8
DEFPOINTS
  6
CONTINUOUS
 62
     0
100
AcDbPoint
 10
399.3701625000012
 20
0.0
 30
0.0
  0
POINT
  5
9201B
330
8EC5F
100
AcDbEntity
  8
DEFPOINTS
  6
CONTINUOUS
 62
     0
100
AcDbPoint
 10
399.3701625000012
 20
180.7235352877278
 30
0.0
  0
ENDBLK
  5
8EC6A
330
8EC5F
100
AcDbEntity
  8
0
100
AcDbBlockEnd
  0
BLOCK
  5
8EC76
330
8EC6C
100
AcDbEntity
  8
0
100
AcDbBlockBegin
  2
*D9
 70
     1
 10
0.0
 20
0.0
 30
0.0
  3
*D9
  1

  0
LINE
  5
8F46B
330
8EC6C
100
AcDbEntity
  8
SIZE
  6
CONTINUOUS
 62
     0
100
AcDbLine
 10
-399.5700974999995
 20
869.6732816650223
 30
0.0
 11
-399.5700974999995
 21
485.1752537602221
 31
0.0
  0
LINE
  5
8F46C
330
8EC6C
100
AcDbEntity
  8
SIZE
  6
CONTINUOUS
 62
     0
100
AcDbLine
 10
399.5700974999995
 20
869.6732816650223
 30
0.0
 11
399.5700974999995
 21
485.1752537602221
 31
0.0
  0
LINE
  5
8F46D
330
8EC6C
100
AcDbEntity
  8
SIZE
  6
CONTINUOUS
 62
     0
100
AcDbLine
 10
-389.5700974999995
 20
505.1752537602221
 30
0.0
 11
389.5700974999995
 21
505.1752537602221
 31
0.0
  0
INSERT
  5
8F46E
330
8EC6C
100
AcDbEntity
  8
SIZE
  6
CONTINUOUS
 62
     0
100
AcDbBlockReference
  2
_ORIGIN
 10
-399.5700974999995
 20
505.1752537602221
 30
0.0
 41
10.0
 42
10.0
 43
10.0
 50
180.0
  0
INSERT
  5
8F46F
330
8EC6C
100
AcDbEntity
  8
SIZE
  6
CONTINUOUS
 62
     0
100
AcDbBlockReference
  2
_ORIGIN
 10
399.5700974999995
 20
505.1752537602221
 30
0.0
 41
10.0
 42
10.0
 43
10.0
  0
MTEXT
  5
8F470
330
8EC6C
100
AcDbEntity
  8
SIZE
  6
CONTINUOUS
 62
     0
100
AcDbMText
 10
0.0000000000000021
 20
540.1752537602221
 30
0.0
 40
50.0
 41
0.0
 71
     5
 72
     1
  1
\A1;799
1001
ACAD
1000
MTEXTBEGIN
1070
    73
1070
     1
1070
    44
1040
1.0
1070
    74
1070
     0
1000
MTEXTEND
  0
POINT
  5
8F471
330
8EC6C
100
AcDbEntity
  8
DEFPOINTS
  6
CONTINUOUS
 62
     0
100
AcDbPoint
 10
-399.5700974999995
 20
889.6732816650224
 30
0.0
  0
POINT
  5
8F472
330
8EC6C
100
AcDbEntity
  8
DEFPOINTS
  6
CONTINUOUS
 62
     0
100
AcDbPoint
 10
399.5700974999995
 20
889.6732816650224
 30
0.0
  0
POINT
  5
8F473
330
8EC6C
100
AcDbEntity
  8
DEFPOINTS
  6
CONTINUOUS
 62
     0
100
AcDbPoint
 10
399.5700974999995
 20
505.1752537602221
 30
0.0
  0
ENDBLK
  5
8EC77
330
8EC6C
100
AcDbEntity
  8
0
100
AcDbBlockEnd
  0
BLOCK
  5
8ECC0
330
8ECB6
100
AcDbEntity
  8
0
100
AcDbBlockBegin
  2
*D10
 70
     1
 10
0.0
 20
0.0
 30
0.0
  3
*D10
  1

  0
LINE
  5
8F4ED
330
8ECB6
100
AcDbEntity
  8
SIZE
  6
CONTINUOUS
 62
     0
100
AcDbLine
 10
-396.7676389816429
 20
645.3324935793694
 30
0.0
 11
-557.9211291151385
 21
645.3324935793694
 31
0.0
  0
LINE
  5
8F4EE
330
8ECB6
100
AcDbEntity
  8
SIZE
  6
CONTINUOUS
 62
     0
100
AcDbLine
 10
-354.291320000002
 20
962.1497191650227
 30
0.0
 11
-557.9211291151384
 21
962.1497191650227
 31
0.0
  0
LINE
  5
8F4EF
330
8ECB6
100
AcDbEntity
  8
SIZE
  6
CONTINUOUS
 62
     0
100
AcDbLine
 10
-537.9211291151385
 20
655.3324935793694
 30
0.0
 11
-537.9211291151384
 21
952.1497191650228
 31
0.0
  0
INSERT
  5
8F4F0
330
8ECB6
100
AcDbEntity
  8
SIZE
  6
CONTINUOUS
 62
     0
100
AcDbBlockReference
  2
_ORIGIN
 10
-537.9211291151385
 20
645.3324935793694
 30
0.0
 41
10.0
 42
10.0
 43
10.0
 50
270.0
  0
INSERT
  5
8F4F1
330
8ECB6
100
AcDbEntity
  8
SIZE
  6
CONTINUOUS
 62
     0
100
AcDbBlockReference
  2
_ORIGIN
 10
-537.9211291151384
 20
962.1497191650227
 30
0.0
 41
10.0
 42
10.0
 43
10.0
 50
90.0
  0
MTEXT
  5
8F4F2
330
8ECB6
100
AcDbEntity
  8
SIZE
  6
CONTINUOUS
 62
     0
100
AcDbMText
 10
-572.9211291151386
 20
803.7411063721959
 30
0.0
 40
50.0
 41
0.0
 71
     5
 72
     1
  1
\A1;317
 11
0.0000000000000001
 21
1.0
 31
0.0
1001
ACAD
1000
MTEXTBEGIN
1070
    73
1070
     1
1070
    44
1040
1.0
1070
    74
1070
     0
1000
MTEXTEND
  0
POINT
  5
8F4F3
330
8ECB6
100
AcDbEntity
  8
DEFPOINTS
  6
CONTINUOUS
 62
     0
100
AcDbPoint
 10
-376.7676389816429
 20
645.3324935793694
 30
0.0
  0
POINT
  5
8F4F4
330
8ECB6
100
AcDbEntity
  8
DEFPOINTS
  6
CONTINUOUS
 62
     0
100
AcDbPoint
 10
-334.291320000002
 20
962.1497191650227
 30
0.0
  0
POINT
  5
8F4F5
330
8ECB6
100
AcDbEntity
  8
DEFPOINTS
  6
CONTINUOUS
 62
     0
100
AcDbPoint
 10
-537.9211291151384
 20
962.1497191650227
 30
0.0
  0
ENDBLK
  5
8ECC1
330
8ECB6
100
AcDbEntity
  8
0
100
AcDbBlockEnd
  0
BLOCK
  5
8ED62
330
8ED57
100
AcDbEntity
  8
0
100
AcDbBlockBegin
  2
*D11
 70
     1
 10
0.0
 20
0.0
 30
0.0
  3
*D11
  1

  0
LINE
  5
8F45F
330
8ED57
100
AcDbEntity
  8
SIZE
  6
CONTINUOUS
 62
     0
100
AcDbLine
 10
330.0700974999995
 20
1002.149719165022
 30
0.0
 11
330.0700974999995
 21
1220.45766407801
 31
0.0
  0
LINE
  5
8F460
330
8ED57
100
AcDbEntity
  8
SIZE
  6
CONTINUOUS
 62
     0
100
AcDbLine
 10
399.5700974999995
 20
909.6732816650224
 30
0.0
 11
399.5700974999995
 21
1220.45766407801
 31
0.0
  0
LINE
  5
8F461
330
8ED57
100
AcDbEntity
  8
SIZE
  6
CONTINUOUS
 62
     0
100
AcDbLine
 10
340.0700974999995
 20
1200.45766407801
 30
0.0
 11
389.5700974999995
 21
1200.45766407801
 31
0.0
  0
LINE
  5
8F462
330
8ED57
100
AcDbEntity
  8
SIZE
  6
CONTINUOUS
 62
     0
100
AcDbLine
 10
399.5700974999995
 20
1200.45766407801
 30
0.0
 11
566.7129546428566
 21
1200.45766407801
 31
0.0
  0
INSERT
  5
8F463
330
8ED57
100
AcDbEntity
  8
SIZE
  6
CONTINUOUS
 62
     0
100
AcDbBlockReference
  2
_ORIGIN
 10
330.0700974999995
 20
1200.45766407801
 30
0.0
 41
10.0
 42
10.0
 43
10.0
 50
180.0
  0
INSERT
  5
8F464
330
8ED57
100
AcDbEntity
  8
SIZE
  6
CONTINUOUS
 62
     0
100
AcDbBlockReference
  2
_ORIGIN
 10
399.5700974999995
 20
1200.45766407801
 30
0.0
 41
10.0
 42
10.0
 43
10.0
  0
MTEXT
  5
8F465
330
8ED57
100
AcDbEntity
  8
SIZE
  6
CONTINUOUS
 62
     0
100
AcDbMText
 10
488.141526071428
 20
1235.45766407801
 30
0.0
 40
50.0
 41
0.0
 71
     5
 72
     1
  1
\A1;69.5
1001
ACAD
1000
MTEXTBEGIN
1070
    73
1070
     1
1070
    44
1040
1.0
1070
    74
1070
     0
1000
MTEXTEND
  0
POINT
  5
8F466
330
8ED57
100
AcDbEntity
  8
DEFPOINTS
  6
CONTINUOUS
 62
     0
100
AcDbPoint
 10
330.0700974999995
 20
982.1497191650228
 30
0.0
  0
POINT
  5
8F467
330
8ED57
100
AcDbEntity
  8
DEFPOINTS
  6
CONTINUOUS
 62
     0
100
AcDbPoint
 10
399.5700974999995
 20
889.6732816650224
 30
0.0
  0
POINT
  5
8F468
330
8ED57
100
AcDbEntity
  8
DEFPOINTS
  6
CONTINUOUS
 62
     0
100
AcDbPoint
 10
399.5700974999995
 20
1200.45766407801
 30
0.0
  0
ENDBLK
  5
8ED63
330
8ED57
100
AcDbEntity
  8
0
100
AcDbBlockEnd
  0
BLOCK
  5
8ED72
330
8ED67
100
AcDbEntity
  8
0
100
AcDbBlockBegin
  2
*D12
 70
     1
 10
0.0
 20
0.0
 30
0.0
  3
*D12
  1

  0
LINE
  5
8F298
330
8ED67
100
AcDbEntity
  8
SIZE
  6
CONTINUOUS
 62
     0
100
AcDbLine
 10
-345.0700974999995
 20
1002.149719165022
 30
0.0
 11
-345.0700974999995
 21
1220.45766407801
 31
0.0
  0
LINE
  5
8F299
330
8ED67
100
AcDbEntity
  8
SIZE
  6
CONTINUOUS
 62
     0
100
AcDbLine
 10
-399.5700974999995
 20
909.6732816650224
 30
0.0
 11
-399.5700974999995
 21
1220.45766407801
 31
0.0
  0
LINE
  5
8F29A
330
8ED67
100
AcDbEntity
  8
SIZE
  6
CONTINUOUS
 62
     0
100
AcDbLine
 10
-355.0700974999995
 20
1200.45766407801
 30
0.0
 11
-389.5700974999995
 21
1200.45766407801
 31
0.0
  0
LINE
  5
8F29B
330
8ED67
100
AcDbEntity
  8
SIZE
  6
CONTINUOUS
 62
     0
100
AcDbLine
 10
-399.5700974999995
 20
1200.45766407801
 30
0.0
 11
-566.7129546428566
 21
1200.45766407801
 31
0.0
  0
INSERT
  5
8F29C
330
8ED67
100
AcDbEntity
  8
SIZE
  6
CONTINUOUS
 62
     0
100
AcDbBlockReference
  2
_ORIGIN
 10
-345.0700974999995
 20
1200.45766407801
 30
0.0
 41
10.0
 42
10.0
 43
10.0
  0
INSERT
  5
8F29D
330
8ED67
100
AcDbEntity
  8
SIZE
  6
CONTINUOUS
 62
     0
100
AcDbBlockReference
  2
_ORIGIN
 10
-399.5700974999995
 20
1200.45766407801
 30
0.0
 41
10.0
 42
10.0
 43
10.0
 50
180.0
  0
MTEXT
  5
8F29E
330
8ED67
100
AcDbEntity
  8
SIZE
  6
CONTINUOUS
 62
     0
100
AcDbMText
 10
-488.141526071428
 20
1235.45766407801
 30
0.0
 40
50.0
 41
0.0
 71
     5
 72
     1
  1
\A1;54.5
1001
ACAD
1000
MTEXTBEGIN
1070
    73
1070
     1
1070
    44
1040
1.0
1070
    74
1070
     0
1000
MTEXTEND
  0
POINT
  5
8F29F
330
8ED67
100
AcDbEntity
  8
DEFPOINTS
  6
CONTINUOUS
 62
     0
100
AcDbPoint
 10
-345.0700974999995
 20
982.149719165022
 30
0.0
  0
POINT
  5
8F2A0
330
8ED67
100
AcDbEntity
  8
DEFPOINTS
  6
CONTINUOUS
 62
     0
100
AcDbPoint
 10
-399.5700974999995
 20
889.6732816650224
 30
0.0
  0
POINT
  5
8F2A1
330
8ED67
100
AcDbEntity
  8
DEFPOINTS
  6
CONTINUOUS
 62
     0
100
AcDbPoint
 10
-399.5700974999995
 20
1200.45766407801
 30
0.0
  0
ENDBLK
  5
8ED73
330
8ED67
100
AcDbEntity
  8
0
100
AcDbBlockEnd
  0
BLOCK
  5
8ED8C
330
8ED82
100
AcDbEntity
  8
0
100
AcDbBlockBegin
  2
*D13
 70
     1
 10
0.0
 20
0.0
 30
0.0
  3
*D13
  1

  0
LINE
  5
8F286
330
8ED82
100
AcDbEntity
  8
SIZE
  6
CONTINUOUS
 62
     0
100
AcDbLine
 10
-0.0003142281673251
 20
1041.600001213357
 30
0.0
 11
-0.0003142281673141
 21
1220.45766407801
 31
0.0
  0
LINE
  5
8F287
330
8ED82
100
AcDbEntity
  8
SIZE
  6
CONTINUOUS
 62
     0
100
AcDbLine
 10
330.0700974999995
 20
1002.149719165022
 30
0.0
 11
330.0700974999995
 21
1220.45766407801
 31
0.0
  0
LINE
  5
8F288
330
8ED82
100
AcDbEntity
  8
SIZE
  6
CONTINUOUS
 62
     0
100
AcDbLine
 10
9.999685771832684
 20
1200.45766407801
 30
0.0
 11
320.0700974999995
 21
1200.45766407801
 31
0.0
  0
INSERT
  5
8F289
330
8ED82
100
AcDbEntity
  8
SIZE
  6
CONTINUOUS
 62
     0
100
AcDbBlockReference
  2
_ORIGIN
 10
-0.0003142281673153
 20
1200.45766407801
 30
0.0
 41
10.0
 42
10.0
 43
10.0
 50
180.0
  0
INSERT
  5
8F28A
330
8ED82
100
AcDbEntity
  8
SIZE
  6
CONTINUOUS
 62
     0
100
AcDbBlockReference
  2
_ORIGIN
 10
330.0700974999995
 20
1200.45766407801
 30
0.0
 41
10.0
 42
10.0
 43
10.0
  0
MTEXT
  5
8F28B
330
8ED82
100
AcDbEntity
  8
SIZE
  6
CONTINUOUS
 62
     0
100
AcDbMText
 10
165.034891635916
 20
1235.45766407801
 30
0.0
 40
50.0
 41
0.0
 71
     5
 72
     1
  1
\A1;330
1001
ACAD
1000
MTEXTBEGIN
1070
    73
1070
     1
1070
    44
1040
1.0
1070
    74
1070
     0
1000
MTEXTEND
  0
POINT
  5
8F28C
330
8ED82
100
AcDbEntity
  8
DEFPOINTS
  6
CONTINUOUS
 62
     0
100
AcDbPoint
 10
-0.0003142281673263
 20
1021.600001213357
 30
0.0
  0
POINT
  5
8F28D
330
8ED82
100
AcDbEntity
  8
DEFPOINTS
  6
CONTINUOUS
 62
     0
100
AcDbPoint
 10
330.0700974999995
 20
982.1497191650228
 30
0.0
  0
POINT
  5
8F28E
330
8ED82
100
AcDbEntity
  8
DEFPOINTS
  6
CONTINUOUS
 62
     0
100
AcDbPoint
 10
330.0700974999995
 20
1200.45766407801
 30
0.0
  0
ENDBLK
  5
8ED8D
330
8ED82
100
AcDbEntity
  8
0
100
AcDbBlockEnd
  0
BLOCK
  5
8ED99
330
8ED8F
100
AcDbEntity
  8
0
100
AcDbBlockBegin
  2
*D14
 70
     1
 10
0.0
 20
0.0
 30
0.0
  3
*D14
  1

  0
LINE
  5
8F28F
330
8ED8F
100
AcDbEntity
  8
SIZE
  6
CONTINUOUS
 62
     0
100
AcDbLine
 10
-345.0700974999995
 20
1002.149719165022
 30
0.0
 11
-345.0700974999995
 21
1220.45766407801
 31
0.0
  0
LINE
  5
8F290
330
8ED8F
100
AcDbEntity
  8
SIZE
  6
CONTINUOUS
 62
     0
100
AcDbLine
 10
0.0001517281677946
 20
1051.907709675101
 30
0.0
 11
0.000151728167805
 21
1220.45766407801
 31
0.0
  0
LINE
  5
8F291
330
8ED8F
100
AcDbEntity
  8
SIZE
  6
CONTINUOUS
 62
     0
100
AcDbLine
 10
-335.0700974999995
 20
1200.45766407801
 30
0.0
 11
-9.999848271832195
 21
1200.45766407801
 31
0.0
  0
INSERT
  5
8F292
330
8ED8F
100
AcDbEntity
  8
SIZE
  6
CONTINUOUS
 62
     0
100
AcDbBlockReference
  2
_ORIGIN
 10
-345.0700974999995
 20
1200.45766407801
 30
0.0
 41
10.0
 42
10.0
 43
10.0
 50
180.0
  0
INSERT
  5
8F293
330
8ED8F
100
AcDbEntity
  8
SIZE
  6
CONTINUOUS
 62
     0
100
AcDbBlockReference
  2
_ORIGIN
 10
0.0001517281678037
 20
1200.45766407801
 30
0.0
 41
10.0
 42
10.0
 43
10.0
  0
MTEXT
  5
8F294
330
8ED8F
100
AcDbEntity
  8
SIZE
  6
CONTINUOUS
 62
     0
100
AcDbMText
 10
-172.5349728859158
 20
1235.45766407801
 30
0.0
 40
50.0
 41
0.0
 71
     5
 72
     1
  1
\A1;345
1001
ACAD
1000
MTEXTBEGIN
1070
    73
1070
     1
1070
    44
1040
1.0
1070
    74
1070
     0
1000
MTEXTEND
  0
POINT
  5
8F295
330
8ED8F
100
AcDbEntity
  8
DEFPOINTS
  6
CONTINUOUS
 62
     0
100
AcDbPoint
 10
-345.0700974999995
 20
982.149719165022
 30
0.0
  0
POINT
  5
8F296
330
8ED8F
100
AcDbEntity
  8
DEFPOINTS
  6
CONTINUOUS
 62
     0
100
AcDbPoint
 10
0.0001517281677934
 20
1031.907709675101
 30
0.0
  0
POINT
  5
8F297
330
8ED8F
100
AcDbEntity
  8
DEFPOINTS
  6
CONTINUOUS
 62
     0
100
AcDbPoint
 10
0.0001517281678037
 20
1200.45766407801
 30
0.0
  0
ENDBLK
  5
8ED9A
330
8ED8F
100
AcDbEntity
  8
0
100
AcDbBlockEnd
  0
BLOCK
  5
8EDD7
330
8EDCC
100
AcDbEntity
  8
0
100
AcDbBlockBegin
  2
*D15
 70
     1
 10
0.0
 20
0.0
 30
0.0
  3
*D15
  1

  0
LINE
  5
92025
330
8EDCC
100
AcDbEntity
  8
SIZE
  6
CONTINUOUS
 62
     0
100
AcDbLine
 10
-329.8927499999981
 20
-312.9178749899938
 30
0.0
 11
-329.8927499999981
 21
-454.4913684433058
 31
0.0
  0
LINE
  5
92026
330
8EDCC
100
AcDbEntity
  8
SIZE
  6
CONTINUOUS
 62
     0
100
AcDbLine
 10
-399.3701625000007
 20
-314.9041250000009
 30
0.0
 11
-399.3701625000007
 21
-454.4913684433058
 31
0.0
  0
LINE
  5
92027
330
8EDCC
100
AcDbEntity
  8
SIZE
  6
CONTINUOUS
 62
     0
100
AcDbLine
 10
-339.8927499999981
 20
-434.4913684433058
 30
0.0
 11
-389.3701625000007
 21
-434.4913684433058
 31
0.0
  0
LINE
  5
92028
330
8EDCC
100
AcDbEntity
  8
SIZE
  6
CONTINUOUS
 62
     0
100
AcDbLine
 10
-399.3701625000007
 20
-434.4913684433058
 30
0.0
 11
-566.5130196428578
 21
-434.4913684433058
 31
0.0
  0
INSERT
  5
92029
330
8EDCC
100
AcDbEntity
  8
SIZE
  6
CONTINUOUS
 62
     0
100
AcDbBlockReference
  2
_ORIGIN
 10
-329.8927499999981
 20
-434.4913684433058
 30
0.0
 41
10.0
 42
10.0
 43
10.0
  0
INSERT
  5
9202A
330
8EDCC
100
AcDbEntity
  8
SIZE
  6
CONTINUOUS
 62
     0
100
AcDbBlockReference
  2
_ORIGIN
 10
-399.3701625000007
 20
-434.4913684433058
 30
0.0
 41
10.0
 42
10.0
 43
10.0
 50
180.0
  0
MTEXT
  5
9202B
330
8EDCC
100
AcDbEntity
  8
SIZE
  6
CONTINUOUS
 62
     0
100
AcDbMText
 10
-487.9415910714293
 20
-399.4913684433058
 30
0.0
 40
50.0
 41
0.0
 71
     5
 72
     1
  1
\A1;69.5
1001
ACAD
1000
MTEXTBEGIN
1070
    73
1070
     1
1070
    44
1040
1.0
1070
    74
1070
     0
1000
MTEXTEND
  0
POINT
  5
9202C
330
8EDCC
100
AcDbEntity
  8
DEFPOINTS
  6
CONTINUOUS
 62
     0
100
AcDbPoint
 10
-329.8927499999981
 20
-292.9178749899938
 30
0.0
  0
POINT
  5
9202D
330
8EDCC
100
AcDbEntity
  8
DEFPOINTS
  6
CONTINUOUS
 62
     0
100
AcDbPoint
 10
-399.3701625000007
 20
-294.9041250000009
 30
0.0
  0
POINT
  5
9202E
330
8EDCC
100
AcDbEntity
  8
DEFPOINTS
  6
CONTINUOUS
 62
     0
100
AcDbPoint
 10
-399.3701625000007
 20
-434.4913684433058
 30
0.0
  0
ENDBLK
  5
8EDD8
330
8EDCC
100
AcDbEntity
  8
0
100
AcDbBlockEnd
  0
BLOCK
  5
8EDE5
330
8EDDA
100
AcDbEntity
  8
0
100
AcDbBlockBegin
  2
*D16
 70
     1
 10
0.0
 20
0.0
 30
0.0
  3
*D16
  1

  0
LINE
  5
92042
330
8EDDA
100
AcDbEntity
  8
SIZE
  6
CONTINUOUS
 62
     0
100
AcDbLine
 10
344.8878750000003
 20
-313.9175499899993
 30
0.0
 11
344.8878750000003
 21
-454.4913684433058
 31
0.0
  0
LINE
  5
92043
330
8EDDA
100
AcDbEntity
  8
SIZE
  6
CONTINUOUS
 62
     0
100
AcDbLine
 10
399.3701625000012
 20
-314.9041250000009
 30
0.0
 11
399.3701625000012
 21
-454.4913684433058
 31
0.0
  0
LINE
  5
92044
330
8EDDA
100
AcDbEntity
  8
SIZE
  6
CONTINUOUS
 62
     0
100
AcDbLine
 10
354.8878750000003
 20
-434.4913684433058
 30
0.0
 11
389.3701625000012
 21
-434.4913684433058
 31
0.0
  0
LINE
  5
92045
330
8EDDA
100
AcDbEntity
  8
SIZE
  6
CONTINUOUS
 62
     0
100
AcDbLine
 10
399.3701625000012
 20
-434.4913684433058
 30
0.0
 11
566.5130196428584
 21
-434.4913684433058
 31
0.0
  0
INSERT
  5
92046
330
8EDDA
100
AcDbEntity
  8
SIZE
  6
CONTINUOUS
 62
     0
100
AcDbBlockReference
  2
_ORIGIN
 10
344.8878750000003
 20
-434.4913684433058
 30
0.0
 41
10.0
 42
10.0
 43
10.0
 50
180.0
  0
INSERT
  5
92047
330
8EDDA
100
AcDbEntity
  8
SIZE
  6
CONTINUOUS
 62
     0
100
AcDbBlockReference
  2
_ORIGIN
 10
399.3701625000012
 20
-434.4913684433058
 30
0.0
 41
10.0
 42
10.0
 43
10.0
  0
MTEXT
  5
92048
330
8EDDA
100
AcDbEntity
  8
SIZE
  6
CONTINUOUS
 62
     0
100
AcDbMText
 10
487.9415910714298
 20
-399.4913684433058
 30
0.0
 40
50.0
 41
0.0
 71
     5
 72
     1
  1
\A1;54.5
1001
ACAD
1000
MTEXTBEGIN
1070
    73
1070
     1
1070
    44
1040
1.0
1070
    74
1070
     0
1000
MTEXTEND
  0
POINT
  5
92049
330
8EDDA
100
AcDbEntity
  8
DEFPOINTS
  6
CONTINUOUS
 62
     0
100
AcDbPoint
 10
344.8878750000003
 20
-293.9175499899993
 30
0.0
  0
POINT
  5
9204A
330
8EDDA
100
AcDbEntity
  8
DEFPOINTS
  6
CONTINUOUS
 62
     0
100
AcDbPoint
 10
399.3701625000012
 20
-294.9041250000009
 30
0.0
  0
POINT
  5
9204B
330
8EDDA
100
AcDbEntity
  8
DEFPOINTS
  6
CONTINUOUS
 62
     0
100
AcDbPoint
 10
399.3701625000012
 20
-434.4913684433058
 30
0.0
  0
ENDBLK
  5
8EDE6
330
8EDDA
100
AcDbEntity
  8
0
100
AcDbBlockEnd
  0
BLOCK
  5
8EE25
330
8EE1B
100
AcDbEntity
  8
0
100
AcDbBlockBegin
  2
*D17
 70
     1
 10
0.0
 20
0.0
 30
0.0
  3
*D17
  1

  0
LINE
  5
8F055
330
8EE1B
100
AcDbEntity
  8
SIZE
  6
CONTINUOUS
 62
     0
100
AcDbLine
 10
-887.9215740320274
 20
-68.095164671764
 30
0.0
 11
-887.9215740320274
 21
139.5635972424615
 31
0.0
  0
LINE
  5
8F056
330
8EE1B
100
AcDbEntity
  8
SIZE
  6
CONTINUOUS
 62
     0
100
AcDbLine
 10
-1204.815670520258
 20
-3.342411250003351
 30
0.0
 11
-1204.815670520258
 21
139.5635972424615
 31
0.0
  0
LINE
  5
8F057
330
8EE1B
100
AcDbEntity
  8
SIZE
  6
CONTINUOUS
 62
     0
100
AcDbLine
 10
-897.9215740320274
 20
119.5635972424615
 30
0.0
 11
-1194.815670520258
 21
119.5635972424615
 31
0.0
  0
INSERT
  5
8F058
330
8EE1B
100
AcDbEntity
  8
SIZE
  6
CONTINUOUS
 62
     0
100
AcDbBlockReference
  2
_ORIGIN
 10
-887.9215740320274
 20
119.5635972424615
 30
0.0
 41
10.0
 42
10.0
 43
10.0
  0
INSERT
  5
8F059
330
8EE1B
100
AcDbEntity
  8
SIZE
  6
CONTINUOUS
 62
     0
100
AcDbBlockReference
  2
_ORIGIN
 10
-1204.815670520258
 20
119.5635972424615
 30
0.0
 41
10.0
 42
10.0
 43
10.0
 50
180.0
  0
MTEXT
  5
8F05A
330
8EE1B
100
AcDbEntity
  8
SIZE
  6
CONTINUOUS
 62
     0
100
AcDbMText
 10
-1046.368622276143
 20
154.5635972424615
 30
0.0
 40
50.0
 41
0.0
 71
     5
 72
     1
  1
\A1;317
1001
ACAD
1000
MTEXTBEGIN
1070
    73
1070
     1
1070
    44
1040
1.0
1070
    74
1070
     0
1000
MTEXTEND
  0
POINT
  5
8F05B
330
8EE1B
100
AcDbEntity
  8
DEFPOINTS
  6
CONTINUOUS
 62
     0
100
AcDbPoint
 10
-887.9215740320274
 20
-88.09516467176399
 30
0.0
  0
POINT
  5
8F05C
330
8EE1B
100
AcDbEntity
  8
DEFPOINTS
  6
CONTINUOUS
 62
     0
100
AcDbPoint
 10
-1204.815670520258
 20
-23.34241125000335
 30
0.0
  0
POINT
  5
8F05D
330
8EE1B
100
AcDbEntity
  8
DEFPOINTS
  6
CONTINUOUS
 62
     0
100
AcDbPoint
 10
-1204.815670520258
 20
119.5635972424615
 30
0.0
  0
ENDBLK
  5
8EE26
330
8EE1B
100
AcDbEntity
  8
0
100
AcDbBlockEnd
  0
BLOCK
  5
8EE32
330
8EE28
100
AcDbEntity
  8
0
100
AcDbBlockBegin
  2
*D18
 70
     1
 10
0.0
 20
0.0
 30
0.0
  3
*D18
  1

  0
LINE
  5
8F08C
330
8EE28
100
AcDbEntity
  8
SIZE
  6
CONTINUOUS
 62
     0
100
AcDbLine
 10
-1211.818997024111
 20
-0.3498862499980021
 30
0.0
 11
-1622.102255143432
 21
-0.3498862499978859
 31
0.0
  0
LINE
  5
8F08D
330
8EE28
100
AcDbEntity
  8
SIZE
  6
CONTINUOUS
 62
     0
100
AcDbLine
 10
-1152.339233020255
 20
-295.4539462500024
 30
0.0
 11
-1622.102255143432
 21
-295.4539462500022
 31
0.0
  0
LINE
  5
8F08E
330
8EE28
100
AcDbEntity
  8
SIZE
  6
CONTINUOUS
 62
     0
100
AcDbLine
 10
-1602.102255143432
 20
-10.34988624999789
 30
0.0
 11
-1602.102255143432
 21
-285.4539462500022
 31
0.0
  0
INSERT
  5
8F08F
330
8EE28
100
AcDbEntity
  8
SIZE
  6
CONTINUOUS
 62
     0
100
AcDbBlockReference
  2
_ORIGIN
 10
-1602.102255143432
 20
-0.3498862499978915
 30
0.0
 41
10.0
 42
10.0
 43
10.0
 50
90.0
  0
INSERT
  5
8F090
330
8EE28
100
AcDbEntity
  8
SIZE
  6
CONTINUOUS
 62
     0
100
AcDbBlockReference
  2
_ORIGIN
 10
-1602.102255143432
 20
-295.4539462500022
 30
0.0
 41
10.0
 42
10.0
 43
10.0
 50
270.0
  0
MTEXT
  5
8F091
330
8EE28
100
AcDbEntity
  8
SIZE
  6
CONTINUOUS
 62
     0
100
AcDbMText
 10
-1637.102255143432
 20
-147.9019162500003
 30
0.0
 40
50.0
 41
0.0
 71
     5
 72
     1
  1
\A1;295
 11
0.0000000000000001
 21
1.0
 31
0.0
1001
ACAD
1000
MTEXTBEGIN
1070
    73
1070
     1
1070
    44
1040
1.0
1070
    74
1070
     0
1000
MTEXTEND
  0
POINT
  5
8F092
330
8EE28
100
AcDbEntity
  8
DEFPOINTS
  6
CONTINUOUS
 62
     0
100
AcDbPoint
 10
-1191.818997024111
 20
-0.3498862499980078
 30
0.0
  0
POINT
  5
8F093
330
8EE28
100
AcDbEntity
  8
DEFPOINTS
  6
CONTINUOUS
 62
     0
100
AcDbPoint
 10
-1132.339233020255
 20
-295.4539462500024
 30
0.0
  0
POINT
  5
8F094
330
8EE28
100
AcDbEntity
  8
DEFPOINTS
  6
CONTINUOUS
 62
     0
100
AcDbPoint
 10
-1602.102255143432
 20
-295.4539462500022
 30
0.0
  0
ENDBLK
  5
8EE33
330
8EE28
100
AcDbEntity
  8
0
100
AcDbBlockEnd
  0
BLOCK
  5
8EE40
330
8EE35
100
AcDbEntity
  8
0
100
AcDbBlockBegin
  2
*D19
 70
     1
 10
0.0
 20
0.0
 30
0.0
  3
*D19
  1

  0
LINE
  5
8F095
330
8EE35
100
AcDbEntity
  8
SIZE
  6
CONTINUOUS
 62
     0
100
AcDbLine
 10
-1152.339233020255
 20
-295.4539462500024
 30
0.0
 11
-1411.511895084552
 21
-295.4539462500023
 31
0.0
  0
LINE
  5
8F096
330
8EE35
100
AcDbEntity
  8
SIZE
  6
CONTINUOUS
 62
     0
100
AcDbLine
 10
-1244.815670520262
 20
-253.9999999365027
 30
0.0
 11
-1411.511895084552
 21
-253.9999999365027
 31
0.0
  0
LINE
  5
8F097
330
8EE35
100
AcDbEntity
  8
SIZE
  6
CONTINUOUS
 62
     0
100
AcDbLine
 10
-1391.511895084552
 20
-285.4539462500023
 30
0.0
 11
-1391.511895084552
 21
-263.9999999365027
 31
0.0
  0
LINE
  5
8F098
330
8EE35
100
AcDbEntity
  8
SIZE
  6
CONTINUOUS
 62
     0
100
AcDbLine
 10
-1391.511895084552
 20
-253.9999999365027
 30
0.0
 11
-1391.511895084552
 21
-170.4285713650741
 31
0.0
  0
INSERT
  5
8F099
330
8EE35
100
AcDbEntity
  8
SIZE
  6
CONTINUOUS
 62
     0
100
AcDbBlockReference
  2
_ORIGIN
 10
-1391.511895084552
 20
-295.4539462500024
 30
0.0
 41
10.0
 42
10.0
 43
10.0
 50
270.0
  0
INSERT
  5
8F09A
330
8EE35
100
AcDbEntity
  8
SIZE
  6
CONTINUOUS
 62
     0
100
AcDbBlockReference
  2
_ORIGIN
 10
-1391.511895084552
 20
-253.9999999365027
 30
0.0
 41
10.0
 42
10.0
 43
10.0
 50
90.0
  0
MTEXT
  5
8F09B
330
8EE35
100
AcDbEntity
  8
SIZE
  6
CONTINUOUS
 62
     0
100
AcDbMText
 10
-1426.511895084552
 20
-207.2142856507886
 30
0.0
 40
50.0
 41
0.0
 71
     5
 72
     1
  1
\A1;41
 11
0.0000000000000001
 21
1.0
 31
0.0
1001
ACAD
1000
MTEXTBEGIN
1070
    73
1070
     1
1070
    44
1040
1.0
1070
    74
1070
     0
1000
MTEXTEND
  0
POINT
  5
8F09C
330
8EE35
100
AcDbEntity
  8
DEFPOINTS
  6
CONTINUOUS
 62
     0
100
AcDbPoint
 10
-1132.339233020255
 20
-295.4539462500024
 30
0.0
  0
POINT
  5
8F09D
330
8EE35
100
AcDbEntity
  8
DEFPOINTS
  6
CONTINUOUS
 62
     0
100
AcDbPoint
 10
-1224.815670520262
 20
-253.9999999365027
 30
0.0
  0
POINT
  5
8F09E
330
8EE35
100
AcDbEntity
  8
DEFPOINTS
  6
CONTINUOUS
 62
     0
100
AcDbPoint
 10
-1391.511895084552
 20
-253.9999999365027
 30
0.0
  0
ENDBLK
  5
8EE41
330
8EE35
100
AcDbEntity
  8
0
100
AcDbBlockEnd
  0
BLOCK
  5
8EE4E
330
8EE43
100
AcDbEntity
  8
0
100
AcDbBlockBegin
  2
*D20
 70
     1
 10
0.0
 20
0.0
 30
0.0
  3
*D20
  1

  0
LINE
  5
8F082
330
8EE43
100
AcDbEntity
  8
SIZE
  6
CONTINUOUS
 62
     0
100
AcDbLine
 10
-1152.339233020255
 20
-295.4539462500024
 30
0.0
 11
-1506.61661813874
 21
-295.4539462500023
 31
0.0
  0
LINE
  5
8F083
330
8EE43
100
AcDbEntity
  8
SIZE
  6
CONTINUOUS
 62
     0
100
AcDbLine
 10
-1244.815670520262
 20
-252.9999999367519
 30
0.0
 11
-1506.61661813874
 21
-252.9999999367518
 31
0.0
  0
LINE
  5
8F084
330
8EE43
100
AcDbEntity
  8
SIZE
  6
CONTINUOUS
 62
     0
100
AcDbLine
 10
-1486.61661813874
 20
-285.4539462500023
 30
0.0
 11
-1486.61661813874
 21
-262.9999999367518
 31
0.0
  0
LINE
  5
8F085
330
8EE43
100
AcDbEntity
  8
SIZE
  6
CONTINUOUS
 62
     0
100
AcDbLine
 10
-1486.61661813874
 20
-252.9999999367518
 30
0.0
 11
-1486.61661813874
 21
-150.142857079609
 31
0.0
  0
INSERT
  5
8F086
330
8EE43
100
AcDbEntity
  8
SIZE
  6
CONTINUOUS
 62
     0
100
AcDbBlockReference
  2
_ORIGIN
 10
-1486.61661813874
 20
-295.4539462500023
 30
0.0
 41
10.0
 42
10.0
 43
10.0
 50
270.0
  0
INSERT
  5
8F087
330
8EE43
100
AcDbEntity
  8
SIZE
  6
CONTINUOUS
 62
     0
100
AcDbBlockReference
  2
_ORIGIN
 10
-1486.61661813874
 20
-252.9999999367518
 30
0.0
 41
10.0
 42
10.0
 43
10.0
 50
90.0
  0
MTEXT
  5
8F088
330
8EE43
100
AcDbEntity
  8
SIZE
  6
CONTINUOUS
 62
     0
100
AcDbMText
 10
-1521.61661813874
 20
-196.5714285081806
 30
0.0
 40
50.0
 41
0.0
 71
     5
 72
     1
  1
\A1;42
 11
0.0000000000000001
 21
1.0
 31
0.0
1001
ACAD
1000
MTEXTBEGIN
1070
    73
1070
     1
1070
    44
1040
1.0
1070
    74
1070
     0
1000
MTEXTEND
  0
POINT
  5
8F089
330
8EE43
100
AcDbEntity
  8
DEFPOINTS
  6
CONTINUOUS
 62
     0
100
AcDbPoint
 10
-1132.339233020255
 20
-295.4539462500024
 30
0.0
  0
POINT
  5
8F08A
330
8EE43
100
AcDbEntity
  8
DEFPOINTS
  6
CONTINUOUS
 62
     0
100
AcDbPoint
 10
-1224.815670520262
 20
-252.9999999367519
 30
0.0
  0
POINT
  5
8F08B
330
8EE43
100
AcDbEntity
  8
DEFPOINTS
  6
CONTINUOUS
 62
     0
100
AcDbPoint
 10
-1486.61661813874
 20
-252.9999999367518
 30
0.0
  0
ENDBLK
  5
8EE4F
330
8EE43
100
AcDbEntity
  8
0
100
AcDbBlockEnd
  0
BLOCK
  5
8EE61
330
8EE57
100
AcDbEntity
  8
0
100
AcDbBlockBegin
  2
*D21
 70
     1
 10
0.0
 20
0.0
 30
0.0
  3
*D21
  1

  0
LINE
  5
8F04C
330
8EE57
100
AcDbEntity
  8
SIZE
  6
CONTINUOUS
 62
     0
100
AcDbLine
 10
1066.882826767482
 20
-67.54625797442395
 30
0.0
 11
1066.882826767482
 21
139.2137109924633
 31
0.0
  0
LINE
  5
8F04D
330
8EE57
100
AcDbEntity
  8
SIZE
  6
CONTINUOUS
 62
     0
100
AcDbLine
 10
1383.778825892603
 20
-3.342411250003351
 30
0.0
 11
1383.778825892603
 21
139.2137109924633
 31
0.0
  0
LINE
  5
8F04E
330
8EE57
100
AcDbEntity
  8
SIZE
  6
CONTINUOUS
 62
     0
100
AcDbLine
 10
1076.882826767482
 20
119.2137109924633
 30
0.0
 11
1373.778825892603
 21
119.2137109924633
 31
0.0
  0
INSERT
  5
8F04F
330
8EE57
100
AcDbEntity
  8
SIZE
  6
CONTINUOUS
 62
     0
100
AcDbBlockReference
  2
_ORIGIN
 10
1066.882826767482
 20
119.2137109924633
 30
0.0
 41
10.0
 42
10.0
 43
10.0
 50
180.0
  0
INSERT
  5
8F050
330
8EE57
100
AcDbEntity
  8
SIZE
  6
CONTINUOUS
 62
     0
100
AcDbBlockReference
  2
_ORIGIN
 10
1383.778825892603
 20
119.2137109924633
 30
0.0
 41
10.0
 42
10.0
 43
10.0
  0
MTEXT
  5
8F051
330
8EE57
100
AcDbEntity
  8
SIZE
  6
CONTINUOUS
 62
     0
100
AcDbMText
 10
1225.330826330042
 20
154.2137109924633
 30
0.0
 40
50.0
 41
0.0
 71
     5
 72
     1
  1
\A1;317
1001
ACAD
1000
MTEXTBEGIN
1070
    73
1070
     1
1070
    44
1040
1.0
1070
    74
1070
     0
1000
MTEXTEND
  0
POINT
  5
8F052
330
8EE57
100
AcDbEntity
  8
DEFPOINTS
  6
CONTINUOUS
 62
     0
100
AcDbPoint
 10
1066.882826767482
 20
-87.54625797442395
 30
0.0
  0
POINT
  5
8F053
330
8EE57
100
AcDbEntity
  8
DEFPOINTS
  6
CONTINUOUS
 62
     0
100
AcDbPoint
 10
1383.778825892603
 20
-23.34241125000335
 30
0.0
  0
POINT
  5
8F054
330
8EE57
100
AcDbEntity
  8
DEFPOINTS
  6
CONTINUOUS
 62
     0
100
AcDbPoint
 10
1383.778825892603
 20
119.2137109924633
 30
0.0
  0
ENDBLK
  5
8EE62
330
8EE57
100
AcDbEntity
  8
0
100
AcDbBlockEnd
  0
BLOCK
  5
8EE6E
330
8EE64
100
AcDbEntity
  8
0
100
AcDbBlockBegin
  2
*D22
 70
     1
 10
0.0
 20
0.0
 30
0.0
  3
*D22
  1

  0
LINE
  5
8F067
330
8EE64
100
AcDbEntity
  8
SIZE
  6
CONTINUOUS
 62
     0
100
AcDbLine
 10
1375.636069913843
 20
-0.0000000000000057
 30
0.0
 11
1796.067035515774
 21
-0.0000000000001248
 31
0.0
  0
LINE
  5
8F068
330
8EE64
100
AcDbEntity
  8
SIZE
  6
CONTINUOUS
 62
     0
100
AcDbLine
 10
1331.302388392603
 20
-295.4539462500024
 30
0.0
 11
1796.067035515774
 21
-295.4539462500026
 31
0.0
  0
LINE
  5
8F069
330
8EE64
100
AcDbEntity
  8
SIZE
  6
CONTINUOUS
 62
     0
100
AcDbLine
 10
1776.067035515774
 20
-10.00000000000011
 30
0.0
 11
1776.067035515774
 21
-285.4539462500026
 31
0.0
  0
INSERT
  5
8F06A
330
8EE64
100
AcDbEntity
  8
SIZE
  6
CONTINUOUS
 62
     0
100
AcDbBlockReference
  2
_ORIGIN
 10
1776.067035515774
 20
-0.0000000000001191
 30
0.0
 41
10.0
 42
10.0
 43
10.0
 50
90.0
  0
INSERT
  5
8F06B
330
8EE64
100
AcDbEntity
  8
SIZE
  6
CONTINUOUS
 62
     0
100
AcDbBlockReference
  2
_ORIGIN
 10
1776.067035515774
 20
-295.4539462500026
 30
0.0
 41
10.0
 42
10.0
 43
10.0
 50
270.0
  0
MTEXT
  5
8F06C
330
8EE64
100
AcDbEntity
  8
SIZE
  6
CONTINUOUS
 62
     0
100
AcDbMText
 10
1741.067035515774
 20
-147.726973125001
 30
0.0
 40
50.0
 41
0.0
 71
     5
 72
     1
  1
\A1;295
 11
0.0000000000000001
 21
1.0
 31
0.0
1001
ACAD
1000
MTEXTBEGIN
1070
    73
1070
     1
1070
    44
1040
1.0
1070
    74
1070
     0
1000
MTEXTEND
  0
POINT
  5
8F06D
330
8EE64
100
AcDbEntity
  8
DEFPOINTS
  6
CONTINUOUS
 62
     0
100
AcDbPoint
 10
1355.636069913843
 20
0.0
 30
0.0
  0
POINT
  5
8F06E
330
8EE64
100
AcDbEntity
  8
DEFPOINTS
  6
CONTINUOUS
 62
     0
100
AcDbPoint
 10
1311.302388392603
 20
-295.4539462500024
 30
0.0
  0
POINT
  5
8F06F
330
8EE64
100
AcDbEntity
  8
DEFPOINTS
  6
CONTINUOUS
 62
     0
100
AcDbPoint
 10
1776.067035515774
 20
-295.4539462500026
 30
0.0
  0
ENDBLK
  5
8EE6F
330
8EE64
100
AcDbEntity
  8
0
100
AcDbBlockEnd
  0
BLOCK
  5
8EE7C
330
8EE71
100
AcDbEntity
  8
0
100
AcDbBlockBegin
  2
*D23
 70
     1
 10
0.0
 20
0.0
 30
0.0
  3
*D23
  1

  0
LINE
  5
8F0D8
330
8EE71
100
AcDbEntity
  8
SIZE
  6
CONTINUOUS
 62
     0
100
AcDbLine
 10
1331.302388392603
 20
-295.4539462500024
 30
0.0
 11
1585.476675456895
 21
-295.4539462500024
 31
0.0
  0
LINE
  5
8F0D9
330
8EE71
100
AcDbEntity
  8
SIZE
  6
CONTINUOUS
 62
     0
100
AcDbLine
 10
1418.780450892605
 20
-254.3498861865009
 30
0.0
 11
1585.476675456895
 21
-254.349886186501
 31
0.0
  0
LINE
  5
8F0DA
330
8EE71
100
AcDbEntity
  8
SIZE
  6
CONTINUOUS
 62
     0
100
AcDbLine
 10
1565.476675456895
 20
-285.4539462500024
 30
0.0
 11
1565.476675456895
 21
-264.3498861865009
 31
0.0
  0
LINE
  5
8F0DB
330
8EE71
100
AcDbEntity
  8
SIZE
  6
CONTINUOUS
 62
     0
100
AcDbLine
 10
1565.476675456895
 20
-254.349886186501
 30
0.0
 11
1565.476675456895
 21
-170.7784576150724
 31
0.0
  0
INSERT
  5
8F0DC
330
8EE71
100
AcDbEntity
  8
SIZE
  6
CONTINUOUS
 62
     0
100
AcDbBlockReference
  2
_ORIGIN
 10
1565.476675456895
 20
-295.4539462500024
 30
0.0
 41
10.0
 42
10.0
 43
10.0
 50
270.0
  0
INSERT
  5
8F0DD
330
8EE71
100
AcDbEntity
  8
SIZE
  6
CONTINUOUS
 62
     0
100
AcDbBlockReference
  2
_ORIGIN
 10
1565.476675456895
 20
-254.349886186501
 30
0.0
 41
10.0
 42
10.0
 43
10.0
 50
90.0
  0
MTEXT
  5
8F0DE
330
8EE71
100
AcDbEntity
  8
SIZE
  6
CONTINUOUS
 62
     0
100
AcDbMText
 10
1530.476675456895
 20
-207.5641719007864
 30
0.0
 40
50.0
 41
0.0
 71
     5
 72
     1
  1
\A1;41
 11
0.0000000000000001
 21
1.0
 31
0.0
1001
ACAD
1000
MTEXTBEGIN
1070
    73
1070
     1
1070
    44
1040
1.0
1070
    74
1070
     0
1000
MTEXTEND
  0
POINT
  5
8F0DF
330
8EE71
100
AcDbEntity
  8
DEFPOINTS
  6
CONTINUOUS
 62
     0
100
AcDbPoint
 10
1311.302388392603
 20
-295.4539462500024
 30
0.0
  0
POINT
  5
8F0E0
330
8EE71
100
AcDbEntity
  8
DEFPOINTS
  6
CONTINUOUS
 62
     0
100
AcDbPoint
 10
1398.780450892605
 20
-254.3498861865009
 30
0.0
  0
POINT
  5
8F0E1
330
8EE71
100
AcDbEntity
  8
DEFPOINTS
  6
CONTINUOUS
 62
     0
100
AcDbPoint
 10
1565.476675456895
 20
-254.349886186501
 30
0.0
  0
ENDBLK
  5
8EE7D
330
8EE71
100
AcDbEntity
  8
0
100
AcDbBlockEnd
  0
BLOCK
  5
8EE8A
330
8EE7F
100
AcDbEntity
  8
0
100
AcDbBlockBegin
  2
*D24
 70
     1
 10
0.0
 20
0.0
 30
0.0
  3
*D24
  1

  0
LINE
  5
8F0CE
330
8EE7F
100
AcDbEntity
  8
SIZE
  6
CONTINUOUS
 62
     0
100
AcDbLine
 10
1331.302388392603
 20
-295.4539462500024
 30
0.0
 11
1680.581398511083
 21
-295.4539462500025
 31
0.0
  0
LINE
  5
8F0CF
330
8EE7F
100
AcDbEntity
  8
SIZE
  6
CONTINUOUS
 62
     0
100
AcDbLine
 10
1418.780450892605
 20
-253.3498861867501
 30
0.0
 11
1680.581398511083
 21
-253.3498861867502
 31
0.0
  0
LINE
  5
8F0D0
330
8EE7F
100
AcDbEntity
  8
SIZE
  6
CONTINUOUS
 62
     0
100
AcDbLine
 10
1660.581398511083
 20
-285.4539462500024
 30
0.0
 11
1660.581398511083
 21
-263.3498861867502
 31
0.0
  0
LINE
  5
8F0D1
330
8EE7F
100
AcDbEntity
  8
SIZE
  6
CONTINUOUS
 62
     0
100
AcDbLine
 10
1660.581398511083
 20
-253.3498861867502
 30
0.0
 11
1660.581398511083
 21
-150.4927433296074
 31
0.0
  0
INSERT
  5
8F0D2
330
8EE7F
100
AcDbEntity
  8
SIZE
  6
CONTINUOUS
 62
     0
100
AcDbBlockReference
  2
_ORIGIN
 10
1660.581398511083
 20
-295.4539462500024
 30
0.0
 41
10.0
 42
10.0
 43
10.0
 50
270.0
  0
INSERT
  5
8F0D3
330
8EE7F
100
AcDbEntity
  8
SIZE
  6
CONTINUOUS
 62
     0
100
AcDbBlockReference
  2
_ORIGIN
 10
1660.581398511083
 20
-253.3498861867502
 30
0.0
 41
10.0
 42
10.0
 43
10.0
 50
90.0
  0
MTEXT
  5
8F0D4
330
8EE7F
100
AcDbEntity
  8
SIZE
  6
CONTINUOUS
 62
     0
100
AcDbMText
 10
1625.581398511083
 20
-196.9213147581785
 30
0.0
 40
50.0
 41
0.0
 71
     5
 72
     1
  1
\A1;42
 11
0.0000000000000001
 21
1.0
 31
0.0
1001
ACAD
1000
MTEXTBEGIN
1070
    73
1070
     1
1070
    44
1040
1.0
1070
    74
1070
     0
1000
MTEXTEND
  0
POINT
  5
8F0D5
330
8EE7F
100
AcDbEntity
  8
DEFPOINTS
  6
CONTINUOUS
 62
     0
100
AcDbPoint
 10
1311.302388392603
 20
-295.4539462500024
 30
0.0
  0
POINT
  5
8F0D6
330
8EE7F
100
AcDbEntity
  8
DEFPOINTS
  6
CONTINUOUS
 62
     0
100
AcDbPoint
 10
1398.780450892605
 20
-253.3498861867501
 30
0.0
  0
POINT
  5
8F0D7
330
8EE7F
100
AcDbEntity
  8
DEFPOINTS
  6
CONTINUOUS
 62
     0
100
AcDbPoint
 10
1660.581398511083
 20
-253.3498861867502
 30
0.0
  0
ENDBLK
  5
8EE8B
330
8EE7F
100
AcDbEntity
  8
0
100
AcDbBlockEnd
  0
BLOCK
  5
9002F
330
90025
100
AcDbEntity
  8
0
100
AcDbBlockBegin
  2
*D25
 70
     1
 10
0.0
 20
0.0
 30
0.0
  3
*D25
  1

  0
LINE
  5
9006F
330
90025
100
AcDbEntity
  8
SIZE
  6
CONTINUOUS
 62
     0
100
AcDbLine
 10
-0.0001624999995317
 20
-937.0592965262508
 30
0.0
 11
-0.0001624999995183
 21
-719.6620618359706
 31
0.0
  0
LINE
  5
90070
330
90025
100
AcDbEntity
  8
SIZE
  6
CONTINUOUS
 62
     0
100
AcDbLine
 10
-345.070259999999
 20
-943.5079526722097
 30
0.0
 11
-345.070259999999
 21
-719.6620618359706
 31
0.0
  0
LINE
  5
90071
330
90025
100
AcDbEntity
  8
SIZE
  6
CONTINUOUS
 62
     0
100
AcDbLine
 10
-10.00016249999952
 20
-739.6620618359706
 30
0.0
 11
-335.070259999999
 21
-739.6620618359706
 31
0.0
  0
INSERT
  5
90072
330
90025
100
AcDbEntity
  8
SIZE
  6
CONTINUOUS
 62
     0
100
AcDbBlockReference
  2
_ORIGIN
 10
-0.0001624999995196
 20
-739.6620618359706
 30
0.0
 41
10.0
 42
10.0
 43
10.0
  0
INSERT
  5
90073
330
90025
100
AcDbEntity
  8
SIZE
  6
CONTINUOUS
 62
     0
100
AcDbBlockReference
  2
_ORIGIN
 10
-345.070259999999
 20
-739.6620618359706
 30
0.0
 41
10.0
 42
10.0
 43
10.0
 50
180.0
  0
MTEXT
  5
90074
330
90025
100
AcDbEntity
  8
SIZE
  6
CONTINUOUS
 62
     0
100
AcDbMText
 10
-172.5352112499992
 20
-704.6620618359707
 30
0.0
 40
50.0
 41
0.0
 71
     5
 72
     1
  1
\A1;345
1001
ACAD
1000
MTEXTBEGIN
1070
    73
1070
     1
1070
    44
1040
1.0
1070
    74
1070
     0
1000
MTEXTEND
  0
POINT
  5
90075
330
90025
100
AcDbEntity
  8
DEFPOINTS
  6
CONTINUOUS
 62
     0
100
AcDbPoint
 10
-0.0001624999995329
 20
-957.0592965262507
 30
0.0
  0
POINT
  5
90076
330
90025
100
AcDbEntity
  8
DEFPOINTS
  6
CONTINUOUS
 62
     0
100
AcDbPoint
 10
-345.070259999999
 20
-963.5079526722098
 30
0.0
  0
POINT
  5
90077
330
90025
100
AcDbEntity
  8
DEFPOINTS
  6
CONTINUOUS
 62
     0
100
AcDbPoint
 10
-345.070259999999
 20
-739.6620618359706
 30
0.0
  0
ENDBLK
  5
90030
330
90025
100
AcDbEntity
  8
0
100
AcDbBlockEnd
  0
BLOCK
  5
9003C
330
90031
100
AcDbEntity
  8
0
100
AcDbBlockBegin
  2
*D26
 70
     1
 10
0.0
 20
0.0
 30
0.0
  3
*D26
  1

  0
LINE
  5
90078
330
90031
100
AcDbEntity
  8
SIZE
  6
CONTINUOUS
 62
     0
100
AcDbLine
 10
330.0699349999999
 20
-943.5079526722097
 30
0.0
 11
330.0699349999999
 21
-719.6620618359706
 31
0.0
  0
LINE
  5
90079
330
90031
100
AcDbEntity
  8
SIZE
  6
CONTINUOUS
 62
     0
100
AcDbLine
 10
399.5700974999995
 20
-1035.984390172209
 30
0.0
 11
399.5700974999995
 21
-719.6620618359706
 31
0.0
  0
LINE
  5
9007A
330
90031
100
AcDbEntity
  8
SIZE
  6
CONTINUOUS
 62
     0
100
AcDbLine
 10
340.069935
 20
-739.6620618359706
 30
0.0
 11
389.5700974999995
 21
-739.6620618359706
 31
0.0
  0
LINE
  5
9007B
330
90031
100
AcDbEntity
  8
SIZE
  6
CONTINUOUS
 62
     0
100
AcDbLine
 10
399.5700974999995
 20
-739.6620618359706
 30
0.0
 11
566.7129546428566
 21
-739.6620618359706
 31
0.0
  0
INSERT
  5
9007C
330
90031
100
AcDbEntity
  8
SIZE
  6
CONTINUOUS
 62
     0
100
AcDbBlockReference
  2
_ORIGIN
 10
330.0699349999999
 20
-739.6620618359706
 30
0.0
 41
10.0
 42
10.0
 43
10.0
 50
180.0
  0
INSERT
  5
9007D
330
90031
100
AcDbEntity
  8
SIZE
  6
CONTINUOUS
 62
     0
100
AcDbBlockReference
  2
_ORIGIN
 10
399.5700974999995
 20
-739.6620618359706
 30
0.0
 41
10.0
 42
10.0
 43
10.0
  0
MTEXT
  5
9007E
330
90031
100
AcDbEntity
  8
SIZE
  6
CONTINUOUS
 62
     0
100
AcDbMText
 10
488.141526071428
 20
-704.6620618359707
 30
0.0
 40
50.0
 41
0.0
 71
     5
 72
     1
  1
\A1;69.5
1001
ACAD
1000
MTEXTBEGIN
1070
    73
1070
     1
1070
    44
1040
1.0
1070
    74
1070
     0
1000
MTEXTEND
  0
POINT
  5
9007F
330
90031
100
AcDbEntity
  8
DEFPOINTS
  6
CONTINUOUS
 62
     0
100
AcDbPoint
 10
330.0699349999999
 20
-963.5079526722098
 30
0.0
  0
POINT
  5
90080
330
90031
100
AcDbEntity
  8
DEFPOINTS
  6
CONTINUOUS
 62
     0
100
AcDbPoint
 10
399.5700974999995
 20
-1055.984390172209
 30
0.0
  0
POINT
  5
90081
330
90031
100
AcDbEntity
  8
DEFPOINTS
  6
CONTINUOUS
 62
     0
100
AcDbPoint
 10
399.5700974999995
 20
-739.6620618359706
 30
0.0
  0
ENDBLK
  5
9003D
330
90031
100
AcDbEntity
  8
0
100
AcDbBlockEnd
  0
BLOCK
  5
90048
330
9003E
100
AcDbEntity
  8
0
100
AcDbBlockBegin
  2
*D27
 70
     1
 10
0.0
 20
0.0
 30
0.0
  3
*D27
  1

  0
LINE
  5
90082
330
9003E
100
AcDbEntity
  8
SIZE
  6
CONTINUOUS
 62
     0
100
AcDbLine
 10
-0.0001624999995317
 20
-937.0592965262508
 30
0.0
 11
-0.0001624999995183
 21
-719.6620618359706
 31
0.0
  0
LINE
  5
90083
330
9003E
100
AcDbEntity
  8
SIZE
  6
CONTINUOUS
 62
     0
100
AcDbLine
 10
330.0699349999999
 20
-943.5079526722097
 30
0.0
 11
330.0699349999999
 21
-719.6620618359706
 31
0.0
  0
LINE
  5
90084
330
9003E
100
AcDbEntity
  8
SIZE
  6
CONTINUOUS
 62
     0
100
AcDbLine
 10
9.999837500000479
 20
-739.6620618359706
 30
0.0
 11
320.0699349999999
 21
-739.6620618359706
 31
0.0
  0
INSERT
  5
90085
330
9003E
100
AcDbEntity
  8
SIZE
  6
CONTINUOUS
 62
     0
100
AcDbBlockReference
  2
_ORIGIN
 10
-0.0001624999995196
 20
-739.6620618359706
 30
0.0
 41
10.0
 42
10.0
 43
10.0
 50
180.0
  0
INSERT
  5
90086
330
9003E
100
AcDbEntity
  8
SIZE
  6
CONTINUOUS
 62
     0
100
AcDbBlockReference
  2
_ORIGIN
 10
330.0699349999999
 20
-739.6620618359706
 30
0.0
 41
10.0
 42
10.0
 43
10.0
  0
MTEXT
  5
90087
330
9003E
100
AcDbEntity
  8
SIZE
  6
CONTINUOUS
 62
     0
100
AcDbMText
 10
165.0348862500002
 20
-704.6620618359707
 30
0.0
 40
50.0
 41
0.0
 71
     5
 72
     1
  1
\A1;330
1001
ACAD
1000
MTEXTBEGIN
1070
    73
1070
     1
1070
    44
1040
1.0
1070
    74
1070
     0
1000
MTEXTEND
  0
POINT
  5
90088
330
9003E
100
AcDbEntity
  8
DEFPOINTS
  6
CONTINUOUS
 62
     0
100
AcDbPoint
 10
-0.0001624999995329
 20
-957.0592965262507
 30
0.0
  0
POINT
  5
90089
330
9003E
100
AcDbEntity
  8
DEFPOINTS
  6
CONTINUOUS
 62
     0
100
AcDbPoint
 10
330.0699349999999
 20
-963.5079526722098
 30
0.0
  0
POINT
  5
9008A
330
9003E
100
AcDbEntity
  8
DEFPOINTS
  6
CONTINUOUS
 62
     0
100
AcDbPoint
 10
330.0699349999999
 20
-739.6620618359706
 30
0.0
  0
ENDBLK
  5
90049
330
9003E
100
AcDbEntity
  8
0
100
AcDbBlockEnd
  0
BLOCK
  5
90054
330
9004A
100
AcDbEntity
  8
0
100
AcDbBlockBegin
  2
*D28
 70
     1
 10
0.0
 20
0.0
 30
0.0
  3
*D28
  1

  0
LINE
  5
9008B
330
9004A
100
AcDbEntity
  8
SIZE
  6
CONTINUOUS
 62
     0
100
AcDbLine
 10
-399.5700974999995
 20
-1075.984390172209
 30
0.0
 11
-399.5700974999995
 21
-1458.483068979378
 31
0.0
  0
LINE
  5
9008C
330
9004A
100
AcDbEntity
  8
SIZE
  6
CONTINUOUS
 62
     0
100
AcDbLine
 10
399.5700974999995
 20
-1075.984390172209
 30
0.0
 11
399.5700974999995
 21
-1458.483068979378
 31
0.0
  0
LINE
  5
9008D
330
9004A
100
AcDbEntity
  8
SIZE
  6
CONTINUOUS
 62
     0
100
AcDbLine
 10
-389.5700974999995
 20
-1438.483068979378
 30
0.0
 11
389.5700974999995
 21
-1438.483068979378
 31
0.0
  0
INSERT
  5
9008E
330
9004A
100
AcDbEntity
  8
SIZE
  6
CONTINUOUS
 62
     0
100
AcDbBlockReference
  2
_ORIGIN
 10
-399.5700974999995
 20
-1438.483068979378
 30
0.0
 41
10.0
 42
10.0
 43
10.0
 50
180.0
  0
INSERT
  5
9008F
330
9004A
100
AcDbEntity
  8
SIZE
  6
CONTINUOUS
 62
     0
100
AcDbBlockReference
  2
_ORIGIN
 10
399.5700974999995
 20
-1438.483068979378
 30
0.0
 41
10.0
 42
10.0
 43
10.0
  0
MTEXT
  5
90090
330
9004A
100
AcDbEntity
  8
SIZE
  6
CONTINUOUS
 62
     0
100
AcDbMText
 10
0.0000000000000021
 20
-1403.483068979378
 30
0.0
 40
50.0
 41
0.0
 71
     5
 72
     1
  1
\A1;799
1001
ACAD
1000
MTEXTBEGIN
1070
    73
1070
     1
1070
    44
1040
1.0
1070
    74
1070
     0
1000
MTEXTEND
  0
POINT
  5
90091
330
9004A
100
AcDbEntity
  8
DEFPOINTS
  6
CONTINUOUS
 62
     0
100
AcDbPoint
 10
-399.5700974999995
 20
-1055.984390172209
 30
0.0
  0
POINT
  5
90092
330
9004A
100
AcDbEntity
  8
DEFPOINTS
  6
CONTINUOUS
 62
     0
100
AcDbPoint
 10
399.5700974999995
 20
-1055.984390172209
 30
0.0
  0
POINT
  5
90093
330
9004A
100
AcDbEntity
  8
DEFPOINTS
  6
CONTINUOUS
 62
     0
100
AcDbPoint
 10
399.5700974999995
 20
-1438.483068979378
 30
0.0
  0
ENDBLK
  5
90055
330
9004A
100
AcDbEntity
  8
0
100
AcDbBlockEnd
  0
BLOCK
  5
90061
330
90056
100
AcDbEntity
  8
0
100
AcDbBlockBegin
  2
*D29
 70
     1
 10
0.0
 20
0.0
 30
0.0
  3
*D29
  1

  0
LINE
  5
90094
330
90056
100
AcDbEntity
  8
SIZE
  6
CONTINUOUS
 62
     0
100
AcDbLine
 10
-345.070259999999
 20
-943.5079526722097
 30
0.0
 11
-345.070259999999
 21
-719.6620618359706
 31
0.0
  0
LINE
  5
90095
330
90056
100
AcDbEntity
  8
SIZE
  6
CONTINUOUS
 62
     0
100
AcDbLine
 10
-399.5700974999995
 20
-1035.984390172209
 30
0.0
 11
-399.5700974999995
 21
-719.6620618359706
 31
0.0
  0
LINE
  5
90096
330
90056
100
AcDbEntity
  8
SIZE
  6
CONTINUOUS
 62
     0
100
AcDbLine
 10
-355.070259999999
 20
-739.6620618359706
 30
0.0
 11
-389.5700974999995
 21
-739.6620618359706
 31
0.0
  0
LINE
  5
90097
330
90056
100
AcDbEntity
  8
SIZE
  6
CONTINUOUS
 62
     0
100
AcDbLine
 10
-399.5700974999995
 20
-739.6620618359706
 30
0.0
 11
-566.7129546428566
 21
-739.6620618359706
 31
0.0
  0
INSERT
  5
90098
330
90056
100
AcDbEntity
  8
SIZE
  6
CONTINUOUS
 62
     0
100
AcDbBlockReference
  2
_ORIGIN
 10
-345.070259999999
 20
-739.6620618359706
 30
0.0
 41
10.0
 42
10.0
 43
10.0
  0
INSERT
  5
90099
330
90056
100
AcDbEntity
  8
SIZE
  6
CONTINUOUS
 62
     0
100
AcDbBlockReference
  2
_ORIGIN
 10
-399.5700974999995
 20
-739.6620618359706
 30
0.0
 41
10.0
 42
10.0
 43
10.0
 50
180.0
  0
MTEXT
  5
9009A
330
90056
100
AcDbEntity
  8
SIZE
  6
CONTINUOUS
 62
     0
100
AcDbMText
 10
-488.141526071428
 20
-704.6620618359707
 30
0.0
 40
50.0
 41
0.0
 71
     5
 72
     1
  1
\A1;54.5
1001
ACAD
1000
MTEXTBEGIN
1070
    73
1070
     1
1070
    44
1040
1.0
1070
    74
1070
     0
1000
MTEXTEND
  0
POINT
  5
9009B
330
90056
100
AcDbEntity
  8
DEFPOINTS
  6
CONTINUOUS
 62
     0
100
AcDbPoint
 10
-345.070259999999
 20
-963.5079526722098
 30
0.0
  0
POINT
  5
9009C
330
90056
100
AcDbEntity
  8
DEFPOINTS
  6
CONTINUOUS
 62
     0
100
AcDbPoint
 10
-399.5700974999995
 20
-1055.984390172209
 30
0.0
  0
POINT
  5
9009D
330
90056
100
AcDbEntity
  8
DEFPOINTS
  6
CONTINUOUS
 62
     0
100
AcDbPoint
 10
-399.5700974999995
 20
-739.6620618359706
 30
0.0
  0
ENDBLK
  5
90062
330
90056
100
AcDbEntity
  8
0
100
AcDbBlockEnd
  0
BLOCK
  5
9006D
330
90063
100
AcDbEntity
  8
0
100
AcDbBlockBegin
  2
*D30
 70
     1
 10
0.0
 20
0.0
 30
0.0
  3
*D30
  1

  0
LINE
  5
9009E
330
90063
100
AcDbEntity
  8
SIZE
  6
CONTINUOUS
 62
     0
100
AcDbLine
 10
-394.3544873375681
 20
-1300.404776865238
 30
0.0
 11
-557.9209773869713
 21
-1300.404776865238
 31
0.0
  0
LINE
  5
9009F
330
90063
100
AcDbEntity
  8
SIZE
  6
CONTINUOUS
 62
     0
100
AcDbLine
 10
-354.2913200000023
 20
-983.5079526722097
 30
0.0
 11
-557.9209773869712
 21
-983.5079526722097
 31
0.0
  0
LINE
  5
900A0
330
90063
100
AcDbEntity
  8
SIZE
  6
CONTINUOUS
 62
     0
100
AcDbLine
 10
-537.9209773869713
 20
-1290.404776865238
 30
0.0
 11
-537.9209773869712
 21
-993.5079526722097
 31
0.0
  0
INSERT
  5
900A1
330
90063
100
AcDbEntity
  8
SIZE
  6
CONTINUOUS
 62
     0
100
AcDbBlockReference
  2
_ORIGIN
 10
-537.9209773869713
 20
-1300.404776865238
 30
0.0
 41
10.0
 42
10.0
 43
10.0
 50
270.0
  0
INSERT
  5
900A2
330
90063
100
AcDbEntity
  8
SIZE
  6
CONTINUOUS
 62
     0
100
AcDbBlockReference
  2
_ORIGIN
 10
-537.9209773869712
 20
-983.5079526722097
 30
0.0
 41
10.0
 42
10.0
 43
10.0
 50
90.0
  0
MTEXT
  5
900A3
330
90063
100
AcDbEntity
  8
SIZE
  6
CONTINUOUS
 62
     0
100
AcDbMText
 10
-572.9209773869711
 20
-1141.956364768724
 30
0.0
 40
50.0
 41
0.0
 71
     5
 72
     1
  1
\A1;317
 11
0.0000000000000001
 21
1.0
 31
0.0
1001
ACAD
1000
MTEXTBEGIN
1070
    73
1070
     1
1070
    44
1040
1.0
1070
    74
1070
     0
1000
MTEXTEND
  0
POINT
  5
900A4
330
90063
100
AcDbEntity
  8
DEFPOINTS
  6
CONTINUOUS
 62
     0
100
AcDbPoint
 10
-374.3544873375681
 20
-1300.404776865238
 30
0.0
  0
POINT
  5
900A5
330
90063
100
AcDbEntity
  8
DEFPOINTS
  6
CONTINUOUS
 62
     0
100
AcDbPoint
 10
-334.2913200000023
 20
-983.5079526722097
 30
0.0
  0
POINT
  5
900A6
330
90063
100
AcDbEntity
  8
DEFPOINTS
  6
CONTINUOUS
 62
     0
100
AcDbPoint
 10
-537.9209773869712
 20
-983.5079526722097
 30
0.0
  0
ENDBLK
  5
9006E
330
90063
100
AcDbEntity
  8
0
100
AcDbBlockEnd
  0
BLOCK
  5
91FDF
330
91FD3
100
AcDbEntity
  8
0
100
AcDbBlockBegin
  2
*D31
 70
     1
 10
0.0
 20
0.0
 30
0.0
  3
*D31
  1

  0
LINE
  5
91FD4
330
91FD3
100
AcDbEntity
  8
SIZE
  6
CONTINUOUS
 62
     0
100
AcDbLine
 10
-380.3158380000045
 20
-301.202090785551
 30
0.0
 11
-380.3158380000045
 21
-459.3552804278297
 31
0.0
  0
LINE
  5
91FD5
330
91FD3
100
AcDbEntity
  8
SIZE
  6
CONTINUOUS
 62
     0
100
AcDbLine
 10
-399.5065451999994
 20
-303.2628343999999
 30
0.0
 11
-399.5065451999994
 21
-459.3552804278297
 31
0.0
  0
LINE
  5
91FD6
330
91FD3
100
AcDbEntity
  8
SIZE
  6
CONTINUOUS
 62
     0
100
AcDbLine
 10
-370.3158380000045
 20
-439.3552804278296
 30
0.0
 11
-360.3158380000045
 21
-439.3552804278296
 31
0.0
  0
LINE
  5
91FD7
330
91FD3
100
AcDbEntity
  8
SIZE
  6
CONTINUOUS
 62
     0
100
AcDbLine
 10
-409.5065451999994
 20
-439.3552804278296
 30
0.0
 11
-501.6494023428565
 21
-439.3552804278296
 31
0.0
  0
LINE
  5
91FD8
330
91FD3
100
AcDbEntity
  8
SIZE
  6
CONTINUOUS
 62
     0
100
AcDbLine
 10
-380.3158380000045
 20
-439.3552804278296
 30
0.0
 11
-399.5065451999994
 21
-439.3552804278296
 31
0.0
  0
INSERT
  5
91FD9
330
91FD3
100
AcDbEntity
  8
SIZE
  6
CONTINUOUS
 62
     0
100
AcDbBlockReference
  2
_ORIGIN
 10
-380.3158380000045
 20
-439.3552804278296
 30
0.0
 41
10.0
 42
10.0
 43
10.0
 50
180.0
  0
INSERT
  5
91FDA
330
91FD3
100
AcDbEntity
  8
SIZE
  6
CONTINUOUS
 62
     0
100
AcDbBlockReference
  2
_ORIGIN
 10
-399.5065451999994
 20
-439.3552804278296
 30
0.0
 41
10.0
 42
10.0
 43
10.0
  0
MTEXT
  5
91FDB
330
91FD3
100
AcDbEntity
  8
SIZE
  6
CONTINUOUS
 62
     0
100
AcDbMText
 10
-460.5779737714279
 20
-404.3552804278297
 30
0.0
 40
50.0
 41
0.0
 71
     5
 72
     1
  1
\A1;19
1001
ACAD
1000
MTEXTBEGIN
1070
    73
1070
     1
1070
    44
1040
1.0
1070
    74
1070
     0
1000
MTEXTEND
  0
POINT
  5
91FDC
330
91FD3
100
AcDbEntity
  8
DEFPOINTS
  6
CONTINUOUS
 62
     0
100
AcDbPoint
 10
-380.3158380000045
 20
-281.202090785551
 30
0.0
  0
POINT
  5
91FDD
330
91FD3
100
AcDbEntity
  8
DEFPOINTS
  6
CONTINUOUS
 62
     0
100
AcDbPoint
 10
-399.5065451999994
 20
-283.2628343999999
 30
0.0
  0
POINT
  5
91FDE
330
91FD3
100
AcDbEntity
  8
DEFPOINTS
  6
CONTINUOUS
 62
     0
100
AcDbPoint
 10
-399.5065451999994
 20
-439.3552804278296
 30
0.0
  0
ENDBLK
  5
91FE0
330
91FD3
100
AcDbEntity
  8
0
100
AcDbBlockEnd
  0
BLOCK
  5
91FEC
330
91FE2
100
AcDbEntity
  8
0
100
AcDbBlockBegin
  2
*D32
 70
     1
 10
0.0
 20
0.0
 30
0.0
  3
*D32
  1

  0
LINE
  5
91FE3
330
91FE2
100
AcDbEntity
  8
SIZE
  6
CONTINUOUS
 62
     0
100
AcDbLine
 10
-380.3158380000045
 20
-301.202090785551
 30
0.0
 11
-380.3158380000045
 21
-459.3552804278297
 31
0.0
  0
LINE
  5
91FE4
330
91FE2
100
AcDbEntity
  8
SIZE
  6
CONTINUOUS
 62
     0
100
AcDbLine
 10
380.3158380000045
 20
-301.202090785551
 30
0.0
 11
380.3158380000045
 21
-459.3552804278297
 31
0.0
  0
LINE
  5
91FE5
330
91FE2
100
AcDbEntity
  8
SIZE
  6
CONTINUOUS
 62
     0
100
AcDbLine
 10
-370.3158380000045
 20
-439.3552804278296
 30
0.0
 11
370.3158380000045
 21
-439.3552804278296
 31
0.0
  0
INSERT
  5
91FE6
330
91FE2
100
AcDbEntity
  8
SIZE
  6
CONTINUOUS
 62
     0
100
AcDbBlockReference
  2
_ORIGIN
 10
-380.3158380000045
 20
-439.3552804278296
 30
0.0
 41
10.0
 42
10.0
 43
10.0
 50
180.0
  0
INSERT
  5
91FE7
330
91FE2
100
AcDbEntity
  8
SIZE
  6
CONTINUOUS
 62
     0
100
AcDbBlockReference
  2
_ORIGIN
 10
380.3158380000045
 20
-439.3552804278296
 30
0.0
 41
10.0
 42
10.0
 43
10.0
  0
MTEXT
  5
91FE8
330
91FE2
100
AcDbEntity
  8
SIZE
  6
CONTINUOUS
 62
     0
100
AcDbMText
 10
0.0000000000000021
 20
-404.3552804278297
 30
0.0
 40
50.0
 41
0.0
 71
     5
 72
     1
  1
\A1;761
1001
ACAD
1000
MTEXTBEGIN
1070
    73
1070
     1
1070
    44
1040
1.0
1070
    74
1070
     0
1000
MTEXTEND
  0
POINT
  5
91FE9
330
91FE2
100
AcDbEntity
  8
DEFPOINTS
  6
CONTINUOUS
 62
     0
100
AcDbPoint
 10
-380.3158380000045
 20
-281.202090785551
 30
0.0
  0
POINT
  5
91FEA
330
91FE2
100
AcDbEntity
  8
DEFPOINTS
  6
CONTINUOUS
 62
     0
100
AcDbPoint
 10
380.3158380000045
 20
-281.202090785551
 30
0.0
  0
POINT
  5
91FEB
330
91FE2
100
AcDbEntity
  8
DEFPOINTS
  6
CONTINUOUS
 62
     0
100
AcDbPoint
 10
380.3158380000045
 20
-439.3552804278296
 30
0.0
  0
ENDBLK
  5
91FED
330
91FE2
100
AcDbEntity
  8
0
100
AcDbBlockEnd
  0
BLOCK
  5
91FFB
330
91FEF
100
AcDbEntity
  8
0
100
AcDbBlockBegin
  2
*D33
 70
     1
 10
0.0
 20
0.0
 30
0.0
  3
*D33
  1

  0
LINE
  5
91FF0
330
91FEF
100
AcDbEntity
  8
SIZE
  6
CONTINUOUS
 62
     0
100
AcDbLine
 10
380.3094911313746
 20
-301.5551239061142
 30
0.0
 11
380.3094911313746
 21
-459.3552804278297
 31
0.0
  0
LINE
  5
91FF1
330
91FEF
100
AcDbEntity
  8
SIZE
  6
CONTINUOUS
 62
     0
100
AcDbLine
 10
399.5065451999994
 20
-303.2628343999843
 30
0.0
 11
399.5065451999994
 21
-459.3552804278297
 31
0.0
  0
LINE
  5
91FF2
330
91FEF
100
AcDbEntity
  8
SIZE
  6
CONTINUOUS
 62
     0
100
AcDbLine
 10
370.3094911313746
 20
-439.3552804278296
 30
0.0
 11
360.3094911313746
 21
-439.3552804278296
 31
0.0
  0
LINE
  5
91FF3
330
91FEF
100
AcDbEntity
  8
SIZE
  6
CONTINUOUS
 62
     0
100
AcDbLine
 10
409.5065451999994
 20
-439.3552804278296
 30
0.0
 11
501.6494023428565
 21
-439.3552804278296
 31
0.0
  0
LINE
  5
91FF4
330
91FEF
100
AcDbEntity
  8
SIZE
  6
CONTINUOUS
 62
     0
100
AcDbLine
 10
380.3094911313746
 20
-439.3552804278296
 30
0.0
 11
399.5065451999994
 21
-439.3552804278296
 31
0.0
  0
INSERT
  5
91FF5
330
91FEF
100
AcDbEntity
  8
SIZE
  6
CONTINUOUS
 62
     0
100
AcDbBlockReference
  2
_ORIGIN
 10
380.3094911313746
 20
-439.3552804278296
 30
0.0
 41
10.0
 42
10.0
 43
10.0
  0
INSERT
  5
91FF6
330
91FEF
100
AcDbEntity
  8
SIZE
  6
CONTINUOUS
 62
     0
100
AcDbBlockReference
  2
_ORIGIN
 10
399.5065451999994
 20
-439.3552804278296
 30
0.0
 41
10.0
 42
10.0
 43
10.0
 50
180.0
  0
MTEXT
  5
91FF7
330
91FEF
100
AcDbEntity
  8
SIZE
  6
CONTINUOUS
 62
     0
100
AcDbMText
 10
460.5779737714279
 20
-404.3552804278297
 30
0.0
 40
50.0
 41
0.0
 71
     5
 72
     1
  1
\A1;19
1001
ACAD
1000
MTEXTBEGIN
1070
    73
1070
     1
1070
    44
1040
1.0
1070
    74
1070
     0
1000
MTEXTEND
  0
POINT
  5
91FF8
330
91FEF
100
AcDbEntity
  8
DEFPOINTS
  6
CONTINUOUS
 62
     0
100
AcDbPoint
 10
380.3094911313746
 20
-281.5551239061142
 30
0.0
  0
POINT
  5
91FF9
330
91FEF
100
AcDbEntity
  8
DEFPOINTS
  6
CONTINUOUS
 62
     0
100
AcDbPoint
 10
399.5065451999994
 20
-283.2628343999843
 30
0.0
  0
POINT
  5
91FFA
330
91FEF
100
AcDbEntity
  8
DEFPOINTS
  6
CONTINUOUS
 62
     0
100
AcDbPoint
 10
399.5065451999994
 20
-439.3552804278296
 30
0.0
  0
ENDBLK
  5
91FFC
330
91FEF
100
AcDbEntity
  8
0
100
AcDbBlockEnd
  0
ENDSEC
  0
SECTION
  2
ENTITIES
  0
MTEXT
  5
38341
330
1E
100
AcDbEntity
  8
0
  6
CONTINUOUS
100
AcDbMText
 10
383.9605305094082
 20
4023.282340837186
 30
0.0
 40
64.0
 41
187.9848
 71
     1
 72
     5
  1

1001
ACAD
1000
MTEXTBEGIN
1070
    73
1070
     1
1070
    44
1040
1.0
1070
    74
1070
     0
1000
MTEXTEND
1000
MTEXTBEGIN
1070
    73
1070
     1
1070
    44
1040
1.0
1070
    74
1070
     0
1000
MTEXTEND
1000
MTEXTBEGIN
1070
    73
1070
     1
1070
    44
1040
1.0
1070
    74
1070
     0
1000
MTEXTEND
1000
MTEXTBEGIN
1070
    73
1070
     1
1070
    44
1040
1.0
1070
    74
1070
     0
1000
MTEXTEND
  0
LINE
  5
681E4
330
1E
100
AcDbEntity
  8
BASIS
100
AcDbLine
 10
-460.5022263473292
 20
-147.4520625000004
 30
0.0
 11
472.7924255429607
 21
-147.4520625000004
 31
0.0
  0
CIRCLE
  5
681E5
330
1E
100
AcDbEntity
  8
ARRANGE
  6
CONTINUOUS
100
AcDbCircle
 10
0.0
 20
0.0
 30
0.0
 40
13.00138232471456
  0
POINT
  5
681E6
330
1E
100
AcDbEntity
  8
ARRANGE
  6
CONTINUOUS
100
AcDbPoint
 10
0.0
 20
0.0
 30
0.0
  0
LINE
  5
681EF
330
1E
100
AcDbEntity
  8
NOTE
  6
CONTINUOUS
 62
     4
100
AcDbLine
 10
-329.8927499999981
 20
-252.9177749999926
 30
0.0
 11
-634.6320699999987
 21
130.4824150000058
 31
0.0
  0
LINE
  5
68205
330
1E
100
AcDbEntity
  8
BASIS
100
AcDbLine
 10
-329.8927499999981
 20
-292.9178749899938
 30
0.0
 11
-329.8927499999981
 21
-212.9176750099923
 31
0.0
  0
LINE
  5
68206
330
1E
100
AcDbEntity
  8
NOTE
  6
DASHDOT
 62
     4
100
AcDbLine
 10
-329.8927499999981
 20
-272.9177749999935
 30
0.0
 11
-329.8927499999981
 21
-232.9177749999935
 31
0.0
  0
LINE
  5
68207
330
1E
100
AcDbEntity
  8
NOTE
  6
CONTINUOUS
 62
     4
100
AcDbLine
 10
-361.9420200000013
 20
-228.9836149999937
 30
0.0
 11
-329.8927499999981
 21
-252.9177749999926
 31
0.0
  0
LINE
  5
68208
330
1E
100
AcDbEntity
  8
NOTE
  6
CONTINUOUS
 62
     4
100
AcDbLine
 10
-329.8927499999981
 20
-252.9177749999926
 30
0.0
 11
-345.6811499999994
 21
-216.1655449999925
 31
0.0
  0
LINE
  5
68213
330
1E
100
AcDbEntity
  8
BASIS
100
AcDbLine
 10
-289.8926500100015
 20
-252.9177749999926
 30
0.0
 11
-369.8928499899984
 21
-252.9177749999926
 31
0.0
  0
LINE
  5
68214
330
1E
100
AcDbEntity
  8
NOTE
  6
DASHDOT
 62
     4
100
AcDbLine
 10
-309.8927499999981
 20
-252.9177749999926
 30
0.0
 11
-349.8927499999981
 21
-252.9177749999926
 31
0.0
  0
LINE
  5
6821D
330
1E
100
AcDbEntity
  8
NOTE
  6
CONTINUOUS
 62
     4
100
AcDbLine
 10
-1168.371679999999
 20
130.4824150000058
 30
0.0
 11
-634.6320699999987
 21
130.4824150000058
 31
0.0
  0
TEXT
  5
6821E
330
1E
100
AcDbEntity
  8
NOTE
 62
     4
100
AcDbText
 10
-1142.159229999998
 20
160.727945000006
 30
0.0
 40
64.0
  1
D,RL,RG%%C65
 41
0.9
100
AcDbText
  0
LINE
  5
68230
330
1E
100
AcDbEntity
  8
NOTE
  6
CONTINUOUS
 62
     4
100
AcDbLine
 10
344.8878750000003
 20
-253.9174500000008
 30
0.0
 11
546.7148049999959
 21
120.3573599999981
 31
0.0
  0
LINE
  5
68231
330
1E
100
AcDbEntity
  8
BASIS
100
AcDbLine
 10
0.0
 20
-342.4925549182944
 30
0.0
 11
0.0
 21
53.17246475777029
 31
0.0
  0
LINE
  5
68233
330
1E
100
AcDbEntity
  8
BASIS
100
AcDbLine
 10
384.887974989997
 20
-253.9174500000026
 30
0.0
 11
304.88777501
 21
-253.9174500000026
 31
0.0
  0
LINE
  5
68235
330
1E
100
AcDbEntity
  8
BASIS
100
AcDbLine
 10
344.8878750000003
 20
-293.9175499899993
 30
0.0
 11
344.8878750000003
 21
-213.9173500100023
 31
0.0
  0
LINE
  5
68236
330
1E
100
AcDbEntity
  8
NOTE
  6
DASHDOT
 62
     4
100
AcDbLine
 10
344.8878750000003
 20
-273.9174500000008
 30
0.0
 11
344.8878750000003
 21
-233.9174500000008
 31
0.0
  0
LINE
  5
68239
330
1E
100
AcDbEntity
  8
NOTE
  6
CONTINUOUS
 62
     4
100
AcDbLine
 10
354.6731349999972
 20
-215.1328100000009
 30
0.0
 11
344.8878750000003
 21
-253.9174500000008
 31
0.0
  0
LINE
  5
6823A
330
1E
100
AcDbEntity
  8
NOTE
  6
CONTINUOUS
 62
     4
100
AcDbLine
 10
344.8878750000003
 20
-253.9174500000008
 30
0.0
 11
372.7544849999976
 21
-225.221590000001
 31
0.0
  0
LINE
  5
68249
330
1E
100
AcDbEntity
  8
NOTE
  6
DASHDOT
 62
     4
100
AcDbLine
 10
364.8878750000003
 20
-253.9174500000008
 30
0.0
 11
324.8878750000003
 21
-253.9174500000008
 31
0.0
  0
TEXT
  5
68262
330
1E
100
AcDbEntity
  8
ETC
100
AcDbText
 10
669.3410496914712
 20
286.3402662114994
 30
0.0
 40
64.0
  1
SMSZ5733
 41
0.886075956289558
 72
     5
 11
1096.007719691471
 21
286.3402662114994
 31
0.0
100
AcDbText
  0
TEXT
  5
68263
330
1E
100
AcDbEntity
  8
NOTE
 62
     4
100
AcDbText
 10
559.3799689483203
 20
142.4149599999982
 30
0.0
 40
64.0
  1
D,RL,RG%%C65
 41
0.9
100
AcDbText
  0
LINE
  5
68264
330
1E
100
AcDbEntity
  8
NOTE
  6
CONTINUOUS
 62
     4
100
AcDbLine
 10
546.7148049999959
 20
120.3573599999981
 30
0.0
 11
1064.891408948321
 21
120.3573599999981
 31
0.0
  0
TEXT
  5
68265
330
1E
100
AcDbEntity
  8
ETC
100
AcDbText
 10
677.4432626707011
 20
401.1300555974393
 30
0.0
 40
64.0
  1
室内機
 41
0.7499999999999955
 72
     5
 11
837.4432626707003
 21
401.1300555974393
 31
0.0
100
AcDbText
  0
LINE
  5
8E90D
330
1E
100
AcDbEntity
  8
DETAIL
  6
CONTINUOUS
100
AcDbLine
 10
-399.3701625000007
 20
-294.9041250000009
 30
0.0
 11
399.3701625000012
 21
-294.9041250000009
 31
0.0
  0
LINE
  5
8E90E
330
1E
100
AcDbEntity
  8
DETAIL
  6
CONTINUOUS
100
AcDbLine
 10
399.3701625000012
 20
0.0
 30
0.0
 11
-399.3701625000007
 21
0.0
 31
0.0
  0
LINE
  5
8E90F
330
1E
100
AcDbEntity
  8
DETAIL
  6
CONTINUOUS
100
AcDbLine
 10
-292.0392887091561
 20
-7.49756250000064
 30
0.0
 11
-295.789358233666
 21
-21.4930125000028
 31
0.0
  0
LINE
  5
8E910
330
1E
100
AcDbEntity
  8
DETAIL
  6
CONTINUOUS
100
AcDbLine
 10
-295.789358233666
 20
-21.4930125000028
 30
0.0
 11
-334.8911249999996
 21
-21.4930125000028
 31
0.0
  0
LINE
  5
8E911
330
1E
100
AcDbEntity
  8
DETAIL
  6
CONTINUOUS
100
AcDbLine
 10
-261.0296167650012
 20
-21.4930125000028
 30
0.0
 11
-264.7796862895079
 21
-7.49756250000064
 31
0.0
  0
LINE
  5
8E912
330
1E
100
AcDbEntity
  8
DETAIL
  6
CONTINUOUS
100
AcDbLine
 10
-230.4250874999984
 20
-36.98797499999546
 30
0.0
 11
-230.4250874999984
 21
-45.98504999999749
 31
0.0
  0
LINE
  5
8E913
330
1E
100
AcDbEntity
  8
DETAIL
  6
CONTINUOUS
100
AcDbLine
 10
-219.4286625000009
 20
-45.98504999999749
 30
0.0
 11
-219.4286625000009
 21
-36.98797499999546
 31
0.0
  0
LINE
  5
8E914
330
1E
100
AcDbEntity
  8
DETAIL
  6
CONTINUOUS
100
AcDbLine
 10
-184.9397750324992
 20
-41.48651250000329
 30
0.0
 11
-264.9139749675005
 21
-41.48651250000329
 31
0.0
  0
ARC
  5
8E915
330
1E
100
AcDbEntity
  8
DETAIL
  6
CONTINUOUS
100
AcDbCircle
 10
-224.9268749999996
 20
-36.98797499999546
 30
0.0
 40
5.4982125
100
AcDbArc
 50
0.000000000000007
 51
180.0
  0
ARC
  5
8E916
330
1E
100
AcDbEntity
  8
DETAIL
  6
CONTINUOUS
100
AcDbCircle
 10
-224.9268749999996
 20
-45.98504999999749
 30
0.0
 40
5.4982125
100
AcDbArc
 50
180.0
 51
0.000000000000007
  0
LINE
  5
8E917
330
1E
100
AcDbEntity
  8
DETAIL
  6
CONTINUOUS
100
AcDbLine
 10
-224.9268749999996
 20
-81.47361246750007
 30
0.0
 11
-224.9268749999996
 21
-1.499412532493806
 31
0.0
  0
LINE
  5
8E918
330
1E
100
AcDbEntity
  8
DETAIL
  6
CONTINUOUS
100
AcDbLine
 10
-264.7796862895079
 20
-7.49756250000064
 30
0.0
 11
-292.0392887091561
 21
-7.49756250000064
 31
0.0
  0
LINE
  5
8E919
330
1E
100
AcDbEntity
  8
DETAIL
  6
CONTINUOUS
100
AcDbLine
 10
-305.0008424999991
 20
-206.4328875000028
 30
0.0
 11
-292.0050674999997
 21
-206.4328875000028
 31
0.0
  0
ARC
  5
8E91B
330
1E
100
AcDbEntity
  8
DETAIL
  6
CONTINUOUS
100
AcDbCircle
 10
-305.0008424999991
 20
-176.5426049999987
 30
0.0
 40
29.8902825
100
AcDbArc
 50
180.0
 51
270.0
  0
ARC
  5
8E91C
330
1E
100
AcDbEntity
  8
DETAIL
  6
CONTINUOUS
100
AcDbCircle
 10
-292.0050674999997
 20
-233.5240799999937
 30
0.0
 40
27.0911925
100
AcDbArc
 50
0.000000000000007
 51
90.0
  0
LINE
  5
8E91D
330
1E
100
AcDbEntity
  8
DETAIL
  6
CONTINUOUS
100
AcDbLine
 10
-334.8911249999996
 20
-21.4930125000028
 30
0.0
 11
-334.8911249999996
 21
-176.5426049999987
 31
0.0
  0
LINE
  5
8E91E
330
1E
100
AcDbEntity
  8
DETAIL
  6
CONTINUOUS
100
AcDbLine
 10
-74.98832283319416
 20
-33.48911249999764
 30
0.0
 11
-120.7734378331933
 21
-21.4930125000028
 31
0.0
  0
LINE
  5
8E91F
330
1E
100
AcDbEntity
  8
DETAIL
  6
CONTINUOUS
100
AcDbLine
 10
-9.030556009800875
 20
-4.756299093583947
 30
0.0
 11
-16.76494834841105
 21
-33.48911249999764
 31
0.0
  0
LINE
  5
8E920
330
1E
100
AcDbEntity
  8
DETAIL
  6
CONTINUOUS
100
AcDbLine
 10
16.76494834974482
 20
-33.48911249999764
 30
0.0
 11
9.030556011135104
 21
-4.756299093583947
 31
0.0
  0
LINE
  5
8E921
330
1E
100
AcDbEntity
  8
DETAIL
  6
CONTINUOUS
100
AcDbLine
 10
9.030556011135104
 20
-4.756299093583947
 30
0.0
 11
-9.030556009800875
 21
-4.756299093583947
 31
0.0
  0
LINE
  5
8E922
330
1E
100
AcDbEntity
  8
DETAIL
  6
CONTINUOUS
100
AcDbLine
 10
-16.76494834841105
 20
-33.48911249999764
 30
0.0
 11
-74.98832283319416
 21
-33.48911249999764
 31
0.0
  0
LINE
  5
8E923
330
1E
100
AcDbEntity
  8
DETAIL
  6
CONTINUOUS
100
AcDbLine
 10
-120.7734378331933
 20
-21.4930125000028
 30
0.0
 11
-261.0296167650012
 21
-21.4930125000028
 31
0.0
  0
LINE
  5
8E926
330
1E
100
AcDbEntity
  8
DETAIL
  6
CONTINUOUS
100
AcDbLine
 10
120.7734378345276
 20
-21.4930125000028
 30
0.0
 11
74.98832283452839
 21
-33.48911249999764
 31
0.0
  0
LINE
  5
8E927
330
1E
100
AcDbEntity
  8
DETAIL
  6
CONTINUOUS
100
AcDbLine
 10
264.7796862908417
 20
-7.49756250000064
 30
0.0
 11
261.029616766335
 21
-21.4930125000028
 31
0.0
  0
LINE
  5
8E928
330
1E
100
AcDbEntity
  8
DETAIL
  6
CONTINUOUS
100
AcDbLine
 10
232.4244375000002
 20
-35.98829999999725
 30
0.0
 11
217.4293125000003
 21
-35.98829999999725
 31
0.0
  0
LINE
  5
8E929
330
1E
100
AcDbEntity
  8
DETAIL
  6
CONTINUOUS
100
AcDbLine
 10
264.9139749675009
 20
-41.48651250000329
 30
0.0
 11
184.9397750324997
 21
-41.48651250000329
 31
0.0
  0
LINE
  5
8E92A
330
1E
100
AcDbEntity
  8
DETAIL
  6
CONTINUOUS
100
AcDbLine
 10
217.4293125000003
 20
-46.98472499999479
 30
0.0
 11
232.4244375000002
 21
-46.98472499999479
 31
0.0
  0
LINE
  5
8E92B
330
1E
100
AcDbEntity
  8
DETAIL
  6
CONTINUOUS
100
AcDbLine
 10
224.9268750000001
 20
-81.47361246750007
 30
0.0
 11
224.9268750000001
 21
-1.499412532493806
 31
0.0
  0
ARC
  5
8E92C
330
1E
100
AcDbEntity
  8
DETAIL
  6
CONTINUOUS
100
AcDbCircle
 10
217.4293125000003
 20
-41.48651250000329
 30
0.0
 40
5.4982125
100
AcDbArc
 50
90.0
 51
270.0
  0
ARC
  5
8E92D
330
1E
100
AcDbEntity
  8
DETAIL
  6
CONTINUOUS
100
AcDbCircle
 10
232.4244375000002
 20
-41.48651250000329
 30
0.0
 40
5.4982125
100
AcDbArc
 50
270.0
 51
90.0
  0
LINE
  5
8E92E
330
1E
100
AcDbEntity
  8
DETAIL
  6
CONTINUOUS
100
AcDbLine
 10
261.029616766335
 20
-21.4930125000028
 30
0.0
 11
120.7734378345276
 21
-21.4930125000028
 31
0.0
  0
LINE
  5
8E92F
330
1E
100
AcDbEntity
  8
DETAIL
  6
CONTINUOUS
100
AcDbLine
 10
295.7893582350002
 20
-21.4930125000028
 30
0.0
 11
292.0392887104903
 21
-7.49756250000064
 31
0.0
  0
LINE
  5
8E930
330
1E
100
AcDbEntity
  8
DETAIL
  6
CONTINUOUS
100
AcDbLine
 10
334.891125
 20
-21.4930125000028
 30
0.0
 11
295.7893582350002
 21
-21.4930125000028
 31
0.0
  0
LINE
  5
8E931
330
1E
100
AcDbEntity
  8
DETAIL
  6
CONTINUOUS
100
AcDbLine
 10
292.5049050000025
 20
-206.4328875000028
 30
0.0
 11
305.0008425000023
 21
-206.4328875000028
 31
0.0
  0
ARC
  5
8E932
330
1E
100
AcDbEntity
  8
DETAIL
  6
CONTINUOUS
100
AcDbCircle
 10
305.0008425000023
 20
-176.5426049999987
 30
0.0
 40
29.8902825
100
AcDbArc
 50
270.0
 51
0.000000000000007
  0
LINE
  5
8E934
330
1E
100
AcDbEntity
  8
DETAIL
  6
CONTINUOUS
100
AcDbLine
 10
334.891125
 20
-176.5426049999987
 30
0.0
 11
334.891125
 21
-21.4930125000028
 31
0.0
  0
LINE
  5
8E935
330
1E
100
AcDbEntity
  8
DETAIL
  6
CONTINUOUS
100
AcDbLine
 10
292.0392887104903
 20
-7.49756250000064
 30
0.0
 11
264.7796862908417
 21
-7.49756250000064
 31
0.0
  0
ARC
  5
8E936
330
1E
100
AcDbEntity
  8
DETAIL
  6
CONTINUOUS
100
AcDbCircle
 10
292.5049050000025
 20
-233.5240799999937
 30
0.0
 40
27.0911925
100
AcDbArc
 50
90.0
 51
180.0
  0
LINE
  5
8E937
330
1E
100
AcDbEntity
  8
DETAIL
  6
CONTINUOUS
100
AcDbLine
 10
74.98832283452839
 20
-33.48911249999764
 30
0.0
 11
16.76494834974482
 21
-33.48911249999764
 31
0.0
  0
LINE
  5
8E938
330
1E
100
AcDbEntity
  8
DETAIL
  6
CONTINUOUS
100
AcDbLine
 10
119.9610000000002
 20
-214.9301250000007
 30
0.0
 11
-119.9609999999997
 21
-214.9301250000007
 31
0.0
  0
LINE
  5
8E939
330
1E
100
AcDbEntity
  8
DETAIL
  6
CONTINUOUS
100
AcDbLine
 10
119.9610000000002
 20
-284.9073750000006
 30
0.0
 11
-119.9609999999997
 21
-284.9073750000006
 31
0.0
  0
LINE
  5
8E93A
330
1E
100
AcDbEntity
  8
DETAIL
  6
CONTINUOUS
100
AcDbLine
 10
-264.9138749999997
 20
-291.9050999999953
 30
0.0
 11
265.4137124999988
 21
-291.9050999999953
 31
0.0
  0
CIRCLE
  5
8E93B
330
1E
100
AcDbEntity
  8
DETAIL
  6
CONTINUOUS
100
AcDbCircle
 10
-329.8927500000004
 20
-252.9177749999926
 30
0.0
 40
32.4894375
  0
CIRCLE
  5
8E93D
330
1E
100
AcDbEntity
  8
DETAIL
  6
CONTINUOUS
100
AcDbCircle
 10
344.8878750000003
 20
-253.9174500000026
 30
0.0
 40
32.4894375
  0
LINE
  5
8E93F
330
1E
100
AcDbEntity
  8
DETAIL
  6
CONTINUOUS
100
AcDbLine
 10
399.3701625000012
 20
0.0
 30
0.0
 11
399.3701625000012
 21
-294.9041250000009
 31
0.0
  0
LINE
  5
8E941
330
1E
100
AcDbEntity
  8
DETAIL
  6
CONTINUOUS
100
AcDbLine
 10
-264.9138749999997
 20
-233.5240799999937
 30
0.0
 11
-264.9138749999997
 21
-291.9050999999953
 31
0.0
  0
ARC
  5
8E942
330
1E
100
AcDbEntity
  8
DETAIL
  6
CONTINUOUS
100
AcDbCircle
 10
-119.9609999999997
 20
-249.9187500000007
 30
0.0
 40
34.98862499999999
100
AcDbArc
 50
90.0
 51
270.0
  0
ARC
  5
8E943
330
1E
100
AcDbEntity
  8
DETAIL
  6
CONTINUOUS
100
AcDbCircle
 10
119.9610000000002
 20
-249.9187500000007
 30
0.0
 40
34.98862499999999
100
AcDbArc
 50
270.0
 51
90.0
  0
LINE
  5
8E944
330
1E
100
AcDbEntity
  8
DETAIL
  6
CONTINUOUS
100
AcDbLine
 10
265.4137124999988
 20
-291.9050999999953
 30
0.0
 11
265.4137124999988
 21
-233.5240799999937
 31
0.0
  0
LINE
  5
8E945
330
1E
100
AcDbEntity
  8
DETAIL
  6
CONTINUOUS
100
AcDbLine
 10
-399.3701625000007
 20
0.0
 30
0.0
 11
-399.3701625000007
 21
-294.9041250000009
 31
0.0
  0
LINE
  5
9205F
330
1E
100
AcDbEntity
  8
SIZE
  6
CONTINUOUS
100
AcDbLine
 10
-329.8927499999981
 20
-312.9178749899938
 30
0.0
 11
-329.8927499999981
 21
-454.4913684433058
 31
0.0
  0
LINE
  5
92060
330
1E
100
AcDbEntity
  8
SIZE
  6
CONTINUOUS
100
AcDbLine
 10
-399.3701625000007
 20
-314.9041250000009
 30
0.0
 11
-399.3701625000007
 21
-454.4913684433058
 31
0.0
  0
LINE
  5
92061
330
1E
100
AcDbEntity
  8
SIZE
  6
CONTINUOUS
100
AcDbLine
 10
-339.8927499999981
 20
-434.4913684433058
 30
0.0
 11
-389.3701625000007
 21
-434.4913684433058
 31
0.0
  0
LINE
  5
92062
330
1E
100
AcDbEntity
  8
SIZE
  6
CONTINUOUS
100
AcDbLine
 10
-399.3701625000007
 20
-434.4913684433058
 30
0.0
 11
-566.5130196428578
 21
-434.4913684433058
 31
0.0
  0
LINE
  5
92066
330
1E
100
AcDbEntity
  8
SIZE
  6
CONTINUOUS
100
AcDbLine
 10
-399.3701625000007
 20
20.0
 30
0.0
 11
-399.3701625000007
 21
200.7235352877278
 31
0.0
  0
LINE
  5
92067
330
1E
100
AcDbEntity
  8
SIZE
  6
CONTINUOUS
100
AcDbLine
 10
399.3701625000012
 20
20.0
 30
0.0
 11
399.3701625000012
 21
200.7235352877278
 31
0.0
  0
LINE
  5
92068
330
1E
100
AcDbEntity
  8
SIZE
  6
CONTINUOUS
100
AcDbLine
 10
-389.3701625000007
 20
180.7235352877278
 30
0.0
 11
389.3701625000012
 21
180.7235352877278
 31
0.0
  0
LINE
  5
9206C
330
1E
100
AcDbEntity
  8
SIZE
  6
CONTINUOUS
100
AcDbLine
 10
-419.3701625000008
 20
-294.9041250000009
 30
0.0
 11
-652.5460118658376
 21
-294.9041250000009
 31
0.0
  0
LINE
  5
9206D
330
1E
100
AcDbEntity
  8
SIZE
  6
CONTINUOUS
100
AcDbLine
 10
-419.3701625000008
 20
0.0000000000000057
 30
0.0
 11
-652.5460118658375
 21
0.0000000000000717
 31
0.0
  0
LINE
  5
9206E
330
1E
100
AcDbEntity
  8
SIZE
  6
CONTINUOUS
100
AcDbLine
 10
-632.5460118658376
 20
-284.9041250000009
 30
0.0
 11
-632.5460118658375
 21
-9.999999999999934
 31
0.0
  0
LINE
  5
92072
330
1E
100
AcDbEntity
  8
SIZE
  6
CONTINUOUS
100
AcDbLine
 10
-419.3701625000008
 20
-294.9041250000009
 30
0.0
 11
-529.903232750301
 21
-294.9041250000009
 31
0.0
  0
LINE
  5
92073
330
1E
100
AcDbEntity
  8
SIZE
  6
CONTINUOUS
100
AcDbLine
 10
-389.8798499675008
 20
-252.9177749999926
 30
0.0
 11
-529.903232750301
 21
-252.9177749999925
 31
0.0
  0
LINE
  5
92074
330
1E
100
AcDbEntity
  8
SIZE
  6
CONTINUOUS
100
AcDbLine
 10
-509.9032327503009
 20
-284.9041250000009
 30
0.0
 11
-509.9032327503009
 21
-262.9177749999926
 31
0.0
  0
LINE
  5
92075
330
1E
100
AcDbEntity
  8
SIZE
  6
CONTINUOUS
100
AcDbLine
 10
-509.9032327503009
 20
-252.9177749999925
 30
0.0
 11
-509.9032327503009
 21
-150.0606321428497
 31
0.0
  0
LINE
  5
92079
330
1E
100
AcDbEntity
  8
SIZE
  6
CONTINUOUS
100
AcDbLine
 10
419.3701625000012
 20
-294.9041250000009
 30
0.0
 11
517.0565181706696
 21
-294.9041250000009
 31
0.0
  0
LINE
  5
9207A
330
1E
100
AcDbEntity
  8
SIZE
  6
CONTINUOUS
100
AcDbLine
 10
404.887974989997
 20
-253.9174500000026
 30
0.0
 11
517.0565181706697
 21
-253.9174500000026
 31
0.0
  0
LINE
  5
9207B
330
1E
100
AcDbEntity
  8
SIZE
  6
CONTINUOUS
100
AcDbLine
 10
497.0565181706697
 20
-284.9041250000009
 30
0.0
 11
497.0565181706697
 21
-263.9174500000026
 31
0.0
  0
LINE
  5
9207C
330
1E
100
AcDbEntity
  8
SIZE
  6
CONTINUOUS
100
AcDbLine
 10
497.0565181706697
 20
-253.9174500000026
 30
0.0
 11
497.0565181706697
 21
-170.3460214285741
 31
0.0
  0
LINE
  5
92080
330
1E
100
AcDbEntity
  8
SIZE
  6
CONTINUOUS
100
AcDbLine
 10
344.8878750000003
 20
-313.9175499899993
 30
0.0
 11
344.8878750000003
 21
-454.4913684433058
 31
0.0
  0
LINE
  5
92081
330
1E
100
AcDbEntity
  8
SIZE
  6
CONTINUOUS
100
AcDbLine
 10
399.3701625000012
 20
-314.9041250000009
 30
0.0
 11
399.3701625000012
 21
-454.4913684433058
 31
0.0
  0
LINE
  5
92082
330
1E
100
AcDbEntity
  8
SIZE
  6
CONTINUOUS
100
AcDbLine
 10
354.8878750000003
 20
-434.4913684433058
 30
0.0
 11
389.3701625000012
 21
-434.4913684433058
 31
0.0
  0
LINE
  5
92083
330
1E
100
AcDbEntity
  8
SIZE
  6
CONTINUOUS
100
AcDbLine
 10
399.3701625000012
 20
-434.4913684433058
 30
0.0
 11
566.5130196428584
 21
-434.4913684433058
 31
0.0
  0
LINE
  5
92087
330
1E
100
AcDbEntity
  8
SIZE
  6
CONTINUOUS
100
AcDbLine
 10
-0.0000000000000012
 20
-362.4925549182944
 30
0.0
 11
-0.0000000000000069
 21
-454.4913684433058
 31
0.0
  0
LINE
  5
92088
330
1E
100
AcDbEntity
  8
SIZE
  6
CONTINUOUS
100
AcDbLine
 10
344.8878750000003
 20
-313.9175499899993
 30
0.0
 11
344.8878750000003
 21
-454.4913684433058
 31
0.0
  0
LINE
  5
92089
330
1E
100
AcDbEntity
  8
SIZE
  6
CONTINUOUS
100
AcDbLine
 10
9.999999999999994
 20
-434.4913684433058
 30
0.0
 11
334.8878750000003
 21
-434.4913684433058
 31
0.0
  0
LINE
  5
9208D
330
1E
100
AcDbEntity
  8
SIZE
  6
CONTINUOUS
100
AcDbLine
 10
-329.8927499999981
 20
-312.9178749899938
 30
0.0
 11
-329.8927499999981
 21
-454.4913684433058
 31
0.0
  0
LINE
  5
9208E
330
1E
100
AcDbEntity
  8
SIZE
  6
CONTINUOUS
100
AcDbLine
 10
-0.0000000000000012
 20
-362.4925549182944
 30
0.0
 11
-0.0000000000000069
 21
-454.4913684433058
 31
0.0
  0
LINE
  5
9208F
330
1E
100
AcDbEntity
  8
SIZE
  6
CONTINUOUS
100
AcDbLine
 10
-319.8927499999981
 20
-434.4913684433058
 30
0.0
 11
-10.0
 21
-434.4913684433058
 31
0.0
  0
TEXT
  5
92093
330
1E
100
AcDbEntity
  8
SIZE
  6
CONTINUOUS
100
AcDbText
 10
-556.5130196428579
 20
-424.4913684433059
 30
0.0
 40
50.0
  1
69.5
 41
0.9
100
AcDbText
  0
CIRCLE
  5
92094
330
1E
100
AcDbEntity
  8
SIZE
  6
BYBLOCK
100
AcDbCircle
 10
-399.3701625000007
 20
-434.4913684433058
 30
0.0
 40
5.0
  0
LINE
  5
92095
330
1E
100
AcDbEntity
  8
SIZE
  6
BYBLOCK
100
AcDbLine
 10
-399.3701625000007
 20
-434.4913684433058
 30
0.0
 11
-389.3701625000007
 21
-434.4913684433058
 31
0.0
  0
TEXT
  5
92096
330
1E
100
AcDbEntity
  8
SIZE
  6
CONTINUOUS
100
AcDbText
 10
-519.9032327503009
 20
-232.9177749999926
 30
0.0
 40
50.0
  1
42
 50
90.0
 41
0.9
100
AcDbText
  0
TEXT
  5
92097
330
1E
100
AcDbEntity
  8
SIZE
  6
CONTINUOUS
100
AcDbText
 10
-642.5460118658374
 20
-205.3092053571433
 30
0.0
 40
50.0
  1
295
 50
90.0
 41
0.9
100
AcDbText
  0
CIRCLE
  5
92098
330
1E
100
AcDbEntity
  8
SIZE
  6
BYBLOCK
100
AcDbCircle
 10
-632.5460118658376
 20
-294.9041250000009
 30
0.0
 40
5.0
  0
LINE
  5
92099
330
1E
100
AcDbEntity
  8
SIZE
  6
BYBLOCK
100
AcDbLine
 10
-632.5460118658376
 20
-294.9041250000009
 30
0.0
 11
-632.5460118658376
 21
-284.9041250000009
 31
0.0
  0
CIRCLE
  5
9209A
330
1E
100
AcDbEntity
  8
SIZE
  6
BYBLOCK
100
AcDbCircle
 10
-509.9032327503009
 20
-294.9041250000009
 30
0.0
 40
5.0
  0
LINE
  5
9209B
330
1E
100
AcDbEntity
  8
SIZE
  6
BYBLOCK
100
AcDbLine
 10
-509.9032327503009
 20
-294.9041250000009
 30
0.0
 11
-509.9032327503009
 21
-284.9041250000009
 31
0.0
  0
CIRCLE
  5
9209C
330
1E
100
AcDbEntity
  8
SIZE
  6
BYBLOCK
100
AcDbCircle
 10
-509.9032327503009
 20
-252.9177749999925
 30
0.0
 40
5.0
  0
LINE
  5
9209D
330
1E
100
AcDbEntity
  8
SIZE
  6
BYBLOCK
100
AcDbLine
 10
-509.9032327503009
 20
-252.9177749999925
 30
0.0
 11
-509.9032327503009
 21
-262.9177749999926
 31
0.0
  0
CIRCLE
  5
9209E
330
1E
100
AcDbEntity
  8
SIZE
  6
BYBLOCK
100
AcDbCircle
 10
-632.5460118658375
 20
0.0000000000000661
 30
0.0
 40
5.0
  0
LINE
  5
9209F
330
1E
100
AcDbEntity
  8
SIZE
  6
BYBLOCK
100
AcDbLine
 10
-632.5460118658375
 20
0.0000000000000661
 30
0.0
 11
-632.5460118658375
 21
-9.999999999999934
 31
0.0
  0
CIRCLE
  5
920A0
330
1E
100
AcDbEntity
  8
SIZE
  6
BYBLOCK
100
AcDbCircle
 10
-399.3701625000007
 20
180.7235352877278
 30
0.0
 40
5.0
  0
LINE
  5
920A1
330
1E
100
AcDbEntity
  8
SIZE
  6
BYBLOCK
100
AcDbLine
 10
-399.3701625000007
 20
180.7235352877278
 30
0.0
 11
-389.3701625000007
 21
180.7235352877278
 31
0.0
  0
CIRCLE
  5
920A2
330
1E
100
AcDbEntity
  8
SIZE
  6
BYBLOCK
100
AcDbCircle
 10
399.3701625000012
 20
-434.4913684433058
 30
0.0
 40
5.0
  0
LINE
  5
920A3
330
1E
100
AcDbEntity
  8
SIZE
  6
BYBLOCK
100
AcDbLine
 10
399.3701625000012
 20
-434.4913684433058
 30
0.0
 11
389.3701625000012
 21
-434.4913684433058
 31
0.0
  0
TEXT
  5
920A4
330
1E
100
AcDbEntity
  8
SIZE
  6
CONTINUOUS
100
AcDbText
 10
-222.8035178571419
 20
-424.4913684433059
 30
0.0
 40
50.0
  1
330
 41
0.9
100
AcDbText
  0
TEXT
  5
920A5
330
1E
100
AcDbEntity
  8
SIZE
  6
CONTINUOUS
100
AcDbText
 10
114.5867946428573
 20
-424.4913684433059
 30
0.0
 40
50.0
  1
345
 41
0.9
100
AcDbText
  0
CIRCLE
  5
920A6
330
1E
100
AcDbEntity
  8
SIZE
  6
BYBLOCK
100
AcDbCircle
 10
-329.8927499999981
 20
-434.4913684433058
 30
0.0
 40
5.0
  0
LINE
  5
920A7
330
1E
100
AcDbEntity
  8
SIZE
  6
BYBLOCK
100
AcDbLine
 10
-329.8927499999981
 20
-434.4913684433058
 30
0.0
 11
-319.8927499999981
 21
-434.4913684433058
 31
0.0
  0
CIRCLE
  5
920A8
330
1E
100
AcDbEntity
  8
SIZE
  6
BYBLOCK
100
AcDbCircle
 10
-329.8927499999981
 20
-434.4913684433058
 30
0.0
 40
5.0
  0
LINE
  5
920A9
330
1E
100
AcDbEntity
  8
SIZE
  6
BYBLOCK
100
AcDbLine
 10
-329.8927499999981
 20
-434.4913684433058
 30
0.0
 11
-339.8927499999981
 21
-434.4913684433058
 31
0.0
  0
CIRCLE
  5
920AA
330
1E
100
AcDbEntity
  8
SIZE
  6
BYBLOCK
100
AcDbCircle
 10
-0.0000000000000056
 20
-434.4913684433058
 30
0.0
 40
5.0
  0
LINE
  5
920AB
330
1E
100
AcDbEntity
  8
SIZE
  6
BYBLOCK
100
AcDbLine
 10
-0.0000000000000056
 20
-434.4913684433058
 30
0.0
 11
-10.0
 21
-434.4913684433058
 31
0.0
  0
CIRCLE
  5
920AC
330
1E
100
AcDbEntity
  8
SIZE
  6
BYBLOCK
100
AcDbCircle
 10
-0.0000000000000056
 20
-434.4913684433058
 30
0.0
 40
5.0
  0
LINE
  5
920AD
330
1E
100
AcDbEntity
  8
SIZE
  6
BYBLOCK
100
AcDbLine
 10
-0.0000000000000056
 20
-434.4913684433058
 30
0.0
 11
9.999999999999994
 21
-434.4913684433058
 31
0.0
  0
CIRCLE
  5
920AE
330
1E
100
AcDbEntity
  8
SIZE
  6
BYBLOCK
100
AcDbCircle
 10
344.8878750000003
 20
-434.4913684433058
 30
0.0
 40
5.0
  0
LINE
  5
920AF
330
1E
100
AcDbEntity
  8
SIZE
  6
BYBLOCK
100
AcDbLine
 10
344.8878750000003
 20
-434.4913684433058
 30
0.0
 11
334.8878750000003
 21
-434.4913684433058
 31
0.0
  0
CIRCLE
  5
920B0
330
1E
100
AcDbEntity
  8
SIZE
  6
BYBLOCK
100
AcDbCircle
 10
344.8878750000003
 20
-434.4913684433058
 30
0.0
 40
5.0
  0
LINE
  5
920B1
330
1E
100
AcDbEntity
  8
SIZE
  6
BYBLOCK
100
AcDbLine
 10
344.8878750000003
 20
-434.4913684433058
 30
0.0
 11
354.8878750000003
 21
-434.4913684433058
 31
0.0
  0
TEXT
  5
920B2
330
1E
100
AcDbEntity
  8
SIZE
  6
CONTINUOUS
100
AcDbText
 10
419.3701625000012
 20
-424.4913684433059
 30
0.0
 40
50.0
  1
54.5
 41
0.9
100
AcDbText
  0
CIRCLE
  5
920B3
330
1E
100
AcDbEntity
  8
SIZE
  6
BYBLOCK
100
AcDbCircle
 10
497.0565181706697
 20
-294.9041250000009
 30
0.0
 40
5.0
  0
LINE
  5
920B4
330
1E
100
AcDbEntity
  8
SIZE
  6
BYBLOCK
100
AcDbLine
 10
497.0565181706697
 20
-294.9041250000009
 30
0.0
 11
497.0565181706697
 21
-284.9041250000009
 31
0.0
  0
TEXT
  5
920B5
330
1E
100
AcDbEntity
  8
SIZE
  6
CONTINUOUS
100
AcDbText
 10
487.0565181706697
 20
-233.9174500000026
 30
0.0
 40
50.0
  1
41
 50
90.0
 41
0.9
100
AcDbText
  0
CIRCLE
  5
920B6
330
1E
100
AcDbEntity
  8
SIZE
  6
BYBLOCK
100
AcDbCircle
 10
497.0565181706697
 20
-253.9174500000026
 30
0.0
 40
5.0
  0
LINE
  5
920B7
330
1E
100
AcDbEntity
  8
SIZE
  6
BYBLOCK
100
AcDbLine
 10
497.0565181706697
 20
-253.9174500000026
 30
0.0
 11
497.0565181706697
 21
-263.9174500000026
 31
0.0
  0
CIRCLE
  5
920B8
330
1E
100
AcDbEntity
  8
SIZE
  6
BYBLOCK
100
AcDbCircle
 10
399.3701625000012
 20
180.7235352877278
 30
0.0
 40
5.0
  0
LINE
  5
920B9
330
1E
100
AcDbEntity
  8
SIZE
  6
BYBLOCK
100
AcDbLine
 10
399.3701625000012
 20
180.7235352877278
 30
0.0
 11
389.3701625000012
 21
180.7235352877278
 31
0.0
  0
TEXT
  5
920BA
330
1E
100
AcDbEntity
  8
SIZE
  6
CONTINUOUS
100
AcDbText
 10
-56.78571428571405
 20
190.7235352877278
 30
0.0
 40
50.0
  1
799
 41
0.9
100
AcDbText
  0
LINE
  5
920BB
330
1E
100
AcDbEntity
  8
OUTLINE
  6
CONTINUOUS
100
AcDbLine
 10
-399.3701625000007
 20
-294.9041250000009
 30
0.0
 11
399.3701625000012
 21
-294.9041250000009
 31
0.0
  0
LINE
  5
920BC
330
1E
100
AcDbEntity
  8
OUTLINE
  6
CONTINUOUS
100
AcDbLine
 10
399.3701625000012
 20
0.0
 30
0.0
 11
-399.3701625000007
 21
0.0
 31
0.0
  0
LINE
  5
920BD
330
1E
100
AcDbEntity
  8
OUTLINE
  6
CONTINUOUS
100
AcDbLine
 10
-399.3701625000007
 20
0.0
 30
0.0
 11
-399.3701625000007
 21
-294.9041250000009
 31
0.0
  0
LINE
  5
920EC
330
1E
100
AcDbEntity
  8
OUTLINE
  6
CONTINUOUS
100
AcDbLine
 10
399.3701625000012
 20
0.0
 30
0.0
 11
399.3701625000012
 21
-294.9041250000009
 31
0.0
  0
ENDSEC
  0
SECTION
  2
OBJECTS
  0
DICTIONARY
  5
C
330
0
100
AcDbDictionary
  3
ACAD_GROUP
350
D
  3
ACAD_LAYOUT
350
19
  3
ACAD_MLINESTYLE
350
16
  3
ACAD_PLOTSETTINGS
350
18
  3
ACAD_PLOTSTYLENAME
350
E
  3
ACDBHEADERROUNDTRIPXREC
350
920F1
  0
DICTIONARY
  5
66E76
330
1E
100
AcDbDictionary
280
     1
  3
ACAD_LAYOUTSELFREF
360
92113
  0
DICTIONARY
  5
66E74
330
1A
100
AcDbDictionary
280
     1
  3
ACAD_LAYOUTSELFREF
360
92112
  0
DICTIONARY
  5
D
102
{ACAD_REACTORS
330
C
102
}
330
C
100
AcDbDictionary
  3
*A1
350
677EB
  0
DICTIONARY
  5
19
102
{ACAD_REACTORS
330
C
102
}
330
C
100
AcDbDictionary
  0
DICTIONARY
  5
16
102
{ACAD_REACTORS
330
C
102
}
330
C
100
AcDbDictionary
  3
STANDARD
350
17
  0
DICTIONARY
  5
18
102
{ACAD_REACTORS
330
C
102
}
330
C
100
AcDbDictionary
  0
ACDBDICTIONARYWDFLT
  5
E
102
{ACAD_REACTORS
330
C
102
}
330
C
100
AcDbDictionary
281
     1
  3
Normal
350
F
100
AcDbDictionaryWithDefault
340
F
  0
DICTIONARY
  5
920F1
102
{ACAD_REACTORS
330
C
102
}
330
C
100
AcDbDictionary
  3
CEPSNTYPE
350
920FB
  3
DIMSTYLEDATA
350
920FF
  3
FINGERPRINTGUID
350
920FC
  3
HYPERLINKBASE
350
920F4
  3
INSUNITS
350
920FA
  3
LAYOUTDICT
350
920F6
  3
LWETCUNION
350
920F9
  3
PLOTSETDICT
350
920F7
  3
PLOTSTYLNAMDICT
350
920F8
  3
PSVPSCALE
350
920FE
  3
PUCSBASE
350
92102
  3
PUCSORGBACK
350
92108
  3
PUCSORGBOTTOM
350
92104
  3
PUCSORGFRONT
350
92107
  3
PUCSORGLEFT
350
92105
  3
PUCSORGRIGHT
350
92106
  3
PUCSORGTOP
350
92103
  3
PUCSORTHOREF
350
92100
  3
PUCSORTHOVIEW
350
92101
  3
STYLESHEET
350
920F5
  3
TSTACKALIGN
350
920F2
  3
TSTACKSIZE
350
920F3
  3
UCSBASE
350
9210B
  3
UCSORGBACK
350
92111
  3
UCSORGBOTTOM
350
9210D
  3
UCSORGFRONT
350
92110
  3
UCSORGLEFT
350
9210E
  3
UCSORGRIGHT
350
9210F
  3
UCSORGTOP
350
9210C
  3
UCSORTHOREF
350
92109
  3
UCSORTHOVIEW
350
9210A
  3
VERSIONGUID
350
920FD
  0
XRECORD
  5
92113
102
{ACAD_REACTORS
330
66E76
102
}
330
66E76
100
AcDbXrecord
340
1E
  0
XRECORD
  5
92112
102
{ACAD_REACTORS
330
66E74
102
}
330
66E74
100
AcDbXrecord
340
1A
  0
GROUP
  5
677EB
102
{ACAD_REACTORS
330
D
102
}
330
D
100
AcDbGroup
300

 70
     1
 71
     1
  0
MLINESTYLE
  5
17
102
{ACAD_REACTORS
330
16
102
}
330
16
100
AcDbMlineStyle
  2
STANDARD
 70
     0
  3

 62
   256
 51
90.0
 52
90.0
 71
     2
 49
0.5
 62
   256
  6
BYLAYER
 49
-0.5
 62
   256
  6
BYLAYER
  0
ACDBPLACEHOLDER
  5
F
102
{ACAD_REACTORS
330
E
102
}
330
E
100
AcDbPlaceHolder
280
     0
  0
XRECORD
  5
920FB
102
{ACAD_REACTORS
330
920F1
102
}
330
920F1
100
AcDbXrecord
 90
        0
  0
XRECORD
  5
920FF
102
{ACAD_REACTORS
330
920F1
102
}
330
920F1
100
AcDbXrecord
1000
DSTYLE
1002
{
1070
   341
340
46
1070
   342
340
46
1002
}
  0
XRECORD
  5
920FC
102
{ACAD_REACTORS
330
920F1
102
}
330
920F1
100
AcDbXrecord
  1
{97DA8DB6-C4F0-4C3D-ABEB-53C4FBBC7EFF}
  0
XRECORD
  5
920F4
102
{ACAD_REACTORS
330
920F1
102
}
330
920F1
100
AcDbXrecord
  1

  0
XRECORD
  5
920FA
102
{ACAD_REACTORS
330
920F1
102
}
330
920F1
100
AcDbXrecord
 90
        0
  0
XRECORD
  5
920F6
102
{ACAD_REACTORS
330
920F1
102
}
330
920F1
100
AcDbXrecord
340
19
  0
XRECORD
  5
920F9
102
{ACAD_REACTORS
330
920F1
102
}
330
920F1
100
AcDbXrecord
 90
    10781
  0
XRECORD
  5
920F7
102
{ACAD_REACTORS
330
920F1
102
}
330
920F1
100
AcDbXrecord
340
18
  0
XRECORD
  5
920F8
102
{ACAD_REACTORS
330
920F1
102
}
330
920F1
100
AcDbXrecord
340
E
  0
XRECORD
  5
920FE
102
{ACAD_REACTORS
330
920F1
102
}
330
920F1
100
AcDbXrecord
 40
0.0
  0
XRECORD
  5
92102
102
{ACAD_REACTORS
330
920F1
102
}
330
920F1
100
AcDbXrecord
340
0
  0
XRECORD
  5
92108
102
{ACAD_REACTORS
330
920F1
102
}
330
920F1
100
AcDbXrecord
 10
0.0
 20
0.0
 30
0.0
  0
XRECORD
  5
92104
102
{ACAD_REACTORS
330
920F1
102
}
330
920F1
100
AcDbXrecord
 10
0.0
 20
0.0
 30
0.0
  0
XRECORD
  5
92107
102
{ACAD_REACTORS
330
920F1
102
}
330
920F1
100
AcDbXrecord
 10
0.0
 20
0.0
 30
0.0
  0
XRECORD
  5
92105
102
{ACAD_REACTORS
330
920F1
102
}
330
920F1
100
AcDbXrecord
 10
0.0
 20
0.0
 30
0.0
  0
XRECORD
  5
92106
102
{ACAD_REACTORS
330
920F1
102
}
330
920F1
100
AcDbXrecord
 10
0.0
 20
0.0
 30
0.0
  0
XRECORD
  5
92103
102
{ACAD_REACTORS
330
920F1
102
}
330
920F1
100
AcDbXrecord
 10
0.0
 20
0.0
 30
0.0
  0
XRECORD
  5
92100
102
{ACAD_REACTORS
330
920F1
102
}
330
920F1
100
AcDbXrecord
340
0
  0
XRECORD
  5
92101
102
{ACAD_REACTORS
330
920F1
102
}
330
920F1
100
AcDbXrecord
 70
     0
  0
XRECORD
  5
920F5
102
{ACAD_REACTORS
330
920F1
102
}
330
920F1
100
AcDbXrecord
  1

  0
XRECORD
  5
920F2
102
{ACAD_REACTORS
330
920F1
102
}
330
920F1
100
AcDbXrecord
 90
        1
  0
XRECORD
  5
920F3
102
{ACAD_REACTORS
330
920F1
102
}
330
920F1
100
AcDbXrecord
 90
       70
  0
XRECORD
  5
9210B
102
{ACAD_REACTORS
330
920F1
102
}
330
920F1
100
AcDbXrecord
340
0
  0
XRECORD
  5
92111
102
{ACAD_REACTORS
330
920F1
102
}
330
920F1
100
AcDbXrecord
 10
0.0
 20
0.0
 30
0.0
  0
XRECORD
  5
9210D
102
{ACAD_REACTORS
330
920F1
102
}
330
920F1
100
AcDbXrecord
 10
0.0
 20
0.0
 30
0.0
  0
XRECORD
  5
92110
102
{ACAD_REACTORS
330
920F1
102
}
330
920F1
100
AcDbXrecord
 10
0.0
 20
0.0
 30
0.0
  0
XRECORD
  5
9210E
102
{ACAD_REACTORS
330
920F1
102
}
330
920F1
100
AcDbXrecord
 10
0.0
 20
0.0
 30
0.0
  0
XRECORD
  5
9210F
102
{ACAD_REACTORS
330
920F1
102
}
330
920F1
100
AcDbXrecord
 10
0.0
 20
0.0
 30
0.0
  0
XRECORD
  5
9210C
102
{ACAD_REACTORS
330
920F1
102
}
330
920F1
100
AcDbXrecord
 10
0.0
 20
0.0
 30
0.0
  0
XRECORD
  5
92109
102
{ACAD_REACTORS
330
920F1
102
}
330
920F1
100
AcDbXrecord
340
0
  0
XRECORD
  5
9210A
102
{ACAD_REACTORS
330
920F1
102
}
330
920F1
100
AcDbXrecord
 70
     0
  0
XRECORD
  5
920FD
102
{ACAD_REACTORS
330
920F1
102
}
330
920F1
100
AcDbXrecord
  1
{15B34174-9112-426C-B433-561985C44C8C}
  0
ENDSEC
  0
EOF
