  0
SECTION
  2
HEADER
  9
$ACADVER
  1
AC1014
  9
$ACADMAINTVER
 70
     9
  9
$DWGCODEPAGE
  3
ANSI_932
  9
$INSBASE
 10
0.0
 20
0.0
 30
0.0
  9
$EXTMIN
 10
-2481.002670597656
 20
-3061.108885406007
 30
0.0
  9
$EXTMAX
 10
4619.15331648157
 20
1197.964945247673
 30
0.0
  9
$LIMMIN
 10
-2481.002670597656
 20
-3061.108885406007
  9
$LIMMAX
 10
4619.15331648157
 20
1197.964945247673
  9
$ORTHOMODE
 70
     1
  9
$REGENMODE
 70
     1
  9
$FILLMODE
 70
     1
  9
$QTEXTMODE
 70
     0
  9
$MIRRTEXT
 70
     0
  9
$DRAGMODE
 70
     2
  9
$LTSCALE
 40
20.0
  9
$OSMODE
 70
    39
  9
$ATTMODE
 70
     1
  9
$TEXTSIZE
 40
64.0
  9
$TRACEWID
 40
0.05
  9
$TEXTSTYLE
  7
STANDARD
  9
$CLAYER
  8
DETAIL
  9
$CELTYPE
  6
CONTINUOUS
  9
$CECOLOR
 62
   256
  9
$CELTSCALE
 40
1.0
  9
$DELOBJ
 70
     1
  9
$DISPSILH
 70
     0
  9
$DIMSCALE
 40
1.0
  9
$DIMASZ
 40
10.0
  9
$DIMEXO
 40
20.0
  9
$DIMDLI
 40
200.0
  9
$DIMRND
 40
0.0
  9
$DIMDLE
 40
0.0
  9
$DIMEXE
 40
20.0
  9
$DIMTP
 40
0.0
  9
$DIMTM
 40
0.0
  9
$DIMTXT
 40
50.0
  9
$DIMCEN
 40
0.082
  9
$DIMTSZ
 40
0.0
  9
$DIMTOL
 70
     0
  9
$DIMLIM
 70
     0
  9
$DIMTIH
 70
     0
  9
$DIMTOH
 70
     0
  9
$DIMSE1
 70
     0
  9
$DIMSE2
 70
     0
  9
$DIMTAD
 70
     1
  9
$DIMZIN
 70
     8
  9
$DIMBLK
  1
ORIGIN
  9
$DIMASO
 70
     1
  9
$DIMSHO
 70
     0
  9
$DIMPOST
  1

  9
$DIMAPOST
  1

  9
$DIMALT
 70
     0
  9
$DIMALTD
 70
     2
  9
$DIMALTF
 40
25.4
  9
$DIMLFAC
 40
1.0
  9
$DIMTOFL
 70
     1
  9
$DIMTVP
 40
0.0
  9
$DIMTIX
 70
     0
  9
$DIMSOXD
 70
     0
  9
$DIMSAH
 70
     0
  9
$DIMBLK1
  1

  9
$DIMBLK2
  1

  9
$DIMSTYLE
  2
STANDARD
  9
$DIMCLRD
 70
     0
  9
$DIMCLRE
 70
     0
  9
$DIMCLRT
 70
     0
  9
$DIMTFAC
 40
1.0
  9
$DIMGAP
 40
10.0
  9
$DIMJUST
 70
     0
  9
$DIMSD1
 70
     0
  9
$DIMSD2
 70
     0
  9
$DIMTOLJ
 70
     1
  9
$DIMTZIN
 70
     0
  9
$DIMALTZ
 70
     0
  9
$DIMALTTZ
 70
     0
  9
$DIMFIT
 70
     3
  9
$DIMUPT
 70
     0
  9
$DIMUNIT
 70
     2
  9
$DIMDEC
 70
     1
  9
$DIMTDEC
 70
     1
  9
$DIMALTU
 70
     2
  9
$DIMALTTD
 70
     2
  9
$DIMTXSTY
  7
STANDARD
  9
$DIMAUNIT
 70
     0
  9
$LUNITS
 70
     2
  9
$LUPREC
 70
     4
  9
$SKETCHINC
 40
0.1
  9
$FILLETRAD
 40
5.0
  9
$AUNITS
 70
     1
  9
$AUPREC
 70
     3
  9
$MENU
  1
ACAD
  9
$ELEVATION
 40
0.0
  9
$PELEVATION
 40
0.0
  9
$THICKNESS
 40
0.0
  9
$LIMCHECK
 70
     0
  9
$BLIPMODE
 70
     0
  9
$CHAMFERA
 40
0.0
  9
$CHAMFERB
 40
0.0
  9
$CHAMFERC
 40
0.0
  9
$CHAMFERD
 40
0.0
  9
$SKPOLY
 70
     0
  9
$TDCREATE
 40
2450330.393205995
  9
$TDUPDATE
 40
2456199.709548067
  9
$TDINDWG
 40
2.4149340278
  9
$TDUSRTIMER
 40
2.4149334722
  9
$USRTIMER
 70
     1
  9
$ANGBASE
 50
0.0
  9
$ANGDIR
 70
     0
  9
$PDMODE
 70
     3
  9
$PDSIZE
 40
-2.0
  9
$PLINEWID
 40
0.0
  9
$COORDS
 70
     1
  9
$SPLFRAME
 70
     0
  9
$SPLINETYPE
 70
     6
  9
$SPLINESEGS
 70
     8
  9
$ATTDIA
 70
     0
  9
$ATTREQ
 70
     1
  9
$HANDLING
 70
-16383
  9
$HANDSEED
  5
93E6C
  9
$SURFTAB1
 70
     6
  9
$SURFTAB2
 70
     6
  9
$SURFTYPE
 70
     6
  9
$SURFU
 70
     6
  9
$SURFV
 70
     6
  9
$UCSNAME
  2

  9
$UCSORG
 10
0.0
 20
0.0
 30
0.0
  9
$UCSXDIR
 10
1.0
 20
0.0
 30
0.0
  9
$UCSYDIR
 10
0.0
 20
1.0
 30
0.0
  9
$PUCSNAME
  2

  9
$PUCSORG
 10
0.0
 20
0.0
 30
0.0
  9
$PUCSXDIR
 10
1.0
 20
0.0
 30
0.0
  9
$PUCSYDIR
 10
0.0
 20
1.0
 30
0.0
  9
$USERI1
 70
     0
  9
$USERI2
 70
     0
  9
$USERI3
 70
     0
  9
$USERI4
 70
     0
  9
$USERI5
 70
     0
  9
$USERR1
 40
20.0
  9
$USERR2
 40
0.0
  9
$USERR3
 40
0.0
  9
$USERR4
 40
0.0
  9
$USERR5
 40
0.0
  9
$WORLDVIEW
 70
     1
  9
$SHADEDGE
 70
     3
  9
$SHADEDIF
 70
    70
  9
$TILEMODE
 70
     1
  9
$MAXACTVP
 70
    64
  9
$PINSBASE
 10
0.0
 20
0.0
 30
0.0
  9
$PLIMCHECK
 70
     0
  9
$PEXTMIN
 10
1.000000000000000E+20
 20
1.000000000000000E+20
 30
1.000000000000000E+20
  9
$PEXTMAX
 10
-1.000000000000000E+20
 20
-1.000000000000000E+20
 30
-1.000000000000000E+20
  9
$PLIMMIN
 10
0.0
 20
0.0
  9
$PLIMMAX
 10
12.0
 20
9.0
  9
$UNITMODE
 70
     0
  9
$VISRETAIN
 70
     1
  9
$PLINEGEN
 70
     0
  9
$PSLTSCALE
 70
     1
  9
$TREEDEPTH
 70
  3020
  9
$PICKSTYLE
 70
     1
  9
$CMLSTYLE
  2
STANDARD
  9
$CMLJUST
 70
     0
  9
$CMLSCALE
 40
1.0
  9
$PROXYGRAPHICS
 70
     1
  9
$MEASUREMENT
 70
     0
  0
ENDSEC
  0
SECTION
  2
CLASSES
  0
CLASS
  1
ACDBDICTIONARYWDFLT
  2
AcDbDictionaryWithDefault
  3
AutoCAD 2000
 90
        0
280
     0
281
     0
  0
CLASS
  1
ACDBPLACEHOLDER
  2
AcDbPlaceHolder
  3
AutoCAD 2000
 90
        0
280
     0
281
     0
  0
CLASS
  1
LAYOUT
  2
AcDbLayout
  3
AutoCAD 2000
 90
        0
280
     0
281
     0
  0
CLASS
  1
LONG_TRANSACTION
  2
AcDbLongTransaction
  3
AutoCAD 2000
 90
        0
280
     0
281
     0
  0
CLASS
  1
LWPOLYLINE
  2
AcDbPolyline
  3
AutoCAD 2000
 90
        0
280
     0
281
     1
  0
CLASS
  1
HATCH
  2
AcDbHatch
  3
AutoCAD 2000
 90
        0
280
     0
281
     1
  0
CLASS
  1
XRECORD
  2
AcDbXrecord
  3
AutoCAD 2000
 90
        0
280
     0
281
     0
  0
CLASS
  1
LONG_TRANSACTION
  2
AcDbLongTransaction
  3
AutoCAD 2000
 90
        0
280
     0
281
     0
  0
CLASS
  1
LWPOLYLINE
  2
AcDbPolyline
  3
AutoCAD 2000
 90
        0
280
     0
281
     1
  0
CLASS
  1
HATCH
  2
AcDbHatch
  3
AutoCAD 2000
 90
        0
280
     0
281
     1
  0
CLASS
  1
XRECORD
  2
AcDbXrecord
  3
AutoCAD 2000
 90
        0
280
     0
281
     0
  0
CLASS
  1
LONG_TRANSACTION
  2
AcDbLongTransaction
  3
AutoCAD 2000
 90
        0
280
     0
281
     0
  0
CLASS
  1
LWPOLYLINE
  2
AcDbPolyline
  3
AutoCAD 2000
 90
        0
280
     0
281
     1
  0
CLASS
  1
HATCH
  2
AcDbHatch
  3
AutoCAD 2000
 90
        0
280
     0
281
     1
  0
CLASS
  1
XRECORD
  2
AcDbXrecord
  3
AutoCAD 2000
 90
        0
280
     0
281
     0
  0
CLASS
  1
LONG_TRANSACTION
  2
AcDbLongTransaction
  3
AutoCAD 2000
 90
        0
280
     0
281
     0
  0
CLASS
  1
LWPOLYLINE
  2
AcDbPolyline
  3
AutoCAD 2000
 90
        0
280
     0
281
     1
  0
CLASS
  1
HATCH
  2
AcDbHatch
  3
AutoCAD 2000
 90
        0
280
     0
281
     1
  0
CLASS
  1
XRECORD
  2
AcDbXrecord
  3
AutoCAD 2000
 90
        0
280
     0
281
     0
  0
CLASS
  1
LONG_TRANSACTION
  2
AcDbLongTransaction
  3
AutoCAD 2000
 90
        0
280
     0
281
     0
  0
CLASS
  1
LWPOLYLINE
  2
AcDbPolyline
  3
AutoCAD 2000
 90
        0
280
     0
281
     1
  0
CLASS
  1
HATCH
  2
AcDbHatch
  3
AutoCAD 2000
 90
        0
280
     0
281
     1
  0
CLASS
  1
XRECORD
  2
AcDbXrecord
  3
AutoCAD 2000
 90
        0
280
     0
281
     0
  0
ENDSEC
  0
SECTION
  2
TABLES
  0
TABLE
  2
VPORT
  5
8
330
0
100
AcDbSymbolTable
 70
     5
  0
VPORT
  5
93E48
330
8
100
AcDbSymbolTableRecord
100
AcDbViewportTableRecord
  2
*ACTIVE
 70
     0
 10
0.0
 20
0.0
 11
1.0
 21
1.0
 12
388.0637753948724
 22
-88.32020721480603
 13
0.0
 23
0.0
 14
50.0
 24
50.0
 15
100.0
 25
100.0
 16
0.0
 26
0.0
 36
1.0
 17
0.0
 27
0.0
 37
0.0
 40
2292.22290556027
 41
1.233206590621039
 42
50.0
 43
0.0
 44
0.0
 50
0.0
 51
0.0
 71
     0
 72
   500
 73
     1
 74
     0
 75
     0
 76
     0
 77
     0
 78
     0
  0
ENDTAB
  0
TABLE
  2
LTYPE
  5
5
330
0
100
AcDbSymbolTable
 70
     3
  0
LTYPE
  5
13
330
5
100
AcDbSymbolTableRecord
100
AcDbLinetypeTableRecord
  2
BYBLOCK
 70
     0
  3

 72
    65
 73
     0
 40
0.0
  0
LTYPE
  5
14
330
5
100
AcDbSymbolTableRecord
100
AcDbLinetypeTableRecord
  2
BYLAYER
 70
     0
  3

 72
    65
 73
     0
 40
0.0
  0
LTYPE
  5
15
330
5
100
AcDbSymbolTableRecord
100
AcDbLinetypeTableRecord
  2
CONTINUOUS
 70
     0
  3
実線
 72
    65
 73
     0
 40
0.0
  0
LTYPE
  5
23
330
5
100
AcDbSymbolTableRecord
100
AcDbLinetypeTableRecord
  2
DASHDOT
 70
     0
  3
____ _ ____ _ ____ _ ____ _ ____ _ ____ _ ____
 72
    65
 73
     4
 40
5.5
 49
4.0
 74
     0
 49
-0.6
 74
     0
 49
0.3
 74
     0
 49
-0.6
 74
     0
  0
LTYPE
  5
7D1A8
330
5
100
AcDbSymbolTableRecord
100
AcDbLinetypeTableRecord
  2
PHANTOM
 70
     0
  3
_____ _ _ _____ _ _ _____ _ _ _____
 72
    65
 73
     6
 40
0.8
 49
0.45
 74
     0
 49
-0.05
 74
     0
 49
0.1
 74
     0
 49
-0.05
 74
     0
 49
0.1
 74
     0
 49
-0.05
 74
     0
  0
ENDTAB
  0
TABLE
  2
LAYER
  5
2
330
0
100
AcDbSymbolTable
 70
     9
  0
LAYER
  5
10
330
2
100
AcDbSymbolTableRecord
100
AcDbLayerTableRecord
  2
0
 70
     0
 62
     7
  6
CONTINUOUS
  0
LAYER
  5
22
330
2
100
AcDbSymbolTableRecord
100
AcDbLayerTableRecord
  2
SIZE
 70
     0
 62
    32
  6
CONTINUOUS
  0
LAYER
  5
31
330
2
100
AcDbSymbolTableRecord
100
AcDbLayerTableRecord
  2
DETAIL
 70
     0
 62
     5
  6
CONTINUOUS
  0
LAYER
  5
32
330
2
100
AcDbSymbolTableRecord
100
AcDbLayerTableRecord
  2
OUTLINE
 70
     0
 62
     3
  6
CONTINUOUS
  0
LAYER
  5
33
330
2
100
AcDbSymbolTableRecord
100
AcDbLayerTableRecord
  2
BASIS
 70
     0
 62
     6
  6
CONTINUOUS
  0
LAYER
  5
34
330
2
100
AcDbSymbolTableRecord
100
AcDbLayerTableRecord
  2
NOTE
 70
     0
 62
     4
  6
CONTINUOUS
  0
LAYER
  5
35
330
2
100
AcDbSymbolTableRecord
100
AcDbLayerTableRecord
  2
ARRANGE
 70
     0
 62
     1
  6
CONTINUOUS
  0
LAYER
  5
37
330
2
100
AcDbSymbolTableRecord
100
AcDbLayerTableRecord
  2
ETC
 70
     0
 62
    83
  6
CONTINUOUS
  0
LAYER
  5
3A
330
2
100
AcDbSymbolTableRecord
100
AcDbLayerTableRecord
  2
DEFPOINTS
 70
     0
 62
     7
  6
CONTINUOUS
  0
ENDTAB
  0
TABLE
  2
STYLE
  5
3
330
0
100
AcDbSymbolTable
 70
     1
  0
STYLE
  5
11
330
3
100
AcDbSymbolTableRecord
100
AcDbTextStyleTableRecord
  2
STANDARD
 70
     0
 40
0.0
 41
0.9
 50
0.0
 71
     0
 42
64.0
  3
SIMPLEX
  4
BIGFONT
  0
ENDTAB
  0
TABLE
  2
VIEW
  5
6
330
0
100
AcDbSymbolTable
 70
     1
  0
VIEW
  5
3C
330
6
100
AcDbSymbolTableRecord
100
AcDbViewTableRecord
  2
ALL
 70
     0
 40
4282.62
 10
0.0
 20
41.30990399999999
 41
5940.0
 11
0.0
 21
0.0
 31
1.0
 12
0.0
 22
0.0
 32
0.0
 42
50.0
 43
0.0
 44
0.0
 50
0.0
 71
     0
  0
ENDTAB
  0
TABLE
  2
UCS
  5
7
330
0
100
AcDbSymbolTable
 70
     0
  0
ENDTAB
  0
TABLE
  2
APPID
  5
9
330
0
100
AcDbSymbolTable
 70
     1
  0
APPID
  5
12
330
9
100
AcDbSymbolTableRecord
100
AcDbRegAppTableRecord
  2
ACAD
 70
     0
  0
ENDTAB
  0
TABLE
  2
DIMSTYLE
  5
A
330
0
100
AcDbSymbolTable
 70
     1
  0
DIMSTYLE
105
213
330
A
100
AcDbSymbolTableRecord
100
AcDbDimStyleTableRecord
  2
STANDARD
 70
     0
  3

  4

  5

  6

  7

 40
1.0
 41
0.18
 42
0.0625
 43
0.38
 44
0.18
 45
0.0
 46
0.0
 47
0.0
 48
0.0
140
0.18
141
0.09
142
0.0
143
25.4
144
1.0
145
0.0
146
1.0
147
0.09
 71
     0
 72
     0
 73
     1
 74
     1
 75
     0
 76
     0
 77
     0
 78
     0
170
     0
171
     2
172
     0
173
     0
174
     0
175
     0
176
     0
177
     0
178
     0
270
     2
271
     4
272
     4
273
     2
274
     2
340
11
275
     0
280
     0
281
     0
282
     0
283
     1
284
     0
285
     0
286
     0
287
     3
288
     0
  0
ENDTAB
  0
TABLE
  2
BLOCK_RECORD
  5
1
330
0
100
AcDbSymbolTable
 70
     1
  0
BLOCK_RECORD
  5
1E
102
{ACAD_XDICTIONARY
360
66E76
102
}
330
1
100
AcDbSymbolTableRecord
100
AcDbBlockTableRecord
  2
*MODEL_SPACE
  0
BLOCK_RECORD
  5
1A
102
{ACAD_XDICTIONARY
360
66E74
102
}
330
1
100
AcDbSymbolTableRecord
100
AcDbBlockTableRecord
  2
*PAPER_SPACE
  0
BLOCK_RECORD
  5
46
330
1
100
AcDbSymbolTableRecord
100
AcDbBlockTableRecord
  2
_ORIGIN
  0
ENDTAB
  0
ENDSEC
  0
SECTION
  2
BLOCKS
  0
BLOCK
  5
1F
330
1E
100
AcDbEntity
  8
0
100
AcDbBlockBegin
  2
*MODEL_SPACE
 70
     0
 10
0.0
 20
0.0
 30
0.0
  3
*MODEL_SPACE
  1

  0
ENDBLK
  5
20
330
1E
100
AcDbEntity
  8
0
100
AcDbBlockEnd
  0
BLOCK
  5
1B
330
1A
100
AcDbEntity
 67
     1
  8
0
100
AcDbBlockBegin
  2
*PAPER_SPACE
 70
     0
 10
0.0
 20
0.0
 30
0.0
  3
*PAPER_SPACE
  1

  0
ENDBLK
  5
1C
330
1A
100
AcDbEntity
 67
     1
  8
0
100
AcDbBlockEnd
  0
BLOCK
  5
47
330
46
100
AcDbEntity
  8
0
100
AcDbBlockBegin
  2
_ORIGIN
 70
     0
 10
0.0
 20
0.0
 30
0.0
  3
_ORIGIN
  1

  0
CIRCLE
  5
48
330
46
100
AcDbEntity
  8
0
  6
BYBLOCK
 62
     0
100
AcDbCircle
 10
0.0
 20
0.0
 30
0.0
 40
0.5
  0
LINE
  5
49
330
46
100
AcDbEntity
  8
0
  6
BYBLOCK
 62
     0
100
AcDbLine
 10
0.0
 20
0.0
 30
0.0
 11
-1.0
 21
0.0
 31
0.0
  0
ENDBLK
  5
4A
330
46
100
AcDbEntity
  8
0
100
AcDbBlockEnd
  0
ENDSEC
  0
SECTION
  2
ENTITIES
  0
MTEXT
  5
38341
330
1E
100
AcDbEntity
  8
0
  6
CONTINUOUS
100
AcDbMText
 10
383.9605305094082
 20
4023.282340837186
 30
0.0
 40
64.0
 41
187.9848
 71
     1
 72
     5
  1

1001
ACAD
1000
MTEXTBEGIN
1070
    73
1070
     1
1070
    44
1040
1.0
1070
    74
1070
     0
1000
MTEXTEND
1000
MTEXTBEGIN
1070
    73
1070
     1
1070
    44
1040
1.0
1070
    74
1070
     0
1000
MTEXTEND
1000
MTEXTBEGIN
1070
    73
1070
     1
1070
    44
1040
1.0
1070
    74
1070
     0
1000
MTEXTEND
1000
MTEXTBEGIN
1070
    73
1070
     1
1070
    44
1040
1.0
1070
    74
1070
     0
1000
MTEXTEND
1000
MTEXTBEGIN
1070
    73
1070
     1
1070
    44
1040
1.0
1070
    74
1070
     0
1000
MTEXTEND
  0
LINE
  5
908F8
330
1E
100
AcDbEntity
  8
SIZE
  6
CONTINUOUS
100
AcDbLine
 10
-0.0000000000004547
 20
25.20195581249845
 30
0.0
 11
-0.0000000000004547
 21
160.2914243537384
 31
0.0
  0
LINE
  5
908F9
330
1E
100
AcDbEntity
  8
SIZE
  6
CONTINUOUS
100
AcDbLine
 10
-236.6170387782481
 20
-93.61158075923777
 30
0.0
 11
-236.6170387782481
 21
160.2914243537384
 31
0.0
  0
TEXT
  5
908FA
330
1E
100
AcDbEntity
  8
SIZE
  6
CONTINUOUS
100
AcDbText
 10
196.5300923373556
 20
-228.0000000002492
 30
0.0
 40
50.0
  1
42
 50
90.0
 41
0.9
100
AcDbText
  0
LINE
  5
908FB
330
1E
100
AcDbEntity
  8
SIZE
  6
CONTINUOUS
100
AcDbLine
 10
40.00000000000045
 20
-248.0000000002492
 30
0.0
 11
226.5300923373556
 21
-248.0000000002494
 31
0.0
  0
LINE
  5
908FC
330
1E
100
AcDbEntity
  8
SIZE
  6
CONTINUOUS
100
AcDbLine
 10
20.0
 20
-290.0
 30
0.0
 11
226.5300923373556
 21
-290.0000000000002
 31
0.0
  0
LINE
  5
908FD
330
1E
100
AcDbEntity
  8
SIZE
  6
CONTINUOUS
100
AcDbLine
 10
20.0
 20
0.0
 30
0.0
 11
338.9023588550025
 21
0.0
 31
0.0
  0
LINE
  5
908FE
330
1E
100
AcDbEntity
  8
SIZE
  6
CONTINUOUS
100
AcDbLine
 10
20.0
 20
-290.0
 30
0.0
 11
338.9023588550021
 21
-290.0000000000002
 31
0.0
  0
LINE
  5
908FF
330
1E
100
AcDbEntity
  8
NOTE
  6
CONTINUOUS
 62
     4
100
AcDbLine
 10
0.0000000000004547
 20
-249.0
 30
0.0
 11
263.2260939860975
 21
-457.1246400634972
 31
0.0
  0
LINE
  5
90900
330
1E
100
AcDbEntity
  8
NOTE
  6
CONTINUOUS
 62
     4
100
AcDbLine
 10
0.0000000000004547
 20
-248.0000000002492
 30
0.0
 11
288.3621088557015
 21
65.10428993650203
 31
0.0
  0
LINE
  5
90906
330
1E
100
AcDbEntity
  8
SIZE
  6
CONTINUOUS
100
AcDbLine
 10
122.7873766678508
 20
-249.0000000000002
 30
0.0
 11
122.7873766678508
 21
-165.4285714285715
 31
0.0
  0
LINE
  5
90907
330
1E
100
AcDbEntity
  8
DETAIL
  6
CONTINUOUS
100
AcDbLine
 10
0.0
 20
-290.0
 30
0.0
 11
-0.0000000000004547
 21
0.0
 31
0.0
  0
LINE
  5
90908
330
1E
100
AcDbEntity
  8
DETAIL
  6
CONTINUOUS
100
AcDbLine
 10
-3.436955783087341
 20
-250.0501864052189
 30
0.0
 11
-3.436955783087341
 21
-230.1998383447826
 31
0.0
  0
ARC
  5
90909
330
1E
100
AcDbEntity
  8
DETAIL
  6
CONTINUOUS
100
AcDbCircle
 10
-26.12557740809143
 20
-248.0210525000018
 30
0.0
 40
20.01616575463379
100
AcDbArc
 50
90.0
 51
180.0
  0
ARC
  5
9090A
330
1E
100
AcDbEntity
  8
DETAIL
  6
CONTINUOUS
100
AcDbCircle
 10
-26.12557740809143
 20
-248.0210525000018
 30
0.0
 40
19.8852119801321
100
AcDbArc
 50
90.30185781549157
 51
179.6981421844954
  0
ARC
  5
9090B
330
1E
100
AcDbEntity
  8
DETAIL
  6
CONTINUOUS
100
AcDbCircle
 10
-26.12557740809143
 20
-248.0210525000018
 30
0.0
 40
18.89533951986788
100
AcDbArc
 50
90.31767143582323
 51
179.6823285642028
  0
ARC
  5
9090C
330
1E
100
AcDbEntity
  8
DETAIL
  6
CONTINUOUS
100
AcDbCircle
 10
-26.12557740809143
 20
-248.0210525000018
 30
0.0
 40
18.76438574536619
100
AcDbArc
 50
90.0
 51
180.0
  0
LINE
  5
9090D
330
1E
100
AcDbEntity
  8
DETAIL
  6
CONTINUOUS
100
AcDbLine
 10
-226.4045814250134
 20
-234.0704825153998
 30
0.0
 11
-226.2455124676439
 21
-234.3956238952187
 31
0.0
  0
LINE
  5
9090E
330
1E
100
AcDbEntity
  8
DETAIL
  6
CONTINUOUS
100
AcDbLine
 10
-225.3277181787457
 20
-236.2131114120572
 30
0.0
 11
-226.5890957921405
 21
-233.6893370163943
 31
0.0
  0
LINE
  5
9090F
330
1E
100
AcDbEntity
  8
DETAIL
  6
CONTINUOUS
100
AcDbLine
 10
-67.10132692259185
 20
-285.8699476855945
 30
0.0
 11
-67.10066491193401
 21
-214.1991023292698
 31
0.0
  0
LINE
  5
90910
330
1E
100
AcDbEntity
  8
DETAIL
  6
CONTINUOUS
100
AcDbLine
 10
-5.140464905584394
 20
-229.2566667546361
 30
0.0
 11
-5.140464905584394
 21
-271.0008005860149
 31
0.0
  0
LINE
  5
90911
330
1E
100
AcDbEntity
  8
DETAIL
  6
CONTINUOUS
100
AcDbLine
 10
-1.338008408096811
 20
-145.5995275558552
 30
0.0
 11
-1.338008408096811
 21
-282.2475938290433
 31
0.0
  0
ARC
  5
90912
330
1E
100
AcDbEntity
  8
DETAIL
  6
CONTINUOUS
100
AcDbCircle
 10
-141.0306249031477
 20
-192.6604569229455
 30
0.0
 40
73.9629075
100
AcDbArc
 50
184.7015818537963
 51
253.9177485522765
  0
LINE
  5
90913
330
1E
100
AcDbEntity
  8
DETAIL
  6
CONTINUOUS
100
AcDbLine
 10
-68.60427428309276
 20
-0.2443228581623771
 30
0.0
 11
-68.60427428309276
 21
-290.1998997500013
 31
0.0
  0
LINE
  5
90914
330
1E
100
AcDbEntity
  8
DETAIL
  6
CONTINUOUS
100
AcDbLine
 10
-0.2308026279829392
 20
-281.517739605276
 30
0.0
 11
-0.2308026279829392
 21
-22.92061645024909
 31
0.0
  0
LINE
  5
90915
330
1E
100
AcDbEntity
  8
DETAIL
  6
CONTINUOUS
100
AcDbLine
 10
-0.1386099080941676
 20
-282.2475938290433
 30
0.0
 11
-0.1386099080966687
 21
-23.4382456874996
 31
0.0
  0
LINE
  5
90916
330
1E
100
AcDbEntity
  8
NOTE
  6
CONTINUOUS
 62
     4
100
AcDbLine
 10
0.0000000000004547
 20
-248.0000000002492
 30
0.0
 11
33.2193599999996
 21
-225.7183000002496
 31
0.0
  0
LINE
  5
90917
330
1E
100
AcDbEntity
  8
NOTE
  6
DASHDOT
 62
     4
100
AcDbLine
 10
0.0000000000004547
 20
-229.0
 30
0.0
 11
0.0000000000004547
 21
-269.0
 31
0.0
  0
LINE
  5
90918
330
1E
100
AcDbEntity
  8
NOTE
  6
DASHDOT
 62
     4
100
AcDbLine
 10
0.0000000000004547
 20
-228.0000000002492
 30
0.0
 11
0.0000000000004547
 21
-268.0000000002491
 31
0.0
  0
LINE
  5
90919
330
1E
100
AcDbEntity
  8
NOTE
  6
CONTINUOUS
 62
     4
100
AcDbLine
 10
17.62795999999843
 20
-212.0938000002497
 30
0.0
 11
0.0000000000004547
 21
-248.0000000002492
 31
0.0
  0
LINE
  5
9091B
330
1E
100
AcDbEntity
  8
DETAIL
  6
CONTINUOUS
100
AcDbLine
 10
-68.60427428309276
 20
-290.1998997500013
 30
0.0
 11
-136.3532961606256
 21
-287.8340517740207
 31
0.0
  0
LINE
  5
9091D
330
1E
100
AcDbEntity
  8
DETAIL
  6
CONTINUOUS
100
AcDbLine
 10
-211.4388742277847
 20
-256.267647638512
 30
0.0
 11
-213.807494874602
 21
-253.5353530253591
 31
0.0
  0
LINE
  5
9091E
330
1E
100
AcDbEntity
  8
DETAIL
  6
CONTINUOUS
100
AcDbLine
 10
-214.1728584509314
 20
-253.8781694704384
 30
0.0
 11
-213.4055889176656
 21
-254.7856026487834
 31
0.0
  0
LINE
  5
9091F
330
1E
100
AcDbEntity
  8
DETAIL
  6
CONTINUOUS
100
AcDbLine
 10
-212.562338193064
 20
-254.9898900450402
 30
0.0
 11
-214.4010166612756
 21
-252.8092513743361
 31
0.0
  0
LINE
  5
90920
330
1E
100
AcDbEntity
  8
DETAIL
  6
CONTINUOUS
100
AcDbLine
 10
-213.1352610461258
 20
-254.3320577621686
 30
0.0
 11
-213.9591384944565
 21
-253.3531911118091
 31
0.0
  0
LINE
  5
90921
330
1E
100
AcDbEntity
  8
DETAIL
  6
CONTINUOUS
100
AcDbLine
 10
-215.6962842867819
 20
-251.1909218848056
 30
0.0
 11
-213.1364779758337
 21
-254.3229456265846
 31
0.0
  0
LINE
  5
90941
330
1E
100
AcDbEntity
  8
DETAIL
  6
CONTINUOUS
100
AcDbLine
 10
-213.807494874602
 20
-253.5353530253591
 30
0.0
 11
-214.0421018748698
 21
-253.2531445426359
 31
0.0
  0
LINE
  5
90942
330
1E
100
AcDbEntity
  8
DETAIL
  6
CONTINUOUS
100
AcDbLine
 10
-214.0421018748698
 20
-253.2531445426359
 30
0.0
 11
-214.2582044657942
 21
-252.9912480041089
 31
0.0
  0
LINE
  5
90943
330
1E
100
AcDbEntity
  8
DETAIL
  6
CONTINUOUS
100
AcDbLine
 10
-214.7277303725645
 20
-252.4156721708495
 30
0.0
 11
-214.3409824658488
 21
-252.8858799703221
 31
0.0
  0
LINE
  5
90944
330
1E
100
AcDbEntity
  8
DETAIL
  6
CONTINUOUS
100
AcDbLine
 10
-213.9591384944565
 20
-253.3531911118091
 30
0.0
 11
-214.7204411867737
 21
-252.4246772641156
 31
0.0
  0
LINE
  5
90945
330
1E
100
AcDbEntity
  8
DETAIL
  6
CONTINUOUS
100
AcDbLine
 10
-214.2582044657942
 20
-252.9912480041089
 30
0.0
 11
-214.5126815825028
 21
-252.6804177232559
 31
0.0
  0
LINE
  5
90946
330
1E
100
AcDbEntity
  8
DETAIL
  6
CONTINUOUS
100
AcDbLine
 10
-214.5126815825028
 20
-252.6804177232559
 30
0.0
 11
-214.6563428841641
 21
-252.503769411297
 31
0.0
  0
LINE
  5
90947
330
1E
100
AcDbEntity
  8
DETAIL
  6
CONTINUOUS
100
AcDbLine
 10
-214.6563428841641
 20
-252.503769411297
 30
0.0
 11
-214.6839311259504
 21
-252.4697486740751
 31
0.0
  0
LINE
  5
90948
330
1E
100
AcDbEntity
  8
DETAIL
  6
CONTINUOUS
100
AcDbLine
 10
-214.7204411867737
 20
-252.4246772641156
 30
0.0
 11
-215.4267838216369
 21
-251.5416225346129
 31
0.0
  0
LINE
  5
90949
330
1E
100
AcDbEntity
  8
DETAIL
  6
CONTINUOUS
100
AcDbLine
 10
-215.6158048286729
 20
-251.3016686291587
 30
0.0
 11
-214.7277303725645
 21
-252.4156721708495
 31
0.0
  0
LINE
  5
9094A
330
1E
100
AcDbEntity
  8
DETAIL
  6
CONTINUOUS
100
AcDbLine
 10
-214.4010166612756
 20
-252.8092513743361
 30
0.0
 11
-216.1744694335998
 21
-250.5750003129899
 31
0.0
  0
LINE
  5
9094B
330
1E
100
AcDbEntity
  8
DETAIL
  6
CONTINUOUS
100
AcDbLine
 10
-215.4267838216369
 20
-251.5416225346129
 30
0.0
 11
-216.0847363735288
 21
-250.6995425575485
 31
0.0
  0
LINE
  5
9094C
330
1E
100
AcDbEntity
  8
DETAIL
  6
CONTINUOUS
100
AcDbLine
 10
-216.4276805971935
 20
-250.2528821037135
 30
0.0
 11
-215.6158048286729
 21
-251.3016686291587
 31
0.0
  0
LINE
  5
9094D
330
1E
100
AcDbEntity
  8
DETAIL
  6
CONTINUOUS
100
AcDbLine
 10
-216.0847363735288
 20
-250.6995425575485
 30
0.0
 11
-216.7008939483171
 21
-249.8931349414101
 31
0.0
  0
LINE
  5
9094E
330
1E
100
AcDbEntity
  8
DETAIL
  6
CONTINUOUS
100
AcDbLine
 10
-217.1653345507152
 20
-249.2734463307697
 30
0.0
 11
-216.4276805971935
 21
-250.2528821037135
 31
0.0
  0
LINE
  5
9094F
330
1E
100
AcDbEntity
  8
DETAIL
  6
CONTINUOUS
100
AcDbLine
 10
-218.0234762701224
 20
-248.0861209454212
 30
0.0
 11
-215.6962842867819
 21
-251.1909218848056
 31
0.0
  0
LINE
  5
90950
330
1E
100
AcDbEntity
  8
DETAIL
  6
CONTINUOUS
100
AcDbLine
 10
-216.7008939483171
 20
-249.8931349414101
 30
0.0
 11
-217.2838370788745
 21
-249.113656377651
 31
0.0
  0
LINE
  5
90951
330
1E
100
AcDbEntity
  8
DETAIL
  6
CONTINUOUS
100
AcDbLine
 10
-216.1744694335998
 20
-250.5750003129899
 30
0.0
 11
-217.8804405080959
 21
-248.2900260627236
 31
0.0
  0
LINE
  5
90952
330
1E
100
AcDbEntity
  8
DETAIL
  6
CONTINUOUS
100
AcDbLine
 10
-217.2188913372506
 20
-249.2004981490511
 30
0.0
 11
-217.1653345507152
 21
-249.2734463307697
 31
0.0
  0
LINE
  5
90953
330
1E
100
AcDbEntity
  8
DETAIL
  6
CONTINUOUS
100
AcDbLine
 10
-217.2838370788745
 20
-249.113656377651
 30
0.0
 11
-217.8321462104108
 21
-248.3652010530281
 31
0.0
  0
LINE
  5
90954
330
1E
100
AcDbEntity
  8
DETAIL
  6
CONTINUOUS
100
AcDbLine
 10
-218.8652256236678
 20
-246.9008508480058
 30
0.0
 11
-218.8499771934389
 21
-246.9221082673803
 31
0.0
  0
LINE
  5
90955
330
1E
100
AcDbEntity
  8
DETAIL
  6
CONTINUOUS
100
AcDbLine
 10
-217.8804405080959
 20
-248.2900260627236
 30
0.0
 11
-219.5168114044977
 21
-245.9572919840761
 31
0.0
  0
LINE
  5
90956
330
1E
100
AcDbEntity
  8
DETAIL
  6
CONTINUOUS
100
AcDbLine
 10
-218.7952120329123
 20
-247.0041234273312
 30
0.0
 11
-218.8666153933613
 21
-246.9018477613876
 31
0.0
  0
LINE
  5
90957
330
1E
100
AcDbEntity
  8
DETAIL
  6
CONTINUOUS
100
AcDbLine
 10
-219.5157071556173
 20
-245.9589167652452
 30
0.0
 11
-221.081546776892
 21
-243.5799460236846
 31
0.0
  0
LINE
  5
90958
330
1E
100
AcDbEntity
  8
DETAIL
  6
CONTINUOUS
100
AcDbLine
 10
-221.0806811909792
 20
-243.5813045104016
 30
0.0
 11
-222.5727455959645
 21
-241.1612320480753
 31
0.0
  0
LINE
  5
90959
330
1E
100
AcDbEntity
  8
DETAIL
  6
CONTINUOUS
100
AcDbLine
 10
-222.5721114313223
 20
-241.1622956173589
 30
0.0
 11
-223.9887427461003
 21
-238.7043463023269
 31
0.0
  0
LINE
  5
9095A
330
1E
100
AcDbEntity
  8
DETAIL
  6
CONTINUOUS
100
AcDbLine
 10
-225.3277181787457
 20
-236.2131114120572
 30
0.0
 11
-223.9883160187714
 21
-238.705112767278
 31
0.0
  0
LINE
  5
9095B
330
1E
100
AcDbEntity
  8
DETAIL
  6
CONTINUOUS
100
AcDbLine
 10
-225.887290271236
 20
-235.1165762312934
 30
0.0
 11
-225.7020104120097
 21
-235.4835522842979
 31
0.0
  0
LINE
  5
9095C
330
1E
100
AcDbEntity
  8
DETAIL
  6
CONTINUOUS
100
AcDbLine
 10
-226.1066531591118
 20
-234.6769144129691
 30
0.0
 11
-225.887290271236
 21
-235.1165762312934
 31
0.0
  0
LINE
  5
9095D
330
1E
100
AcDbEntity
  8
DETAIL
  6
CONTINUOUS
100
AcDbLine
 10
-226.2455124676439
 20
-234.3956238952187
 30
0.0
 11
-226.1066531591118
 21
-234.6769144129691
 31
0.0
  0
ARC
  5
9095E
330
1E
100
AcDbEntity
  8
DETAIL
  6
CONTINUOUS
100
AcDbCircle
 10
-213.4056767336264
 20
-253.2375213896684
 30
0.0
 40
0.99949875
100
AcDbArc
 50
159.5857486453116
 51
219.8641407444015
  0
ARC
  5
9095F
330
1E
100
AcDbEntity
  8
DETAIL
  6
CONTINUOUS
100
AcDbCircle
 10
-217.5894092486637
 20
-248.1891653605034
 30
0.0
 40
0.299849625
100
AcDbArc
 50
204.9770067897989
 51
215.9500627310917
  0
LINE
  5
90962
330
1E
100
AcDbEntity
  8
DETAIL
  6
CONTINUOUS
100
AcDbLine
 10
-145.5159472931231
 20
-287.3901069343034
 30
0.0
 11
-147.8461330550894
 21
-287.2161321015862
 31
0.0
  0
LINE
  5
90963
330
1E
100
AcDbEntity
  8
DETAIL
  6
CONTINUOUS
100
AcDbLine
 10
-147.5046799063188
 20
-287.2403754675056
 30
0.0
 11
-146.3027747154269
 21
-287.3316575360893
 31
0.0
  0
LINE
  5
90A17
330
1E
100
AcDbEntity
  8
DETAIL
  6
CONTINUOUS
100
AcDbLine
 10
-210.2284497773221
 20
-258.3173521422154
 30
0.0
 11
-211.0386574010849
 21
-257.4494243185477
 31
0.0
  0
LINE
  5
90A18
330
1E
100
AcDbEntity
  8
DETAIL
  6
CONTINUOUS
100
AcDbLine
 10
-210.2259601005612
 20
-257.5898516740353
 30
0.0
 11
-211.2699052046486
 21
-256.4548296224888
 31
0.0
  0
LINE
  5
90A19
330
1E
100
AcDbEntity
  8
DETAIL
  6
CONTINUOUS
100
AcDbLine
 10
-211.0386574010849
 20
-257.4494243185477
 30
0.0
 11
-211.8383572744846
 21
-256.5713746656583
 31
0.0
  0
LINE
  5
90A1A
330
1E
100
AcDbEntity
  8
DETAIL
  6
CONTINUOUS
100
AcDbLine
 10
-210.6608388269492
 20
-257.114127834196
 30
0.0
 11
-212.562338193064
 21
-254.9898900450402
 31
0.0
  0
LINE
  5
90A1B
330
1E
100
AcDbEntity
  8
DETAIL
  6
CONTINUOUS
100
AcDbLine
 10
-211.2699052046486
 20
-256.4548296224888
 30
0.0
 11
-212.2429984543801
 21
-255.3631327339839
 31
0.0
  0
LINE
  5
90A1C
330
1E
100
AcDbEntity
  8
DETAIL
  6
CONTINUOUS
100
AcDbLine
 10
-213.1364779758337
 20
-254.3229456265846
 30
0.0
 11
-210.4473598149675
 21
-257.3448655429174
 31
0.0
  0
LINE
  5
90A1D
330
1E
100
AcDbEntity
  8
DETAIL
  6
CONTINUOUS
100
AcDbLine
 10
-212.6273934930764
 20
-255.68336887645
 30
0.0
 11
-211.8383575316952
 21
-256.5713743791352
 31
0.0
  0
LINE
  5
90A1E
330
1E
100
AcDbEntity
  8
DETAIL
  6
CONTINUOUS
100
AcDbLine
 10
-213.4055889176656
 20
-254.7856026487834
 30
0.0
 11
-212.6273934930764
 21
-255.68336887645
 31
0.0
  0
LINE
  5
90A1F
330
1E
100
AcDbEntity
  8
DETAIL
  6
CONTINUOUS
100
AcDbLine
 10
-212.2429984543801
 20
-255.3631327339839
 30
0.0
 11
-213.1352610461258
 21
-254.3320577621686
 31
0.0
  0
LINE
  5
90A20
330
1E
100
AcDbEntity
  8
DETAIL
  6
CONTINUOUS
100
AcDbLine
 10
-182.7734493991652
 20
-303.6821319133341
 30
0.0
 11
-182.7381801414089
 21
-303.6844687973821
 31
0.0
  0
LINE
  5
90A21
330
1E
100
AcDbEntity
  8
DETAIL
  6
CONTINUOUS
100
AcDbLine
 10
-182.9003960672348
 20
-303.6647631811104
 30
0.0
 11
-182.7734493991652
 21
-303.6821319133341
 31
0.0
  0
LINE
  5
90A22
330
1E
100
AcDbEntity
  8
DETAIL
  6
CONTINUOUS
100
AcDbLine
 10
-147.2909411805781
 20
-287.2572551823066
 30
0.0
 11
-148.2283312195199
 21
-287.1810471887215
 31
0.0
  0
LINE
  5
90A23
330
1E
100
AcDbEntity
  8
DETAIL
  6
CONTINUOUS
100
AcDbLine
 10
-148.6398452926482
 20
-287.1457590590987
 30
0.0
 11
-147.5046799063188
 21
-287.2403754675056
 31
0.0
  0
LINE
  5
90A24
330
1E
100
AcDbEntity
  8
DETAIL
  6
CONTINUOUS
100
AcDbLine
 10
-148.2283312195199
 20
-287.1810471887215
 30
0.0
 11
-149.2185131872361
 21
-287.0941571935059
 31
0.0
  0
LINE
  5
90A25
330
1E
100
AcDbEntity
  8
DETAIL
  6
CONTINUOUS
100
AcDbLine
 10
-147.7762933438011
 20
-287.2218302506232
 30
0.0
 11
-148.5161932723044
 21
-287.1560654957383
 31
0.0
  0
LINE
  5
90A26
330
1E
100
AcDbEntity
  8
DETAIL
  6
CONTINUOUS
100
AcDbLine
 10
-150.0515976888732
 20
-287.0190185089936
 30
0.0
 11
-148.5823602747918
 21
-287.1499805926607
 31
0.0
  0
LINE
  5
90A27
330
1E
100
AcDbEntity
  8
DETAIL
  6
CONTINUOUS
100
AcDbLine
 10
-149.4128068220329
 20
-287.0756898335771
 30
0.0
 11
-150.1259471691778
 21
-287.0117613697928
 31
0.0
  0
LINE
  5
90A28
330
1E
100
AcDbEntity
  8
DETAIL
  6
CONTINUOUS
100
AcDbLine
 10
-149.7165786213922
 20
-287.0478254262852
 30
0.0
 11
-148.6398452926482
 21
-287.1457590590987
 31
0.0
  0
LINE
  5
90A29
330
1E
100
AcDbEntity
  8
DETAIL
  6
CONTINUOUS
100
AcDbLine
 10
-149.2185131872361
 20
-287.0941571935059
 30
0.0
 11
-150.2628313402369
 21
-286.9948960957494
 31
0.0
  0
LINE
  5
90A2A
330
1E
100
AcDbEntity
  8
DETAIL
  6
CONTINUOUS
100
AcDbLine
 10
-150.7394333156921
 20
-286.9468474268897
 30
0.0
 11
-149.7165786213922
 21
-287.0478254262852
 31
0.0
  0
LINE
  5
90A2B
330
1E
100
AcDbEntity
  8
DETAIL
  6
CONTINUOUS
100
AcDbLine
 10
-150.2628313402369
 20
-286.9948960957494
 30
0.0
 11
-151.366198482769
 21
-286.8809157930281
 31
0.0
  0
LINE
  5
90A2C
330
1E
100
AcDbEntity
  8
DETAIL
  6
CONTINUOUS
100
AcDbLine
 10
-150.6534160961168
 20
-286.9553391975896
 30
0.0
 11
-150.0515976888732
 21
-287.0190185089936
 31
0.0
  0
LINE
  5
90A2D
330
1E
100
AcDbEntity
  8
DETAIL
  6
CONTINUOUS
100
AcDbLine
 10
-150.1259471691778
 20
-287.0117613697928
 30
0.0
 11
-152.2711238561119
 21
-286.7834520285741
 31
0.0
  0
LINE
  5
90A2E
330
1E
100
AcDbEntity
  8
DETAIL
  6
CONTINUOUS
100
AcDbLine
 10
-151.366198482769
 20
-286.8809157930281
 30
0.0
 11
-152.5288773563702
 21
-286.7499620371836
 31
0.0
  0
LINE
  5
90A2F
330
1E
100
AcDbEntity
  8
DETAIL
  6
CONTINUOUS
100
AcDbLine
 10
-152.641948556346
 20
-286.7366042881144
 30
0.0
 11
-151.7144793221054
 21
-286.8428904694453
 31
0.0
  0
LINE
  5
90A30
330
1E
100
AcDbEntity
  8
DETAIL
  6
CONTINUOUS
100
AcDbLine
 10
-153.5422344044131
 20
-286.6261461257002
 30
0.0
 11
-152.641948556346
 21
-286.7366042881144
 31
0.0
  0
LINE
  5
90A31
330
1E
100
AcDbEntity
  8
DETAIL
  6
CONTINUOUS
100
AcDbLine
 10
-152.5288773563702
 20
-286.7499620371836
 30
0.0
 11
-153.7528874296299
 21
-286.5992244123095
 31
0.0
  0
LINE
  5
90A32
330
1E
100
AcDbEntity
  8
DETAIL
  6
CONTINUOUS
100
AcDbLine
 10
-152.2711238561119
 20
-286.7834520285741
 30
0.0
 11
-154.3929834339364
 21
-286.5183734165288
 31
0.0
  0
LINE
  5
90A33
330
1E
100
AcDbEntity
  8
DETAIL
  6
CONTINUOUS
100
AcDbLine
 10
-154.4297698375053
 20
-286.5098657711266
 30
0.0
 11
-153.5422344044131
 21
-286.6261461257002
 31
0.0
  0
LINE
  5
90A34
330
1E
100
AcDbEntity
  8
DETAIL
  6
CONTINUOUS
100
AcDbLine
 10
-153.7528874296299
 20
-286.5992244123095
 30
0.0
 11
-155.0384182674829
 21
-286.4257030055362
 31
0.0
  0
LINE
  5
90A35
330
1E
100
AcDbEntity
  8
DETAIL
  6
CONTINUOUS
100
AcDbLine
 10
-155.3201768331732
 20
-286.3854871498433
 30
0.0
 11
-154.4297698375053
 21
-286.5098657711266
 31
0.0
  0
LINE
  5
90A36
330
1E
100
AcDbEntity
  8
DETAIL
  6
CONTINUOUS
100
AcDbLine
 10
-156.4824023274818
 20
-286.2145479214343
 30
0.0
 11
-154.8599687055216
 21
-286.4497901911113
 31
0.0
  0
LINE
  5
90A37
330
1E
100
AcDbEntity
  8
DETAIL
  6
CONTINUOUS
100
AcDbLine
 10
-154.3929834339364
 20
-286.5183734165288
 30
0.0
 11
-154.9010709900035
 21
-286.4442421907761
 31
0.0
  0
LINE
  5
90A38
330
1E
100
AcDbEntity
  8
DETAIL
  6
CONTINUOUS
100
AcDbLine
 10
-155.6804302949026
 20
-286.3305317460517
 30
0.0
 11
-156.5764891508174
 21
-286.199794550937
 31
0.0
  0
LINE
  5
90A39
330
1E
100
AcDbEntity
  8
DETAIL
  6
CONTINUOUS
100
AcDbLine
 10
-155.0384182674829
 20
-286.4257030055362
 30
0.0
 11
-156.3870598965081
 21
-286.2257816383766
 31
0.0
  0
LINE
  5
90A3A
330
1E
100
AcDbEntity
  8
DETAIL
  6
CONTINUOUS
100
AcDbLine
 10
-156.2394892340694
 20
-286.2485856048219
 30
0.0
 11
-155.3201768331732
 21
-286.3854871498433
 31
0.0
  0
LINE
  5
90A3B
330
1E
100
AcDbEntity
  8
DETAIL
  6
CONTINUOUS
100
AcDbLine
 10
-157.1691635397951
 20
-286.1009909237593
 30
0.0
 11
-156.2394892340694
 21
-286.2485856048219
 31
0.0
  0
LINE
  5
90A3C
330
1E
100
AcDbEntity
  8
DETAIL
  6
CONTINUOUS
100
AcDbLine
 10
-156.3870598965081
 20
-286.2257816383766
 30
0.0
 11
-157.7979540471501
 21
-285.9957650773308
 31
0.0
  0
LINE
  5
90A3D
330
1E
100
AcDbEntity
  8
DETAIL
  6
CONTINUOUS
100
AcDbLine
 10
-158.6880169833716
 20
-285.8429808441683
 30
0.0
 11
-156.4824023274818
 21
-286.2145479214343
 31
0.0
  0
LINE
  5
90A3E
330
1E
100
AcDbEntity
  8
DETAIL
  6
CONTINUOUS
100
AcDbLine
 10
-158.0982440939446
 20
-285.9439554652576
 30
0.0
 11
-157.1691635397951
 21
-286.1009909237593
 31
0.0
  0
LINE
  5
90A3F
330
1E
100
AcDbEntity
  8
DETAIL
  6
CONTINUOUS
100
AcDbLine
 10
-156.5764891508174
 20
-286.199794550937
 30
0.0
 11
-157.3219984701941
 21
-286.0733596049012
 31
0.0
  0
LINE
  5
90A40
330
1E
100
AcDbEntity
  8
DETAIL
  6
CONTINUOUS
100
AcDbLine
 10
-157.9854670891077
 20
-285.9608383837842
 30
0.0
 11
-158.7974197030821
 21
-285.8231349622374
 31
0.0
  0
LINE
  5
90A41
330
1E
100
AcDbEntity
  8
DETAIL
  6
CONTINUOUS
100
AcDbLine
 10
-159.0304585297931
 20
-285.7766750259613
 30
0.0
 11
-158.0982440939446
 21
-285.9439554652576
 31
0.0
  0
LINE
  5
90A42
330
1E
100
AcDbEntity
  8
DETAIL
  6
CONTINUOUS
100
AcDbLine
 10
-158.8035723122088
 20
-285.8220148639691
 30
0.0
 11
-158.6880169833716
 21
-285.8429808441683
 31
0.0
  0
LINE
  5
90A43
330
1E
100
AcDbEntity
  8
DETAIL
  6
CONTINUOUS
100
AcDbLine
 10
-159.0718469760963
 20
-285.7690213602861
 30
0.0
 11
-159.0304585297931
 21
-285.7766750259613
 31
0.0
  0
LINE
  5
90A44
330
1E
100
AcDbEntity
  8
DETAIL
  6
CONTINUOUS
100
AcDbLine
 10
-157.7979558222618
 20
-285.9957615231132
 30
0.0
 11
-160.5339369532925
 21
-285.4861972156488
 31
0.0
  0
LINE
  5
90A45
330
1E
100
AcDbEntity
  8
DETAIL
  6
CONTINUOUS
100
AcDbLine
 10
-158.7974197030821
 20
-285.8231349622374
 30
0.0
 11
-159.9748863499376
 21
-285.6009851480107
 31
0.0
  0
LINE
  5
90A46
330
1E
100
AcDbEntity
  8
DETAIL
  6
CONTINUOUS
100
AcDbLine
 10
-160.4374751543441
 20
-285.5094058937993
 30
0.0
 11
-160.0651250097894
 21
-285.5833117605723
 31
0.0
  0
LINE
  5
90A47
330
1E
100
AcDbEntity
  8
DETAIL
  6
CONTINUOUS
100
AcDbLine
 10
-159.9748863499376
 20
-285.6009851480107
 30
0.0
 11
-161.2088539774763
 21
-285.3512593924863
 31
0.0
  0
LINE
  5
90A48
330
1E
100
AcDbEntity
  8
DETAIL
  6
CONTINUOUS
100
AcDbLine
 10
-160.8654924390943
 20
-285.4224960338799
 30
0.0
 11
-160.4374751543441
 21
-285.5094058937993
 31
0.0
  0
LINE
  5
90A49
330
1E
100
AcDbEntity
  8
DETAIL
  6
CONTINUOUS
100
AcDbLine
 10
-162.9445404296607
 20
-284.9664346972677
 30
0.0
 11
-159.0718469760963
 21
-285.7690213602861
 31
0.0
  0
LINE
  5
90A4A
330
1E
100
AcDbEntity
  8
DETAIL
  6
CONTINUOUS
100
AcDbLine
 10
-161.2084774383024
 20
-285.3513355956042
 30
0.0
 11
-160.8654924390943
 21
-285.4224960338799
 31
0.0
  0
LINE
  5
90A4B
330
1E
100
AcDbEntity
  8
DETAIL
  6
CONTINUOUS
100
AcDbLine
 10
-161.7189430524363
 20
-285.2429306821518
 30
0.0
 11
-161.2078744726973
 21
-285.3514576210752
 31
0.0
  0
LINE
  5
90A4C
330
1E
100
AcDbEntity
  8
DETAIL
  6
CONTINUOUS
100
AcDbLine
 10
-161.2088539774763
 20
-285.3512593924863
 30
0.0
 11
-162.4956613817889
 21
-285.0722072495225
 31
0.0
  0
LINE
  5
90A4D
330
1E
100
AcDbEntity
  8
DETAIL
  6
CONTINUOUS
100
AcDbLine
 10
-160.5339369532925
 20
-285.4861972156488
 30
0.0
 11
-163.2455838039863
 21
-284.8967939635251
 31
0.0
  0
LINE
  5
90A4E
330
1E
100
AcDbEntity
  8
DETAIL
  6
CONTINUOUS
100
AcDbLine
 10
-162.1379933274806
 20
-285.1516906524866
 30
0.0
 11
-161.7189430524363
 21
-285.2429306821518
 31
0.0
  0
LINE
  5
90A4F
330
1E
100
AcDbEntity
  8
DETAIL
  6
CONTINUOUS
100
AcDbLine
 10
-162.9230950112346
 20
-284.9752705500775
 30
0.0
 11
-162.1379933274806
 21
-285.1516906524866
 31
0.0
  0
LINE
  5
90A50
330
1E
100
AcDbEntity
  8
DETAIL
  6
CONTINUOUS
100
AcDbLine
 10
-163.3146450816643
 20
-284.8846022883353
 30
0.0
 11
-162.9230950112346
 21
-284.9752705500775
 31
0.0
  0
LINE
  5
90A51
330
1E
100
AcDbEntity
  8
DETAIL
  6
CONTINUOUS
100
AcDbLine
 10
-162.4956613817889
 20
-285.0722072495225
 30
0.0
 11
-163.8415348683852
 21
-284.759761664078
 31
0.0
  0
LINE
  5
90A52
330
1E
100
AcDbEntity
  8
DETAIL
  6
CONTINUOUS
100
AcDbLine
 10
-163.6125674305371
 20
-284.8144130923128
 30
0.0
 11
-163.3146450816643
 21
-284.8846022883353
 31
0.0
  0
LINE
  5
90A53
330
1E
100
AcDbEntity
  8
DETAIL
  6
CONTINUOUS
100
AcDbLine
 10
-164.1247132113844
 20
-284.6913179207099
 30
0.0
 11
-163.6125674305371
 21
-284.8144130923128
 31
0.0
  0
LINE
  5
90A54
330
1E
100
AcDbEntity
  8
DETAIL
  6
CONTINUOUS
100
AcDbLine
 10
-164.5189057113025
 20
-284.5944674846703
 30
0.0
 11
-164.1247132113844
 21
-284.6913179207099
 31
0.0
  0
LINE
  5
90A55
330
1E
100
AcDbEntity
  8
DETAIL
  6
CONTINUOUS
100
AcDbLine
 10
-163.8415348683852
 20
-284.759761664078
 30
0.0
 11
-165.2508535211295
 21
-284.4097498594819
 31
0.0
  0
LINE
  5
90A56
330
1E
100
AcDbEntity
  8
DETAIL
  6
CONTINUOUS
100
AcDbLine
 10
-163.2455838039863
 20
-284.8967939635251
 30
0.0
 11
-165.9298595173627
 21
-284.2286269288824
 31
0.0
  0
LINE
  5
90A57
330
1E
100
AcDbEntity
  8
DETAIL
  6
CONTINUOUS
100
AcDbLine
 10
-164.9573018257165
 20
-284.4845962732335
 30
0.0
 11
-164.5189057113025
 21
-284.5944674846703
 31
0.0
  0
LINE
  5
90A58
330
1E
100
AcDbEntity
  8
DETAIL
  6
CONTINUOUS
100
AcDbLine
 10
-166.7759365498936
 20
-284.0002078253746
 30
0.0
 11
-162.9445404296607
 21
-284.9664346972677
 31
0.0
  0
LINE
  5
90A59
330
1E
100
AcDbEntity
  8
DETAIL
  6
CONTINUOUS
100
AcDbLine
 10
-165.6077922545396
 20
-284.3173577822367
 30
0.0
 11
-164.9573018257165
 21
-284.4845962732335
 31
0.0
  0
LINE
  5
90A5A
330
1E
100
AcDbEntity
  8
DETAIL
  6
CONTINUOUS
100
AcDbLine
 10
-166.0010709327384
 20
-284.2137946139723
 30
0.0
 11
-165.6077922545396
 21
-284.3173577822367
 31
0.0
  0
LINE
  5
90A5B
330
1E
100
AcDbEntity
  8
DETAIL
  6
CONTINUOUS
100
AcDbLine
 10
-165.2508535211295
 20
-284.4097498594819
 30
0.0
 11
-166.7241569041293
 21
-284.0185307750571
 31
0.0
  0
LINE
  5
90A5C
330
1E
100
AcDbEntity
  8
DETAIL
  6
CONTINUOUS
100
AcDbLine
 10
-166.3611849097455
 20
-284.1173361653518
 30
0.0
 11
-166.0010709327384
 21
-284.2137946139723
 31
0.0
  0
LINE
  5
90A5D
330
1E
100
AcDbEntity
  8
DETAIL
  6
CONTINUOUS
100
AcDbLine
 10
-167.0993633788934
 20
-283.9147199856461
 30
0.0
 11
-166.3611849097455
 21
-284.1173361653518
 31
0.0
  0
LINE
  5
90A5E
330
1E
100
AcDbEntity
  8
DETAIL
  6
CONTINUOUS
100
AcDbLine
 10
-165.9298595173627
 20
-284.2286269288824
 30
0.0
 11
-168.587342711206
 21
-283.4819487396889
 31
0.0
  0
LINE
  5
90A5F
330
1E
100
AcDbEntity
  8
DETAIL
  6
CONTINUOUS
100
AcDbLine
 10
-167.5734278975492
 20
-283.7811125392959
 30
0.0
 11
-167.0993633788934
 21
-283.9147199856461
 31
0.0
  0
LINE
  5
90A60
330
1E
100
AcDbEntity
  8
DETAIL
  6
CONTINUOUS
100
AcDbLine
 10
-166.7241569041293
 20
-284.0185307750571
 30
0.0
 11
-168.2618310610819
 21
-283.5822114817838
 31
0.0
  0
LINE
  5
90A61
330
1E
100
AcDbEntity
  8
DETAIL
  6
CONTINUOUS
100
AcDbLine
 10
-167.9689548842202
 20
-283.6675418977965
 30
0.0
 11
-167.5734278975492
 21
-283.7811125392959
 31
0.0
  0
LINE
  5
90A62
330
1E
100
AcDbEntity
  8
DETAIL
  6
CONTINUOUS
100
AcDbLine
 10
-168.2608711971283
 20
-283.5824838465277
 30
0.0
 11
-167.9689548842202
 21
-283.6675418977965
 31
0.0
  0
LINE
  5
90A63
330
1E
100
AcDbEntity
  8
DETAIL
  6
CONTINUOUS
100
AcDbLine
 10
-168.8592934288776
 20
-283.4048664525621
 30
0.0
 11
-168.2608711971283
 21
-283.5824838465277
 31
0.0
  0
LINE
  5
90A64
330
1E
100
AcDbEntity
  8
DETAIL
  6
CONTINUOUS
100
AcDbLine
 10
-170.5627212001804
 20
-282.8706120378845
 30
0.0
 11
-166.7759365498936
 21
-284.0002078253746
 31
0.0
  0
LINE
  5
90A65
330
1E
100
AcDbEntity
  8
DETAIL
  6
CONTINUOUS
100
AcDbLine
 10
-168.2618310610819
 20
-283.5822114817838
 30
0.0
 11
-169.867407395674
 21
-283.095601540007
 31
0.0
  0
LINE
  5
90A66
330
1E
100
AcDbEntity
  8
DETAIL
  6
CONTINUOUS
100
AcDbLine
 10
-170.8596280556434
 20
-282.7787996619197
 30
0.0
 11
-170.292172290156
 21
-282.9566658364537
 31
0.0
  0
LINE
  5
90A67
330
1E
100
AcDbEntity
  8
DETAIL
  6
CONTINUOUS
100
AcDbLine
 10
-168.587342711206
 20
-283.4819487396889
 30
0.0
 11
-171.2177624560886
 21
-282.6570821873995
 31
0.0
  0
LINE
  5
90A68
330
1E
100
AcDbEntity
  8
DETAIL
  6
CONTINUOUS
100
AcDbLine
 10
-170.2935488145017
 20
-282.9610574340613
 30
0.0
 11
-169.8660217385809
 21
-283.0960214973993
 31
0.0
  0
LINE
  5
90A69
330
1E
100
AcDbEntity
  8
DETAIL
  6
CONTINUOUS
100
AcDbLine
 10
-169.867407395674
 20
-283.095601540007
 30
0.0
 11
-171.5400442659761
 21
-282.5543623602025
 31
0.0
  0
LINE
  5
90A6A
330
1E
100
AcDbEntity
  8
DETAIL
  6
CONTINUOUS
100
AcDbLine
 10
-172.766010041118
 20
-282.1350404120682
 30
0.0
 11
-170.8596280556434
 21
-282.7787996619197
 31
0.0
  0
LINE
  5
90A6B
330
1E
100
AcDbEntity
  8
DETAIL
  6
CONTINUOUS
100
AcDbLine
 10
-171.5400442659761
 20
-282.5543623602025
 30
0.0
 11
-173.2912973674724
 21
-281.9494389114779
 31
0.0
  0
LINE
  5
90A6C
330
1E
100
AcDbEntity
  8
DETAIL
  6
CONTINUOUS
100
AcDbLine
 10
-174.2977103086527
 20
-281.5793025473749
 30
0.0
 11
-170.5627212001804
 21
-282.8706120378845
 31
0.0
  0
LINE
  5
90A6D
330
1E
100
AcDbEntity
  8
DETAIL
  6
CONTINUOUS
100
AcDbLine
 10
-171.2177624560886
 20
-282.6570821873995
 30
0.0
 11
-173.8203461954185
 21
-281.7544221073403
 31
0.0
  0
LINE
  5
90A6E
330
1E
100
AcDbEntity
  8
DETAIL
  6
CONTINUOUS
100
AcDbLine
 10
-174.6582272862292
 20
-281.4495523612702
 30
0.0
 11
-172.766010041118
 21
-282.1350404120682
 31
0.0
  0
LINE
  5
90A6F
330
1E
100
AcDbEntity
  8
DETAIL
  6
CONTINUOUS
100
AcDbLine
 10
-173.2912973674724
 20
-281.9494389114779
 30
0.0
 11
-175.1336430045944
 21
-281.2699105079077
 31
0.0
  0
LINE
  5
90A70
330
1E
100
AcDbEntity
  8
DETAIL
  6
CONTINUOUS
100
AcDbLine
 10
-173.8203461954185
 20
-281.7544221073403
 30
0.0
 11
-176.3945627209545
 21
-280.7742148972727
 31
0.0
  0
LINE
  5
90A71
330
1E
100
AcDbEntity
  8
DETAIL
  6
CONTINUOUS
100
AcDbLine
 10
-166.4435807894301
 20
-287.3342926958871
 30
0.0
 11
-167.4077288118683
 21
-286.9641909450915
 31
0.0
  0
LINE
  5
90A72
330
1E
100
AcDbEntity
  8
DETAIL
  6
CONTINUOUS
100
AcDbLine
 10
-176.5461958953715
 20
-280.7183019150452
 30
0.0
 11
-174.6582272862292
 21
-281.4495523612702
 31
0.0
  0
LINE
  5
90A73
330
1E
100
AcDbEntity
  8
DETAIL
  6
CONTINUOUS
100
AcDbLine
 10
-175.1336430045944
 20
-281.2699105079077
 30
0.0
 11
-177.0594052015298
 21
-280.5112015201784
 31
0.0
  0
LINE
  5
90A74
330
1E
100
AcDbEntity
  8
DETAIL
  6
CONTINUOUS
100
AcDbLine
 10
-177.9739805220856
 20
-280.1285022937017
 30
0.0
 11
-174.2977103086527
 21
-281.5793025473749
 31
0.0
  0
LINE
  5
90A75
330
1E
100
AcDbEntity
  8
DETAIL
  6
CONTINUOUS
100
AcDbLine
 10
-178.4203407011705
 20
-279.9444807540887
 30
0.0
 11
-178.3019663020936
 21
-279.9933567080627
 31
0.0
  0
LINE
  5
90A76
330
1E
100
AcDbEntity
  8
DETAIL
  6
CONTINUOUS
100
AcDbLine
 10
-178.2846635701066
 20
-280.0005008839154
 30
0.0
 11
-176.5461958953715
 21
-280.7183019150452
 31
0.0
  0
LINE
  5
90A77
330
1E
100
AcDbEntity
  8
DETAIL
  6
CONTINUOUS
100
AcDbLine
 10
-176.3945627209545
 20
-280.7742148972727
 30
0.0
 11
-178.9393491510513
 21
-279.7168424083674
 31
0.0
  0
LINE
  5
90A78
330
1E
100
AcDbEntity
  8
DETAIL
  6
CONTINUOUS
100
AcDbLine
 10
-177.0594052015298
 20
-280.5112015201784
 30
0.0
 11
-179.0813272688251
 21
-279.6599359603603
 31
0.0
  0
LINE
  5
90A79
330
1E
100
AcDbEntity
  8
DETAIL
  6
CONTINUOUS
100
AcDbLine
 10
-178.64354824894
 20
-279.8490782225903
 30
0.0
 11
-178.2852364934465
 21
-280.0018884680407
 31
0.0
  0
LINE
  5
90A7A
330
1E
100
AcDbEntity
  8
DETAIL
  6
CONTINUOUS
100
AcDbLine
 10
-178.9426604224413
 20
-279.7201384127479
 30
0.0
 11
-178.64354824894
 21
-279.8490782225903
 31
0.0
  0
LINE
  5
90A7B
330
1E
100
AcDbEntity
  8
DETAIL
  6
CONTINUOUS
100
AcDbLine
 10
-179.5110311010998
 20
-279.4716554686201
 30
0.0
 11
-178.9426604224413
 21
-279.7201384127479
 31
0.0
  0
LINE
  5
90A7C
330
1E
100
AcDbEntity
  8
DETAIL
  6
CONTINUOUS
100
AcDbLine
 10
-178.4928491127689
 20
-279.9126521588391
 30
0.0
 11
-178.4203407011705
 21
-279.9444807540887
 31
0.0
  0
LINE
  5
90A7D
330
1E
100
AcDbEntity
  8
DETAIL
  6
CONTINUOUS
100
AcDbLine
 10
-179.9593464170215
 20
-279.2724275843456
 30
0.0
 11
-179.5110311010998
 21
-279.4716554686201
 31
0.0
  0
LINE
  5
90A7E
330
1E
100
AcDbEntity
  8
DETAIL
  6
CONTINUOUS
100
AcDbLine
 10
-181.5876247438614
 20
-278.5196527739494
 30
0.0
 11
-177.9739805220856
 21
-280.1285022937017
 31
0.0
  0
LINE
  5
90A7F
330
1E
100
AcDbEntity
  8
DETAIL
  6
CONTINUOUS
100
AcDbLine
 10
-179.0813272688251
 20
-279.6599359603603
 30
0.0
 11
-181.1483705251289
 21
-278.7300763289163
 31
0.0
  0
LINE
  5
90A80
330
1E
100
AcDbEntity
  8
DETAIL
  6
CONTINUOUS
100
AcDbLine
 10
-180.3662368688951
 20
-279.0891238127742
 30
0.0
 11
-179.9593464170215
 21
-279.2724275843456
 31
0.0
  0
LINE
  5
90A81
330
1E
100
AcDbEntity
  8
DETAIL
  6
CONTINUOUS
100
AcDbLine
 10
-178.9393491510513
 20
-279.7168424083674
 30
0.0
 11
-181.4538617115363
 21
-278.5825487475326
 31
0.0
  0
LINE
  5
90A82
330
1E
100
AcDbEntity
  8
DETAIL
  6
CONTINUOUS
100
AcDbLine
 10
-179.6744142282336
 20
-279.9328770173801
 30
0.0
 11
-181.272881169531
 21
-279.2044136640863
 31
0.0
  0
LINE
  5
90A83
330
1E
100
AcDbEntity
  8
DETAIL
  6
CONTINUOUS
100
AcDbLine
 10
-180.7654893925396
 20
-278.9069477889661
 30
0.0
 11
-180.3662368688951
 21
-279.0891238127742
 31
0.0
  0
LINE
  5
90A84
330
1E
100
AcDbEntity
  8
DETAIL
  6
CONTINUOUS
100
AcDbLine
 10
-181.1479678457312
 20
-278.7302574754021
 30
0.0
 11
-180.7654893925396
 21
-278.9069477889661
 31
0.0
  0
LINE
  5
90A85
330
1E
100
AcDbEntity
  8
DETAIL
  6
CONTINUOUS
100
AcDbLine
 10
-181.6658594637069
 20
-278.4876303692303
 30
0.0
 11
-181.1479678457312
 21
-278.7302574754021
 31
0.0
  0
LINE
  5
90A86
330
1E
100
AcDbEntity
  8
DETAIL
  6
CONTINUOUS
100
AcDbLine
 10
-182.2296604167499
 20
-278.2190131291474
 30
0.0
 11
-181.6658594637069
 21
-278.4876303692303
 31
0.0
  0
LINE
  5
90A87
330
1E
100
AcDbEntity
  8
DETAIL
  6
CONTINUOUS
100
AcDbLine
 10
-181.1483705251289
 20
-278.7300763289163
 30
0.0
 11
-183.234746231496
 21
-277.7284453508975
 31
0.0
  0
LINE
  5
90A88
330
1E
100
AcDbEntity
  8
DETAIL
  6
CONTINUOUS
100
AcDbLine
 10
-181.4538617115363
 20
-278.5825487475326
 30
0.0
 11
-183.936818462646
 21
-277.3717401084013
 31
0.0
  0
LINE
  5
90A89
330
1E
100
AcDbEntity
  8
DETAIL
  6
CONTINUOUS
100
AcDbLine
 10
-182.2121831562913
 20
-278.2261346483621
 30
0.0
 11
-182.1094051356126
 21
-278.2767010119268
 31
0.0
  0
LINE
  5
90A8A
330
1E
100
AcDbEntity
  8
DETAIL
  6
CONTINUOUS
100
AcDbLine
 10
-183.8745957580836
 20
-277.4082344997459
 30
0.0
 11
-182.2290752702087
 21
-278.217823798931
 31
0.0
  0
LINE
  5
90A8B
330
1E
100
AcDbEntity
  8
DETAIL
  6
CONTINUOUS
100
AcDbLine
 10
-185.1338522418886
 20
-276.7546728231609
 30
0.0
 11
-181.5876247438614
 21
-278.5196527739494
 31
0.0
  0
LINE
  5
90A8C
330
1E
100
AcDbEntity
  8
DETAIL
  6
CONTINUOUS
100
AcDbLine
 10
-183.234746231496
 20
-277.7284453508975
 30
0.0
 11
-185.2862159952515
 21
-276.6796446245718
 31
0.0
  0
LINE
  5
90A8D
330
1E
100
AcDbEntity
  8
DETAIL
  6
CONTINUOUS
100
AcDbLine
 10
-185.5430149249009
 20
-276.5428351267241
 30
0.0
 11
-183.8745957580836
 21
-277.4082344997459
 31
0.0
  0
LINE
  5
90A8E
330
1E
100
AcDbEntity
  8
DETAIL
  6
CONTINUOUS
100
AcDbLine
 10
-183.936818462646
 20
-277.3717401084013
 30
0.0
 11
-186.3871858213665
 21
-276.0846571009671
 31
0.0
  0
LINE
  5
90A8F
330
1E
100
AcDbEntity
  8
DETAIL
  6
CONTINUOUS
100
AcDbLine
 10
-185.8833862588767
 20
-276.3621029908058
 30
0.0
 11
-185.5433988883419
 21
-276.5435753741564
 31
0.0
  0
LINE
  5
90A90
330
1E
100
AcDbEntity
  8
DETAIL
  6
CONTINUOUS
100
AcDbLine
 10
-186.258483277867
 20
-276.1597728756378
 30
0.0
 11
-185.7789267361317
 21
-276.4180531850406
 31
0.0
  0
LINE
  5
90A91
330
1E
100
AcDbEntity
  8
DETAIL
  6
CONTINUOUS
100
AcDbLine
 10
-185.2862159952515
 20
-276.6796446245718
 30
0.0
 11
-187.2555208128401
 21
-275.6110467945231
 31
0.0
  0
LINE
  5
90A92
330
1E
100
AcDbEntity
  8
DETAIL
  6
CONTINUOUS
100
AcDbLine
 10
-186.7101011095696
 20
-275.9131978746713
 30
0.0
 11
-186.258483277867
 21
-276.1597728756378
 31
0.0
  0
LINE
  5
90A93
330
1E
100
AcDbEntity
  8
DETAIL
  6
CONTINUOUS
100
AcDbLine
 10
-186.8977946196832
 20
-276.3476548339094
 30
0.0
 11
-188.4220054631791
 21
-275.5027709670007
 31
0.0
  0
LINE
  5
90A94
330
1E
100
AcDbEntity
  8
DETAIL
  6
CONTINUOUS
100
AcDbLine
 10
-187.3299097187032
 20
-275.5694645280859
 30
0.0
 11
-186.7101011095696
 21
-275.9131978746713
 31
0.0
  0
LINE
  5
90A95
330
1E
100
AcDbEntity
  8
DETAIL
  6
CONTINUOUS
100
AcDbLine
 10
-187.7189988486284
 20
-275.3505036759217
 30
0.0
 11
-187.3299097187032
 21
-275.5694645280859
 31
0.0
  0
LINE
  5
90A96
330
1E
100
AcDbEntity
  8
DETAIL
  6
CONTINUOUS
100
AcDbLine
 10
-188.1502934577934
 20
-275.1048984126341
 30
0.0
 11
-187.7189988486284
 21
-275.3505036759217
 31
0.0
  0
LINE
  5
90A97
330
1E
100
AcDbEntity
  8
DETAIL
  6
CONTINUOUS
100
AcDbLine
 10
-158.8043422087707
 20
-285.8192158903252
 30
0.0
 11
-158.7974058060467
 21
-285.8230585072492
 31
0.0
  0
LINE
  5
90A98
330
1E
100
AcDbEntity
  8
DETAIL
  6
CONTINUOUS
100
AcDbLine
 10
-158.3068198156056
 20
-285.7456544201713
 30
0.0
 11
-158.340529303578
 21
-285.7130264071649
 31
0.0
  0
LINE
  5
90A99
330
1E
100
AcDbEntity
  8
DETAIL
  6
CONTINUOUS
100
AcDbLine
 10
-158.340529303578
 20
-285.7130264071649
 30
0.0
 11
-158.3722938189698
 21
-285.6791266252844
 31
0.0
  0
LINE
  5
90A9A
330
1E
100
AcDbEntity
  8
DETAIL
  6
CONTINUOUS
100
AcDbLine
 10
-158.3722938189698
 20
-285.6791266252844
 30
0.0
 11
-158.4021029643013
 21
-285.6440990383348
 31
0.0
  0
LINE
  5
90A9B
330
1E
100
AcDbEntity
  8
DETAIL
  6
CONTINUOUS
100
AcDbLine
 10
-158.4021029643013
 20
-285.6440990383348
 30
0.0
 11
-158.4299538103991
 21
-285.6080840479007
 31
0.0
  0
LINE
  5
90A9C
330
1E
100
AcDbEntity
  8
DETAIL
  6
CONTINUOUS
100
AcDbLine
 10
-158.4299538103991
 20
-285.6080840479007
 30
0.0
 11
-158.4728339712787
 21
-285.5448671072854
 31
0.0
  0
LINE
  5
90A9D
330
1E
100
AcDbEntity
  8
DETAIL
  6
CONTINUOUS
100
AcDbLine
 10
-158.4728339712787
 20
-285.5448671072854
 30
0.0
 11
-158.5115122540596
 21
-285.4768692829552
 31
0.0
  0
LINE
  5
90A9E
330
1E
100
AcDbEntity
  8
DETAIL
  6
CONTINUOUS
100
AcDbLine
 10
-158.5115122540596
 20
-285.4768692829552
 30
0.0
 11
-158.5455014271087
 21
-285.404199148461
 31
0.0
  0
LINE
  5
90A9F
330
1E
100
AcDbEntity
  8
DETAIL
  6
CONTINUOUS
100
AcDbLine
 10
-158.5455014271087
 20
-285.404199148461
 30
0.0
 11
-158.5743426538579
 21
-285.3269306014103
 31
0.0
  0
LINE
  5
90AA0
330
1E
100
AcDbEntity
  8
DETAIL
  6
CONTINUOUS
100
AcDbLine
 10
-158.5743426538579
 20
-285.3269306014103
 30
0.0
 11
-158.5975475152558
 21
-285.2452874095838
 31
0.0
  0
LINE
  5
90AA1
330
1E
100
AcDbEntity
  8
DETAIL
  6
CONTINUOUS
100
AcDbLine
 10
-158.8049263651505
 20
-285.8171454553176
 30
0.0
 11
-158.8043422087707
 21
-285.8192158903252
 31
0.0
  0
LINE
  5
90AA2
330
1E
100
AcDbEntity
  8
DETAIL
  6
CONTINUOUS
100
AcDbLine
 10
-158.5975475152558
 20
-285.2452874095838
 30
0.0
 11
-158.614736064514
 21
-285.1591039240524
 31
0.0
  0
LINE
  5
90AA3
330
1E
100
AcDbEntity
  8
DETAIL
  6
CONTINUOUS
100
AcDbLine
 10
-158.6254461400681
 20
-285.0681850813116
 30
0.0
 11
-158.6291266955945
 21
-284.9729089890679
 31
0.0
  0
LINE
  5
90AA4
330
1E
100
AcDbEntity
  8
DETAIL
  6
CONTINUOUS
100
AcDbLine
 10
-158.6291266955945
 20
-284.9729089890679
 30
0.0
 11
-158.6291266955945
 21
-267.5704137137563
 31
0.0
  0
LINE
  5
90AA5
330
1E
100
AcDbEntity
  8
DETAIL
  6
CONTINUOUS
100
AcDbLine
 10
-183.6760373660513
 20
-302.7140451874938
 30
0.0
 11
-183.6416784157795
 21
-302.1954852806679
 31
0.0
  0
LINE
  5
90AA6
330
1E
100
AcDbEntity
  8
DETAIL
  6
CONTINUOUS
100
AcDbLine
 10
-183.6409351525294
 20
-302.1842677436107
 30
0.0
 11
-183.6115095601749
 21
-301.8806965183303
 31
0.0
  0
LINE
  5
90AA7
330
1E
100
AcDbEntity
  8
DETAIL
  6
CONTINUOUS
100
AcDbLine
 10
-158.614736064514
 20
-285.1591039240524
 30
0.0
 11
-158.6254461400681
 21
-285.0681850813116
 31
0.0
  0
LINE
  5
90AA8
330
1E
100
AcDbEntity
  8
DETAIL
  6
CONTINUOUS
100
AcDbLine
 10
-167.6614303068913
 20
-286.2477600241854
 30
0.0
 11
-166.4219253803116
 21
-284.1008745142275
 31
0.0
  0
LINE
  5
90AA9
330
1E
100
AcDbEntity
  8
DETAIL
  6
CONTINUOUS
100
AcDbLine
 10
-179.0433600334567
 20
-279.7429512614085
 30
0.0
 11
-179.0106681911206
 21
-279.6906333775641
 31
0.0
  0
LINE
  5
90AAA
330
1E
100
AcDbEntity
  8
DETAIL
  6
CONTINUOUS
100
AcDbLine
 10
-165.8406751247825
 20
-287.1325632821328
 30
0.0
 11
-164.2899687501671
 21
-284.6509143271692
 31
0.0
  0
LINE
  5
90AAB
330
1E
100
AcDbEntity
  8
DETAIL
  6
CONTINUOUS
100
AcDbLine
 10
-181.3636741673858
 20
-302.68980834497
 30
0.0
 11
-180.3608907619768
 21
-301.403313821077
 31
0.0
  0
LINE
  5
90AAC
330
1E
100
AcDbEntity
  8
DETAIL
  6
CONTINUOUS
100
AcDbLine
 10
-181.9193161694843
 20
-303.3446631037381
 30
0.0
 11
-181.3636741673858
 21
-302.68980834497
 31
0.0
  0
ARC
  5
90AAD
330
1E
100
AcDbEntity
  8
DETAIL
  6
CONTINUOUS
100
AcDbCircle
 10
-262.559589687899
 20
-254.4616676319747
 30
0.0
 40
94.95238125
100
AcDbArc
 50
333.3415385049797
 51
342.8613528496005
  0
ARC
  5
90AAE
330
1E
100
AcDbEntity
  8
DETAIL
  6
CONTINUOUS
100
AcDbCircle
 10
-260.7457358540964
 20
-255.5550267561998
 30
0.0
 40
89.95488750000001
100
AcDbArc
 50
333.8729683661987
 51
343.2590066683167
  0
ARC
  5
90AAF
330
1E
100
AcDbEntity
  8
DETAIL
  6
CONTINUOUS
100
AcDbCircle
 10
-204.5028264133293
 20
-283.6194751153536
 30
0.0
 40
29.9849625
100
AcDbArc
 50
323.6232720490069
 51
333.3328564596062
  0
ARC
  5
90AB0
330
1E
100
AcDbEntity
  8
DETAIL
  6
CONTINUOUS
100
AcDbCircle
 10
-154.6608074518285
 20
-256.2233361234652
 30
0.0
 40
29.9849625
100
AcDbArc
 50
257.571231041574
 51
265.2224321271071
  0
ARC
  5
90AB1
330
1E
100
AcDbEntity
  8
DETAIL
  6
CONTINUOUS
100
AcDbCircle
 10
-204.2114331461093
 20
-283.2839771893607
 30
0.0
 40
26.98646625
100
AcDbArc
 50
323.0403483243106
 51
333.8729683661987
  0
ARC
  5
90AB2
330
1E
100
AcDbEntity
  8
DETAIL
  6
CONTINUOUS
100
AcDbCircle
 10
-178.6543583170191
 20
-302.5144120104714
 30
0.0
 40
4.99749375
100
AcDbArc
 50
143.0403483243107
 51
172.7148998818011
  0
ARC
  5
90AB3
330
1E
100
AcDbEntity
  8
DETAIL
  6
CONTINUOUS
100
AcDbCircle
 10
-162.627121695596
 20
-267.5703604391396
 30
0.0
 40
3.997994999999998
100
AcDbArc
 50
359.9992365164994
 51
73.91774855227648
  0
ARC
  5
90AB4
330
1E
100
AcDbEntity
  8
DETAIL
  6
CONTINUOUS
100
AcDbCircle
 10
-182.6720957361635
 20
-302.6871529126704
 30
0.0
 40
0.9994987673246448
100
AcDbArc
 50
266.2089940240739
 51
318.8646331911949
  0
ARC
  5
90AB5
330
1E
100
AcDbEntity
  8
DETAIL
  6
CONTINUOUS
100
AcDbCircle
 10
-157.6296279455968
 20
-285.0105289039642
 30
0.0
 40
0.99949875
100
AcDbArc
 50
227.3489717294994
 51
260.3047125572964
  0
ARC
  5
90AB6
330
1E
100
AcDbEntity
  8
DETAIL
  6
CONTINUOUS
100
AcDbCircle
 10
-182.7784566027044
 20
-302.7735174540691
 30
0.0
 40
0.8995488750000001
100
AcDbArc
 50
176.2092141382014
 51
262.2092141436773
  0
ARC
  5
90AB7
330
1E
100
AcDbEntity
  8
DETAIL
  6
CONTINUOUS
100
AcDbCircle
 10
-167.2286346518399
 20
-286.4976347116846
 30
0.0
 40
0.4997493750000002
100
AcDbArc
 50
149.9999999999849
 51
249.0000000000146
  0
ARC
  5
90AB8
330
1E
100
AcDbEntity
  8
DETAIL
  6
CONTINUOUS
100
AcDbCircle
 10
-166.264486630735
 20
-286.8677364611471
 30
0.0
 40
0.4997493750000002
100
AcDbArc
 50
249.0000000000146
 51
327.99999999989
  0
ARC
  5
90AB9
330
1E
100
AcDbEntity
  8
DETAIL
  6
CONTINUOUS
100
AcDbCircle
 10
-186.6555114237148
 20
-275.9105641221717
 30
0.0
 40
0.4997493750000002
100
AcDbArc
 50
241.0000142140702
 51
328.0000007438953
  0
ARC
  5
90ABA
330
1E
100
AcDbEntity
  8
DETAIL
  6
CONTINUOUS
100
AcDbCircle
 10
-181.0656383674163
 20
-278.7496611391043
 30
0.0
 40
0.4997493750000002
100
AcDbArc
 50
156.9272102728894
 51
245.499985725586
  0
ARC
  5
90ABB
330
1E
100
AcDbEntity
  8
DETAIL
  6
CONTINUOUS
100
AcDbCircle
 10
-179.4671716540092
 20
-279.4781243884497
 30
0.0
 40
0.4997493750000002
100
AcDbArc
 50
245.500014348891
 51
328.0000018729061
  0
ARC
  5
90ABC
330
1E
100
AcDbEntity
  8
DETAIL
  6
CONTINUOUS
100
AcDbCircle
 10
-141.7537383660896
 20
-197.6588462664729
 30
0.0
 40
89.95488750000001
100
AcDbArc
 50
255.4593928673089
 51
257.571231041574
  0
ARC
  5
90ABD
330
1E
100
AcDbEntity
  8
DETAIL
  6
CONTINUOUS
100
AcDbCircle
 10
-141.7537383660896
 20
-197.6588462664729
 30
0.0
 40
89.95488750000001
100
AcDbArc
 50
251.2560636480794
 51
254.0629892396875
  0
LINE
  5
90ABE
330
1E
100
AcDbEntity
  8
DETAIL
  6
CONTINUOUS
100
AcDbLine
 10
-189.1120425526337
 20
-274.5461331315236
 30
0.0
 11
-188.5914425355917
 21
-274.85050798978
 31
0.0
  0
LINE
  5
90ABF
330
1E
100
AcDbEntity
  8
DETAIL
  6
CONTINUOUS
100
AcDbLine
 10
-189.2951899333061
 20
-274.4379750116381
 30
0.0
 11
-189.1120425526337
 21
-274.5461331315236
 31
0.0
  0
LINE
  5
90AC0
330
1E
100
AcDbEntity
  8
DETAIL
  6
CONTINUOUS
100
AcDbLine
 10
-189.1121490685423
 20
-274.5460720341643
 30
0.0
 11
-190.801946422182
 21
-273.5264540566511
 31
0.0
  0
LINE
  5
90AC1
330
1E
100
AcDbEntity
  8
DETAIL
  6
CONTINUOUS
100
AcDbLine
 10
-192.9874997201882
 20
-272.1335967764971
 30
0.0
 11
-191.0021732987866
 21
-273.4023750837605
 31
0.0
  0
LINE
  5
90AC2
330
1E
100
AcDbEntity
  8
DETAIL
  6
CONTINUOUS
100
AcDbLine
 10
-191.1835598558523
 20
-273.2838652645984
 30
0.0
 11
-193.5261914375464
 21
-271.7713514097145
 31
0.0
  0
LINE
  5
90AC3
330
1E
100
AcDbEntity
  8
DETAIL
  6
CONTINUOUS
100
AcDbLine
 10
-192.3616730624585
 20
-272.541184549334
 30
0.0
 11
-193.7926802890274
 21
-271.5986336239211
 31
0.0
  0
LINE
  5
90AC4
330
1E
100
AcDbEntity
  8
DETAIL
  6
CONTINUOUS
100
AcDbLine
 10
-195.3193005481994
 20
-270.5451152061923
 30
0.0
 11
-192.0048892740128
 21
-272.7648259008869
 31
0.0
  0
LINE
  5
90AC5
330
1E
100
AcDbEntity
  8
DETAIL
  6
CONTINUOUS
100
AcDbLine
 10
-195.0924376562493
 20
-270.7094290359145
 30
0.0
 11
-192.9874997201882
 21
-272.1335967764971
 31
0.0
  0
LINE
  5
90AC6
330
1E
100
AcDbEntity
  8
DETAIL
  6
CONTINUOUS
100
AcDbLine
 10
-193.7926802890274
 20
-271.5986336239211
 30
0.0
 11
-195.1427868234045
 21
-270.6743350969063
 31
0.0
  0
LINE
  5
90AC7
330
1E
100
AcDbEntity
  8
DETAIL
  6
CONTINUOUS
100
AcDbLine
 10
-193.5261914375464
 20
-271.7713514097145
 30
0.0
 11
-195.8294814024579
 21
-270.1849445016296
 31
0.0
  0
LINE
  5
90AC8
330
1E
100
AcDbEntity
  8
DETAIL
  6
CONTINUOUS
100
AcDbLine
 10
-195.4846517936571
 20
-270.4347539191965
 30
0.0
 11
-195.7947113983359
 21
-270.2154944781095
 31
0.0
  0
LINE
  5
90AC9
330
1E
100
AcDbEntity
  8
DETAIL
  6
CONTINUOUS
100
AcDbLine
 10
-195.1427868234045
 20
-270.6743350969063
 30
0.0
 11
-196.4495899678336
 21
-269.7461741402362
 31
0.0
  0
LINE
  5
90ACA
330
1E
100
AcDbEntity
  8
DETAIL
  6
CONTINUOUS
100
AcDbLine
 10
-195.7947113983359
 20
-270.2154944781095
 30
0.0
 11
-196.0142329866216
 21
-270.0591190352743
 31
0.0
  0
LINE
  5
90ACB
330
1E
100
AcDbEntity
  8
DETAIL
  6
CONTINUOUS
100
AcDbLine
 10
-196.0142329866216
 20
-270.0591190352743
 30
0.0
 11
-196.270677474024
 21
-269.8752363606883
 31
0.0
  0
LINE
  5
90ACC
330
1E
100
AcDbEntity
  8
DETAIL
  6
CONTINUOUS
100
AcDbLine
 10
-195.4815233359117
 20
-270.4303916442174
 30
0.0
 11
-195.0924376562493
 21
-270.7094290359145
 31
0.0
  0
LINE
  5
90ACD
330
1E
100
AcDbEntity
  8
DETAIL
  6
CONTINUOUS
100
AcDbLine
 10
-196.270677474024
 20
-269.8752363606883
 30
0.0
 11
-196.5458530331038
 21
-269.6764684643972
 31
0.0
  0
LINE
  5
90ACE
330
1E
100
AcDbEntity
  8
DETAIL
  6
CONTINUOUS
100
AcDbLine
 10
-198.5458553771664
 20
-268.1794621378003
 30
0.0
 11
-195.3193005481994
 21
-270.5451152061923
 31
0.0
  0
LINE
  5
90ACF
330
1E
100
AcDbEntity
  8
DETAIL
  6
CONTINUOUS
100
AcDbLine
 10
-195.8294814024579
 20
-270.1849445016296
 30
0.0
 11
-198.091212785061
 21
-268.5256887100297
 31
0.0
  0
LINE
  5
90AD0
330
1E
100
AcDbEntity
  8
DETAIL
  6
CONTINUOUS
100
AcDbLine
 10
-196.4495899678336
 20
-269.7461741402362
 30
0.0
 11
-197.7341976886205
 21
-268.8005335456312
 31
0.0
  0
LINE
  5
90AD1
330
1E
100
AcDbEntity
  8
DETAIL
  6
CONTINUOUS
100
AcDbLine
 10
-196.9323328569412
 20
-270.0121008749474
 30
0.0
 11
-197.87939524918
 21
-269.3146646734985
 31
0.0
  0
LINE
  5
90AD2
330
1E
100
AcDbEntity
  8
DETAIL
  6
CONTINUOUS
100
AcDbLine
 10
-197.87939524918
 20
-269.3146646734985
 30
0.0
 11
-198.818457918624
 21
-268.6049968595484
 31
0.0
  0
LINE
  5
90AD3
330
1E
100
AcDbEntity
  8
DETAIL
  6
CONTINUOUS
100
AcDbLine
 10
-196.5458530331038
 20
-269.6764684643972
 30
0.0
 11
-199.8730286592749
 21
-267.1497031233634
 31
0.0
  0
LINE
  5
90AD4
330
1E
100
AcDbEntity
  8
DETAIL
  6
CONTINUOUS
100
AcDbLine
 10
-197.7341976886205
 20
-268.8005335456312
 30
0.0
 11
-199.0307036370945
 21
-267.8115129195045
 31
0.0
  0
LINE
  5
90AD5
330
1E
100
AcDbEntity
  8
DETAIL
  6
CONTINUOUS
100
AcDbLine
 10
-198.818457918624
 20
-268.6049968595484
 30
0.0
 11
-199.7494128194507
 21
-267.8831651764667
 31
0.0
  0
LINE
  5
90AD6
330
1E
100
AcDbEntity
  8
DETAIL
  6
CONTINUOUS
100
AcDbLine
 10
-198.091212785061
 20
-268.5256887100297
 30
0.0
 11
-200.3094716411874
 21
-266.7944562988004
 31
0.0
  0
LINE
  5
90AD7
330
1E
100
AcDbEntity
  8
DETAIL
  6
CONTINUOUS
100
AcDbLine
 10
-199.0307036370945
 20
-267.8115129195045
 30
0.0
 11
-200.3298411311957
 21
-266.7842816693926
 31
0.0
  0
LINE
  5
90AD8
330
1E
100
AcDbEntity
  8
DETAIL
  6
CONTINUOUS
100
AcDbLine
 10
-199.7494128194507
 20
-267.8831651764667
 30
0.0
 11
-200.6720884523478
 21
-267.1492877250191
 31
0.0
  0
LINE
  5
90AD9
330
1E
100
AcDbEntity
  8
DETAIL
  6
CONTINUOUS
100
AcDbLine
 10
-201.6782321099185
 20
-265.6718919596987
 30
0.0
 11
-198.5458553771664
 21
-268.1794621378003
 31
0.0
  0
LINE
  5
90ADA
330
1E
100
AcDbEntity
  8
DETAIL
  6
CONTINUOUS
100
AcDbLine
 10
-200.6720884523478
 20
-267.1492877250191
 30
0.0
 11
-201.5863304587333
 21
-266.4034727682469
 31
0.0
  0
LINE
  5
90ADB
330
1E
100
AcDbEntity
  8
DETAIL
  6
CONTINUOUS
100
AcDbLine
 10
-200.3298411311957
 20
-266.7842816693926
 30
0.0
 11
-201.6370665811578
 21
-265.7126165109443
 31
0.0
  0
LINE
  5
90ADC
330
1E
100
AcDbEntity
  8
DETAIL
  6
CONTINUOUS
100
AcDbLine
 10
-200.3094716411874
 20
-266.7944562988004
 30
0.0
 11
-202.4817949567191
 21
-264.9926474924002
 31
0.0
  0
LINE
  5
90ADD
330
1E
100
AcDbEntity
  8
DETAIL
  6
CONTINUOUS
100
AcDbLine
 10
-199.8730286592749
 20
-267.1497031233634
 30
0.0
 11
-199.9781352535105
 21
-267.062376381845
 31
0.0
  0
LINE
  5
90ADE
330
1E
100
AcDbEntity
  8
DETAIL
  6
CONTINUOUS
100
AcDbLine
 10
-200.9515461999094
 20
-266.2536278330212
 30
0.0
 11
-203.0332260705913
 21
-264.5240853609545
 31
0.0
  0
LINE
  5
90ADF
330
1E
100
AcDbEntity
  8
DETAIL
  6
CONTINUOUS
100
AcDbLine
 10
-201.5863304587333
 20
-266.4034727682469
 30
0.0
 11
-202.4919824570065
 21
-265.6458332748316
 31
0.0
  0
LINE
  5
90AE0
330
1E
100
AcDbEntity
  8
DETAIL
  6
CONTINUOUS
100
AcDbLine
 10
-201.6370665811578
 20
-265.7126165109443
 30
0.0
 11
-202.9411829876557
 21
-264.6038787897741
 31
0.0
  0
LINE
  5
90AE1
330
1E
100
AcDbEntity
  8
DETAIL
  6
CONTINUOUS
100
AcDbLine
 10
-202.4919824570065
 20
-265.6458332748316
 30
0.0
 11
-203.3888936268199
 21
-264.876480595592
 31
0.0
  0
LINE
  5
90AE2
330
1E
100
AcDbEntity
  8
DETAIL
  6
CONTINUOUS
100
AcDbLine
 10
-204.711178228596
 20
-263.0259395658026
 30
0.0
 11
-201.6782321099185
 21
-265.6718919596987
 31
0.0
  0
LINE
  5
90AE3
330
1E
100
AcDbEntity
  8
DETAIL
  6
CONTINUOUS
100
AcDbLine
 10
-203.3888936268199
 20
-264.876480595592
 30
0.0
 11
-204.2768966987137
 21
-264.0955435072846
 31
0.0
  0
LINE
  5
90AE4
330
1E
100
AcDbEntity
  8
DETAIL
  6
CONTINUOUS
100
AcDbLine
 10
-202.4817949567191
 20
-264.9926474924002
 30
0.0
 11
-204.60630351808
 21
-263.1212540707781
 31
0.0
  0
LINE
  5
90AE5
330
1E
100
AcDbEntity
  8
DETAIL
  6
CONTINUOUS
100
AcDbLine
 10
-202.9411829876557
 20
-264.6038787897741
 30
0.0
 11
-204.239125282475
 21
-263.4593534041639
 31
0.0
  0
LINE
  5
90AE6
330
1E
100
AcDbEntity
  8
DETAIL
  6
CONTINUOUS
100
AcDbLine
 10
-204.2768966987137
 20
-264.0955435072846
 30
0.0
 11
-205.1558440120975
 21
-263.3031371921433
 31
0.0
  0
LINE
  5
90AE7
330
1E
100
AcDbEntity
  8
DETAIL
  6
CONTINUOUS
100
AcDbLine
 10
-203.0332260705913
 20
-264.5240853609545
 30
0.0
 11
-206.0453185087394
 21
-261.7948934264695
 31
0.0
  0
LINE
  5
90AE8
330
1E
100
AcDbEntity
  8
DETAIL
  6
CONTINUOUS
100
AcDbLine
 10
-204.239125282475
 20
-263.4593534041639
 30
0.0
 11
-205.5139541980156
 21
-262.2935071603297
 31
0.0
  0
LINE
  5
90AE9
330
1E
100
AcDbEntity
  8
DETAIL
  6
CONTINUOUS
100
AcDbLine
 10
-205.1558440120975
 20
-263.3031371921433
 30
0.0
 11
-206.025532426162
 21
-262.4994313757174
 31
0.0
  0
LINE
  5
90AEA
330
1E
100
AcDbEntity
  8
DETAIL
  6
CONTINUOUS
100
AcDbLine
 10
-204.60630351808
 20
-263.1212540707781
 30
0.0
 11
-206.6795744711712
 21
-261.1828110706148
 31
0.0
  0
LINE
  5
90AEB
330
1E
100
AcDbEntity
  8
DETAIL
  6
CONTINUOUS
100
AcDbLine
 10
-206.025532426162
 20
-262.4994313757174
 30
0.0
 11
-206.885782616177
 21
-261.6845808150628
 31
0.0
  0
LINE
  5
90AEC
330
1E
100
AcDbEntity
  8
DETAIL
  6
CONTINUOUS
100
AcDbLine
 10
-205.5139541980156
 20
-262.2935071603297
 30
0.0
 11
-206.7480731976306
 21
-261.1236275992055
 31
0.0
  0
LINE
  5
90AED
330
1E
100
AcDbEntity
  8
DETAIL
  6
CONTINUOUS
100
AcDbLine
 10
-207.6366040835096
 20
-260.248120899022
 30
0.0
 11
-204.711178228596
 21
-263.0259395658026
 31
0.0
  0
LINE
  5
90AEE
330
1E
100
AcDbEntity
  8
DETAIL
  6
CONTINUOUS
100
AcDbLine
 10
-206.885782616177
 20
-261.6845808150628
 30
0.0
 11
-207.7363902939219
 21
-260.8587701082713
 31
0.0
  0
LINE
  5
90AEF
330
1E
100
AcDbEntity
  8
DETAIL
  6
CONTINUOUS
100
AcDbLine
 10
-206.7480731976306
 20
-261.1236275992055
 30
0.0
 11
-207.94555532403
 21
-259.9477483749253
 31
0.0
  0
LINE
  5
90AF0
330
1E
100
AcDbEntity
  8
DETAIL
  6
CONTINUOUS
100
AcDbLine
 10
-206.0453185087394
 20
-261.7948934264695
 30
0.0
 11
-207.0447710792381
 21
-260.8100919924115
 31
0.0
  0
LINE
  5
90AF1
330
1E
100
AcDbEntity
  8
DETAIL
  6
CONTINUOUS
100
AcDbLine
 10
-208.0819873072073
 20
-259.7880804859241
 30
0.0
 11
-208.8606346438268
 21
-259.0208474663404
 31
0.0
  0
LINE
  5
90AF2
330
1E
100
AcDbEntity
  8
DETAIL
  6
CONTINUOUS
100
AcDbLine
 10
-206.6795744711712
 20
-261.1828110706148
 30
0.0
 11
-208.6988597887998
 21
-259.1794667225629
 31
0.0
  0
LINE
  5
90AF3
330
1E
100
AcDbEntity
  8
DETAIL
  6
CONTINUOUS
100
AcDbLine
 10
-207.7363902939219
 20
-260.8587701082713
 30
0.0
 11
-208.5771491815071
 21
-260.0221895039285
 31
0.0
  0
LINE
  5
90AF4
330
1E
100
AcDbEntity
  8
DETAIL
  6
CONTINUOUS
100
AcDbLine
 10
-207.94555532403
 20
-259.9477483749253
 30
0.0
 11
-209.1120854035839
 21
-258.7616996919714
 31
0.0
  0
LINE
  5
90AF5
330
1E
100
AcDbEntity
  8
DETAIL
  6
CONTINUOUS
100
AcDbLine
 10
-208.5771491815071
 20
-260.0221895039285
 30
0.0
 11
-209.4078944935904
 21
-259.1749930434527
 31
0.0
  0
ARC
  5
90AF6
330
1E
100
AcDbEntity
  8
DETAIL
  6
CONTINUOUS
100
AcDbCircle
 10
-196.3446549395598
 20
-269.20362550779
 30
0.0
 40
0.99949875
100
AcDbArc
 50
233.9867279610705
 51
294.1713755657255
  0
LINE
  5
90AF7
330
1E
100
AcDbEntity
  8
DETAIL
  6
CONTINUOUS
100
AcDbLine
 10
-188.8032473978223
 20
-274.7218858846108
 30
0.0
 11
-191.1835598558523
 21
-273.2838652645984
 31
0.0
  0
LINE
  5
90AF8
330
1E
100
AcDbEntity
  8
DETAIL
  6
CONTINUOUS
100
AcDbLine
 10
-191.0021732987866
 20
-273.4023750837605
 30
0.0
 11
-189.2939748613212
 21
-274.4359668827182
 31
0.0
  0
LINE
  5
90AF9
330
1E
100
AcDbEntity
  8
DETAIL
  6
CONTINUOUS
100
AcDbLine
 10
-192.0048892740128
 20
-272.7648259008869
 30
0.0
 11
-188.6078424616666
 21
-274.8356688596243
 31
0.0
  0
LINE
  5
90AFA
330
1E
100
AcDbEntity
  8
DETAIL
  6
CONTINUOUS
100
AcDbLine
 10
-190.801946422182
 20
-273.5264540566511
 30
0.0
 11
-192.3616730624585
 21
-272.541184549334
 31
0.0
  0
LINE
  5
90AFB
330
1E
100
AcDbEntity
  8
DETAIL
  6
CONTINUOUS
100
AcDbLine
 10
-188.6078424616666
 20
-274.8356688596243
 30
0.0
 11
-185.1338522418886
 21
-276.7546728231609
 31
0.0
  0
LINE
  5
90AFC
330
1E
100
AcDbEntity
  8
DETAIL
  6
CONTINUOUS
100
AcDbLine
 10
-186.3871858213665
 20
-276.0846571009671
 30
0.0
 11
-188.8032473978223
 21
-274.7218858846108
 31
0.0
  0
LINE
  5
90AFD
330
1E
100
AcDbEntity
  8
DETAIL
  6
CONTINUOUS
100
AcDbLine
 10
-187.2555208128401
 20
-275.6110467945231
 30
0.0
 11
-189.1121490685423
 21
-274.5460720341643
 31
0.0
  0
LINE
  5
90AFE
330
1E
100
AcDbEntity
  8
DETAIL
  6
CONTINUOUS
100
AcDbLine
 10
-188.5914425355917
 20
-274.85050798978
 30
0.0
 11
-188.1502934577934
 21
-275.1048984126341
 31
0.0
  0
ARC
  5
90AFF
330
1E
100
AcDbEntity
  8
DETAIL
  6
CONTINUOUS
100
AcDbCircle
 10
-188.1797221579222
 20
-275.0656803152296
 30
0.0
 40
0.4997493750000002
100
AcDbArc
 50
152.2279491699989
 51
240.9999999999701
  0
LINE
  5
90B00
330
1E
100
AcDbEntity
  8
DETAIL
  6
CONTINUOUS
100
AcDbLine
 10
-210.4473598149675
 20
-257.3448655429174
 30
0.0
 11
-207.6366040835096
 21
-260.248120899022
 31
0.0
  0
LINE
  5
90B01
330
1E
100
AcDbEntity
  8
DETAIL
  6
CONTINUOUS
100
AcDbLine
 10
-209.4078944935904
 20
-259.1749930434527
 30
0.0
 11
-210.2284497773221
 21
-258.3173521422154
 31
0.0
  0
LINE
  5
90B02
330
1E
100
AcDbEntity
  8
DETAIL
  6
CONTINUOUS
100
AcDbLine
 10
-209.1120854035839
 20
-258.7616996919714
 30
0.0
 11
-210.2259601005612
 21
-257.5898516740353
 31
0.0
  0
LINE
  5
90B03
330
1E
100
AcDbEntity
  8
DETAIL
  6
CONTINUOUS
100
AcDbLine
 10
-208.6988597887998
 20
-259.1794667225629
 30
0.0
 11
-210.6608388269492
 21
-257.114127834196
 31
0.0
  0
LINE
  5
90B04
330
1E
100
AcDbEntity
  8
DETAIL
  6
CONTINUOUS
100
AcDbLine
 10
-208.8606346438268
 20
-259.0208474663404
 30
0.0
 11
-211.4388742277847
 21
-256.267647638512
 31
0.0
  0
LINE
  5
90B1E
330
1E
100
AcDbEntity
  8
DETAIL
  6
CONTINUOUS
100
AcDbLine
 10
-136.3532961606256
 20
-287.8340517740207
 30
0.0
 11
-137.1844679601604
 21
-287.8043069404302
 31
0.0
  0
LINE
  5
90B1F
330
1E
100
AcDbEntity
  8
DETAIL
  6
CONTINUOUS
100
AcDbLine
 10
-137.8927798047848
 20
-287.7777361430546
 30
0.0
 11
-136.3532961606256
 21
-287.8340517740207
 31
0.0
  0
LINE
  5
90B20
330
1E
100
AcDbEntity
  8
DETAIL
  6
CONTINUOUS
100
AcDbLine
 10
-136.3572941263014
 20
-287.8370502702709
 30
0.0
 11
-138.6416934502326
 21
-287.7514452266527
 31
0.0
  0
LINE
  5
90B21
330
1E
100
AcDbEntity
  8
DETAIL
  6
CONTINUOUS
100
AcDbLine
 10
-137.1844679601604
 20
-287.8043069404302
 30
0.0
 11
-138.0194010040872
 21
-287.772858373261
 31
0.0
  0
LINE
  5
90B22
330
1E
100
AcDbEntity
  8
DETAIL
  6
CONTINUOUS
100
AcDbLine
 10
-138.0194010040872
 20
-287.772858373261
 30
0.0
 11
-138.8590332926692
 21
-287.739458424717
 31
0.0
  0
LINE
  5
90B23
330
1E
100
AcDbEntity
  8
DETAIL
  6
CONTINUOUS
100
AcDbLine
 10
-139.3985555894964
 20
-287.7169660713302
 30
0.0
 11
-137.8927798047848
 21
-287.7777361430546
 31
0.0
  0
LINE
  5
90B24
330
1E
100
AcDbEntity
  8
DETAIL
  6
CONTINUOUS
100
AcDbLine
 10
-138.8590332926692
 20
-287.739458424717
 30
0.0
 11
-139.700183029578
 21
-287.7040155860143
 31
0.0
  0
LINE
  5
90B25
330
1E
100
AcDbEntity
  8
DETAIL
  6
CONTINUOUS
100
AcDbLine
 10
-138.6416934502326
 20
-287.7514452266527
 30
0.0
 11
-140.8653960003416
 21
-287.6544391779848
 31
0.0
  0
LINE
  5
90B26
330
1E
100
AcDbEntity
  8
DETAIL
  6
CONTINUOUS
100
AcDbLine
 10
-139.700183029578
 20
-287.7040155860143
 30
0.0
 11
-140.5408321308991
 21
-287.6664042868003
 31
0.0
  0
LINE
  5
90B27
330
1E
100
AcDbEntity
  8
DETAIL
  6
CONTINUOUS
100
AcDbLine
 10
-140.8774581125039
 20
-287.6506816037483
 30
0.0
 11
-139.3985555894964
 21
-287.7169660713302
 31
0.0
  0
LINE
  5
90B28
330
1E
100
AcDbEntity
  8
DETAIL
  6
CONTINUOUS
100
AcDbLine
 10
-140.5408321308991
 20
-287.6664042868003
 30
0.0
 11
-141.3789290254885
 21
-287.6265141704141
 31
0.0
  0
LINE
  5
90B29
330
1E
100
AcDbEntity
  8
DETAIL
  6
CONTINUOUS
100
AcDbLine
 10
-142.3155374217535
 20
-287.5788354173749
 30
0.0
 11
-140.8774581125039
 21
-287.6506816037483
 31
0.0
  0
LINE
  5
90B2A
330
1E
100
AcDbEntity
  8
DETAIL
  6
CONTINUOUS
100
AcDbLine
 10
-141.3789290254885
 20
-287.6265141704141
 30
0.0
 11
-142.2110707092874
 21
-287.5843248484179
 31
0.0
  0
LINE
  5
90B2B
330
1E
100
AcDbEntity
  8
DETAIL
  6
CONTINUOUS
100
AcDbLine
 10
-140.8653960003416
 20
-287.6544391779848
 30
0.0
 11
-143.177554536322
 21
-287.5350203426951
 31
0.0
  0
LINE
  5
90B2C
330
1E
100
AcDbEntity
  8
DETAIL
  6
CONTINUOUS
100
AcDbLine
 10
-142.2110707092874
 20
-287.5843248484179
 30
0.0
 11
-143.0397623006433
 21
-287.5395297132388
 31
0.0
  0
LINE
  5
90B2D
330
1E
100
AcDbEntity
  8
DETAIL
  6
CONTINUOUS
100
AcDbLine
 10
-143.7046057167522
 20
-287.5014304773917
 30
0.0
 11
-142.3155374217535
 21
-287.5788354173749
 31
0.0
  0
LINE
  5
90B2E
330
1E
100
AcDbEntity
  8
DETAIL
  6
CONTINUOUS
100
AcDbLine
 10
-143.0397623006433
 20
-287.5395297132388
 30
0.0
 11
-143.862463632126
 21
-287.4920869884986
 31
0.0
  0
LINE
  5
90B2F
330
1E
100
AcDbEntity
  8
DETAIL
  6
CONTINUOUS
100
AcDbLine
 10
-143.177554536322
 20
-287.5350203426951
 30
0.0
 11
-145.5159472931231
 21
-287.3901069343034
 31
0.0
  0
LINE
  5
90B30
330
1E
100
AcDbEntity
  8
DETAIL
  6
CONTINUOUS
100
AcDbLine
 10
-145.0372578392166
 20
-287.4187470672373
 30
0.0
 11
-143.7046057167522
 21
-287.5014304773917
 31
0.0
  0
LINE
  5
90B31
330
1E
100
AcDbEntity
  8
DETAIL
  6
CONTINUOUS
100
AcDbLine
 10
-144.6907683388421
 20
-287.4410953661999
 30
0.0
 11
-145.5313991000243
 21
-287.3857863131013
 31
0.0
  0
LINE
  5
90B32
330
1E
100
AcDbEntity
  8
DETAIL
  6
CONTINUOUS
100
AcDbLine
 10
-146.3027747154269
 20
-287.3316575360893
 30
0.0
 11
-145.0372578392166
 21
-287.4187470672373
 31
0.0
  0
LINE
  5
90B33
330
1E
100
AcDbEntity
  8
DETAIL
  6
CONTINUOUS
100
AcDbLine
 10
-145.5313991000243
 20
-287.3857863131013
 30
0.0
 11
-146.3950237324156
 21
-287.324957796017
 31
0.0
  0
LINE
  5
90B34
330
1E
100
AcDbEntity
  8
DETAIL
  6
CONTINUOUS
100
AcDbLine
 10
-140.3819513378352
 20
-290.6269946666471
 30
0.0
 11
-140.2711927101031
 21
-287.6784681660801
 31
0.0
  0
LINE
  5
90B35
330
1E
100
AcDbEntity
  8
DETAIL
  6
CONTINUOUS
100
AcDbLine
 10
-138.2620954431554
 20
-290.4458552070004
 30
0.0
 11
-138.3191708131166
 21
-290.623751425137
 31
0.0
  0
LINE
  5
90B36
330
1E
100
AcDbEntity
  8
DETAIL
  6
CONTINUOUS
100
AcDbLine
 10
-138.3191708131166
 20
-290.623751425137
 30
0.0
 11
-138.4329774509246
 21
-290.974740018541
 31
0.0
  0
ARC
  5
90B37
330
1E
100
AcDbEntity
  8
DETAIL
  6
CONTINUOUS
100
AcDbCircle
 10
-223.9450031149303
 20
-263.053865175736
 30
0.0
 40
89.95488750000001
100
AcDbArc
 50
342.2714287550085
 51
344.0365650740017
  0
ARC
  5
90B38
330
1E
100
AcDbEntity
  8
DETAIL
  6
CONTINUOUS
100
AcDbCircle
 10
-139.3831110696069
 20
-290.6645080749524
 30
0.0
 40
0.99949875
100
AcDbArc
 50
275.8487493482894
 51
341.9174139419967
  0
ARC
  5
90B39
330
1E
100
AcDbEntity
  8
DETAIL
  6
CONTINUOUS
100
AcDbCircle
 10
-139.3831570185616
 20
-290.6645134362663
 30
0.0
 40
0.99949875
100
AcDbArc
 50
179.1557958478996
 51
272.6017675395061
  0
LINE
  5
90B3A
330
1E
100
AcDbEntity
  8
SIZE
  6
CONTINUOUS
100
AcDbLine
 10
40.00000000000045
 20
-249.0
 30
0.0
 11
142.7873766678508
 21
-249.0000000000002
 31
0.0
  0
LINE
  5
90B3B
330
1E
100
AcDbEntity
  8
SIZE
  6
CONTINUOUS
100
AcDbLine
 10
20.0
 20
-290.0
 30
0.0
 11
142.7873766678508
 21
-290.0000000000002
 31
0.0
  0
LINE
  5
90B3D
330
1E
100
AcDbEntity
  8
DETAIL
  6
CONTINUOUS
100
AcDbLine
 10
-26.12557740809143
 20
-284.0291982546348
 30
0.0
 11
-4.082083116182275
 21
-284.0291982546348
 31
0.0
  0
LINE
  5
90B3E
330
1E
100
AcDbEntity
  8
DETAIL
  6
CONTINUOUS
100
AcDbLine
 10
-9.499785654887546
 20
-282.7774182453681
 30
0.0
 11
-26.12557740809143
 21
-282.7774182453681
 31
0.0
  0
LINE
  5
90B3F
330
1E
100
AcDbEntity
  8
DETAIL
  6
CONTINUOUS
100
AcDbLine
 10
-67.14427737888809
 20
-290.0
 30
0.0
 11
0.0
 21
-290.0
 31
0.0
  0
LINE
  5
90B40
330
1E
100
AcDbEntity
  8
NOTE
  6
DASHDOT
 62
     4
100
AcDbLine
 10
20.00000000000045
 20
-249.0
 30
0.0
 11
-19.99999999999954
 21
-249.0
 31
0.0
  0
LINE
  5
90B41
330
1E
100
AcDbEntity
  8
NOTE
  6
DASHDOT
 62
     4
100
AcDbLine
 10
20.00000000000045
 20
-248.0000000002492
 30
0.0
 11
-19.99999999999954
 21
-248.0000000002492
 31
0.0
  0
LINE
  5
90B42
330
1E
100
AcDbEntity
  8
NOTE
  6
DASHDOT
 62
     4
100
AcDbLine
 10
20.00000000000045
 20
-248.0000000002492
 30
0.0
 11
-19.99999999999954
 21
-248.0000000002492
 31
0.0
  0
LINE
  5
90B4E
330
1E
100
AcDbEntity
  8
DETAIL
  6
CONTINUOUS
100
AcDbLine
 10
-46.13038579445538
 20
-248.0418855002244
 30
0.0
 11
-46.1096741387214
 21
-248.0381082678445
 31
0.0
  0
LINE
  5
90B4F
330
1E
100
AcDbEntity
  8
DETAIL
  6
CONTINUOUS
100
AcDbLine
 10
-46.1096741387214
 20
-248.0381082678445
 30
0.0
 11
-46.07781270527311
 21
-248.0345012181187
 31
0.0
  0
LINE
  5
90B50
330
1E
100
AcDbEntity
  8
DETAIL
  6
CONTINUOUS
100
AcDbLine
 10
-46.07781270527311
 20
-248.0345012181187
 30
0.0
 11
-46.03607581104779
 21
-248.0311832180987
 31
0.0
  0
LINE
  5
90B51
330
1E
100
AcDbEntity
  8
DETAIL
  6
CONTINUOUS
100
AcDbLine
 10
-46.03607581104779
 20
-248.0311832180987
 30
0.0
 11
-45.9851077969165
 21
-248.0282421010731
 31
0.0
  0
LINE
  5
90B52
330
1E
100
AcDbEntity
  8
DETAIL
  6
CONTINUOUS
100
AcDbLine
 10
-45.9851077969165
 20
-248.0282421010731
 30
0.0
 11
-45.92637382540715
 21
-248.0257313535485
 31
0.0
  0
LINE
  5
90B53
330
1E
100
AcDbEntity
  8
DETAIL
  6
CONTINUOUS
100
AcDbLine
 10
-45.92637382540715
 20
-248.0257313535485
 30
0.0
 11
-45.86098820573034
 21
-248.0237243560604
 31
0.0
  0
LINE
  5
90B54
330
1E
100
AcDbEntity
  8
DETAIL
  6
CONTINUOUS
100
AcDbLine
 10
-45.86098820573034
 20
-248.0237243560604
 30
0.0
 11
-45.79064784817137
 21
-248.0222492478326
 31
0.0
  0
LINE
  5
90B55
330
1E
100
AcDbEntity
  8
DETAIL
  6
CONTINUOUS
100
AcDbLine
 10
-45.79064784817137
 20
-248.0222492478326
 30
0.0
 11
-45.71767964183209
 21
-248.0213652045129
 31
0.0
  0
LINE
  5
90B56
330
1E
100
AcDbEntity
  8
DETAIL
  6
CONTINUOUS
100
AcDbLine
 10
-45.71767964183209
 20
-248.0213652045129
 30
0.0
 11
-45.39039835785342
 21
-248.0210525000018
 31
0.0
  0
LINE
  5
90B57
330
1E
100
AcDbEntity
  8
DETAIL
  6
CONTINUOUS
100
AcDbLine
 10
-46.0105134199589
 20
-247.9162894801331
 30
0.0
 11
-45.02062650294692
 21
-247.9162894801331
 31
0.0
  0
LINE
  5
90B58
330
1E
100
AcDbEntity
  8
DETAIL
  6
CONTINUOUS
100
AcDbLine
 10
-45.39039835785342
 20
-248.0210525000018
 30
0.0
 11
-45.31402667435076
 21
-248.0213652045129
 31
0.0
  0
LINE
  5
90B59
330
1E
100
AcDbEntity
  8
DETAIL
  6
CONTINUOUS
100
AcDbLine
 10
-45.31402667435076
 20
-248.0213652045129
 30
0.0
 11
-45.24105846934299
 21
-248.0222492478326
 31
0.0
  0
LINE
  5
90B5A
330
1E
100
AcDbEntity
  8
DETAIL
  6
CONTINUOUS
100
AcDbLine
 10
-45.24105846934299
 20
-248.0222492478326
 30
0.0
 11
-45.17071811046526
 21
-248.0237243560604
 31
0.0
  0
LINE
  5
90B5B
330
1E
100
AcDbEntity
  8
DETAIL
  6
CONTINUOUS
100
AcDbLine
 10
-45.17071811046526
 20
-248.0237243560604
 30
0.0
 11
-45.1053324907757
 21
-248.0257313535485
 31
0.0
  0
LINE
  5
90B5C
330
1E
100
AcDbEntity
  8
DETAIL
  6
CONTINUOUS
100
AcDbLine
 10
-45.1053324907757
 20
-248.0257313535485
 30
0.0
 11
-45.04659851927726
 21
-248.0282421010731
 31
0.0
  0
LINE
  5
90B5D
330
1E
100
AcDbEntity
  8
DETAIL
  6
CONTINUOUS
100
AcDbLine
 10
-45.04659851927726
 20
-248.0282421010731
 30
0.0
 11
-44.99563050513507
 21
-248.0311832180987
 31
0.0
  0
LINE
  5
90B5E
330
1E
100
AcDbEntity
  8
DETAIL
  6
CONTINUOUS
100
AcDbLine
 10
-44.99563050513507
 20
-248.0311832180987
 30
0.0
 11
-44.95389361090974
 21
-248.0345012181187
 31
0.0
  0
LINE
  5
90B5F
330
1E
100
AcDbEntity
  8
DETAIL
  6
CONTINUOUS
100
AcDbLine
 10
-44.95389361090974
 20
-248.0345012181187
 30
0.0
 11
-44.92203217745964
 21
-248.0381082678445
 31
0.0
  0
LINE
  5
90B60
330
1E
100
AcDbEntity
  8
DETAIL
  6
CONTINUOUS
100
AcDbLine
 10
-44.92203217745964
 20
-248.0381082678445
 30
0.0
 11
-44.90132052172566
 21
-248.0418855002244
 31
0.0
  0
LINE
  5
90B61
330
1E
100
AcDbEntity
  8
DETAIL
  6
CONTINUOUS
100
AcDbLine
 10
-44.90132052172566
 20
-248.0418855002244
 30
0.0
 11
-44.89133387137053
 21
-248.0458725367181
 31
0.0
  0
LINE
  5
90B62
330
1E
100
AcDbEntity
  8
DETAIL
  6
CONTINUOUS
100
AcDbLine
 10
-45.02062650294692
 20
-247.9162894801331
 30
0.0
 11
-44.89133387137053
 21
-248.0458725367181
 31
0.0
  0
LINE
  5
90B63
330
1E
100
AcDbEntity
  8
DETAIL
  6
CONTINUOUS
100
AcDbLine
 10
-46.14037244481051
 20
-248.0458725367181
 30
0.0
 11
-46.13038579445538
 21
-248.0418855002244
 31
0.0
  0
LINE
  5
90B64
330
1E
100
AcDbEntity
  8
DETAIL
  6
CONTINUOUS
100
AcDbLine
 10
-46.0105134199589
 20
-247.9162894801331
 30
0.0
 11
-46.14037244481051
 21
-248.0458725367181
 31
0.0
  0
LINE
  5
90B65
330
1E
100
AcDbEntity
  8
DETAIL
  6
CONTINUOUS
100
AcDbLine
 10
-68.58629620445981
 20
-242.2761309887196
 30
0.0
 11
-68.56394805475656
 21
-242.2712981683866
 31
0.0
  0
LINE
  5
90B66
330
1E
100
AcDbEntity
  8
DETAIL
  6
CONTINUOUS
100
AcDbLine
 10
-68.56394805475656
 20
-242.2712981683866
 30
0.0
 11
-68.5330168881087
 21
-242.2665975057745
 31
0.0
  0
LINE
  5
90B67
330
1E
100
AcDbEntity
  8
DETAIL
  6
CONTINUOUS
100
AcDbLine
 10
-68.5330168881087
 20
-242.2665975057745
 30
0.0
 11
-68.49366963014881
 21
-242.2620735731986
 31
0.0
  0
LINE
  5
90B68
330
1E
100
AcDbEntity
  8
DETAIL
  6
CONTINUOUS
100
AcDbLine
 10
-68.49366963014881
 20
-242.2620735731986
 30
0.0
 11
-68.44637468196061
 21
-242.2577644275754
 31
0.0
  0
LINE
  5
90B69
330
1E
100
AcDbEntity
  8
DETAIL
  6
CONTINUOUS
100
AcDbLine
 10
-68.44637468196061
 20
-242.2577644275754
 30
0.0
 11
-68.39145739771493
 21
-242.2537121011564
 31
0.0
  0
LINE
  5
90B6A
330
1E
100
AcDbEntity
  8
DETAIL
  6
CONTINUOUS
100
AcDbLine
 10
-68.39145739771493
 20
-242.2537121011564
 30
0.0
 11
-68.32951385582282
 21
-242.2499492482313
 31
0.0
  0
LINE
  5
90B6B
330
1E
100
AcDbEntity
  8
DETAIL
  6
CONTINUOUS
100
AcDbLine
 10
-68.32951385582282
 20
-242.2499492482313
 30
0.0
 11
-68.26101487348797
 21
-242.2465138257675
 31
0.0
  0
LINE
  5
90B6C
330
1E
100
AcDbEntity
  8
DETAIL
  6
CONTINUOUS
100
AcDbLine
 10
-68.26101487348797
 20
-242.2465138257675
 30
0.0
 11
-68.18666159643226
 21
-242.2434319539982
 31
0.0
  0
LINE
  5
90B6D
330
1E
100
AcDbEntity
  8
DETAIL
  6
CONTINUOUS
100
AcDbLine
 10
-68.18666159643226
 20
-242.2434319539982
 30
0.0
 11
-68.10705189014197
 21
-242.2407361632747
 31
0.0
  0
LINE
  5
90B6E
330
1E
100
AcDbEntity
  8
DETAIL
  6
CONTINUOUS
100
AcDbLine
 10
-68.10705189014197
 20
-242.2407361632747
 30
0.0
 11
-68.02296640179929
 21
-242.2384451748758
 31
0.0
  0
LINE
  5
90B6F
330
1E
100
AcDbEntity
  8
DETAIL
  6
CONTINUOUS
100
AcDbLine
 10
-68.02296640179929
 20
-242.2384451748758
 30
0.0
 11
-67.93510760043364
 21
-242.2365849784327
 31
0.0
  0
LINE
  5
90B70
330
1E
100
AcDbEntity
  8
DETAIL
  6
CONTINUOUS
100
AcDbLine
 10
-67.93510760043364
 20
-242.2365849784327
 30
0.0
 11
-67.84430787129031
 21
-242.2351662939049
 31
0.0
  0
LINE
  5
90B71
330
1E
100
AcDbEntity
  8
DETAIL
  6
CONTINUOUS
100
AcDbLine
 10
-67.84430787129031
 20
-242.2351662939049
 30
0.0
 11
-67.7517670753009
 21
-242.234210930354
 31
0.0
  0
LINE
  5
90B72
330
1E
100
AcDbEntity
  8
DETAIL
  6
CONTINUOUS
100
AcDbLine
 10
-67.7517670753009
 20
-242.234210930354
 30
0.0
 11
-67.10502615808991
 21
-242.2321953465068
 31
0.0
  0
LINE
  5
90B73
330
1E
100
AcDbEntity
  8
DETAIL
  6
CONTINUOUS
100
AcDbLine
 10
-68.59969789948308
 20
-242.2810315564126
 30
0.0
 11
-68.58629620445981
 21
-242.2761309887196
 31
0.0
  0
LINE
  5
90B74
330
1E
100
AcDbEntity
  8
DETAIL
  6
CONTINUOUS
100
AcDbLine
 10
-68.60427428309276
 20
-242.2860213406966
 30
0.0
 11
-68.59969789948308
 21
-242.2810315564126
 31
0.0
  0
LINE
  5
90B75
330
1E
100
AcDbEntity
  8
DETAIL
  6
CONTINUOUS
100
AcDbLine
 10
-44.90132052172566
 20
-263.9921994997798
 30
0.0
 11
-44.92203217745964
 21
-263.9959767321597
 31
0.0
  0
LINE
  5
90B76
330
1E
100
AcDbEntity
  8
DETAIL
  6
CONTINUOUS
100
AcDbLine
 10
-44.92203217745964
 20
-263.9959767321597
 30
0.0
 11
-44.95389361090974
 21
-263.9995837832188
 31
0.0
  0
LINE
  5
90B77
330
1E
100
AcDbEntity
  8
DETAIL
  6
CONTINUOUS
100
AcDbLine
 10
-44.95389361090974
 20
-263.9995837832188
 30
0.0
 11
-44.99563050513507
 21
-264.0029017819026
 31
0.0
  0
LINE
  5
90B78
330
1E
100
AcDbEntity
  8
DETAIL
  6
CONTINUOUS
100
AcDbLine
 10
-44.99563050513507
 20
-264.0029017819026
 30
0.0
 11
-45.04659851927726
 21
-264.0058428989286
 31
0.0
  0
LINE
  5
90B79
330
1E
100
AcDbEntity
  8
DETAIL
  6
CONTINUOUS
100
AcDbLine
 10
-36.11801221760697
 20
-281.2044110000019
 30
0.0
 11
-33.94267186578918
 21
-281.2044110000019
 31
0.0
  0
LINE
  5
90B7A
330
1E
100
AcDbEntity
  8
DETAIL
  6
CONTINUOUS
100
AcDbLine
 10
-34.38067133111553
 20
-281.0045112500006
 30
0.0
 11
-36.43830472780473
 21
-281.0045112500006
 31
0.0
  0
LINE
  5
90B7B
330
1E
100
AcDbEntity
  8
DETAIL
  6
CONTINUOUS
100
AcDbLine
 10
-45.04659851927726
 20
-264.0058428989286
 30
0.0
 11
-45.1053324907757
 21
-264.0083536477859
 31
0.0
  0
LINE
  5
90B7C
330
1E
100
AcDbEntity
  8
DETAIL
  6
CONTINUOUS
100
AcDbLine
 10
-45.1053324907757
 20
-264.0083536477859
 30
0.0
 11
-45.17071811046526
 21
-264.0103606452739
 31
0.0
  0
LINE
  5
90B7D
330
1E
100
AcDbEntity
  8
DETAIL
  6
CONTINUOUS
100
AcDbLine
 10
-45.17071811046526
 20
-264.0103606452739
 30
0.0
 11
-45.24105846934299
 21
-264.0118357535052
 31
0.0
  0
LINE
  5
90B7E
330
1E
100
AcDbEntity
  8
DETAIL
  6
CONTINUOUS
100
AcDbLine
 10
-45.24105846934299
 20
-264.0118357535052
 30
0.0
 11
-45.31402667435076
 21
-264.0127197968217
 31
0.0
  0
LINE
  5
90B7F
330
1E
100
AcDbEntity
  8
DETAIL
  6
CONTINUOUS
100
AcDbLine
 10
-45.31402667435076
 20
-264.0127197968217
 30
0.0
 11
-45.64130795967549
 21
-264.0130325000027
 31
0.0
  0
LINE
  5
90B80
330
1E
100
AcDbEntity
  8
DETAIL
  6
CONTINUOUS
100
AcDbLine
 10
-45.02062650294692
 20
-264.1177955198711
 30
0.0
 11
-46.0105134199589
 21
-264.1177955198711
 31
0.0
  0
LINE
  5
90B81
330
1E
100
AcDbEntity
  8
DETAIL
  6
CONTINUOUS
100
AcDbLine
 10
-45.64130795967549
 20
-264.0130325000027
 30
0.0
 11
-45.71767964183209
 21
-264.0127197968217
 31
0.0
  0
LINE
  5
90B82
330
1E
100
AcDbEntity
  8
DETAIL
  6
CONTINUOUS
100
AcDbLine
 10
-45.71767964183209
 20
-264.0127197968217
 30
0.0
 11
-45.79064784817137
 21
-264.0118357535052
 31
0.0
  0
LINE
  5
90B83
330
1E
100
AcDbEntity
  8
DETAIL
  6
CONTINUOUS
100
AcDbLine
 10
-45.79064784817137
 20
-264.0118357535052
 30
0.0
 11
-45.86098820573034
 21
-264.0103606452739
 31
0.0
  0
LINE
  5
90B84
330
1E
100
AcDbEntity
  8
DETAIL
  6
CONTINUOUS
100
AcDbLine
 10
-45.86098820573034
 20
-264.0103606452739
 30
0.0
 11
-45.92637382540715
 21
-264.0083536477859
 31
0.0
  0
LINE
  5
90B85
330
1E
100
AcDbEntity
  8
DETAIL
  6
CONTINUOUS
100
AcDbLine
 10
-45.92637382540715
 20
-264.0083536477859
 30
0.0
 11
-45.9851077969165
 21
-264.0058428989286
 31
0.0
  0
LINE
  5
90B86
330
1E
100
AcDbEntity
  8
DETAIL
  6
CONTINUOUS
100
AcDbLine
 10
-45.9851077969165
 20
-264.0058428989286
 30
0.0
 11
-46.03607581104779
 21
-264.0029017819026
 31
0.0
  0
LINE
  5
90B87
330
1E
100
AcDbEntity
  8
DETAIL
  6
CONTINUOUS
100
AcDbLine
 10
-46.03607581104779
 20
-264.0029017819026
 30
0.0
 11
-46.07781270527311
 21
-263.9995837832188
 31
0.0
  0
LINE
  5
90B88
330
1E
100
AcDbEntity
  8
DETAIL
  6
CONTINUOUS
100
AcDbLine
 10
-46.07781270527311
 20
-263.9995837832188
 30
0.0
 11
-46.1096741387214
 21
-263.9959767321597
 31
0.0
  0
LINE
  5
90B89
330
1E
100
AcDbEntity
  8
DETAIL
  6
CONTINUOUS
100
AcDbLine
 10
-46.1096741387214
 20
-263.9959767321597
 30
0.0
 11
-46.13038579445538
 21
-263.9921994997798
 31
0.0
  0
LINE
  5
90B8A
330
1E
100
AcDbEntity
  8
DETAIL
  6
CONTINUOUS
100
AcDbLine
 10
-46.13038579445538
 20
-263.9921994997798
 30
0.0
 11
-46.14037244481051
 21
-263.9882124632831
 31
0.0
  0
LINE
  5
90B8B
330
1E
100
AcDbEntity
  8
DETAIL
  6
CONTINUOUS
100
AcDbLine
 10
-46.14037244481051
 20
-263.9882124632831
 30
0.0
 11
-46.0105134199589
 21
-264.1177955198711
 31
0.0
  0
LINE
  5
90B8C
330
1E
100
AcDbEntity
  8
DETAIL
  6
CONTINUOUS
100
AcDbLine
 10
-26.10096076803211
 20
-284.0276090023144
 30
0.0
 11
-26.23034042795416
 21
-283.897968511866
 31
0.0
  0
LINE
  5
90B8D
330
1E
100
AcDbEntity
  8
DETAIL
  6
CONTINUOUS
100
AcDbLine
 10
-26.10096076803211
 20
-284.0276090023144
 30
0.0
 11
-26.10491874843728
 21
-284.017145161943
 31
0.0
  0
LINE
  5
90B8E
330
1E
100
AcDbEntity
  8
DETAIL
  6
CONTINUOUS
100
AcDbLine
 10
-29.07618208645044
 20
-282.6675419324903
 30
0.0
 11
-29.07303006186202
 21
-282.6835590385556
 31
0.0
  0
LINE
  5
90B8F
330
1E
100
AcDbEntity
  8
DETAIL
  6
CONTINUOUS
100
AcDbLine
 10
-26.11224730116055
 20
-283.9639965973549
 30
0.0
 11
-26.11553895038969
 21
-283.9221580314561
 31
0.0
  0
LINE
  5
90B90
330
1E
100
AcDbEntity
  8
DETAIL
  6
CONTINUOUS
100
AcDbLine
 10
-29.06438491474228
 20
-282.7556025113208
 30
0.0
 11
-29.06051490756226
 21
-282.8314938970215
 31
0.0
  0
LINE
  5
90B91
330
1E
100
AcDbEntity
  8
DETAIL
  6
CONTINUOUS
100
AcDbLine
 10
-44.89133387137053
 20
-263.9882124632831
 30
0.0
 11
-44.90132052172566
 21
-263.9921994997798
 31
0.0
  0
LINE
  5
90B92
330
1E
100
AcDbEntity
  8
DETAIL
  6
CONTINUOUS
100
AcDbLine
 10
-26.10491874843728
 20
-284.017145161943
 30
0.0
 11
-26.10866777229285
 21
-283.9960820544549
 31
0.0
  0
LINE
  5
90B93
330
1E
100
AcDbEntity
  8
DETAIL
  6
CONTINUOUS
100
AcDbLine
 10
-29.07303006186202
 20
-282.6835590385556
 30
0.0
 11
-29.06438491474228
 21
-282.7556025113208
 31
0.0
  0
LINE
  5
90B94
330
1E
100
AcDbEntity
  8
DETAIL
  6
CONTINUOUS
100
AcDbLine
 10
-26.10866777229285
 20
-283.9960820544549
 30
0.0
 11
-26.11224730116055
 21
-283.9639965973549
 31
0.0
  0
LINE
  5
90B95
330
1E
100
AcDbEntity
  8
DETAIL
  6
CONTINUOUS
100
AcDbLine
 10
-26.11553895038969
 20
-283.9221580314561
 30
0.0
 11
-26.11845479875455
 21
-283.8712126339751
 31
0.0
  0
LINE
  5
90B96
330
1E
100
AcDbEntity
  8
DETAIL
  6
CONTINUOUS
100
AcDbLine
 10
-26.11845479875455
 20
-283.8712126339751
 30
0.0
 11
-26.12094291629773
 21
-283.8126062038475
 31
0.0
  0
LINE
  5
90B97
330
1E
100
AcDbEntity
  8
DETAIL
  6
CONTINUOUS
100
AcDbLine
 10
-26.12094291629773
 20
-283.8126062038475
 30
0.0
 11
-26.1229312684668
 21
-283.7474424995352
 31
0.0
  0
LINE
  5
90B98
330
1E
100
AcDbEntity
  8
DETAIL
  6
CONTINUOUS
100
AcDbLine
 10
-26.1229312684668
 20
-283.7474424995352
 30
0.0
 11
-26.1243922664421
 21
-283.6773939156642
 31
0.0
  0
LINE
  5
90B99
330
1E
100
AcDbEntity
  8
DETAIL
  6
CONTINUOUS
100
AcDbLine
 10
-26.1243922664421
 20
-283.6773939156642
 30
0.0
 11
-26.12526786333228
 21
-283.6047558051075
 31
0.0
  0
LINE
  5
90B9A
330
1E
100
AcDbEntity
  8
DETAIL
  6
CONTINUOUS
100
AcDbLine
 10
-29.06051490756226
 20
-282.8314938970215
 30
0.0
 11
-29.05315438154366
 21
-283.6749267689415
 31
0.0
  0
LINE
  5
90B9B
330
1E
100
AcDbEntity
  8
DETAIL
  6
CONTINUOUS
100
AcDbLine
 10
-26.12526786333228
 20
-283.6047558051075
 30
0.0
 11
-26.12557740809143
 21
-283.2778534497574
 31
0.0
  0
LINE
  5
90B9C
330
1E
100
AcDbEntity
  8
DETAIL
  6
CONTINUOUS
100
AcDbLine
 10
-26.23034042795416
 20
-283.897968511866
 30
0.0
 11
-26.23034042795416
 21
-282.9080815948511
 31
0.0
  0
LINE
  5
90B9D
330
1E
100
AcDbEntity
  8
DETAIL
  6
CONTINUOUS
100
AcDbLine
 10
-26.12557740809143
 20
-283.277832060483
 30
0.0
 11
-26.12526455832312
 21
-283.2014632928594
 31
0.0
  0
LINE
  5
90B9E
330
1E
100
AcDbEntity
  8
DETAIL
  6
CONTINUOUS
100
AcDbLine
 10
-30.1927408266988
 20
-283.4742981231481
 30
0.0
 11
-30.18713115862783
 21
-282.8314938970215
 31
0.0
  0
LINE
  5
90B9F
330
1E
100
AcDbEntity
  8
DETAIL
  6
CONTINUOUS
100
AcDbLine
 10
-26.12526455832312
 20
-283.2014632928594
 30
0.0
 11
-26.12438040439383
 21
-283.1284979424154
 31
0.0
  0
LINE
  5
90BA0
330
1E
100
AcDbEntity
  8
DETAIL
  6
CONTINUOUS
100
AcDbLine
 10
-26.12438040439383
 20
-283.1284979424154
 30
0.0
 11
-26.12290522420016
 21
-283.0581603954606
 31
0.0
  0
LINE
  5
90BA1
330
1E
100
AcDbEntity
  8
DETAIL
  6
CONTINUOUS
100
AcDbLine
 10
-26.12290522420016
 20
-283.0581603954606
 30
0.0
 11
-26.12089818805952
 21
-282.9927774970726
 31
0.0
  0
LINE
  5
90BA2
330
1E
100
AcDbEntity
  8
DETAIL
  6
CONTINUOUS
100
AcDbLine
 10
-26.12089818805952
 20
-282.9927774970726
 30
0.0
 11
-26.11838743920861
 21
-282.9340461789106
 31
0.0
  0
LINE
  5
90BA3
330
1E
100
AcDbEntity
  8
DETAIL
  6
CONTINUOUS
100
AcDbLine
 10
-30.18713115862783
 20
-282.8314938970215
 30
0.0
 11
-30.18326115277023
 21
-282.7556025113208
 31
0.0
  0
LINE
  5
90BA4
330
1E
100
AcDbEntity
  8
DETAIL
  6
CONTINUOUS
100
AcDbLine
 10
-26.11838743920861
 20
-282.9340461789106
 30
0.0
 11
-26.11544635150176
 21
-282.8830805755633
 31
0.0
  0
LINE
  5
90BA5
330
1E
100
AcDbEntity
  8
DETAIL
  6
CONTINUOUS
100
AcDbLine
 10
-26.11544635150176
 20
-282.8830805755633
 30
0.0
 11
-26.11212841011774
 21
-282.8413457056585
 31
0.0
  0
LINE
  5
90BA6
330
1E
100
AcDbEntity
  8
DETAIL
  6
CONTINUOUS
100
AcDbLine
 10
-30.18326115277023
 20
-282.7556025113208
 30
0.0
 11
-30.17461600566321
 21
-282.6835590385556
 31
0.0
  0
LINE
  5
90BA7
330
1E
100
AcDbEntity
  8
DETAIL
  6
CONTINUOUS
100
AcDbLine
 10
-45.02062650294692
 20
-264.1177955198711
 30
0.0
 11
-44.89133387137053
 21
-263.9882124632831
 31
0.0
  0
LINE
  5
90BA8
330
1E
100
AcDbEntity
  8
DETAIL
  6
CONTINUOUS
100
AcDbLine
 10
-26.11212841011774
 20
-282.8413457056585
 30
0.0
 11
-26.10852143901911
 21
-282.8094858407585
 31
0.0
  0
LINE
  5
90BA9
330
1E
100
AcDbEntity
  8
DETAIL
  6
CONTINUOUS
100
AcDbLine
 10
-26.10852143901911
 20
-282.8094858407585
 30
0.0
 11
-26.10474429992473
 21
-282.7887751698563
 31
0.0
  0
LINE
  5
90BAA
330
1E
100
AcDbEntity
  8
DETAIL
  6
CONTINUOUS
100
AcDbLine
 10
-30.17461600566321
 20
-282.6835590385556
 30
0.0
 11
-30.16119571861463
 21
-282.6153634787231
 31
0.0
  0
LINE
  5
90BAB
330
1E
100
AcDbEntity
  8
DETAIL
  6
CONTINUOUS
100
AcDbLine
 10
-30.16119571861463
 20
-282.6153634787231
 30
0.0
 11
-30.14300029164814
 21
-282.5510158331569
 31
0.0
  0
LINE
  5
90BAC
330
1E
100
AcDbEntity
  8
DETAIL
  6
CONTINUOUS
100
AcDbLine
 10
-30.14300029164814
 20
-282.5510158331569
 30
0.0
 11
-30.11564815278006
 21
-282.4757890474929
 31
0.0
  0
LINE
  5
90BAD
330
1E
100
AcDbEntity
  8
DETAIL
  6
CONTINUOUS
100
AcDbLine
 10
-26.10474429992473
 20
-282.7887751698563
 30
0.0
 11
-26.10075737137276
 21
-282.7787889632843
 31
0.0
  0
LINE
  5
90BAE
330
1E
100
AcDbEntity
  8
DETAIL
  6
CONTINUOUS
100
AcDbLine
 10
-26.23034042795416
 20
-282.9080815948511
 30
0.0
 11
-26.10075737137276
 21
-282.7787889632843
 31
0.0
  0
ARC
  5
90BAF
330
1E
100
AcDbEntity
  8
DETAIL
  6
CONTINUOUS
100
AcDbCircle
 10
-26.12557740809143
 20
-264.0130325000027
 30
0.0
 40
20.01616575463379
100
AcDbArc
 50
180.0
 51
270.0
  0
ARC
  5
90BB0
330
1E
100
AcDbEntity
  8
DETAIL
  6
CONTINUOUS
100
AcDbCircle
 10
-26.12557740809143
 20
-264.0130325000027
 30
0.0
 40
19.8852119801321
100
AcDbArc
 50
180.3018578155046
 51
269.6981421845084
  0
ARC
  5
90BB1
330
1E
100
AcDbEntity
  8
DETAIL
  6
CONTINUOUS
100
AcDbCircle
 10
-26.12557740809143
 20
-264.0130325000027
 30
0.0
 40
18.89533951986788
100
AcDbArc
 50
180.3176714357972
 51
269.6823285641767
  0
ARC
  5
90BB2
330
1E
100
AcDbEntity
  8
DETAIL
  6
CONTINUOUS
100
AcDbCircle
 10
-26.12557740809143
 20
-264.0130325000027
 30
0.0
 40
18.76438574536619
100
AcDbArc
 50
180.0
 51
270.0
  0
LINE
  5
90BB3
330
1E
100
AcDbEntity
  8
DETAIL
  6
CONTINUOUS
100
AcDbLine
 10
-67.1227914407832
 20
-288.5230605245173
 30
0.0
 11
-67.65708525569653
 21
-288.5510616765673
 31
0.0
  0
LINE
  5
90BB4
330
1E
100
AcDbEntity
  8
DETAIL
  6
CONTINUOUS
100
AcDbLine
 10
-67.14008210282054
 20
-289.3992807468675
 30
0.0
 11
-67.1573611187
 21
-289.3992807468675
 31
0.0
  0
LINE
  5
90BB5
330
1E
100
AcDbEntity
  8
DETAIL
  6
CONTINUOUS
100
AcDbLine
 10
-67.1573611187
 20
-290.0
 30
0.0
 11
-67.1573611187
 21
-289.3992807468675
 31
0.0
  0
LINE
  5
90BB6
330
1E
100
AcDbEntity
  8
DETAIL
  6
CONTINUOUS
100
AcDbLine
 10
-67.14863862504398
 20
-290.0
 30
0.0
 11
-67.14863862504398
 21
-289.5002506250012
 31
0.0
  0
LINE
  5
90BB7
330
1E
100
AcDbEntity
  8
DETAIL
  6
CONTINUOUS
100
AcDbLine
 10
-67.1032978715034
 20
-286.7126329990796
 30
0.0
 11
-67.10132692259185
 21
-285.8699476855945
 31
0.0
  0
LINE
  5
90BB8
330
1E
100
AcDbEntity
  8
DETAIL
  6
CONTINUOUS
100
AcDbLine
 10
-67.10650354784092
 20
-287.5003942210764
 30
0.0
 11
-67.1032978715034
 21
-286.7126329990796
 31
0.0
  0
LINE
  5
90BB9
330
1E
100
AcDbEntity
  8
DETAIL
  6
CONTINUOUS
100
AcDbLine
 10
-67.11087486229416
 20
-288.2157306082249
 30
0.0
 11
-67.10650354784092
 21
-287.5003942210764
 31
0.0
  0
LINE
  5
90BBA
330
1E
100
AcDbEntity
  8
DETAIL
  6
CONTINUOUS
100
AcDbLine
 10
-67.11623530868246
 20
-288.8299894219171
 30
0.0
 11
-67.11087486229416
 21
-288.2157306082249
 31
0.0
  0
LINE
  5
90BBB
330
1E
100
AcDbEntity
  8
DETAIL
  6
CONTINUOUS
100
AcDbLine
 10
-67.12247795666235
 20
-289.3309133132297
 30
0.0
 11
-67.11623530868246
 21
-288.8299894219171
 31
0.0
  0
LINE
  5
90BBC
330
1E
100
AcDbEntity
  8
DETAIL
  6
CONTINUOUS
100
AcDbLine
 10
-67.12584589429616
 20
-289.531782766257
 30
0.0
 11
-67.12247795666235
 21
-289.3309133132297
 31
0.0
  0
LINE
  5
90BBD
330
1E
100
AcDbEntity
  8
DETAIL
  6
CONTINUOUS
100
AcDbLine
 10
-67.13371402441453
 20
-289.1985202925122
 30
0.0
 11
-67.13020715911852
 21
-289.0320344827078
 31
0.0
  0
LINE
  5
90BBE
330
1E
100
AcDbEntity
  8
DETAIL
  6
CONTINUOUS
100
AcDbLine
 10
-67.12935278092527
 20
-289.6982698221022
 30
0.0
 11
-67.12584589429616
 21
-289.531782766257
 31
0.0
  0
LINE
  5
90BBF
330
1E
100
AcDbEntity
  8
DETAIL
  6
CONTINUOUS
100
AcDbLine
 10
-67.13734767414507
 20
-289.3296708829773
 30
0.0
 11
-67.13371402441453
 21
-289.1985202925122
 31
0.0
  0
LINE
  5
90BC0
330
1E
100
AcDbEntity
  8
DETAIL
  6
CONTINUOUS
100
AcDbLine
 10
-67.13298642397649
 20
-289.8294203752511
 30
0.0
 11
-67.12935278092527
 21
-289.6982698221022
 31
0.0
  0
LINE
  5
90BC1
330
1E
100
AcDbEntity
  8
DETAIL
  6
CONTINUOUS
100
AcDbLine
 10
-67.14106827092701
 20
-289.4243854514927
 30
0.0
 11
-67.13734767414507
 21
-289.3296708829773
 31
0.0
  0
LINE
  5
90BC2
330
1E
100
AcDbEntity
  8
DETAIL
  6
CONTINUOUS
100
AcDbLine
 10
-67.1367070101046
 20
-289.9241345452983
 30
0.0
 11
-67.13298642397649
 21
-289.8294203752511
 31
0.0
  0
LINE
  5
90BC3
330
1E
100
AcDbEntity
  8
DETAIL
  6
CONTINUOUS
100
AcDbLine
 10
-67.14482643420024
 20
-289.4810680370942
 30
0.0
 11
-67.14106827092701
 21
-289.4243854514927
 31
0.0
  0
LINE
  5
90BC4
330
1E
100
AcDbEntity
  8
DETAIL
  6
CONTINUOUS
100
AcDbLine
 10
-67.14046517737779
 20
-289.9808171815457
 30
0.0
 11
-67.1367070101046
 21
-289.9241345452983
 31
0.0
  0
LINE
  5
90BC5
330
1E
100
AcDbEntity
  8
DETAIL
  6
CONTINUOUS
100
AcDbLine
 10
-67.14863862504398
 20
-289.5002506250012
 30
0.0
 11
-67.14482643420024
 21
-289.4810680370942
 31
0.0
  0
LINE
  5
90BC6
330
1E
100
AcDbEntity
  8
DETAIL
  6
CONTINUOUS
100
AcDbLine
 10
-67.14427737888809
 20
-290.0
 30
0.0
 11
-67.14046517737779
 21
-289.9808171815457
 31
0.0
  0
ARC
  5
90BC7
330
1E
100
AcDbEntity
  8
DETAIL
  6
CONTINUOUS
100
AcDbCircle
 10
-67.6047755330951
 20
-289.5491850976313
 30
0.0
 40
0.9994976412227199
100
AcDbArc
 50
93.00001665171489
 51
180.0
  0
LINE
  5
90BC8
330
1E
100
AcDbEntity
  8
DETAIL
  6
CONTINUOUS
100
AcDbLine
 10
-46.14174316272374
 20
-248.0210525000018
 30
0.0
 11
-46.14174316272374
 21
-264.0130325000027
 31
0.0
  0
LINE
  5
90BC9
330
1E
100
AcDbEntity
  8
DETAIL
  6
CONTINUOUS
100
AcDbLine
 10
-44.8899631534573
 20
-264.0130325000027
 30
0.0
 11
-44.8899631534573
 21
-248.0210525000018
 31
0.0
  0
LINE
  5
90BCA
330
1E
100
AcDbEntity
  8
DETAIL
  6
CONTINUOUS
100
AcDbLine
 10
-1.411625892819301
 20
-253.1933323292073
 30
0.0
 11
-2.646540486783578
 21
-251.9584177339126
 31
0.0
  0
LINE
  5
90BCB
330
1E
100
AcDbEntity
  8
DETAIL
  6
CONTINUOUS
100
AcDbLine
 10
-1.411625892819301
 20
-252.1938335792096
 30
0.0
 11
-2.646540486783578
 21
-250.958918983912
 31
0.0
  0
ARC
  5
90BCC
330
1E
100
AcDbEntity
  8
DETAIL
  6
CONTINUOUS
100
AcDbCircle
 10
-0.7383091580963992
 20
-250.0501864052189
 30
0.0
 40
2.698646624999999
100
AcDbArc
 50
180.0
 51
224.999999999696
  0
ARC
  5
90BCD
330
1E
100
AcDbEntity
  8
DETAIL
  6
CONTINUOUS
100
AcDbCircle
 10
-0.7383091580963992
 20
-249.050687655218
 30
0.0
 40
2.698646624999999
100
AcDbArc
 50
180.0
 51
224.999999999696
  0
ARC
  5
90BCE
330
1E
100
AcDbEntity
  8
DETAIL
  6
CONTINUOUS
100
AcDbCircle
 10
-3.037156283091917
 20
-253.8193639694788
 30
0.0
 40
2.298847124999999
100
AcDbArc
 50
42.29627323568615
 51
44.99999999999078
  0
ARC
  5
90BCF
330
1E
100
AcDbEntity
  8
DETAIL
  6
CONTINUOUS
100
AcDbCircle
 10
-3.037156283091917
 20
-254.8188627194795
 30
0.0
 40
2.298847124999999
100
AcDbArc
 50
42.29627323568615
 51
44.99999999999078
  0
LINE
  5
90BD0
330
1E
100
AcDbEntity
  8
DETAIL
  6
CONTINUOUS
100
AcDbLine
 10
-6.009735283966165
 20
-271.9919151900089
 30
0.0
 11
-5.882911158438673
 21
-271.9667058471955
 31
0.0
  0
LINE
  5
90BD1
330
1E
100
AcDbEntity
  8
DETAIL
  6
CONTINUOUS
100
AcDbLine
 10
-3.137826039732772
 20
-287.0016045727723
 30
0.0
 11
-3.133018504059236
 21
-287.0010255178362
 31
0.0
  0
LINE
  5
90BD2
330
1E
100
AcDbEntity
  8
DETAIL
  6
CONTINUOUS
100
AcDbLine
 10
-8.750401754618451
 20
-272.0430760594272
 30
0.0
 11
-8.622180292521534
 21
-272.0175725614669
 31
0.0
  0
LINE
  5
90BD3
330
1E
100
AcDbEntity
  8
DETAIL
  6
CONTINUOUS
100
AcDbLine
 10
-8.757394199898499
 20
-272.0338908458249
 30
0.0
 11
-8.630564446523294
 21
-272.0086838218483
 31
0.0
  0
LINE
  5
90BD4
330
1E
100
AcDbEntity
  8
DETAIL
  6
CONTINUOUS
100
AcDbLine
 10
-8.622180292521534
 20
-272.0175725614669
 30
0.0
 11
-8.491715976559589
 21
-272.0090225000012
 31
0.0
  0
LINE
  5
90BD5
330
1E
100
AcDbEntity
  8
DETAIL
  6
CONTINUOUS
100
AcDbLine
 10
-6.139849486171897
 20
-272.000299342676
 30
0.0
 11
-6.009735283966165
 21
-271.9919151900089
 31
0.0
  0
LINE
  5
90BD6
330
1E
100
AcDbEntity
  8
DETAIL
  6
CONTINUOUS
100
AcDbLine
 10
-8.630564446523294
 20
-272.0086838218483
 30
0.0
 11
-8.500439133888448
 21
-272.000299342676
 31
0.0
  0
LINE
  5
90BD7
330
1E
100
AcDbEntity
  8
DETAIL
  6
CONTINUOUS
100
AcDbLine
 10
-12.48955874756438
 20
-284.0030075000024
 30
0.0
 11
-4.220009416615084
 21
-284.0030075000024
 31
0.0
  0
LINE
  5
90BD8
330
1E
100
AcDbEntity
  8
DETAIL
  6
CONTINUOUS
100
AcDbLine
 10
-9.491062497571419
 20
-282.8036090000005
 30
0.0
 11
-12.48955874756438
 21
-282.8036090000005
 31
0.0
  0
LINE
  5
90BD9
330
1E
100
AcDbEntity
  8
DETAIL
  6
CONTINUOUS
100
AcDbLine
 10
-6.139849486171897
 20
-272.000299342676
 30
0.0
 11
-8.500439133888448
 21
-272.000299342676
 31
0.0
  0
LINE
  5
90BDA
330
1E
100
AcDbEntity
  8
DETAIL
  6
CONTINUOUS
100
AcDbLine
 10
-3.623685905679394
 20
-285.2981095578679
 30
0.0
 11
-3.137106158087135
 21
-285.3023558750005
 31
0.0
  0
LINE
  5
90BDB
330
1E
100
AcDbEntity
  8
DETAIL
  6
CONTINUOUS
100
AcDbLine
 10
-4.220009416615084
 20
-284.0030075000024
 30
0.0
 11
-4.212036969478958
 21
-284.0031051763507
 31
0.0
  0
LINE
  5
90BDC
330
1E
100
AcDbEntity
  8
DETAIL
  6
CONTINUOUS
100
AcDbLine
 10
-4.212036969478958
 20
-284.0031051763507
 30
0.0
 11
-4.204749274935693
 21
-284.0033000852697
 31
0.0
  0
LINE
  5
90BDD
330
1E
100
AcDbEntity
  8
DETAIL
  6
CONTINUOUS
100
AcDbLine
 10
-4.204749274935693
 20
-284.0033000852697
 30
0.0
 11
-4.198191402376778
 21
-284.0036038715857
 31
0.0
  0
LINE
  5
90BDE
330
1E
100
AcDbEntity
  8
DETAIL
  6
CONTINUOUS
100
AcDbLine
 10
-4.198191402376778
 20
-284.0036038715857
 30
0.0
 11
-4.192228146301658
 21
-284.0039816074852
 31
0.0
  0
LINE
  5
90BDF
330
1E
100
AcDbEntity
  8
DETAIL
  6
CONTINUOUS
100
AcDbLine
 10
-4.192228146301658
 20
-284.0039816074852
 30
0.0
 11
-4.186775714032137
 21
-284.0044021285939
 31
0.0
  0
LINE
  5
90BE0
330
1E
100
AcDbEntity
  8
DETAIL
  6
CONTINUOUS
100
AcDbLine
 10
-4.186775714032137
 20
-284.0044021285939
 30
0.0
 11
-4.181724935001057
 21
-284.00486578407
 31
0.0
  0
LINE
  5
90BE1
330
1E
100
AcDbEntity
  8
DETAIL
  6
CONTINUOUS
100
AcDbLine
 10
-4.181724935001057
 20
-284.00486578407
 30
0.0
 11
-4.176950500061593
 21
-284.0053623337157
 31
0.0
  0
LINE
  5
90BE2
330
1E
100
AcDbEntity
  8
DETAIL
  6
CONTINUOUS
100
AcDbLine
 10
-4.176950500061593
 20
-284.0053623337157
 30
0.0
 11
-4.172417045591373
 21
-284.0058923918927
 31
0.0
  0
LINE
  5
90BE3
330
1E
100
AcDbEntity
  8
DETAIL
  6
CONTINUOUS
100
AcDbLine
 10
-4.172417045591373
 20
-284.0058923918927
 30
0.0
 11
-4.168054124271748
 21
-284.0064529894168
 31
0.0
  0
LINE
  5
90BE4
330
1E
100
AcDbEntity
  8
DETAIL
  6
CONTINUOUS
100
AcDbLine
 10
-4.168054124271748
 20
-284.0064529894168
 30
0.0
 11
-4.163841691477955
 21
-284.0070446327072
 31
0.0
  0
LINE
  5
90BE5
330
1E
100
AcDbEntity
  8
DETAIL
  6
CONTINUOUS
100
AcDbLine
 10
-4.163841691477955
 20
-284.0070446327072
 30
0.0
 11
-4.159740241695999
 21
-284.0076666927425
 31
0.0
  0
LINE
  5
90BE6
330
1E
100
AcDbEntity
  8
DETAIL
  6
CONTINUOUS
100
AcDbLine
 10
-4.159740241695999
 20
-284.0076666927425
 30
0.0
 11
-4.155737707639218
 21
-284.0083195919803
 31
0.0
  0
LINE
  5
90BE7
330
1E
100
AcDbEntity
  8
DETAIL
  6
CONTINUOUS
100
AcDbLine
 10
-4.155737707639218
 20
-284.0083195919803
 30
0.0
 11
-4.151812039032392
 21
-284.0090032771117
 31
0.0
  0
LINE
  5
90BE8
330
1E
100
AcDbEntity
  8
DETAIL
  6
CONTINUOUS
100
AcDbLine
 10
-4.151812039032392
 20
-284.0090032771117
 30
0.0
 11
-4.147953668677018
 21
-284.0097185464026
 31
0.0
  0
LINE
  5
90BE9
330
1E
100
AcDbEntity
  8
DETAIL
  6
CONTINUOUS
100
AcDbLine
 10
-4.147953668677018
 20
-284.0097185464026
 30
0.0
 11
-4.144147995885305
 21
-284.0104658529607
 31
0.0
  0
LINE
  5
90BEA
330
1E
100
AcDbEntity
  8
DETAIL
  6
CONTINUOUS
100
AcDbLine
 10
-4.144147995885305
 20
-284.0104658529607
 30
0.0
 11
-4.140388068166885
 21
-284.0112461656335
 31
0.0
  0
LINE
  5
90BEB
330
1E
100
AcDbEntity
  8
DETAIL
  6
CONTINUOUS
100
AcDbLine
 10
-4.140388068166885
 20
-284.0112461656335
 30
0.0
 11
-4.136663771898838
 21
-284.0120602400384
 31
0.0
  0
LINE
  5
90BEC
330
1E
100
AcDbEntity
  8
DETAIL
  6
CONTINUOUS
100
AcDbLine
 10
-4.136663771898838
 20
-284.0120602400384
 30
0.0
 11
-4.132969987009801
 21
-284.0129091769636
 31
0.0
  0
LINE
  5
90BED
330
1E
100
AcDbEntity
  8
DETAIL
  6
CONTINUOUS
100
AcDbLine
 10
-4.132969987009801
 20
-284.0129091769636
 30
0.0
 11
-4.129299541075397
 21
-284.0137939119344
 31
0.0
  0
LINE
  5
90BEE
330
1E
100
AcDbEntity
  8
DETAIL
  6
CONTINUOUS
100
AcDbLine
 10
-4.129299541075397
 20
-284.0137939119344
 30
0.0
 11
-4.125648472089324
 21
-284.0147157003248
 31
0.0
  0
LINE
  5
90BEF
330
1E
100
AcDbEntity
  8
DETAIL
  6
CONTINUOUS
100
AcDbLine
 10
-4.125648472089324
 20
-284.0147157003248
 30
0.0
 11
-4.122011770571134
 21
-284.0156755482912
 31
0.0
  0
LINE
  5
90BF0
330
1E
100
AcDbEntity
  8
DETAIL
  6
CONTINUOUS
100
AcDbLine
 10
-4.122011770571134
 20
-284.0156755482912
 30
0.0
 11
-4.118385405201934
 21
-284.016675145659
 31
0.0
  0
LINE
  5
90BF1
330
1E
100
AcDbEntity
  8
DETAIL
  6
CONTINUOUS
100
AcDbLine
 10
-4.118385405201934
 20
-284.016675145659
 30
0.0
 11
-4.114764318510879
 21
-284.017716030321
 31
0.0
  0
LINE
  5
90BF2
330
1E
100
AcDbEntity
  8
DETAIL
  6
CONTINUOUS
100
AcDbLine
 10
-4.114764318510879
 20
-284.017716030321
 30
0.0
 11
-4.111146579482465
 21
-284.0187996695394
 31
0.0
  0
LINE
  5
90BF3
330
1E
100
AcDbEntity
  8
DETAIL
  6
CONTINUOUS
100
AcDbLine
 10
-4.111146579482465
 20
-284.0187996695394
 30
0.0
 11
-4.107529029690795
 21
-284.0199275252512
 31
0.0
  0
LINE
  5
90BF4
330
1E
100
AcDbEntity
  8
DETAIL
  6
CONTINUOUS
100
AcDbLine
 10
-4.107529029690795
 20
-284.0199275252512
 30
0.0
 11
-4.103910295154946
 21
-284.0211011553428
 31
0.0
  0
LINE
  5
90BF5
330
1E
100
AcDbEntity
  8
DETAIL
  6
CONTINUOUS
100
AcDbLine
 10
-4.103910295154946
 20
-284.0211011553428
 30
0.0
 11
-4.10028841819485
 21
-284.022321993757
 31
0.0
  0
LINE
  5
90BF6
330
1E
100
AcDbEntity
  8
DETAIL
  6
CONTINUOUS
100
AcDbLine
 10
-4.10028841819485
 20
-284.022321993757
 30
0.0
 11
-4.096661994185069
 21
-284.0235918889018
 31
0.0
  0
LINE
  5
90BF7
330
1E
100
AcDbEntity
  8
DETAIL
  6
CONTINUOUS
100
AcDbLine
 10
-4.096661994185069
 20
-284.0235918889018
 30
0.0
 11
-4.093029285323154
 21
-284.0249124999468
 31
0.0
  0
LINE
  5
90BF8
330
1E
100
AcDbEntity
  8
DETAIL
  6
CONTINUOUS
100
AcDbLine
 10
-4.093029285323154
 20
-284.0249124999468
 30
0.0
 11
-4.089389337434568
 21
-284.0262858232226
 31
0.0
  0
LINE
  5
90BF9
330
1E
100
AcDbEntity
  8
DETAIL
  6
CONTINUOUS
100
AcDbLine
 10
-4.089389337434568
 20
-284.0262858232226
 30
0.0
 11
-4.085740423367042
 21
-284.0277147266256
 31
0.0
  0
LINE
  5
90BFA
330
1E
100
AcDbEntity
  8
DETAIL
  6
CONTINUOUS
100
AcDbLine
 10
-4.085740423367042
 20
-284.0277147266256
 30
0.0
 11
-4.082083116182275
 21
-284.0291982546348
 31
0.0
  0
LINE
  5
90BFB
330
1E
100
AcDbEntity
  8
DETAIL
  6
CONTINUOUS
100
AcDbLine
 10
-4.082083116182275
 20
-284.0291982546348
 30
0.0
 11
-4.041414161051307
 21
-284.0552769521339
 31
0.0
  0
LINE
  5
90BFC
330
1E
100
AcDbEntity
  8
DETAIL
  6
CONTINUOUS
100
AcDbLine
 10
-4.041414161051307
 20
-284.0552769521339
 30
0.0
 11
-4.006236861176603
 21
-284.0864368387394
 31
0.0
  0
LINE
  5
90BFD
330
1E
100
AcDbEntity
  8
DETAIL
  6
CONTINUOUS
100
AcDbLine
 10
-9.491062497571419
 20
-282.5465950355253
 30
0.0
 11
-8.034650033091111
 21
-284.0030075000024
 31
0.0
  0
LINE
  5
90BFE
330
1E
100
AcDbEntity
  8
DETAIL
  6
CONTINUOUS
100
AcDbLine
 10
-4.006236861176603
 20
-284.0864368387394
 30
0.0
 11
-3.976551216572715
 21
-284.1226779144576
 31
0.0
  0
LINE
  5
90BFF
330
1E
100
AcDbEntity
  8
DETAIL
  6
CONTINUOUS
100
AcDbLine
 10
-3.976551216572715
 20
-284.1226779144576
 30
0.0
 11
-3.952357228560231
 21
-284.1640001806183
 31
0.0
  0
LINE
  5
90C00
330
1E
100
AcDbEntity
  8
DETAIL
  6
CONTINUOUS
100
AcDbLine
 10
-12.49782537117471
 20
-282.7787889632843
 30
0.0
 11
-12.48955874756438
 21
-282.8036090000005
 31
0.0
  0
LINE
  5
90C01
330
1E
100
AcDbEntity
  8
DETAIL
  6
CONTINUOUS
100
AcDbLine
 10
-9.499785654887546
 20
-282.7774182453681
 30
0.0
 11
-9.491062497571419
 21
-282.8036090000005
 31
0.0
  0
LINE
  5
90C02
330
1E
100
AcDbEntity
  8
DETAIL
  6
CONTINUOUS
100
AcDbLine
 10
-5.882911158438673
 20
-271.9667058471955
 30
0.0
 11
-5.757851965129248
 21
-271.9240654061016
 31
0.0
  0
LINE
  5
90C03
330
1E
100
AcDbEntity
  8
DETAIL
  6
CONTINUOUS
100
AcDbLine
 10
-8.882452830827332
 20
-272.0765264906576
 30
0.0
 11
-8.757394199898499
 21
-272.0338908458249
 31
0.0
  0
LINE
  5
90C04
330
1E
100
AcDbEntity
  8
DETAIL
  6
CONTINUOUS
100
AcDbLine
 10
-8.874187370628078
 20
-272.0850935622604
 30
0.0
 11
-8.750401754618451
 21
-272.0430760594272
 31
0.0
  0
LINE
  5
90C05
330
1E
100
AcDbEntity
  8
DETAIL
  6
CONTINUOUS
100
AcDbLine
 10
-3.419620868581205
 20
-286.0252158717166
 30
0.0
 11
-3.137826039732772
 21
-287.0016045727723
 31
0.0
  0
LINE
  5
90C06
330
1E
100
AcDbEntity
  8
DETAIL
  6
CONTINUOUS
100
AcDbLine
 10
-3.712784066824042
 20
-285.0025062500003
 30
0.0
 11
-3.419620868581205
 21
-286.0252158717166
 31
0.0
  0
LINE
  5
90C07
330
1E
100
AcDbEntity
  8
DETAIL
  6
CONTINUOUS
100
AcDbLine
 10
-3.952357228560231
 20
-284.1640001806183
 30
0.0
 11
-3.712784066824042
 21
-285.0025062500003
 31
0.0
  0
LINE
  5
90C08
330
1E
100
AcDbEntity
  8
DETAIL
  6
CONTINUOUS
100
AcDbLine
 10
-12.49782537117471
 20
-282.7787889632843
 30
0.0
 11
-12.496998308618
 21
-282.7835594642038
 31
0.0
  0
LINE
  5
90C09
330
1E
100
AcDbEntity
  8
DETAIL
  6
CONTINUOUS
100
AcDbLine
 10
-9.883722720591777
 20
-284.0030075000024
 30
0.0
 11
-10.00366257059295
 21
-282.8036090000005
 31
0.0
  0
LINE
  5
90C0A
330
1E
100
AcDbEntity
  8
DETAIL
  6
CONTINUOUS
100
AcDbLine
 10
-12.496998308618
 20
-282.7835594642038
 30
0.0
 11
-12.49619003796442
 21
-282.7926863683837
 31
0.0
  0
LINE
  5
90C0B
330
1E
100
AcDbEntity
  8
DETAIL
  6
CONTINUOUS
100
AcDbLine
 10
-12.49619003796442
 20
-282.7926863683837
 30
0.0
 11
-12.49539705964753
 21
-282.8062400085484
 31
0.0
  0
LINE
  5
90C0C
330
1E
100
AcDbEntity
  8
DETAIL
  6
CONTINUOUS
100
AcDbLine
 10
-12.49539705964753
 20
-282.8062400085484
 30
0.0
 11
-12.49462987371998
 21
-282.8240093891772
 31
0.0
  0
LINE
  5
90C0D
330
1E
100
AcDbEntity
  8
DETAIL
  6
CONTINUOUS
100
AcDbLine
 10
-12.49462987371998
 20
-282.8240093891772
 30
0.0
 11
-12.49389577653755
 21
-282.8458904171466
 31
0.0
  0
LINE
  5
90C0E
330
1E
100
AcDbEntity
  8
DETAIL
  6
CONTINUOUS
100
AcDbLine
 10
-12.49389577653755
 20
-282.8458904171466
 30
0.0
 11
-12.49320088769172
 21
-282.8716327166803
 31
0.0
  0
LINE
  5
90C0F
330
1E
100
AcDbEntity
  8
DETAIL
  6
CONTINUOUS
100
AcDbLine
 10
-8.991423139389098
 20
-272.1429055787869
 30
0.0
 11
-8.874187370628078
 21
-272.0850935622604
 31
0.0
  0
LINE
  5
90C10
330
1E
100
AcDbEntity
  8
DETAIL
  6
CONTINUOUS
100
AcDbLine
 10
-9.001167032819012
 20
-272.1347725281884
 30
0.0
 11
-8.882452830827332
 21
-272.0765264906576
 31
0.0
  0
LINE
  5
90C11
330
1E
100
AcDbEntity
  8
DETAIL
  6
CONTINUOUS
100
AcDbLine
 10
-5.757851965129248
 20
-271.9240654061016
 30
0.0
 11
-5.639133130784557
 21
-271.8658115898042
 31
0.0
  0
LINE
  5
90C12
330
1E
100
AcDbEntity
  8
DETAIL
  6
CONTINUOUS
100
AcDbLine
 10
-3.101470554729985
 20
-289.9827675261105
 30
0.0
 11
-3.09785493730169
 21
-290.0
 31
0.0
  0
LINE
  5
90C13
330
1E
100
AcDbEntity
  8
DETAIL
  6
CONTINUOUS
100
AcDbLine
 10
-3.101497052108697
 20
-289.4807225450258
 30
0.0
 11
-3.09785493730169
 21
-289.5002506250012
 31
0.0
  0
LINE
  5
90C14
330
1E
100
AcDbEntity
  8
DETAIL
  6
CONTINUOUS
100
AcDbLine
 10
-3.105040993487364
 20
-289.9316937743333
 30
0.0
 11
-3.101470554729985
 21
-289.9827675261105
 31
0.0
  0
LINE
  5
90C15
330
1E
100
AcDbEntity
  8
DETAIL
  6
CONTINUOUS
100
AcDbLine
 10
-3.105077499178605
 20
-289.4234500206116
 30
0.0
 11
-3.101497052108697
 21
-289.4807225450258
 31
0.0
  0
LINE
  5
90C16
330
1E
100
AcDbEntity
  8
DETAIL
  6
CONTINUOUS
100
AcDbLine
 10
-3.10858104880981
 20
-289.8463216858877
 30
0.0
 11
-3.105040993487364
 21
-289.9316937743333
 31
0.0
  0
LINE
  5
90C17
330
1E
100
AcDbEntity
  8
DETAIL
  6
CONTINUOUS
100
AcDbLine
 10
-3.108611171036045
 20
-289.3279465637269
 30
0.0
 11
-3.105077499178605
 21
-289.4234500206116
 31
0.0
  0
LINE
  5
90C18
330
1E
100
AcDbEntity
  8
DETAIL
  6
CONTINUOUS
100
AcDbLine
 10
-3.112046340295364
 20
-289.7280224357923
 30
0.0
 11
-3.10858104880981
 21
-289.8463216858877
 31
0.0
  0
LINE
  5
90C19
330
1E
100
AcDbEntity
  8
DETAIL
  6
CONTINUOUS
100
AcDbLine
 10
-3.112053390087112
 20
-289.1956716397817
 30
0.0
 11
-3.108611171036045
 21
-289.3279465637269
 31
0.0
  0
LINE
  5
90C1A
330
1E
100
AcDbEntity
  8
DETAIL
  6
CONTINUOUS
100
AcDbLine
 10
-3.115399931794399
 20
-289.5778030456908
 30
0.0
 11
-3.112046340295364
 21
-289.7280224357923
 31
0.0
  0
LINE
  5
90C1B
330
1E
100
AcDbEntity
  8
DETAIL
  6
CONTINUOUS
100
AcDbLine
 10
-12.49320088769172
 20
-282.8716327166803
 30
0.0
 11
-12.49195439681761
 21
-282.9338459033476
 31
0.0
  0
LINE
  5
90C1C
330
1E
100
AcDbEntity
  8
DETAIL
  6
CONTINUOUS
100
AcDbLine
 10
-3.118634285762254
 20
-289.3962989315859
 30
0.0
 11
-3.115399931794399
 21
-289.5778030456908
 31
0.0
  0
LINE
  5
90C1D
330
1E
100
AcDbEntity
  8
DETAIL
  6
CONTINUOUS
100
AcDbLine
 10
-12.49195439681761
 20
-282.9338459033476
 30
0.0
 11
-12.49093516262883
 21
-283.0084149068898
 31
0.0
  0
LINE
  5
90C1E
330
1E
100
AcDbEntity
  8
DETAIL
  6
CONTINUOUS
100
AcDbLine
 10
-3.124685730954752
 20
-288.942349797036
 30
0.0
 11
-3.118634285762254
 21
-289.3962989315859
 31
0.0
  0
LINE
  5
90C1F
330
1E
100
AcDbEntity
  8
DETAIL
  6
CONTINUOUS
100
AcDbLine
 10
-3.129974136149485
 20
-288.3831713364693
 30
0.0
 11
-3.124685730954752
 21
-288.942349797036
 31
0.0
  0
LINE
  5
90C20
330
1E
100
AcDbEntity
  8
DETAIL
  6
CONTINUOUS
100
AcDbLine
 10
-12.49093516262883
 20
-283.0084149068898
 30
0.0
 11
-12.48991018598326
 21
-283.1374852006279
 31
0.0
  0
LINE
  5
90C21
330
1E
100
AcDbEntity
  8
DETAIL
  6
CONTINUOUS
100
AcDbLine
 10
-3.134405285911725
 20
-287.7289440883362
 30
0.0
 11
-3.129974136149485
 21
-288.3831713364693
 31
0.0
  0
LINE
  5
90C22
330
1E
100
AcDbEntity
  8
DETAIL
  6
CONTINUOUS
100
AcDbLine
 10
-3.137826039732772
 20
-287.0016045727723
 30
0.0
 11
-3.134405285911725
 21
-287.7289440883362
 31
0.0
  0
LINE
  5
90C23
330
1E
100
AcDbEntity
  8
DETAIL
  6
CONTINUOUS
100
AcDbLine
 10
-9.499785654887546
 20
-272.9996458636876
 30
0.0
 11
-9.499785654887546
 21
-282.7774182453681
 31
0.0
  0
LINE
  5
90C24
330
1E
100
AcDbEntity
  8
DETAIL
  6
CONTINUOUS
100
AcDbLine
 10
-3.137106158087135
 20
-286.9868269544342
 30
0.0
 11
-3.137106158087135
 21
-285.0955085785394
 31
0.0
  0
LINE
  5
90C25
330
1E
100
AcDbEntity
  8
DETAIL
  6
CONTINUOUS
100
AcDbLine
 10
-3.09785493730169
 20
-290.0
 30
0.0
 11
-3.09785493730169
 21
-289.5002506250012
 31
0.0
  0
LINE
  5
90C26
330
1E
100
AcDbEntity
  8
DETAIL
  6
CONTINUOUS
100
AcDbLine
 10
-12.48991018598326
 20
-283.1374852006279
 30
0.0
 11
-12.48991019931463
 21
-283.6691338167793
 31
0.0
  0
LINE
  5
90C27
330
1E
100
AcDbEntity
  8
DETAIL
  6
CONTINUOUS
100
AcDbLine
 10
-12.48991019931463
 20
-283.6691338167793
 30
0.0
 11
-12.49093522792327
 21
-283.7982075394634
 31
0.0
  0
LINE
  5
90C28
330
1E
100
AcDbEntity
  8
DETAIL
  6
CONTINUOUS
100
AcDbLine
 10
-12.49093522792327
 20
-283.7982075394634
 30
0.0
 11
-12.49195449543049
 21
-283.8727766109712
 31
0.0
  0
LINE
  5
90C29
330
1E
100
AcDbEntity
  8
DETAIL
  6
CONTINUOUS
100
AcDbLine
 10
-12.49195449543049
 20
-283.8727766109712
 30
0.0
 11
-12.49320098764883
 21
-283.9349878959264
 31
0.0
  0
LINE
  5
90C2A
330
1E
100
AcDbEntity
  8
DETAIL
  6
CONTINUOUS
100
AcDbLine
 10
-12.49320098764883
 20
-283.9349878959264
 30
0.0
 11
-12.49389586182997
 21
-283.9607289774057
 31
0.0
  0
LINE
  5
90C2B
330
1E
100
AcDbEntity
  8
DETAIL
  6
CONTINUOUS
100
AcDbLine
 10
-12.49389586182997
 20
-283.9607289774057
 30
0.0
 11
-12.49462993902534
 21
-283.9826088472868
 31
0.0
  0
LINE
  5
90C2C
330
1E
100
AcDbEntity
  8
DETAIL
  6
CONTINUOUS
100
AcDbLine
 10
-3.189603125462326
 20
-286.8056723170693
 30
0.0
 11
-3.137106158087135
 21
-285.3023558750005
 31
0.0
  0
LINE
  5
90C2D
330
1E
100
AcDbEntity
  8
DETAIL
  6
CONTINUOUS
100
AcDbLine
 10
-12.49462993902534
 20
-283.9826088472868
 30
0.0
 11
-12.49539710228828
 21
-284.0003773870062
 31
0.0
  0
LINE
  5
90C2E
330
1E
100
AcDbEntity
  8
DETAIL
  6
CONTINUOUS
100
AcDbLine
 10
-12.49539710228828
 20
-284.0003773870062
 30
0.0
 11
-12.49619006061811
 21
-284.0139304461288
 31
0.0
  0
LINE
  5
90C2F
330
1E
100
AcDbEntity
  8
DETAIL
  6
CONTINUOUS
100
AcDbLine
 10
-9.499785654887546
 20
-272.9996458636876
 30
0.0
 11
-9.49135977648666
 21
-272.869393090965
 31
0.0
  0
LINE
  5
90C30
330
1E
100
AcDbEntity
  8
DETAIL
  6
CONTINUOUS
100
AcDbLine
 10
-5.148891883447959
 20
-271.1310705261266
 30
0.0
 11
-5.140464905584394
 21
-271.0008005860149
 31
0.0
  0
LINE
  5
90C31
330
1E
100
AcDbEntity
  8
DETAIL
  6
CONTINUOUS
100
AcDbLine
 10
-9.491062497571419
 20
-273.0083690223432
 30
0.0
 11
-9.482512437438799
 21
-272.8779047050461
 31
0.0
  0
LINE
  5
90C32
330
1E
100
AcDbEntity
  8
DETAIL
  6
CONTINUOUS
100
AcDbLine
 10
-12.49619006061811
 20
-284.0139304461288
 30
0.0
 11
-12.4969983166161
 21
-284.023057054456
 31
0.0
  0
LINE
  5
90C33
330
1E
100
AcDbEntity
  8
DETAIL
  6
CONTINUOUS
100
AcDbLine
 10
-5.639133130784557
 20
-271.8658115898042
 30
0.0
 11
-5.53066888175681
 21
-271.7931240826871
 31
0.0
  0
LINE
  5
90C34
330
1E
100
AcDbEntity
  8
DETAIL
  6
CONTINUOUS
100
AcDbLine
 10
-9.109624116112627
 20
-272.2074485637235
 30
0.0
 11
-9.001167032819012
 21
-272.1347725281884
 31
0.0
  0
LINE
  5
90C35
330
1E
100
AcDbEntity
  8
DETAIL
  6
CONTINUOUS
100
AcDbLine
 10
-9.100106409249292
 20
-272.2155237659976
 30
0.0
 11
-8.991423139389098
 21
-272.1429055787869
 31
0.0
  0
LINE
  5
90C36
330
1E
100
AcDbEntity
  8
DETAIL
  6
CONTINUOUS
100
AcDbLine
 10
-9.49135977648666
 20
-272.869393090965
 30
0.0
 11
-9.466157422161359
 21
-272.7425527602322
 31
0.0
  0
LINE
  5
90C37
330
1E
100
AcDbEntity
  8
DETAIL
  6
CONTINUOUS
100
AcDbLine
 10
-5.174097389521648
 20
-271.2579292236493
 30
0.0
 11
-5.148891883447959
 21
-271.1310705261266
 31
0.0
  0
LINE
  5
90C38
330
1E
100
AcDbEntity
  8
DETAIL
  6
CONTINUOUS
100
AcDbLine
 10
-9.482512437438799
 20
-272.8779047050461
 30
0.0
 11
-9.457008938140006
 21
-272.7496832429515
 31
0.0
  0
LINE
  5
90C39
330
1E
100
AcDbEntity
  8
DETAIL
  6
CONTINUOUS
100
AcDbLine
 10
-12.49782537117471
 20
-284.0278275367188
 30
0.0
 11
-12.48955874756438
 21
-284.0030075000024
 31
0.0
  0
LINE
  5
90C3A
330
1E
100
AcDbEntity
  8
DETAIL
  6
CONTINUOUS
100
AcDbLine
 10
-9.457008938140006
 20
-272.7496832429515
 30
0.0
 11
-9.414991436648506
 21
-272.6258976269441
 31
0.0
  0
LINE
  5
90C3B
330
1E
100
AcDbEntity
  8
DETAIL
  6
CONTINUOUS
100
AcDbLine
 10
-9.466157422161359
 20
-272.7425527602322
 30
0.0
 11
-9.423567125252247
 21
-272.6176291669203
 31
0.0
  0
LINE
  5
90C3C
330
1E
100
AcDbEntity
  8
DETAIL
  6
CONTINUOUS
100
AcDbLine
 10
-5.216693109040079
 20
-271.3828729628585
 30
0.0
 11
-5.174097389521648
 21
-271.2579292236493
 31
0.0
  0
LINE
  5
90C3D
330
1E
100
AcDbEntity
  8
DETAIL
  6
CONTINUOUS
100
AcDbLine
 10
-9.423567125252247
 20
-272.6176291669203
 30
0.0
 11
-9.365423281804851
 21
-272.4991094300633
 31
0.0
  0
LINE
  5
90C3E
330
1E
100
AcDbEntity
  8
DETAIL
  6
CONTINUOUS
100
AcDbLine
 10
-9.414991436648506
 20
-272.6258976269441
 30
0.0
 11
-9.357179418779651
 21
-272.5086618581742
 31
0.0
  0
LINE
  5
90C3F
330
1E
100
AcDbEntity
  8
DETAIL
  6
CONTINUOUS
100
AcDbLine
 10
-9.357179418779651
 20
-272.5086618581742
 30
0.0
 11
-9.284561231569114
 21
-272.3999785883181
 31
0.0
  0
LINE
  5
90C40
330
1E
100
AcDbEntity
  8
DETAIL
  6
CONTINUOUS
100
AcDbLine
 10
-9.365423281804851
 20
-272.4991094300633
 30
0.0
 11
-9.292986570254015
 21
-272.3908677587441
 31
0.0
  0
LINE
  5
90C41
330
1E
100
AcDbEntity
  8
DETAIL
  6
CONTINUOUS
100
AcDbLine
 10
-9.284561231569114
 20
-272.3999785883181
 30
0.0
 11
-9.198379140013003
 21
-272.3017058575603
 31
0.0
  0
LINE
  5
90C42
330
1E
100
AcDbEntity
  8
DETAIL
  6
CONTINUOUS
100
AcDbLine
 10
-5.432917674792861
 20
-271.7073110846917
 30
0.0
 11
-5.347289023011853
 21
-271.609673438108
 31
0.0
  0
LINE
  5
90C43
330
1E
100
AcDbEntity
  8
DETAIL
  6
CONTINUOUS
100
AcDbLine
 10
-9.292986570254015
 20
-272.3908677587441
 30
0.0
 11
-9.207366671415456
 21
-272.2932471729373
 31
0.0
  0
LINE
  5
90C44
330
1E
100
AcDbEntity
  8
DETAIL
  6
CONTINUOUS
100
AcDbLine
 10
-5.53066888175681
 20
-271.7931240826871
 30
0.0
 11
-5.432917674792861
 21
-271.7073110846917
 31
0.0
  0
LINE
  5
90C45
330
1E
100
AcDbEntity
  8
DETAIL
  6
CONTINUOUS
100
AcDbLine
 10
-9.207366671415456
 20
-272.2932471729373
 30
0.0
 11
-9.109624116112627
 21
-272.2074485637235
 31
0.0
  0
LINE
  5
90C46
330
1E
100
AcDbEntity
  8
DETAIL
  6
CONTINUOUS
100
AcDbLine
 10
-9.198379140013003
 20
-272.3017058575603
 30
0.0
 11
-9.100106409249292
 21
-272.2155237659976
 31
0.0
  0
LINE
  5
90C47
330
1E
100
AcDbEntity
  8
DETAIL
  6
CONTINUOUS
100
AcDbLine
 10
-1.338008408096811
 20
-280.2993136329119
 30
0.0
 11
-6.893549210061337
 21
-284.0030075000024
 31
0.0
  0
LINE
  5
90C48
330
1E
100
AcDbEntity
  8
DETAIL
  6
CONTINUOUS
100
AcDbLine
 10
-1.516039046815876
 20
-282.5802471202937
 30
0.0
 11
-3.933683815967469
 21
-284.1920103001696
 31
0.0
  0
LINE
  5
90C49
330
1E
100
AcDbEntity
  8
DETAIL
  6
CONTINUOUS
100
AcDbLine
 10
-0.8507324643146603
 20
-283.578206995372
 30
0.0
 11
-3.133899598186417
 21
-285.1003184183982
 31
0.0
  0
LINE
  5
90C4A
330
1E
100
AcDbEntity
  8
DETAIL
  6
CONTINUOUS
100
AcDbLine
 10
-5.274843979625529
 20
-271.5014128962491
 30
0.0
 11
-5.216693109040079
 21
-271.3828729628585
 31
0.0
  0
LINE
  5
90C4B
330
1E
100
AcDbEntity
  8
DETAIL
  6
CONTINUOUS
100
AcDbLine
 10
-5.347289023011853
 20
-271.609673438108
 30
0.0
 11
-5.274843979625529
 21
-271.5014128962491
 31
0.0
  0
ARC
  5
90C4C
330
1E
100
AcDbEntity
  8
DETAIL
  6
CONTINUOUS
100
AcDbCircle
 10
-1.737807908092236
 20
-282.2475938290433
 30
0.0
 40
1.599197999999999
100
AcDbArc
 50
303.6900675260123
 51
0.0
  0
ARC
  5
90C4D
330
1E
100
AcDbEntity
  8
DETAIL
  6
CONTINUOUS
100
AcDbCircle
 10
-3.936705158092536
 20
-285.0955085785394
 30
0.0
 40
0.7995990000000001
100
AcDbArc
 50
0.0
 51
88.06899483110788
  0
ARC
  5
90C4E
330
1E
100
AcDbEntity
  8
DETAIL
  6
CONTINUOUS
100
AcDbCircle
 10
-1.737807908092236
 20
-282.2475938290433
 30
0.0
 40
0.3997994999999999
100
AcDbArc
 50
303.6900675259003
 51
0.0
  0
LINE
  5
90C4F
330
1E
100
AcDbEntity
  8
NOTE
  6
CONTINUOUS
 62
     4
100
AcDbLine
 10
0.0000000000004547
 20
-249.0
 30
0.0
 11
23.92112999999926
 21
-281.0589999999992
 31
0.0
  0
LINE
  5
90C50
330
1E
100
AcDbEntity
  8
NOTE
  6
CONTINUOUS
 62
     4
100
AcDbLine
 10
36.7458100000008
 20
-264.8033500000001
 30
0.0
 11
0.0000000000004547
 21
-249.0
 31
0.0
  0
CIRCLE
  5
90C51
330
1E
100
AcDbEntity
  8
SIZE
  6
BYBLOCK
100
AcDbCircle
 10
122.7873766678508
 20
-290.0
 30
0.0
 40
5.0
  0
CIRCLE
  5
90C52
330
1E
100
AcDbEntity
  8
SIZE
  6
BYBLOCK
100
AcDbCircle
 10
122.7873766678508
 20
-249.0000000000002
 30
0.0
 40
5.0
  0
LINE
  5
90C53
330
1E
100
AcDbEntity
  8
SIZE
  6
BYBLOCK
100
AcDbLine
 10
122.7873766678508
 20
-290.0
 30
0.0
 11
122.7873766678508
 21
-280.0
 31
0.0
  0
LINE
  5
90C54
330
1E
100
AcDbEntity
  8
SIZE
  6
BYBLOCK
100
AcDbLine
 10
122.7873766678508
 20
-249.0000000000002
 30
0.0
 11
122.7873766678508
 21
-259.0
 31
0.0
  0
LINE
  5
90C55
330
1E
100
AcDbEntity
  8
SIZE
  6
CONTINUOUS
100
AcDbLine
 10
122.7873766678508
 20
-280.0
 30
0.0
 11
122.7873766678508
 21
-259.0
 31
0.0
  0
LINE
  5
90C57
330
1E
100
AcDbEntity
  8
BASIS
  6
DASHDOT
100
AcDbLine
 10
-277.1620935414416
 20
-142.6478687500002
 30
0.0
 11
33.91607495282142
 21
-142.6478687500002
 31
0.0
  0
LINE
  5
90C58
330
1E
100
AcDbEntity
  8
DETAIL
  6
CONTINUOUS
100
AcDbLine
 10
-156.9030278098962
 20
-3.327783276104128
 30
0.0
 11
-61.60778303309598
 21
0.0
 31
0.0
  0
LINE
  5
90C5A
330
1E
100
AcDbEntity
  8
DETAIL
  6
CONTINUOUS
100
AcDbLine
 10
-236.0377695745487
 20
-87.35230902418834
 30
0.0
 11
-235.6944672038298
 21
-81.10198709508223
 31
0.0
  0
ARC
  5
90C5B
330
1E
100
AcDbEntity
  8
DETAIL
  6
CONTINUOUS
100
AcDbCircle
 10
1954.348462192524
 20
-153.0147552099008
 30
0.0
 40
2172.89765633831
100
AcDbArc
 50
176.4924114103135
 51
180.3334489961755
  0
ARC
  5
90C5C
330
1E
100
AcDbEntity
  8
DETAIL
  6
CONTINUOUS
100
AcDbCircle
 10
1954.591028639193
 20
-153.0135916422612
 30
0.0
 40
2171.640980794801
100
AcDbArc
 50
176.4892985522196
 51
180.3335275408763
  0
ARC
  5
90C5D
330
1E
100
AcDbEntity
  8
DETAIL
  6
CONTINUOUS
100
AcDbCircle
 10
1963.537357041582
 20
-152.9656496788209
 30
0.0
 40
2179.587940225038
100
AcDbArc
 50
176.3726905058133
 51
180.3334748933845
  0
ARC
  5
90C5E
330
1E
100
AcDbEntity
  8
DETAIL
  6
CONTINUOUS
100
AcDbCircle
 10
-141.0306249031477
 20
-192.6604569229455
 30
0.0
 40
74.96240625
100
AcDbArc
 50
184.0749643962005
 51
196.2996649205888
  0
ARC
  5
90C5F
330
1E
100
AcDbEntity
  8
DETAIL
  6
CONTINUOUS
100
AcDbCircle
 10
-214.8987137561621
 20
-214.2605290583499
 30
0.0
 40
2.99849625
100
AcDbArc
 50
286.9995235484768
 51
16.30023123360639
  0
ARC
  5
90C60
330
1E
100
AcDbEntity
  8
DETAIL
  6
CONTINUOUS
100
AcDbCircle
 10
-214.8987138241341
 20
-214.2605288291297
 30
0.0
 40
1.998997499999999
100
AcDbArc
 50
286.9999999999807
 51
16.29966492058883
  0
LINE
  5
90C62
330
1E
100
AcDbEntity
  8
DETAIL
  6
CONTINUOUS
100
AcDbLine
 10
-236.9810501433808
 20
-160.2795492740738
 30
0.0
 11
-237.0000000000004
 21
-152.9175364269917
 31
0.0
  0
LINE
  5
90C8F
330
1E
100
AcDbEntity
  8
DETAIL
  6
CONTINUOUS
100
AcDbLine
 10
-236.6727277794657
 20
-179.8934739664873
 30
0.0
 11
-236.8210792463364
 21
-173.7315637676051
 31
0.0
  0
LINE
  5
90C90
330
1E
100
AcDbEntity
  8
DETAIL
  6
CONTINUOUS
100
AcDbLine
 10
-236.8210792463364
 20
-173.7315637676051
 30
0.0
 11
-236.9225822890935
 21
-167.2151032828482
 31
0.0
  0
LINE
  5
90C91
330
1E
100
AcDbEntity
  8
DETAIL
  6
CONTINUOUS
100
AcDbLine
 10
-236.9225822890935
 20
-167.2151032828482
 30
0.0
 11
-236.9810501433808
 21
-160.2795492740738
 31
0.0
  0
LINE
  5
90C92
330
1E
100
AcDbEntity
  8
DETAIL
  6
CONTINUOUS
100
AcDbLine
 10
-224.3712574304631
 20
-219.2112980248898
 30
0.0
 11
-230.5325670212155
 21
-219.4264556976879
 31
0.0
  0
LINE
  5
90C93
330
1E
100
AcDbEntity
  8
DETAIL
  6
CONTINUOUS
100
AcDbLine
 10
-230.5325670212155
 20
-219.6263554476893
 30
0.0
 11
-231.3733169653009
 21
-219.5527993588366
 31
0.0
  0
LINE
  5
90C94
330
1E
100
AcDbEntity
  8
DETAIL
  6
CONTINUOUS
100
AcDbLine
 10
-226.5822086153971
 20
-233.7036442546268
 30
0.0
 11
-226.7754955897093
 21
-233.299829757487
 31
0.0
  0
LINE
  5
90C95
330
1E
100
AcDbEntity
  8
DETAIL
  6
CONTINUOUS
100
AcDbLine
 10
-226.7754955897093
 20
-233.299829757487
 30
0.0
 11
-226.8765836525749
 21
-233.0866649905783
 31
0.0
  0
LINE
  5
90C96
330
1E
100
AcDbEntity
  8
DETAIL
  6
CONTINUOUS
100
AcDbLine
 10
-226.8765836525749
 20
-233.0866649905783
 30
0.0
 11
-226.9805616501366
 21
-232.8659631288662
 31
0.0
  0
LINE
  5
90C97
330
1E
100
AcDbEntity
  8
DETAIL
  6
CONTINUOUS
100
AcDbLine
 10
-226.5890957921405
 20
-233.6893370163943
 30
0.0
 11
-227.77085723981
 21
-231.1379476283527
 31
0.0
  0
LINE
  5
90C98
330
1E
100
AcDbEntity
  8
DETAIL
  6
CONTINUOUS
100
AcDbLine
 10
-227.6407860386921
 20
-231.428764487297
 30
0.0
 11
-226.9805616501366
 21
-232.8659631288662
 31
0.0
  0
LINE
  5
90C99
330
1E
100
AcDbEntity
  8
DETAIL
  6
CONTINUOUS
100
AcDbLine
 10
-228.2744011118598
 20
-229.9863829303021
 30
0.0
 11
-227.6407860386921
 21
-231.428764487297
 31
0.0
  0
LINE
  5
90C9A
330
1E
100
AcDbEntity
  8
DETAIL
  6
CONTINUOUS
100
AcDbLine
 10
-227.7707983186887
 20
-231.1380799673177
 30
0.0
 11
-228.8723509512005
 21
-228.5615201209648
 31
0.0
  0
LINE
  5
90C9B
330
1E
100
AcDbEntity
  8
DETAIL
  6
CONTINUOUS
100
AcDbLine
 10
-228.2744011065392
 20
-229.9863829449618
 30
0.0
 11
-228.8814968351894
 21
-228.539201734997
 31
0.0
  0
LINE
  5
90C9C
330
1E
100
AcDbEntity
  8
DETAIL
  6
CONTINUOUS
100
AcDbLine
 10
-228.8814968351894
 20
-228.539201734997
 30
0.0
 11
-229.4620631643706
 21
-227.0878496993764
 31
0.0
  0
LINE
  5
90C9D
330
1E
100
AcDbEntity
  8
DETAIL
  6
CONTINUOUS
100
AcDbLine
 10
-228.8723509512005
 20
-228.5615201209648
 30
0.0
 11
-229.8926118422937
 21
-225.9636175113673
 31
0.0
  0
LINE
  5
90C9E
330
1E
100
AcDbEntity
  8
DETAIL
  6
CONTINUOUS
100
AcDbLine
 10
-229.4620631643706
 20
-227.0878496993764
 30
0.0
 11
-230.0161065841716
 21
-225.6329528041724
 31
0.0
  0
LINE
  5
90C9F
330
1E
100
AcDbEntity
  8
DETAIL
  6
CONTINUOUS
100
AcDbLine
 10
-230.5437412933083
 20
-224.1748753853398
 30
0.0
 11
-230.0161065708384
 21
-225.6329528388218
 31
0.0
  0
LINE
  5
90CA0
330
1E
100
AcDbEntity
  8
DETAIL
  6
CONTINUOUS
100
AcDbLine
 10
-229.8926118422937
 20
-225.9636175113673
 30
0.0
 11
-230.8313382550299
 21
-223.3465154823061
 31
0.0
  0
LINE
  5
90CA1
330
1E
100
AcDbEntity
  8
DETAIL
  6
CONTINUOUS
100
AcDbLine
 10
-230.5437412933083
 20
-224.1748753853398
 30
0.0
 11
-230.6559569036839
 21
-223.8546578455443
 31
0.0
  0
LINE
  5
90CA2
330
1E
100
AcDbEntity
  8
DETAIL
  6
CONTINUOUS
100
AcDbLine
 10
-230.6559569036839
 20
-223.8546578455443
 30
0.0
 11
-230.763754816217
 21
-223.5434662752127
 31
0.0
  0
LINE
  5
90CA3
330
1E
100
AcDbEntity
  8
DETAIL
  6
CONTINUOUS
100
AcDbLine
 10
-230.8313423316562
 20
-223.3465143908536
 30
0.0
 11
-230.763754816217
 21
-223.5434662752127
 31
0.0
  0
LINE
  5
90CA4
330
1E
100
AcDbEntity
  8
DETAIL
  6
CONTINUOUS
100
AcDbLine
 10
-235.4464946170869
 20
-201.8119610736755
 30
0.0
 11
-235.6504733708029
 21
-199.7071852469839
 31
0.0
  0
LINE
  5
90CA5
330
1E
100
AcDbEntity
  8
DETAIL
  6
CONTINUOUS
100
AcDbLine
 10
-235.6504733708029
 20
-199.7071852469839
 30
0.0
 11
-235.8245297426206
 21
-197.6268291670921
 31
0.0
  0
LINE
  5
90CA6
330
1E
100
AcDbEntity
  8
DETAIL
  6
CONTINUOUS
100
AcDbLine
 10
-235.8245297426206
 20
-197.6268291670921
 30
0.0
 11
-235.9737931108361
 21
-195.5656579912742
 31
0.0
  0
LINE
  5
90CA7
330
1E
100
AcDbEntity
  8
DETAIL
  6
CONTINUOUS
100
AcDbLine
 10
-235.9737931108361
 20
-195.5656579912742
 30
0.0
 11
-236.1040074388442
 21
-193.4930809781688
 31
0.0
  0
LINE
  5
90CA8
330
1E
100
AcDbEntity
  8
DETAIL
  6
CONTINUOUS
100
AcDbLine
 10
-236.1040074388442
 20
-193.4930809781688
 30
0.0
 11
-236.2170133648764
 21
-191.4254419753106
 31
0.0
  0
LINE
  5
90CA9
330
1E
100
AcDbEntity
  8
DETAIL
  6
CONTINUOUS
100
AcDbLine
 10
-236.2170133648764
 20
-191.4254419753106
 30
0.0
 11
-236.4710945721403
 21
-185.813367383784
 31
0.0
  0
LINE
  5
90CAA
330
1E
100
AcDbEntity
  8
DETAIL
  6
CONTINUOUS
100
AcDbLine
 10
-230.5325670212155
 20
-219.4264556976879
 30
0.0
 11
-230.5325670212155
 21
-219.6263554476893
 31
0.0
  0
LINE
  5
90CAB
330
1E
100
AcDbEntity
  8
DETAIL
  6
CONTINUOUS
100
AcDbLine
 10
-216.2577423907719
 20
-202.9389882626535
 30
0.0
 11
-216.2824521681127
 21
-202.9422304953363
 31
0.0
  0
LINE
  5
90CAC
330
1E
100
AcDbEntity
  8
DETAIL
  6
CONTINUOUS
100
AcDbLine
 10
-216.2824521681127
 20
-202.9422304953363
 30
0.0
 11
-216.3072104238149
 21
-202.9446569198139
 31
0.0
  0
LINE
  5
90CAD
330
1E
100
AcDbEntity
  8
DETAIL
  6
CONTINUOUS
100
AcDbLine
 10
-216.3072104238149
 20
-202.9446569198139
 30
0.0
 11
-216.3320172391582
 21
-202.946267548082
 31
0.0
  0
LINE
  5
90CAE
330
1E
100
AcDbEntity
  8
DETAIL
  6
CONTINUOUS
100
AcDbLine
 10
-216.3320172391582
 20
-202.946267548082
 30
0.0
 11
-216.3568726634607
 21
-202.9470623868014
 31
0.0
  0
LINE
  5
90CAF
330
1E
100
AcDbEntity
  8
DETAIL
  6
CONTINUOUS
100
AcDbLine
 10
-216.7961380392757
 20
-202.9539613309734
 30
0.0
 11
-216.3568726634607
 21
-202.9470623868014
 31
0.0
  0
LINE
  5
90CB0
330
1E
100
AcDbEntity
  8
DETAIL
  6
CONTINUOUS
100
AcDbLine
 10
-217.0269130466226
 20
-203.0398094260335
 30
0.0
 11
-216.7840060008425
 21
-203.043608750002
 31
0.0
  0
LINE
  5
90CB1
330
1E
100
AcDbEntity
  8
DETAIL
  6
CONTINUOUS
100
AcDbLine
 10
-217.0269130466226
 20
-203.0398094260335
 30
0.0
 11
-217.0546321427905
 21
-203.0377018083415
 31
0.0
  0
LINE
  5
90CB2
330
1E
100
AcDbEntity
  8
DETAIL
  6
CONTINUOUS
100
AcDbLine
 10
-217.0546321427905
 20
-203.0377018083415
 30
0.0
 11
-217.0822077602465
 21
-203.0321266029805
 31
0.0
  0
LINE
  5
90CB3
330
1E
100
AcDbEntity
  8
DETAIL
  6
CONTINUOUS
100
AcDbLine
 10
-217.0822077602465
 20
-203.0321266029805
 30
0.0
 11
-217.1096974994366
 21
-203.0231407893791
 31
0.0
  0
LINE
  5
90CB4
330
1E
100
AcDbEntity
  8
DETAIL
  6
CONTINUOUS
100
AcDbLine
 10
-217.1096974994366
 20
-203.0231407893791
 30
0.0
 11
-217.1369285616915
 21
-203.0105734265934
 31
0.0
  0
LINE
  5
90CB5
330
1E
100
AcDbEntity
  8
DETAIL
  6
CONTINUOUS
100
AcDbLine
 10
-217.1369285616915
 20
-203.0105734265934
 30
0.0
 11
-217.1638413275672
 21
-202.9943260080321
 31
0.0
  0
LINE
  5
90CB6
330
1E
100
AcDbEntity
  8
DETAIL
  6
CONTINUOUS
100
AcDbLine
 10
-217.1638413275672
 20
-202.9943260080321
 30
0.0
 11
-217.1901538518036
 21
-202.9742381967619
 31
0.0
  0
LINE
  5
90CB7
330
1E
100
AcDbEntity
  8
DETAIL
  6
CONTINUOUS
100
AcDbLine
 10
-217.1901538518036
 20
-202.9742381967619
 30
0.0
 11
-217.2157485480224
 21
-202.9500445659014
 31
0.0
  0
LINE
  5
90CB8
330
1E
100
AcDbEntity
  8
DETAIL
  6
CONTINUOUS
100
AcDbLine
 10
-217.2157485480224
 20
-202.9500445659014
 30
0.0
 11
-217.2400727320787
 21
-202.9219618627489
 31
0.0
  0
LINE
  5
90CB9
330
1E
100
AcDbEntity
  8
DETAIL
  6
CONTINUOUS
100
AcDbLine
 10
-217.2400727320787
 20
-202.9219618627489
 30
0.0
 11
-217.2626510103732
 21
-202.890033429569
 31
0.0
  0
LINE
  5
90CBA
330
1E
100
AcDbEntity
  8
DETAIL
  6
CONTINUOUS
100
AcDbLine
 10
-217.2626510103732
 20
-202.890033429569
 30
0.0
 11
-217.2831339221743
 21
-202.8545140425921
 31
0.0
  0
LINE
  5
90CBB
330
1E
100
AcDbEntity
  8
DETAIL
  6
CONTINUOUS
100
AcDbLine
 10
-217.2831339221743
 20
-202.8545140425921
 30
0.0
 11
-217.3010956103521
 21
-202.8157627777361
 31
0.0
  0
LINE
  5
90CBC
330
1E
100
AcDbEntity
  8
DETAIL
  6
CONTINUOUS
100
AcDbLine
 10
-232.2472589768408
 20
-218.8316451293401
 30
0.0
 11
-232.9338111966212
 21
-216.2909527207525
 31
0.0
  0
LINE
  5
90CBD
330
1E
100
AcDbEntity
  8
DETAIL
  6
CONTINUOUS
100
AcDbLine
 10
-232.9338111966212
 20
-216.2909527207525
 30
0.0
 11
-233.5393547063909
 21
-213.7652932824373
 31
0.0
  0
LINE
  5
90CBE
330
1E
100
AcDbEntity
  8
DETAIL
  6
CONTINUOUS
100
AcDbLine
 10
-233.5393547063909
 20
-213.7652932824373
 30
0.0
 11
-234.07504866313
 21
-211.2083633569846
 31
0.0
  0
LINE
  5
90CBF
330
1E
100
AcDbEntity
  8
DETAIL
  6
CONTINUOUS
100
AcDbLine
 10
-234.07504866313
 20
-211.2083633569846
 30
0.0
 11
-234.5290910482495
 21
-208.6898917019898
 31
0.0
  0
LINE
  5
90CC0
330
1E
100
AcDbEntity
  8
DETAIL
  6
CONTINUOUS
100
AcDbLine
 10
-234.5290910482495
 20
-208.6898917019898
 30
0.0
 11
-234.8983073924068
 21
-206.2930988582368
 31
0.0
  0
LINE
  5
90CC1
330
1E
100
AcDbEntity
  8
DETAIL
  6
CONTINUOUS
100
AcDbLine
 10
-234.8983073924068
 20
-206.2930988582368
 30
0.0
 11
-235.2013286375026
 21
-203.9890120476111
 31
0.0
  0
LINE
  5
90CC2
330
1E
100
AcDbEntity
  8
DETAIL
  6
CONTINUOUS
100
AcDbLine
 10
-235.2013286375026
 20
-203.9890120476111
 30
0.0
 11
-235.4464946170869
 21
-201.8119610736755
 31
0.0
  0
LINE
  5
90CC3
330
1E
100
AcDbEntity
  8
DETAIL
  6
CONTINUOUS
100
AcDbLine
 10
-217.5327619267086
 20
-201.0559077421273
 30
0.0
 11
-217.5679347421614
 21
-200.729784596004
 31
0.0
  0
LINE
  5
90CC4
330
1E
100
AcDbEntity
  8
DETAIL
  6
CONTINUOUS
100
AcDbLine
 10
-217.5679347421614
 20
-200.729784596004
 30
0.0
 11
-217.6015090406076
 21
-200.4053954216205
 31
0.0
  0
LINE
  5
90CC5
330
1E
100
AcDbEntity
  8
DETAIL
  6
CONTINUOUS
100
AcDbLine
 10
-217.6015090406076
 20
-200.4053954216205
 30
0.0
 11
-217.6331163081854
 21
-200.0863371577784
 31
0.0
  0
LINE
  5
90CC6
330
1E
100
AcDbEntity
  8
DETAIL
  6
CONTINUOUS
100
AcDbLine
 10
-217.6331163081854
 20
-200.0863371577784
 30
0.0
 11
-217.6624046866932
 21
-199.776747881229
 31
0.0
  0
LINE
  5
90CC7
330
1E
100
AcDbEntity
  8
DETAIL
  6
CONTINUOUS
100
AcDbLine
 10
-217.6624046866932
 20
-199.776747881229
 30
0.0
 11
-217.6891223624047
 21
-199.4805492132686
 31
0.0
  0
LINE
  5
90CC8
330
1E
100
AcDbEntity
  8
DETAIL
  6
CONTINUOUS
100
AcDbLine
 10
-217.6891223624047
 20
-199.4805492132686
 30
0.0
 11
-217.7131380438463
 21
-199.2019195184425
 31
0.0
  0
LINE
  5
90CC9
330
1E
100
AcDbEntity
  8
DETAIL
  6
CONTINUOUS
100
AcDbLine
 10
-217.7131380438463
 20
-199.2019195184425
 30
0.0
 11
-217.7440984851314
 21
-198.8249851582099
 31
0.0
  0
LINE
  5
90CCA
330
1E
100
AcDbEntity
  8
DETAIL
  6
CONTINUOUS
100
AcDbLine
 10
-217.7440984851314
 20
-198.8249851582099
 30
0.0
 11
-217.7614083348931
 21
-198.6055679589055
 31
0.0
  0
LINE
  5
90CCB
330
1E
100
AcDbEntity
  8
DETAIL
  6
CONTINUOUS
100
AcDbLine
 10
-217.7614083348931
 20
-198.6055679589055
 30
0.0
 11
-217.7985130654819
 21
-198.1152520396808
 31
0.0
  0
LINE
  5
90CCC
330
1E
100
AcDbEntity
  8
DETAIL
  6
CONTINUOUS
100
AcDbLine
 10
-217.7985130654819
 20
-198.1152520396808
 30
0.0
 11
-217.837471094645
 21
-197.5742303641307
 31
0.0
  0
LINE
  5
90CCD
330
1E
100
AcDbEntity
  8
DETAIL
  6
CONTINUOUS
100
AcDbLine
 10
-217.837471094645
 20
-197.5742303641307
 30
0.0
 11
-217.8752196610171
 21
-197.0288352605257
 31
0.0
  0
LINE
  5
90CCE
330
1E
100
AcDbEntity
  8
DETAIL
  6
CONTINUOUS
100
AcDbLine
 10
-217.8752196610171
 20
-197.0288352605257
 30
0.0
 11
-217.9492258801297
 21
-195.9250793956116
 31
0.0
  0
LINE
  5
90CCF
330
1E
100
AcDbEntity
  8
DETAIL
  6
CONTINUOUS
100
AcDbLine
 10
-217.9492258801297
 20
-195.9250793956116
 30
0.0
 11
-218.0243526093113
 21
-194.7787670634945
 31
0.0
  0
LINE
  5
90CD0
330
1E
100
AcDbEntity
  8
DETAIL
  6
CONTINUOUS
100
AcDbLine
 10
-218.0243526093113
 20
-194.7787670634945
 30
0.0
 11
-218.0624414050603
 21
-194.1821027061578
 31
0.0
  0
LINE
  5
90CD1
330
1E
100
AcDbEntity
  8
DETAIL
  6
CONTINUOUS
100
AcDbLine
 10
-218.0624414050603
 20
-194.1821027061578
 30
0.0
 11
-218.1009268139118
 21
-193.5658047710853
 31
0.0
  0
LINE
  5
90CD2
330
1E
100
AcDbEntity
  8
DETAIL
  6
CONTINUOUS
100
AcDbLine
 10
-218.1009268139118
 20
-193.5658047710853
 30
0.0
 11
-218.1399225721475
 21
-192.9269186413603
 31
0.0
  0
LINE
  5
90CD3
330
1E
100
AcDbEntity
  8
DETAIL
  6
CONTINUOUS
100
AcDbLine
 10
-218.1399225721475
 20
-192.9269186413603
 30
0.0
 11
-218.1795314722317
 21
-192.2624473999367
 31
0.0
  0
LINE
  5
90CD4
330
1E
100
AcDbEntity
  8
DETAIL
  6
CONTINUOUS
100
AcDbLine
 10
-218.1795314722317
 20
-192.2624473999367
 30
0.0
 11
-218.2198397988763
 21
-191.5694053641391
 31
0.0
  0
LINE
  5
90CD5
330
1E
100
AcDbEntity
  8
DETAIL
  6
CONTINUOUS
100
AcDbLine
 10
-218.2198397988763
 20
-191.5694053641391
 30
0.0
 11
-218.2609183605968
 21
-190.844800726365
 31
0.0
  0
LINE
  5
90CD6
330
1E
100
AcDbEntity
  8
DETAIL
  6
CONTINUOUS
100
AcDbLine
 10
-218.2609183605968
 20
-190.844800726365
 30
0.0
 11
-218.3028087964835
 21
-190.0856829929525
 31
0.0
  0
LINE
  5
90CD7
330
1E
100
AcDbEntity
  8
DETAIL
  6
CONTINUOUS
100
AcDbLine
 10
-218.3028087964835
 20
-190.0856829929525
 30
0.0
 11
-218.3455115756501
 21
-189.2889350631362
 31
0.0
  0
LINE
  5
90CD8
330
1E
100
AcDbEntity
  8
DETAIL
  6
CONTINUOUS
100
AcDbLine
 10
-218.3455115756501
 20
-189.2889350631362
 30
0.0
 11
-218.3890682718979
 21
-188.4499448139029
 31
0.0
  0
LINE
  5
90CD9
330
1E
100
AcDbEntity
  8
DETAIL
  6
CONTINUOUS
100
AcDbLine
 10
-218.3890682718979
 20
-188.4499448139029
 30
0.0
 11
-218.4519091584411
 21
-187.1864489254996
 31
0.0
  0
LINE
  5
90CDA
330
1E
100
AcDbEntity
  8
DETAIL
  6
CONTINUOUS
100
AcDbLine
 10
-218.4519091584411
 20
-187.1864489254996
 30
0.0
 11
-218.4891604475383
 21
-186.4038014163004
 31
0.0
  0
LINE
  5
90CDB
330
1E
100
AcDbEntity
  8
DETAIL
  6
CONTINUOUS
100
AcDbLine
 10
-218.4891604475383
 20
-186.4038014163004
 30
0.0
 11
-218.5243643647231
 21
-185.6380837540991
 31
0.0
  0
LINE
  5
90CDC
330
1E
100
AcDbEntity
  8
DETAIL
  6
CONTINUOUS
100
AcDbLine
 10
-218.5243643647231
 20
-185.6380837540991
 30
0.0
 11
-218.5559489583397
 21
-184.9272447248493
 31
0.0
  0
LINE
  5
90CDD
330
1E
100
AcDbEntity
  8
DETAIL
  6
CONTINUOUS
100
AcDbLine
 10
-218.5559489583397
 20
-184.9272447248493
 30
0.0
 11
-218.5899004676071
 21
-184.1352299240302
 31
0.0
  0
LINE
  5
90CDE
330
1E
100
AcDbEntity
  8
DETAIL
  6
CONTINUOUS
100
AcDbLine
 10
-218.5899004676071
 20
-184.1352299240302
 30
0.0
 11
-218.6175266370523
 21
-183.4671247050509
 31
0.0
  0
LINE
  5
90CDF
330
1E
100
AcDbEntity
  8
DETAIL
  6
CONTINUOUS
100
AcDbLine
 10
-215.3653821999637
 20
-202.3406543279447
 30
0.0
 11
-215.3635244582988
 21
-202.3857212494886
 31
0.0
  0
LINE
  5
90CE0
330
1E
100
AcDbEntity
  8
DETAIL
  6
CONTINUOUS
100
AcDbLine
 10
-222.4271319080985
 20
-219.3279051955689
 30
0.0
 11
-222.4271319080985
 21
-218.6525324279432
 31
0.0
  0
LINE
  5
90CE1
330
1E
100
AcDbEntity
  8
DETAIL
  6
CONTINUOUS
100
AcDbLine
 10
-215.5048723561253
 20
-210.0944431974794
 30
0.0
 11
-215.5048723561253
 21
-214.0924381974789
 31
0.0
  0
LINE
  5
90CE2
330
1E
100
AcDbEntity
  8
DETAIL
  6
CONTINUOUS
100
AcDbLine
 10
-218.6175360389975
 20
-183.4668948923019
 30
0.0
 11
-218.6169717006819
 21
-183.4129822109189
 31
0.0
  0
LINE
  5
90CE3
330
1E
100
AcDbEntity
  8
DETAIL
  6
CONTINUOUS
100
AcDbLine
 10
-218.6169717006819
 20
-183.4129822109189
 30
0.0
 11
-218.6120403004593
 21
-183.3621766486462
 31
0.0
  0
LINE
  5
90CE4
330
1E
100
AcDbEntity
  8
DETAIL
  6
CONTINUOUS
100
AcDbLine
 10
-218.6120403004593
 20
-183.3621766486462
 30
0.0
 11
-218.6025146682427
 21
-183.3142970869778
 31
0.0
  0
LINE
  5
90CE5
330
1E
100
AcDbEntity
  8
DETAIL
  6
CONTINUOUS
100
AcDbLine
 10
-218.6025146682427
 20
-183.3142970869778
 30
0.0
 11
-218.5890763102656
 21
-183.2698868774259
 31
0.0
  0
LINE
  5
90CE6
330
1E
100
AcDbEntity
  8
DETAIL
  6
CONTINUOUS
100
AcDbLine
 10
-216.0232894279183
 20
-202.8908595859179
 30
0.0
 11
-216.100110178208
 21
-202.9096848983315
 31
0.0
  0
LINE
  5
90CE7
330
1E
100
AcDbEntity
  8
DETAIL
  6
CONTINUOUS
100
AcDbLine
 10
-216.100110178208
 20
-202.9096848983315
 30
0.0
 11
-216.1784515125877
 21
-202.9257492353781
 31
0.0
  0
LINE
  5
90CE8
330
1E
100
AcDbEntity
  8
DETAIL
  6
CONTINUOUS
100
AcDbLine
 10
-216.1784515125877
 20
-202.9257492353781
 30
0.0
 11
-216.2577409195096
 21
-202.9389880947387
 31
0.0
  0
LINE
  5
90CE9
330
1E
100
AcDbEntity
  8
DETAIL
  6
CONTINUOUS
100
AcDbLine
 10
-218.1341338991719
 20
-183.053633750002
 30
0.0
 11
-218.3354010394255
 21
-183.0568086631121
 31
0.0
  0
LINE
  5
90CEA
330
1E
100
AcDbEntity
  8
DETAIL
  6
CONTINUOUS
100
AcDbLine
 10
-217.5639569303716
 20
-183.153794576543
 30
0.0
 11
-217.5949922381319
 21
-183.1537020349519
 31
0.0
  0
LINE
  5
90CEB
330
1E
100
AcDbEntity
  8
DETAIL
  6
CONTINUOUS
100
AcDbLine
 10
-217.4756516435977
 20
-183.1547192288294
 30
0.0
 11
-217.5639569703566
 21
-183.153794576543
 31
0.0
  0
LINE
  5
90CEC
330
1E
100
AcDbEntity
  8
DETAIL
  6
CONTINUOUS
100
AcDbLine
 10
-217.594992332743
 20
-183.153702033619
 30
0.0
 11
-218.1306968935064
 21
-183.1450302038883
 31
0.0
  0
LINE
  5
90CED
330
1E
100
AcDbEntity
  8
DETAIL
  6
CONTINUOUS
100
AcDbLine
 10
-217.3880713798939
 20
-183.1593257026757
 30
0.0
 11
-217.4756516435977
 21
-183.1547192288294
 31
0.0
  0
LINE
  5
90CEE
330
1E
100
AcDbEntity
  8
DETAIL
  6
CONTINUOUS
100
AcDbLine
 10
-217.3019655154353
 20
-183.1676476825232
 30
0.0
 11
-217.3880713798939
 21
-183.1593257026757
 31
0.0
  0
LINE
  5
90CEF
330
1E
100
AcDbEntity
  8
DETAIL
  6
CONTINUOUS
100
AcDbLine
 10
-217.2179344184737
 20
-183.1796906029826
 30
0.0
 11
-217.3019655154353
 21
-183.1676476825232
 31
0.0
  0
LINE
  5
90CF0
330
1E
100
AcDbEntity
  8
DETAIL
  6
CONTINUOUS
100
AcDbLine
 10
-217.1368312971321
 20
-183.1954087829624
 30
0.0
 11
-217.2179344184737
 21
-183.1796906029826
 31
0.0
  0
LINE
  5
90CF1
330
1E
100
AcDbEntity
  8
DETAIL
  6
CONTINUOUS
100
AcDbLine
 10
-217.0586945561558
 20
-183.2149919952876
 30
0.0
 11
-217.1368312971321
 21
-183.1954087829624
 31
0.0
  0
LINE
  5
90CF2
330
1E
100
AcDbEntity
  8
DETAIL
  6
CONTINUOUS
100
AcDbLine
 10
-216.9835729044284
 20
-183.2386888726018
 30
0.0
 11
-217.0586945561558
 21
-183.2149919952876
 31
0.0
  0
LINE
  5
90CF3
330
1E
100
AcDbEntity
  8
DETAIL
  6
CONTINUOUS
100
AcDbLine
 10
-216.9129538639795
 20
-183.2663055228158
 30
0.0
 11
-216.9835729044284
 21
-183.2386888726018
 31
0.0
  0
LINE
  5
90CF4
330
1E
100
AcDbEntity
  8
DETAIL
  6
CONTINUOUS
100
AcDbLine
 10
-216.8478774278942
 20
-183.2978442447699
 30
0.0
 11
-216.9129538639795
 21
-183.2663055228158
 31
0.0
  0
LINE
  5
90CF5
330
1E
100
AcDbEntity
  8
DETAIL
  6
CONTINUOUS
100
AcDbLine
 10
-216.789363000968
 20
-183.3329519062281
 30
0.0
 11
-216.8478774278942
 21
-183.2978442447699
 31
0.0
  0
LINE
  5
90CF6
330
1E
100
AcDbEntity
  8
DETAIL
  6
CONTINUOUS
100
AcDbLine
 10
-216.7383707229914
 20
-183.3713296557334
 30
0.0
 11
-216.789363000968
 21
-183.3329519062281
 31
0.0
  0
LINE
  5
90CF7
330
1E
100
AcDbEntity
  8
DETAIL
  6
CONTINUOUS
100
AcDbLine
 10
-216.6952907609888
 20
-183.4127862265404
 30
0.0
 11
-216.7383707229914
 21
-183.3713296557334
 31
0.0
  0
LINE
  5
90CF8
330
1E
100
AcDbEntity
  8
DETAIL
  6
CONTINUOUS
100
AcDbLine
 10
-216.6605783559794
 20
-183.4571912346996
 30
0.0
 11
-216.6952907609888
 21
-183.4127862265404
 31
0.0
  0
LINE
  5
90CF9
330
1E
100
AcDbEntity
  8
DETAIL
  6
CONTINUOUS
100
AcDbLine
 10
-216.6347969014064
 20
-183.5040577684033
 30
0.0
 11
-216.6605783559794
 21
-183.4571912346996
 31
0.0
  0
LINE
  5
90CFA
330
1E
100
AcDbEntity
  8
DETAIL
  6
CONTINUOUS
100
AcDbLine
 10
-217.3010956103521
 20
-202.8157627777361
 30
0.0
 11
-217.3162898770774
 21
-202.7735100635331
 31
0.0
  0
LINE
  5
90CFB
330
1E
100
AcDbEntity
  8
DETAIL
  6
CONTINUOUS
100
AcDbLine
 10
-216.6183390776936
 20
-183.552772476575
 30
0.0
 11
-216.6347969014064
 21
-183.5040577684033
 31
0.0
  0
LINE
  5
90CFC
330
1E
100
AcDbEntity
  8
DETAIL
  6
CONTINUOUS
100
AcDbLine
 10
-217.3162898770774
 20
-202.7735100635331
 30
0.0
 11
-217.3282800506608
 21
-202.7275872911995
 31
0.0
  0
LINE
  5
90CFD
330
1E
100
AcDbEntity
  8
DETAIL
  6
CONTINUOUS
100
AcDbLine
 10
-217.3282800506608
 20
-202.7275872911995
 30
0.0
 11
-217.3372116887571
 21
-202.6780506618879
 31
0.0
  0
LINE
  5
90CFE
330
1E
100
AcDbEntity
  8
DETAIL
  6
CONTINUOUS
100
AcDbLine
 10
-216.6113986170207
 20
-183.6035550290571
 30
0.0
 11
-216.6183390776936
 21
-183.552772476575
 31
0.0
  0
LINE
  5
90CFF
330
1E
100
AcDbEntity
  8
DETAIL
  6
CONTINUOUS
100
AcDbLine
 10
-217.3374971429334
 20
-202.6758723689702
 30
0.0
 11
-217.388239259692
 21
-202.2813073318786
 31
0.0
  0
LINE
  5
90D00
330
1E
100
AcDbEntity
  8
DETAIL
  6
CONTINUOUS
100
AcDbLine
 10
-217.388239259692
 20
-202.2813073318786
 30
0.0
 11
-217.4344423661064
 21
-201.9072013732006
 31
0.0
  0
LINE
  5
90D01
330
1E
100
AcDbEntity
  8
DETAIL
  6
CONTINUOUS
100
AcDbLine
 10
-217.4344423661064
 20
-201.9072013732006
 30
0.0
 11
-217.4762196840642
 21
-201.5553520927658
 31
0.0
  0
LINE
  5
90D02
330
1E
100
AcDbEntity
  8
DETAIL
  6
CONTINUOUS
100
AcDbLine
 10
-217.4762196840642
 20
-201.5553520927658
 30
0.0
 11
-217.5327619267086
 21
-201.0559077421273
 31
0.0
  0
LINE
  5
90D03
330
1E
100
AcDbEntity
  8
DETAIL
  6
CONTINUOUS
100
AcDbLine
 10
-215.3635244582988
 20
-202.3857212494886
 30
0.0
 11
-215.3695855279934
 21
-202.4309251716608
 31
0.0
  0
LINE
  5
90D04
330
1E
100
AcDbEntity
  8
DETAIL
  6
CONTINUOUS
100
AcDbLine
 10
-215.3695855279934
 20
-202.4309251716608
 30
0.0
 11
-215.3834644676794
 21
-202.4757790093999
 31
0.0
  0
LINE
  5
90D05
330
1E
100
AcDbEntity
  8
DETAIL
  6
CONTINUOUS
100
AcDbLine
 10
-218.5890763102656
 20
-183.2698868774259
 30
0.0
 11
-218.5721544152788
 21
-183.2293573163915
 31
0.0
  0
LINE
  5
90D06
330
1E
100
AcDbEntity
  8
DETAIL
  6
CONTINUOUS
100
AcDbLine
 10
-215.3834644676794
 20
-202.4757790093999
 30
0.0
 11
-215.4049416368566
 21
-202.5199562984262
 31
0.0
  0
LINE
  5
90D07
330
1E
100
AcDbEntity
  8
DETAIL
  6
CONTINUOUS
100
AcDbLine
 10
-218.5721544152788
 20
-183.2293573163915
 30
0.0
 11
-218.5522787642808
 21
-183.1929234480274
 31
0.0
  0
LINE
  5
90D08
330
1E
100
AcDbEntity
  8
DETAIL
  6
CONTINUOUS
100
AcDbLine
 10
-218.5522787642808
 20
-183.1929234480274
 30
0.0
 11
-218.529973159912
 21
-183.1609665491209
 31
0.0
  0
LINE
  5
90D09
330
1E
100
AcDbEntity
  8
DETAIL
  6
CONTINUOUS
100
AcDbLine
 10
-218.529973159912
 20
-183.1609665491209
 30
0.0
 11
-218.5056847219298
 21
-183.1333992088482
 31
0.0
  0
LINE
  5
90D0A
330
1E
100
AcDbEntity
  8
DETAIL
  6
CONTINUOUS
100
AcDbLine
 10
-218.5056847219298
 20
-183.1333992088482
 30
0.0
 11
-218.4800153258334
 21
-183.1103479370929
 31
0.0
  0
LINE
  5
90D0B
330
1E
100
AcDbEntity
  8
DETAIL
  6
CONTINUOUS
100
AcDbLine
 10
-218.4800153258334
 20
-183.1103479370929
 30
0.0
 11
-218.4530245057635
 21
-183.0915522298314
 31
0.0
  0
LINE
  5
90D0C
330
1E
100
AcDbEntity
  8
DETAIL
  6
CONTINUOUS
100
AcDbLine
 10
-218.3958590729748
 20
-183.0660725026179
 30
0.0
 11
-218.3660416317911
 21
-183.0594135980663
 31
0.0
  0
LINE
  5
90D0D
330
1E
100
AcDbEntity
  8
DETAIL
  6
CONTINUOUS
100
AcDbLine
 10
-218.3660416317911
 20
-183.0594135980663
 30
0.0
 11
-218.3354010394255
 21
-183.0568086631121
 31
0.0
  0
LINE
  5
90D0E
330
1E
100
AcDbEntity
  8
DETAIL
  6
CONTINUOUS
100
AcDbLine
 10
-215.4049416368566
 20
-202.5199562984262
 30
0.0
 11
-215.4336802603943
 21
-202.5631210179283
 31
0.0
  0
LINE
  5
90D0F
330
1E
100
AcDbEntity
  8
DETAIL
  6
CONTINUOUS
100
AcDbLine
 10
-215.4336802603943
 20
-202.5631210179283
 30
0.0
 11
-215.4694180045285
 21
-202.6050945054989
 31
0.0
  0
LINE
  5
90D10
330
1E
100
AcDbEntity
  8
DETAIL
  6
CONTINUOUS
100
AcDbLine
 10
-215.4694180045285
 20
-202.6050945054989
 30
0.0
 11
-215.5119211624683
 21
-202.6457552460828
 31
0.0
  0
LINE
  5
90D11
330
1E
100
AcDbEntity
  8
DETAIL
  6
CONTINUOUS
100
AcDbLine
 10
-215.5119211624683
 20
-202.6457552460828
 30
0.0
 11
-215.5607002850124
 21
-202.6847205502615
 31
0.0
  0
LINE
  5
90D12
330
1E
100
AcDbEntity
  8
DETAIL
  6
CONTINUOUS
100
AcDbLine
 10
-215.5607002850124
 20
-202.6847205502615
 30
0.0
 11
-215.6152831676195
 21
-202.7217986435457
 31
0.0
  0
LINE
  5
90D13
330
1E
100
AcDbEntity
  8
DETAIL
  6
CONTINUOUS
100
AcDbLine
 10
-218.4530245057635
 20
-183.0915522298314
 30
0.0
 11
-218.4249291542842
 21
-183.0767759201726
 31
0.0
  0
LINE
  5
90D14
330
1E
100
AcDbEntity
  8
DETAIL
  6
CONTINUOUS
100
AcDbLine
 10
-218.4249291542842
 20
-183.0767759201726
 30
0.0
 11
-218.3958590729748
 21
-183.0660725026179
 31
0.0
  0
LINE
  5
90D15
330
1E
100
AcDbEntity
  8
DETAIL
  6
CONTINUOUS
100
AcDbLine
 10
-215.6152831676195
 20
-202.7217986435457
 30
0.0
 11
-215.6749123195172
 21
-202.7565895105451
 31
0.0
  0
LINE
  5
90D16
330
1E
100
AcDbEntity
  8
DETAIL
  6
CONTINUOUS
100
AcDbLine
 10
-215.6749123195172
 20
-202.7565895105451
 30
0.0
 11
-215.7386839166433
 21
-202.7888386069134
 31
0.0
  0
LINE
  5
90D17
330
1E
100
AcDbEntity
  8
DETAIL
  6
CONTINUOUS
100
AcDbLine
 10
-215.7386839166433
 20
-202.7888386069134
 30
0.0
 11
-215.8059830846782
 21
-202.8184330412618
 31
0.0
  0
LINE
  5
90D18
330
1E
100
AcDbEntity
  8
DETAIL
  6
CONTINUOUS
100
AcDbLine
 10
-215.8059830846782
 20
-202.8184330412618
 30
0.0
 11
-215.8759106892216
 21
-202.8452067755326
 31
0.0
  0
LINE
  5
90D19
330
1E
100
AcDbEntity
  8
DETAIL
  6
CONTINUOUS
100
AcDbLine
 10
-215.8759106892216
 20
-202.8452067755326
 30
0.0
 11
-215.9483678158799
 21
-202.8693380016902
 31
0.0
  0
LINE
  5
90D1A
330
1E
100
AcDbEntity
  8
DETAIL
  6
CONTINUOUS
100
AcDbLine
 10
-215.9483678158799
 20
-202.8693380016902
 30
0.0
 11
-216.0232894279183
 21
-202.8908595859179
 31
0.0
  0
LINE
  5
90D1B
330
1E
100
AcDbEntity
  8
DETAIL
  6
CONTINUOUS
100
AcDbLine
 10
-230.5325670212155
 20
-219.4264556976879
 30
0.0
 11
-216.2121459534469
 21
-215.0482636057204
 31
0.0
  0
LINE
  5
90D1C
330
1E
100
AcDbEntity
  8
DETAIL
  6
CONTINUOUS
100
AcDbLine
 10
-224.1139142804136
 20
-219.168233551119
 30
0.0
 11
-214.3142635161025
 21
-216.1721796456126
 31
0.0
  0
LINE
  5
90D1D
330
1E
100
AcDbEntity
  8
DETAIL
  6
CONTINUOUS
100
AcDbLine
 10
-230.177821114778
 20
-222.0673237733785
 30
0.0
 11
-214.0220621408266
 21
-217.1280125727475
 31
0.0
  0
ARC
  5
90D1E
330
1E
100
AcDbEntity
  8
DETAIL
  6
CONTINUOUS
100
AcDbCircle
 10
-141.0306249031477
 20
-192.6604569229455
 30
0.0
 40
76.46165437500002
100
AcDbArc
 50
184.0749643962005
 51
193.0068460648986
  0
ARC
  5
90D1F
330
1E
100
AcDbEntity
  8
DETAIL
  6
CONTINUOUS
100
AcDbCircle
 10
-229.8855976385862
 20
-223.0231496946935
 30
0.0
 40
0.99949875
100
AcDbArc
 50
106.9998994978845
 51
198.8764191311982
  0
ARC
  5
90D20
330
1E
100
AcDbEntity
  8
DETAIL
  6
CONTINUOUS
100
AcDbCircle
 10
-231.2862049094478
 20
-218.5571040027621
 30
0.0
 40
0.99949875
100
AcDbArc
 50
195.9428741693933
 51
264.9999999999745
  0
ARC
  5
90D21
330
1E
100
AcDbEntity
  8
DETAIL
  6
CONTINUOUS
100
AcDbCircle
 10
-224.4061394330897
 20
-218.2124081428776
 30
0.0
 40
0.99949875
100
AcDbArc
 50
272.0000000000034
 51
286.9999999999807
  0
ARC
  5
90D22
330
1E
100
AcDbEntity
  8
DETAIL
  6
CONTINUOUS
100
AcDbCircle
 10
-216.504371106123
 20
-214.0924381974789
 30
0.0
 40
0.99949875
100
AcDbArc
 50
286.9999999999807
 51
0.0
  0
ARC
  5
90D23
330
1E
100
AcDbEntity
  8
DETAIL
  6
CONTINUOUS
100
AcDbCircle
 10
-216.504371106123
 20
-210.0944431974794
 30
0.0
 40
0.99949875
100
AcDbArc
 50
0.0
 51
13.00684606489864
  0
ARC
  5
90D24
330
1E
100
AcDbEntity
  8
DETAIL
  6
CONTINUOUS
100
AcDbCircle
 10
-222.9268741533292
 20
-219.3279030166604
 30
0.0
 40
0.4997479490484502
100
AcDbArc
 50
286.999145266684
 51
359.9997500966001
  0
LINE
  5
90D25
330
1E
100
AcDbEntity
  8
DETAIL
  6
CONTINUOUS
100
AcDbLine
 10
-226.5822086153971
 20
-233.7036442546268
 30
0.0
 11
-226.4045814250134
 21
-234.0704825153998
 31
0.0
  0
LINE
  5
90D26
330
1E
100
AcDbEntity
  8
DETAIL
  6
CONTINUOUS
100
AcDbLine
 10
-236.4710945721403
 20
-185.813367383784
 30
0.0
 11
-236.6727277794657
 21
-179.8934739664873
 31
0.0
  0
ARC
  5
90D27
330
1E
100
AcDbEntity
  8
DETAIL
  6
CONTINUOUS
100
AcDbCircle
 10
262.743013218434
 20
-163.8949340362999
 30
0.0
 40
481.258648125
100
AcDbArc
 50
180.2101953957981
 51
184.0749643962005
  0
ARC
  5
90D28
330
1E
100
AcDbEntity
  8
DETAIL
  6
CONTINUOUS
100
AcDbCircle
 10
262.743013218434
 20
-163.8949340362999
 30
0.0
 40
479.7594
100
AcDbArc
 50
180.2101953957981
 51
184.0749643962005
  0
ARC
  5
90D29
330
1E
100
AcDbEntity
  8
DETAIL
  6
CONTINUOUS
100
AcDbCircle
 10
262.743013218434
 20
-163.8949340362999
 30
0.0
 40
478.75990125
100
AcDbArc
 50
180.2101932744033
 51
182.8211849646028
  0
LINE
  5
90D31
330
1E
100
AcDbEntity
  8
DETAIL
  6
CONTINUOUS
100
AcDbLine
 10
-236.3167855596552
 20
-98.39359330490902
 30
0.0
 11
-236.0377695745487
 21
-87.35230902418834
 31
0.0
  0
LINE
  5
90D32
330
1E
100
AcDbEntity
  8
DETAIL
  6
CONTINUOUS
100
AcDbLine
 10
-237.0000000000004
 20
-152.9175364269917
 30
0.0
 11
-236.9795679467047
 21
-145.0137867016978
 31
0.0
  0
LINE
  5
90D33
330
1E
100
AcDbEntity
  8
DETAIL
  6
CONTINUOUS
100
AcDbLine
 10
-236.9795679467047
 20
-145.0137867016978
 30
0.0
 11
-236.9205913995197
 21
-136.6384945435868
 31
0.0
  0
LINE
  5
90D34
330
1E
100
AcDbEntity
  8
DETAIL
  6
CONTINUOUS
100
AcDbLine
 10
-236.9205913995197
 20
-136.6384945435868
 30
0.0
 11
-236.8277995294452
 21
-127.8130433648439
 31
0.0
  0
LINE
  5
90D35
330
1E
100
AcDbEntity
  8
DETAIL
  6
CONTINUOUS
100
AcDbLine
 10
-236.8277995294452
 20
-127.8130433648439
 30
0.0
 11
-236.7007618203611
 21
-118.5033970199776
 31
0.0
  0
LINE
  5
90D36
330
1E
100
AcDbEntity
  8
DETAIL
  6
CONTINUOUS
100
AcDbLine
 10
-236.7007618203611
 20
-118.5033970199776
 30
0.0
 11
-236.5333157361351
 21
-108.7197644984974
 31
0.0
  0
LINE
  5
90D37
330
1E
100
AcDbEntity
  8
DETAIL
  6
CONTINUOUS
100
AcDbLine
 10
-236.5333157361351
 20
-108.7197644984974
 30
0.0
 11
-236.3167855596552
 21
-98.39359330490902
 31
0.0
  0
LINE
  5
90D38
330
1E
100
AcDbEntity
  8
DETAIL
  6
CONTINUOUS
100
AcDbLine
 10
-179.7844135714171
 20
-233.2695820041096
 30
0.0
 11
-179.6561412801461
 21
-233.2354453836706
 31
0.0
  0
LINE
  5
90D39
330
1E
100
AcDbEntity
  8
DETAIL
  6
CONTINUOUS
100
AcDbLine
 10
-179.7844073238834
 20
-227.2725881901024
 30
0.0
 11
-179.6561229746625
 21
-227.2384460151152
 31
0.0
  0
LINE
  5
90D3A
330
1E
100
AcDbEntity
  8
DETAIL
  6
CONTINUOUS
100
AcDbLine
 10
-179.6504019650806
 20
-233.3390727024284
 30
0.0
 11
-179.780900877035
 21
-233.3712039512318
 31
0.0
  0
LINE
  5
90D3B
330
1E
100
AcDbEntity
  8
DETAIL
  6
CONTINUOUS
100
AcDbLine
 10
-179.6503933760582
 20
-227.3420762230923
 30
0.0
 11
-179.7809121633695
 21
-227.374213632803
 31
0.0
  0
LINE
  5
90D3C
330
1E
100
AcDbEntity
  8
DETAIL
  6
CONTINUOUS
100
AcDbLine
 10
-179.9149440062178
 20
-233.2899491472912
 30
0.0
 11
-179.7844135714171
 21
-233.2695820041096
 31
0.0
  0
LINE
  5
90D3D
330
1E
100
AcDbEntity
  8
DETAIL
  6
CONTINUOUS
100
AcDbLine
 10
-179.9149429467529
 20
-227.2929572709792
 30
0.0
 11
-179.7844073238834
 21
-227.2725881901024
 31
0.0
  0
LINE
  5
90D3E
330
1E
100
AcDbEntity
  8
DETAIL
  6
CONTINUOUS
100
AcDbLine
 10
-179.780900877035
 20
-233.3712039512318
 30
0.0
 11
-179.9133510251035
 21
-233.3902468585188
 31
0.0
  0
LINE
  5
90D3F
330
1E
100
AcDbEntity
  8
DETAIL
  6
CONTINUOUS
100
AcDbLine
 10
-179.7809121633695
 20
-227.374213632803
 30
0.0
 11
-179.9133636307801
 21
-227.3932577048415
 31
0.0
  0
LINE
  5
90D40
330
1E
100
AcDbEntity
  8
DETAIL
  6
CONTINUOUS
100
AcDbLine
 10
-180.0483849080942
 20
-233.2967379640258
 30
0.0
 11
-179.9149440062178
 21
-233.2899491472912
 31
0.0
  0
LINE
  5
90D41
330
1E
100
AcDbEntity
  8
DETAIL
  6
CONTINUOUS
100
AcDbLine
 10
-180.0483849080942
 20
-227.2997454640253
 30
0.0
 11
-179.9149429467529
 21
-227.2929572709792
 31
0.0
  0
LINE
  5
90D42
330
1E
100
AcDbEntity
  8
DETAIL
  6
CONTINUOUS
100
AcDbLine
 10
-179.9133510251035
 20
-233.3902468585188
 30
0.0
 11
-180.0483849080942
 21
-233.3963234977425
 31
0.0
  0
LINE
  5
90D43
330
1E
100
AcDbEntity
  8
DETAIL
  6
CONTINUOUS
100
AcDbLine
 10
-179.9133636307801
 20
-227.3932577048415
 30
0.0
 11
-180.0483849080942
 21
-227.3993309977417
 31
0.0
  0
LINE
  5
90D44
330
1E
100
AcDbEntity
  8
DETAIL
  6
CONTINUOUS
100
AcDbLine
 10
-180.0483849080942
 20
-230.6618215022599
 30
0.0
 11
-179.9133636307801
 21
-230.6678947964937
 31
0.0
  0
LINE
  5
90D45
330
1E
100
AcDbEntity
  8
DETAIL
  6
CONTINUOUS
100
AcDbLine
 10
-180.0483849080942
 20
-224.6648290022594
 30
0.0
 11
-179.9133510251035
 21
-224.6709056414833
 31
0.0
  0
LINE
  5
90D46
330
1E
100
AcDbEntity
  8
DETAIL
  6
CONTINUOUS
100
AcDbLine
 10
-179.9149429467529
 20
-230.7681952290227
 30
0.0
 11
-180.0483849080942
 21
-230.7614070359798
 31
0.0
  0
LINE
  5
90D47
330
1E
100
AcDbEntity
  8
DETAIL
  6
CONTINUOUS
100
AcDbLine
 10
-179.9149440062178
 20
-224.7712033527107
 30
0.0
 11
-180.0483849080942
 21
-224.7644145359793
 31
0.0
  0
LINE
  5
90D48
330
1E
100
AcDbEntity
  8
DETAIL
  6
CONTINUOUS
100
AcDbLine
 10
-179.9133636307801
 20
-230.6678947964937
 30
0.0
 11
-179.7809121633695
 21
-230.6869388672018
 31
0.0
  0
LINE
  5
90D49
330
1E
100
AcDbEntity
  8
DETAIL
  6
CONTINUOUS
100
AcDbLine
 10
-179.9133510251035
 20
-224.6709056414833
 30
0.0
 11
-179.780900877035
 21
-224.6899485487733
 31
0.0
  0
LINE
  5
90D4A
330
1E
100
AcDbEntity
  8
DETAIL
  6
CONTINUOUS
100
AcDbLine
 10
-179.7844073238834
 20
-230.7885643099025
 30
0.0
 11
-179.9149429467529
 21
-230.7681952290227
 31
0.0
  0
LINE
  5
90D4B
330
1E
100
AcDbEntity
  8
DETAIL
  6
CONTINUOUS
100
AcDbLine
 10
-179.7844135714171
 20
-224.7915704972256
 30
0.0
 11
-179.9149440062178
 21
-224.7712033527107
 31
0.0
  0
LINE
  5
90D4C
330
1E
100
AcDbEntity
  8
DETAIL
  6
CONTINUOUS
100
AcDbLine
 10
-179.7809121633695
 20
-230.6869388672018
 30
0.0
 11
-179.6503933760582
 21
-230.7190762782458
 31
0.0
  0
LINE
  5
90D4D
330
1E
100
AcDbEntity
  8
DETAIL
  6
CONTINUOUS
100
AcDbLine
 10
-179.780900877035
 20
-224.6899485487733
 30
0.0
 11
-179.6504019650806
 21
-224.7220797975737
 31
0.0
  0
LINE
  5
90D4E
330
1E
100
AcDbEntity
  8
DETAIL
  6
CONTINUOUS
100
AcDbLine
 10
-179.6561412801461
 20
-224.8257071176646
 30
0.0
 11
-179.7844135714171
 21
-224.7915704972256
 31
0.0
  0
LINE
  5
90D4F
330
1E
100
AcDbEntity
  8
DETAIL
  6
CONTINUOUS
100
AcDbLine
 10
-179.6561229746625
 20
-230.82270648622
 30
0.0
 11
-179.7844073238834
 21
-230.7885643099025
 31
0.0
  0
LINE
  5
90D50
330
1E
100
AcDbEntity
  8
DETAIL
  6
CONTINUOUS
100
AcDbLine
 10
-179.6503933760582
 20
-230.7190762782458
 30
0.0
 11
-179.5237186609378
 21
-230.7639393420231
 31
0.0
  0
LINE
  5
90D51
330
1E
100
AcDbEntity
  8
DETAIL
  6
CONTINUOUS
100
AcDbLine
 10
-179.532055090875
 20
-230.8700451404847
 30
0.0
 11
-179.6561229746625
 21
-230.82270648622
 31
0.0
  0
LINE
  5
90D52
330
1E
100
AcDbEntity
  8
DETAIL
  6
CONTINUOUS
100
AcDbLine
 10
-179.6504019650806
 20
-224.7220797975737
 30
0.0
 11
-179.5237517843238
 21
-224.7669331675485
 31
0.0
  0
LINE
  5
90D53
330
1E
100
AcDbEntity
  8
DETAIL
  6
CONTINUOUS
100
AcDbLine
 10
-179.5320841043289
 20
-224.8730397696065
 30
0.0
 11
-179.6561412801461
 21
-224.8257071176646
 31
0.0
  0
LINE
  5
90D54
330
1E
100
AcDbEntity
  8
DETAIL
  6
CONTINUOUS
100
AcDbLine
 10
-179.5237186609378
 20
-230.7639393420231
 30
0.0
 11
-179.4022206376944
 21
-230.821557410482
 31
0.0
  0
LINE
  5
90D55
330
1E
100
AcDbEntity
  8
DETAIL
  6
CONTINUOUS
100
AcDbLine
 10
-179.5237517843238
 20
-224.7669331675485
 30
0.0
 11
-179.4022661442127
 21
-224.8245417820823
 31
0.0
  0
LINE
  5
90D56
330
1E
100
AcDbEntity
  8
DETAIL
  6
CONTINUOUS
100
AcDbLine
 10
-179.4134732398329
 20
-230.9304304478362
 30
0.0
 11
-179.532055090875
 21
-230.8700451404847
 31
0.0
  0
LINE
  5
90D57
330
1E
100
AcDbEntity
  8
DETAIL
  6
CONTINUOUS
100
AcDbLine
 10
-179.4135007060654
 20
-224.9334232578712
 30
0.0
 11
-179.5320841043289
 21
-224.8730397696065
 31
0.0
  0
LINE
  5
90D58
330
1E
100
AcDbEntity
  8
DETAIL
  6
CONTINUOUS
100
AcDbLine
 10
-179.4022206376944
 20
-230.821557410482
 30
0.0
 11
-179.2869984950962
 21
-230.8908619288392
 31
0.0
  0
LINE
  5
90D59
330
1E
100
AcDbEntity
  8
DETAIL
  6
CONTINUOUS
100
AcDbLine
 10
-179.4022661442127
 20
-224.8245417820823
 30
0.0
 11
-179.2870576067875
 21
-224.8938296754411
 31
0.0
  0
LINE
  5
90D5A
330
1E
100
AcDbEntity
  8
DETAIL
  6
CONTINUOUS
100
AcDbLine
 10
-179.3018092261631
 20
-231.0027742513216
 30
0.0
 11
-179.4134732398329
 21
-230.9304304478362
 31
0.0
  0
LINE
  5
90D5B
330
1E
100
AcDbEntity
  8
DETAIL
  6
CONTINUOUS
100
AcDbLine
 10
-179.3018336885547
 20
-225.0057639868964
 30
0.0
 11
-179.4135007060654
 21
-224.9334232578712
 31
0.0
  0
LINE
  5
90D5C
330
1E
100
AcDbEntity
  8
DETAIL
  6
CONTINUOUS
100
AcDbLine
 10
-179.2869984950962
 20
-230.8908619288392
 30
0.0
 11
-179.1794044656421
 21
-230.9711252753245
 31
0.0
  0
LINE
  5
90D5D
330
1E
100
AcDbEntity
  8
DETAIL
  6
CONTINUOUS
100
AcDbLine
 10
-179.2870576067875
 20
-224.8938296754411
 30
0.0
 11
-179.1794920697143
 21
-224.974058531227
 31
0.0
  0
LINE
  5
90D5E
330
1E
100
AcDbEntity
  8
DETAIL
  6
CONTINUOUS
100
AcDbLine
 10
-179.1986986829037
 20
-231.0862163343342
 30
0.0
 11
-179.3018092261631
 21
-231.0027742513216
 31
0.0
  0
LINE
  5
90D5F
330
1E
100
AcDbEntity
  8
DETAIL
  6
CONTINUOUS
100
AcDbLine
 10
-179.1987290943256
 20
-225.0891951540497
 30
0.0
 11
-179.3018336885547
 21
-225.0057639868964
 31
0.0
  0
LINE
  5
90D60
330
1E
100
AcDbEntity
  8
DETAIL
  6
CONTINUOUS
100
AcDbLine
 10
-179.1794044656421
 20
-230.9711252753245
 30
0.0
 11
-179.0800120284243
 21
-231.0613539988298
 31
0.0
  0
LINE
  5
90D61
330
1E
100
AcDbEntity
  8
DETAIL
  6
CONTINUOUS
100
AcDbLine
 10
-179.1047997013743
 20
-231.1799230656115
 30
0.0
 11
-179.1986986829037
 21
-231.0862163343342
 31
0.0
  0
LINE
  5
90D62
330
1E
100
AcDbEntity
  8
DETAIL
  6
CONTINUOUS
100
AcDbLine
 10
-179.1794920697143
 20
-224.974058531227
 30
0.0
 11
-179.0801253369377
 21
-225.0642485128248
 31
0.0
  0
LINE
  5
90D63
330
1E
100
AcDbEntity
  8
DETAIL
  6
CONTINUOUS
100
AcDbLine
 10
-179.1048352568764
 20
-225.182891193358
 30
0.0
 11
-179.1987290943256
 21
-225.0891951540497
 31
0.0
  0
LINE
  5
90D64
330
1E
100
AcDbEntity
  8
DETAIL
  6
CONTINUOUS
100
AcDbLine
 10
-179.0800120284243
 20
-231.0613539988298
 30
0.0
 11
-178.9894689372436
 21
-231.1605897492966
 31
0.0
  0
LINE
  5
90D65
330
1E
100
AcDbEntity
  8
DETAIL
  6
CONTINUOUS
100
AcDbLine
 10
-179.0801253369377
 20
-225.0642485128248
 30
0.0
 11
-178.9895886345534
 21
-225.1634536546425
 31
0.0
  0
LINE
  5
90D66
330
1E
100
AcDbEntity
  8
DETAIL
  6
CONTINUOUS
100
AcDbLine
 10
-179.0209481890165
 20
-231.2833077047398
 30
0.0
 11
-179.1047997013743
 21
-231.1799230656115
 31
0.0
  0
LINE
  5
90D67
330
1E
100
AcDbEntity
  8
DETAIL
  6
CONTINUOUS
100
AcDbLine
 10
-179.0209794053612
 20
-225.2862736042684
 30
0.0
 11
-179.1048352568764
 21
-225.182891193358
 31
0.0
  0
LINE
  5
90D68
330
1E
100
AcDbEntity
  8
DETAIL
  6
CONTINUOUS
100
AcDbLine
 10
-178.9895886345534
 20
-225.1634536546425
 30
0.0
 11
-178.9090216070258
 21
-225.2708340219087
 31
0.0
  0
LINE
  5
90D69
330
1E
100
AcDbEntity
  8
DETAIL
  6
CONTINUOUS
100
AcDbLine
 10
-178.9894689372436
 20
-231.1605897492966
 30
0.0
 11
-178.908904599039
 21
-231.2679996004426
 31
0.0
  0
LINE
  5
90D6A
330
1E
100
AcDbEntity
  8
DETAIL
  6
CONTINUOUS
100
AcDbLine
 10
-178.9482709021144
 20
-225.3977343798715
 30
0.0
 11
-179.0209794053612
 21
-225.2862736042684
 31
0.0
  0
LINE
  5
90D6B
330
1E
100
AcDbEntity
  8
DETAIL
  6
CONTINUOUS
100
AcDbLine
 10
-178.9482463211102
 20
-231.3947693572349
 30
0.0
 11
-179.0209481890165
 21
-231.2833077047398
 31
0.0
  0
LINE
  5
90D6C
330
1E
100
AcDbEntity
  8
DETAIL
  6
CONTINUOUS
100
AcDbLine
 10
-178.9090216070258
 20
-225.2708340219087
 30
0.0
 11
-178.8395901883145
 21
-225.3855713862956
 31
0.0
  0
LINE
  5
90D6D
330
1E
100
AcDbEntity
  8
DETAIL
  6
CONTINUOUS
100
AcDbLine
 10
-178.908904599039
 20
-231.2679996004426
 30
0.0
 11
-178.8394790667066
 21
-231.3827719113028
 31
0.0
  0
LINE
  5
90D6E
330
1E
100
AcDbEntity
  8
DETAIL
  6
CONTINUOUS
100
AcDbLine
 10
-178.8880244104771
 20
-225.5157788723952
 30
0.0
 11
-178.9482709021144
 21
-225.3977343798715
 31
0.0
  0
LINE
  5
90D6F
330
1E
100
AcDbEntity
  8
DETAIL
  6
CONTINUOUS
100
AcDbLine
 10
-178.8880034996277
 20
-231.5128185593978
 30
0.0
 11
-178.9482463211102
 21
-231.3947693572349
 31
0.0
  0
LINE
  5
90D70
330
1E
100
AcDbEntity
  8
DETAIL
  6
CONTINUOUS
100
AcDbLine
 10
-178.8395901883145
 20
-225.3855713862956
 30
0.0
 11
-178.7818467440561
 21
-225.5066546681969
 31
0.0
  0
LINE
  5
90D71
330
1E
100
AcDbEntity
  8
DETAIL
  6
CONTINUOUS
100
AcDbLine
 10
-178.8394790667066
 20
-231.3827719113028
 30
0.0
 11
-178.7817481508322
 21
-231.5038844745202
 31
0.0
  0
LINE
  5
90D72
330
1E
100
AcDbEntity
  8
DETAIL
  6
CONTINUOUS
100
AcDbLine
 10
-178.8404339464982
 20
-231.6365342877888
 30
0.0
 11
-178.8880034996277
 21
-231.5128185593978
 31
0.0
  0
LINE
  5
90D73
330
1E
100
AcDbEntity
  8
DETAIL
  6
CONTINUOUS
100
AcDbLine
 10
-178.8404512724741
 20
-225.6394884985147
 30
0.0
 11
-178.8880244104771
 21
-225.5157788723952
 31
0.0
  0
LINE
  5
90D74
330
1E
100
AcDbEntity
  8
DETAIL
  6
CONTINUOUS
100
AcDbLine
 10
-178.7818467440561
 20
-225.5066546681969
 30
0.0
 11
-178.7366995707675
 21
-225.6333241312848
 31
0.0
  0
LINE
  5
90D75
330
1E
100
AcDbEntity
  8
DETAIL
  6
CONTINUOUS
100
AcDbLine
 10
-178.7817481508322
 20
-231.5038844745202
 30
0.0
 11
-178.7366237807732
 21
-231.6305635367971
 31
0.0
  0
LINE
  5
90D76
330
1E
100
AcDbEntity
  8
DETAIL
  6
CONTINUOUS
100
AcDbLine
 10
-178.8061116151952
 20
-231.7651846654473
 30
0.0
 11
-178.8404339464982
 21
-231.6365342877888
 31
0.0
  0
LINE
  5
90D77
330
1E
100
AcDbEntity
  8
DETAIL
  6
CONTINUOUS
100
AcDbLine
 10
-178.8061242262051
 20
-225.7681310747504
 30
0.0
 11
-178.8404512724741
 21
-225.6394884985147
 31
0.0
  0
LINE
  5
90D78
330
1E
100
AcDbEntity
  8
DETAIL
  6
CONTINUOUS
100
AcDbLine
 10
-178.7366995707675
 20
-225.6333241312848
 30
0.0
 11
-178.7042467938722
 21
-225.7640075253825
 31
0.0
  0
LINE
  5
90D79
330
1E
100
AcDbEntity
  8
DETAIL
  6
CONTINUOUS
100
AcDbLine
 10
-178.7366237807732
 20
-231.6305635367971
 30
0.0
 11
-178.7041976465193
 21
-231.7612520896389
 31
0.0
  0
LINE
  5
90D7A
330
1E
100
AcDbEntity
  8
DETAIL
  6
CONTINUOUS
100
AcDbLine
 10
-178.7783736858041
 20
-232.0291071626179
 30
0.0
 11
-178.7852667116062
 21
-231.8967127959081
 31
0.0
  0
LINE
  5
90D7B
330
1E
100
AcDbEntity
  8
DETAIL
  6
CONTINUOUS
100
AcDbLine
 10
-178.7783736858041
 20
-226.032045337384
 30
0.0
 11
-178.7852737534089
 21
-225.899652753781
 31
0.0
  0
LINE
  5
90D7C
330
1E
100
AcDbEntity
  8
DETAIL
  6
CONTINUOUS
100
AcDbLine
 10
-178.6849887891298
 20
-225.8973105777181
 30
0.0
 11
-178.6786270968555
 21
-226.0319396210691
 31
0.0
  0
LINE
  5
90D7D
330
1E
100
AcDbEntity
  8
DETAIL
  6
CONTINUOUS
100
AcDbLine
 10
-178.6849642347665
 20
-231.8945722040846
 30
0.0
 11
-178.6786270968555
 21
-232.0292128789358
 31
0.0
  0
LINE
  5
90D7E
330
1E
100
AcDbEntity
  8
DETAIL
  6
CONTINUOUS
100
AcDbLine
 10
-178.6786270968555
 20
-226.0319396210691
 30
0.0
 11
-178.6849642347665
 21
-226.1665802959173
 31
0.0
  0
LINE
  5
90D7F
330
1E
100
AcDbEntity
  8
DETAIL
  6
CONTINUOUS
100
AcDbLine
 10
-178.6786270968555
 20
-232.0292128789358
 30
0.0
 11
-178.6849887891298
 21
-232.1638419236171
 31
0.0
  0
LINE
  5
90D80
330
1E
100
AcDbEntity
  8
DETAIL
  6
CONTINUOUS
100
AcDbLine
 10
-178.7852667116062
 20
-226.1644397040938
 30
0.0
 11
-178.7783736858041
 21
-226.032045337384
 31
0.0
  0
LINE
  5
90D81
330
1E
100
AcDbEntity
  8
DETAIL
  6
CONTINUOUS
100
AcDbLine
 10
-178.7852737534089
 20
-225.899652753781
 30
0.0
 11
-178.8061242262051
 21
-225.7681310747504
 31
0.0
  0
LINE
  5
90D82
330
1E
100
AcDbEntity
  8
DETAIL
  6
CONTINUOUS
100
AcDbLine
 10
-178.7852667116062
 20
-231.8967127959081
 30
0.0
 11
-178.8061116151952
 21
-231.7651846654473
 31
0.0
  0
LINE
  5
90D83
330
1E
100
AcDbEntity
  8
DETAIL
  6
CONTINUOUS
100
AcDbLine
 10
-178.7042467938722
 20
-225.7640075253825
 30
0.0
 11
-178.6849887891298
 21
-225.8973105777181
 31
0.0
  0
LINE
  5
90D84
330
1E
100
AcDbEntity
  8
DETAIL
  6
CONTINUOUS
100
AcDbLine
 10
-178.7041976465193
 20
-231.7612520896389
 30
0.0
 11
-178.6849642347665
 21
-231.8945722040846
 31
0.0
  0
LINE
  5
90D85
330
1E
100
AcDbEntity
  8
DETAIL
  6
CONTINUOUS
100
AcDbLine
 10
-178.7852737534089
 20
-232.1614997475542
 30
0.0
 11
-178.7783736858041
 21
-232.0291071626179
 31
0.0
  0
LINE
  5
90D86
330
1E
100
AcDbEntity
  8
DETAIL
  6
CONTINUOUS
100
AcDbLine
 10
-178.6849642347665
 20
-226.1665802959173
 30
0.0
 11
-178.7041976465193
 21
-226.2999004116963
 31
0.0
  0
LINE
  5
90D87
330
1E
100
AcDbEntity
  8
DETAIL
  6
CONTINUOUS
100
AcDbLine
 10
-178.6849887891298
 20
-232.1638419236171
 30
0.0
 11
-178.7042467938722
 21
-232.2971449759529
 31
0.0
  0
LINE
  5
90D88
330
1E
100
AcDbEntity
  8
DETAIL
  6
CONTINUOUS
100
AcDbLine
 10
-178.8061116151952
 20
-226.2959678345546
 30
0.0
 11
-178.7852667116062
 21
-226.1644397040938
 31
0.0
  0
LINE
  5
90D89
330
1E
100
AcDbEntity
  8
DETAIL
  6
CONTINUOUS
100
AcDbLine
 10
-178.8061242262051
 20
-232.2930214265848
 30
0.0
 11
-178.7852737534089
 21
-232.1614997475542
 31
0.0
  0
LINE
  5
90D8A
330
1E
100
AcDbEntity
  8
DETAIL
  6
CONTINUOUS
100
AcDbLine
 10
-178.7041976465193
 20
-226.2999004116963
 30
0.0
 11
-178.7366237807732
 21
-226.4305889632078
 31
0.0
  0
LINE
  5
90D8B
330
1E
100
AcDbEntity
  8
DETAIL
  6
CONTINUOUS
100
AcDbLine
 10
-178.7042467938722
 20
-232.2971449759529
 30
0.0
 11
-178.7366995707675
 21
-232.4278283700505
 31
0.0
  0
LINE
  5
90D8C
330
1E
100
AcDbEntity
  8
DETAIL
  6
CONTINUOUS
100
AcDbLine
 10
-178.8404339464982
 20
-226.4246182135464
 30
0.0
 11
-178.8061116151952
 21
-226.2959678345546
 31
0.0
  0
LINE
  5
90D8D
330
1E
100
AcDbEntity
  8
DETAIL
  6
CONTINUOUS
100
AcDbLine
 10
-178.8404512724741
 20
-232.4216640014904
 30
0.0
 11
-178.8061242262051
 21
-232.2930214265848
 31
0.0
  0
LINE
  5
90D8E
330
1E
100
AcDbEntity
  8
DETAIL
  6
CONTINUOUS
100
AcDbLine
 10
-178.7366237807732
 20
-226.4305889632078
 30
0.0
 11
-178.7817481508322
 21
-226.5572680254849
 31
0.0
  0
LINE
  5
90D8F
330
1E
100
AcDbEntity
  8
DETAIL
  6
CONTINUOUS
100
AcDbLine
 10
-178.8880034996277
 20
-226.5483339419406
 30
0.0
 11
-178.8404339464982
 21
-226.4246182135464
 31
0.0
  0
LINE
  5
90D90
330
1E
100
AcDbEntity
  8
DETAIL
  6
CONTINUOUS
100
AcDbLine
 10
-178.7366995707675
 20
-232.4278283700505
 30
0.0
 11
-178.7818467440561
 21
-232.554497831808
 31
0.0
  0
LINE
  5
90D91
330
1E
100
AcDbEntity
  8
DETAIL
  6
CONTINUOUS
100
AcDbLine
 10
-178.8880244104771
 20
-232.5453736276096
 30
0.0
 11
-178.8404512724741
 21
-232.4216640014904
 31
0.0
  0
LINE
  5
90D92
330
1E
100
AcDbEntity
  8
DETAIL
  6
CONTINUOUS
100
AcDbLine
 10
-178.7817481508322
 20
-226.5572680254849
 30
0.0
 11
-178.8394790667066
 21
-226.6783805886991
 31
0.0
  0
LINE
  5
90D93
330
1E
100
AcDbEntity
  8
DETAIL
  6
CONTINUOUS
100
AcDbLine
 10
-178.7818467440561
 20
-232.554497831808
 30
0.0
 11
-178.8395901883145
 21
-232.6755811137063
 31
0.0
  0
LINE
  5
90D94
330
1E
100
AcDbEntity
  8
DETAIL
  6
CONTINUOUS
100
AcDbLine
 10
-178.9482463211102
 20
-226.6663831427672
 30
0.0
 11
-178.8880034996277
 21
-226.5483339419406
 31
0.0
  0
LINE
  5
90D95
330
1E
100
AcDbEntity
  8
DETAIL
  6
CONTINUOUS
100
AcDbLine
 10
-178.9482709021144
 20
-232.6634181214637
 30
0.0
 11
-178.8880244104771
 21
-232.5453736276096
 31
0.0
  0
LINE
  5
90D96
330
1E
100
AcDbEntity
  8
DETAIL
  6
CONTINUOUS
100
AcDbLine
 10
-178.8394790667066
 20
-226.6783805886991
 30
0.0
 11
-178.908904599039
 21
-226.7931529008924
 31
0.0
  0
LINE
  5
90D97
330
1E
100
AcDbEntity
  8
DETAIL
  6
CONTINUOUS
100
AcDbLine
 10
-178.8395901883145
 20
-232.6755811137063
 30
0.0
 11
-178.9090216070258
 21
-232.7903184780962
 31
0.0
  0
LINE
  5
90D98
330
1E
100
AcDbEntity
  8
DETAIL
  6
CONTINUOUS
100
AcDbLine
 10
-179.0209481890165
 20
-226.7778447965956
 30
0.0
 11
-178.9482463211102
 21
-226.6663831427672
 31
0.0
  0
LINE
  5
90D99
330
1E
100
AcDbEntity
  8
DETAIL
  6
CONTINUOUS
100
AcDbLine
 10
-179.0209794053612
 20
-232.7748788957335
 30
0.0
 11
-178.9482709021144
 21
-232.6634181214637
 31
0.0
  0
LINE
  5
90D9A
330
1E
100
AcDbEntity
  8
DETAIL
  6
CONTINUOUS
100
AcDbLine
 10
-178.908904599039
 20
-226.7931529008924
 30
0.0
 11
-178.9894689372436
 21
-226.9005627507053
 31
0.0
  0
LINE
  5
90D9B
330
1E
100
AcDbEntity
  8
DETAIL
  6
CONTINUOUS
100
AcDbLine
 10
-178.9090216070258
 20
-232.7903184780962
 30
0.0
 11
-178.9895886345534
 21
-232.8976988453594
 31
0.0
  0
LINE
  5
90D9C
330
1E
100
AcDbEntity
  8
DETAIL
  6
CONTINUOUS
100
AcDbLine
 10
-179.1047997013743
 20
-226.8812294357239
 30
0.0
 11
-179.0209481890165
 21
-226.7778447965956
 31
0.0
  0
LINE
  5
90D9D
330
1E
100
AcDbEntity
  8
DETAIL
  6
CONTINUOUS
100
AcDbLine
 10
-179.1048352568764
 20
-232.8782613066469
 30
0.0
 11
-179.0209794053612
 21
-232.7748788957335
 31
0.0
  0
LINE
  5
90D9E
330
1E
100
AcDbEntity
  8
DETAIL
  6
CONTINUOUS
100
AcDbLine
 10
-178.9894689372436
 20
-226.9005627507053
 30
0.0
 11
-179.0800120284243
 21
-226.9997985011725
 31
0.0
  0
LINE
  5
90D9F
330
1E
100
AcDbEntity
  8
DETAIL
  6
CONTINUOUS
100
AcDbLine
 10
-179.1986986829037
 20
-226.9749361656706
 30
0.0
 11
-179.1047997013743
 21
-226.8812294357239
 31
0.0
  0
LINE
  5
90DA0
330
1E
100
AcDbEntity
  8
DETAIL
  6
CONTINUOUS
100
AcDbLine
 10
-178.9895886345534
 20
-232.8976988453594
 30
0.0
 11
-179.0801253369377
 21
-232.9969039885104
 31
0.0
  0
LINE
  5
90DA1
330
1E
100
AcDbEntity
  8
DETAIL
  6
CONTINUOUS
100
AcDbLine
 10
-179.1987290943256
 20
-232.9719573459519
 30
0.0
 11
-179.1048352568764
 21
-232.8782613066469
 31
0.0
  0
LINE
  5
90DA2
330
1E
100
AcDbEntity
  8
DETAIL
  6
CONTINUOUS
100
AcDbLine
 10
-179.0800120284243
 20
-226.9997985011725
 30
0.0
 11
-179.1794044656421
 21
-227.0900272246774
 31
0.0
  0
LINE
  5
90DA3
330
1E
100
AcDbEntity
  8
DETAIL
  6
CONTINUOUS
100
AcDbLine
 10
-179.0801253369377
 20
-232.9969039885104
 30
0.0
 11
-179.1794920697143
 21
-233.0870939687781
 31
0.0
  0
LINE
  5
90DA4
330
1E
100
AcDbEntity
  8
DETAIL
  6
CONTINUOUS
100
AcDbLine
 10
-179.3018092261631
 20
-227.0583782486835
 30
0.0
 11
-179.1986986829037
 21
-226.9749361656706
 31
0.0
  0
LINE
  5
90DA5
330
1E
100
AcDbEntity
  8
DETAIL
  6
CONTINUOUS
100
AcDbLine
 10
-179.3018336885547
 20
-233.0553885131084
 30
0.0
 11
-179.1987290943256
 21
-232.9719573459519
 31
0.0
  0
LINE
  5
90DA6
330
1E
100
AcDbEntity
  8
DETAIL
  6
CONTINUOUS
100
AcDbLine
 10
-179.1794044656421
 20
-227.0900272246774
 30
0.0
 11
-179.2869984950962
 21
-227.1702905711656
 31
0.0
  0
LINE
  5
90DA7
330
1E
100
AcDbEntity
  8
DETAIL
  6
CONTINUOUS
100
AcDbLine
 10
-179.1794920697143
 20
-233.0870939687781
 30
0.0
 11
-179.2870576067875
 21
-233.167322824564
 31
0.0
  0
LINE
  5
90DA8
330
1E
100
AcDbEntity
  8
DETAIL
  6
CONTINUOUS
100
AcDbLine
 10
-179.4134732398329
 20
-227.130722053499
 30
0.0
 11
-179.3018092261631
 21
-227.0583782486835
 31
0.0
  0
LINE
  5
90DA9
330
1E
100
AcDbEntity
  8
DETAIL
  6
CONTINUOUS
100
AcDbLine
 10
-179.4135007060654
 20
-233.1277292434638
 30
0.0
 11
-179.3018336885547
 21
-233.0553885131084
 31
0.0
  0
LINE
  5
90DAA
330
1E
100
AcDbEntity
  8
DETAIL
  6
CONTINUOUS
100
AcDbLine
 10
-179.2869984950962
 20
-227.1702905711656
 30
0.0
 11
-179.4022206376944
 21
-227.2395950895202
 31
0.0
  0
LINE
  5
90DAB
330
1E
100
AcDbEntity
  8
DETAIL
  6
CONTINUOUS
100
AcDbLine
 10
-179.2870576067875
 20
-233.167322824564
 30
0.0
 11
-179.4022661442127
 21
-233.2366107179227
 31
0.0
  0
LINE
  5
90DAC
330
1E
100
AcDbEntity
  8
DETAIL
  6
CONTINUOUS
100
AcDbLine
 10
-179.532055090875
 20
-227.1911073595172
 30
0.0
 11
-179.4134732398329
 21
-227.130722053499
 31
0.0
  0
LINE
  5
90DAD
330
1E
100
AcDbEntity
  8
DETAIL
  6
CONTINUOUS
100
AcDbLine
 10
-179.5320841043289
 20
-233.1881127303954
 30
0.0
 11
-179.4135007060654
 21
-233.1277292434638
 31
0.0
  0
LINE
  5
90DAE
330
1E
100
AcDbEntity
  8
DETAIL
  6
CONTINUOUS
100
AcDbLine
 10
-179.4022206376944
 20
-227.2395950895202
 30
0.0
 11
-179.5237186609378
 21
-227.2972131593119
 31
0.0
  0
LINE
  5
90DAF
330
1E
100
AcDbEntity
  8
DETAIL
  6
CONTINUOUS
100
AcDbLine
 10
-179.4022661442127
 20
-233.2366107179227
 30
0.0
 11
-179.5237517843238
 21
-233.2942193337896
 31
0.0
  0
LINE
  5
90DB0
330
1E
100
AcDbEntity
  8
DETAIL
  6
CONTINUOUS
100
AcDbLine
 10
-179.6561229746625
 20
-227.2384460151152
 30
0.0
 11
-179.532055090875
 21
-227.1911073595172
 31
0.0
  0
LINE
  5
90DB1
330
1E
100
AcDbEntity
  8
DETAIL
  6
CONTINUOUS
100
AcDbLine
 10
-179.6561412801461
 20
-233.2354453836706
 30
0.0
 11
-179.5320841043289
 21
-233.1881127303954
 31
0.0
  0
LINE
  5
90DB2
330
1E
100
AcDbEntity
  8
DETAIL
  6
CONTINUOUS
100
AcDbLine
 10
-179.5237186609378
 20
-227.2972131593119
 30
0.0
 11
-179.6503933760582
 21
-227.3420762230923
 31
0.0
  0
LINE
  5
90DB3
330
1E
100
AcDbEntity
  8
DETAIL
  6
CONTINUOUS
100
AcDbLine
 10
-179.5237517843238
 20
-233.2942193337896
 30
0.0
 11
-179.6504019650806
 21
-233.3390727024284
 31
0.0
  0
LINE
  5
90DB4
330
1E
100
AcDbEntity
  8
DETAIL
  6
CONTINUOUS
100
AcDbLine
 10
-190.3030044809206
 20
-230.8074630934695
 30
0.0
 11
-190.4290219123363
 21
-230.8414996280985
 31
0.0
  0
LINE
  5
90DB5
330
1E
100
AcDbEntity
  8
DETAIL
  6
CONTINUOUS
100
AcDbLine
 10
-190.3030154514185
 20
-224.8104729469553
 30
0.0
 11
-190.4290438146804
 21
-224.8445151920539
 31
0.0
  0
LINE
  5
90DB6
330
1E
100
AcDbEntity
  8
DETAIL
  6
CONTINUOUS
100
AcDbLine
 10
-190.4349671121367
 20
-230.7379658704217
 30
0.0
 11
-190.3066248692889
 21
-230.705871912254
 31
0.0
  0
LINE
  5
90DB7
330
1E
100
AcDbEntity
  8
DETAIL
  6
CONTINUOUS
100
AcDbLine
 10
-190.4349793606711
 20
-224.7409784478754
 30
0.0
 11
-190.3066181566541
 21
-224.7088780875837
 31
0.0
  0
LINE
  5
90DB8
330
1E
100
AcDbEntity
  8
DETAIL
  6
CONTINUOUS
100
AcDbLine
 10
-190.174663044329
 20
-230.7869306505176
 30
0.0
 11
-190.3030044809206
 21
-230.8074630934695
 31
0.0
  0
LINE
  5
90DB9
330
1E
100
AcDbEntity
  8
DETAIL
  6
CONTINUOUS
100
AcDbLine
 10
-190.1746675487361
 20
-224.7899382504658
 30
0.0
 11
-190.3030154514185
 21
-224.8104729469553
 31
0.0
  0
LINE
  5
90DBA
330
1E
100
AcDbEntity
  8
DETAIL
  6
CONTINUOUS
100
AcDbLine
 10
-190.3066248692889
 20
-230.705871912254
 30
0.0
 11
-190.1762975992555
 21
-230.6866321490204
 31
0.0
  0
LINE
  5
90DBB
330
1E
100
AcDbEntity
  8
DETAIL
  6
CONTINUOUS
100
AcDbLine
 10
-190.3066181566541
 20
-224.7088780875837
 30
0.0
 11
-190.1762882772677
 21
-224.6896368717457
 31
0.0
  0
LINE
  5
90DBC
330
1E
100
AcDbEntity
  8
DETAIL
  6
CONTINUOUS
100
AcDbLine
 10
-190.0433724080944
 20
-230.7796990625015
 30
0.0
 11
-190.174663044329
 21
-230.7869306505176
 31
0.0
  0
LINE
  5
90DBD
330
1E
100
AcDbEntity
  8
DETAIL
  6
CONTINUOUS
100
AcDbLine
 10
-190.0433724080944
 20
-224.7827065625006
 30
0.0
 11
-190.1746675487361
 21
-224.7899382504658
 31
0.0
  0
LINE
  5
90DBE
330
1E
100
AcDbEntity
  8
DETAIL
  6
CONTINUOUS
100
AcDbLine
 10
-190.1762975992555
 20
-230.6866321490204
 30
0.0
 11
-190.0433724080944
 21
-230.6801135287846
 31
0.0
  0
LINE
  5
90DBF
330
1E
100
AcDbEntity
  8
DETAIL
  6
CONTINUOUS
100
AcDbLine
 10
-190.1762882772677
 20
-224.6896368717457
 30
0.0
 11
-190.0433724080944
 21
-224.6831210287841
 31
0.0
  0
LINE
  5
90DC0
330
1E
100
AcDbEntity
  8
DETAIL
  6
CONTINUOUS
100
AcDbLine
 10
-190.0433724080944
 20
-233.378031471218
 30
0.0
 11
-190.1762882772677
 21
-233.3715156282564
 31
0.0
  0
LINE
  5
90DC1
330
1E
100
AcDbEntity
  8
DETAIL
  6
CONTINUOUS
100
AcDbLine
 10
-190.0433724080944
 20
-227.3810389712205
 30
0.0
 11
-190.1762975992555
 21
-227.3745203509816
 31
0.0
  0
LINE
  5
90DC2
330
1E
100
AcDbEntity
  8
DETAIL
  6
CONTINUOUS
100
AcDbLine
 10
-190.1746675487361
 20
-233.2712142495361
 30
0.0
 11
-190.0433724080944
 21
-233.2784459375013
 31
0.0
  0
LINE
  5
90DC3
330
1E
100
AcDbEntity
  8
DETAIL
  6
CONTINUOUS
100
AcDbLine
 10
-190.174663044329
 20
-227.2742218494872
 30
0.0
 11
-190.0433724080944
 21
-227.2814534375006
 31
0.0
  0
LINE
  5
90DC4
330
1E
100
AcDbEntity
  8
DETAIL
  6
CONTINUOUS
100
AcDbLine
 10
-190.1762882772677
 20
-233.3715156282564
 30
0.0
 11
-190.3066181566541
 21
-233.3522744124211
 31
0.0
  0
LINE
  5
90DC5
330
1E
100
AcDbEntity
  8
DETAIL
  6
CONTINUOUS
100
AcDbLine
 10
-190.1762975992555
 20
-227.3745203509816
 30
0.0
 11
-190.3066248692889
 21
-227.3552805877509
 31
0.0
  0
LINE
  5
90DC6
330
1E
100
AcDbEntity
  8
DETAIL
  6
CONTINUOUS
100
AcDbLine
 10
-190.3030154514185
 20
-233.2506795543799
 30
0.0
 11
-190.1746675487361
 21
-233.2712142495361
 31
0.0
  0
LINE
  5
90DC7
330
1E
100
AcDbEntity
  8
DETAIL
  6
CONTINUOUS
100
AcDbLine
 10
-190.3030044809206
 20
-227.2536894065353
 30
0.0
 11
-190.174663044329
 21
-227.2742218494872
 31
0.0
  0
LINE
  5
90DC8
330
1E
100
AcDbEntity
  8
DETAIL
  6
CONTINUOUS
100
AcDbLine
 10
-190.3066181566541
 20
-233.3522744124211
 30
0.0
 11
-190.4349793606711
 21
-233.3201740521265
 31
0.0
  0
LINE
  5
90DC9
330
1E
100
AcDbEntity
  8
DETAIL
  6
CONTINUOUS
100
AcDbLine
 10
-190.3066248692889
 20
-227.3552805877509
 30
0.0
 11
-190.4349671121367
 21
-227.3231866295805
 31
0.0
  0
LINE
  5
90DCA
330
1E
100
AcDbEntity
  8
DETAIL
  6
CONTINUOUS
100
AcDbLine
 10
-190.4290438146804
 20
-233.216637307948
 30
0.0
 11
-190.3030154514185
 21
-233.2506795543799
 31
0.0
  0
LINE
  5
90DCB
330
1E
100
AcDbEntity
  8
DETAIL
  6
CONTINUOUS
100
AcDbLine
 10
-190.4290219123363
 20
-227.2196528732367
 30
0.0
 11
-190.3030044809206
 21
-227.2536894065353
 31
0.0
  0
LINE
  5
90DCC
330
1E
100
AcDbEntity
  8
DETAIL
  6
CONTINUOUS
100
AcDbLine
 10
-190.4349793606711
 20
-233.3201740521265
 30
0.0
 11
-190.5595199447293
 21
-233.2756158581246
 31
0.0
  0
LINE
  5
90DCD
330
1E
100
AcDbEntity
  8
DETAIL
  6
CONTINUOUS
100
AcDbLine
 10
-190.4349671121367
 20
-227.3231866295805
 30
0.0
 11
-190.5594856512511
 21
-227.2786376296335
 31
0.0
  0
LINE
  5
90DCE
330
1E
100
AcDbEntity
  8
DETAIL
  6
CONTINUOUS
100
AcDbLine
 10
-190.5508695482481
 20
-233.1697011398346
 30
0.0
 11
-190.4290438146804
 21
-233.216637307948
 31
0.0
  0
LINE
  5
90DCF
330
1E
100
AcDbEntity
  8
DETAIL
  6
CONTINUOUS
100
AcDbLine
 10
-190.550839760514
 20
-227.172721953159
 30
0.0
 11
-190.4290219123363
 21
-227.2196528732367
 31
0.0
  0
LINE
  5
90DD0
330
1E
100
AcDbEntity
  8
DETAIL
  6
CONTINUOUS
100
AcDbLine
 10
-190.5595199447293
 20
-233.2756158581246
 30
0.0
 11
-190.6789488429662
 21
-233.2186265050288
 31
0.0
  0
LINE
  5
90DD1
330
1E
100
AcDbEntity
  8
DETAIL
  6
CONTINUOUS
100
AcDbLine
 10
-190.5594856512511
 20
-227.2786376296335
 30
0.0
 11
-190.6789058631861
 21
-227.2216558247539
 31
0.0
  0
LINE
  5
90DD2
330
1E
100
AcDbEntity
  8
DETAIL
  6
CONTINUOUS
100
AcDbLine
 10
-190.6672866609046
 20
-233.1100866619115
 30
0.0
 11
-190.5508695482481
 21
-233.1697011398346
 31
0.0
  0
LINE
  5
90DD3
330
1E
100
AcDbEntity
  8
DETAIL
  6
CONTINUOUS
100
AcDbLine
 10
-190.6672625543219
 20
-227.11310690352
 30
0.0
 11
-190.550839760514
 21
-227.172721953159
 31
0.0
  0
LINE
  5
90DD4
330
1E
100
AcDbEntity
  8
DETAIL
  6
CONTINUOUS
100
AcDbLine
 10
-190.6789488429662
 20
-233.2186265050288
 30
0.0
 11
-190.7922007376551
 21
-233.1501961322885
 31
0.0
  0
LINE
  5
90DD5
330
1E
100
AcDbEntity
  8
DETAIL
  6
CONTINUOUS
100
AcDbLine
 10
-190.7768915578894
 20
-233.0387833806032
 30
0.0
 11
-190.6672866609046
 21
-233.1100866619115
 31
0.0
  0
LINE
  5
90DD6
330
1E
100
AcDbEntity
  8
DETAIL
  6
CONTINUOUS
100
AcDbLine
 10
-190.6789058631861
 20
-227.2216558247539
 30
0.0
 11
-190.7921484825278
 21
-227.1532389026001
 31
0.0
  0
LINE
  5
90DD7
330
1E
100
AcDbEntity
  8
DETAIL
  6
CONTINUOUS
100
AcDbLine
 10
-190.7768751607805
 20
-227.0418028279452
 30
0.0
 11
-190.6672625543219
 21
-227.11310690352
 31
0.0
  0
LINE
  5
90DD8
330
1E
100
AcDbEntity
  8
DETAIL
  6
CONTINUOUS
100
AcDbLine
 10
-190.8781067783279
 20
-232.9565825684244
 30
0.0
 11
-190.7768915578894
 21
-233.0387833806032
 31
0.0
  0
LINE
  5
90DD9
330
1E
100
AcDbEntity
  8
DETAIL
  6
CONTINUOUS
100
AcDbLine
 10
-190.8780890392231
 20
-226.9596073157749
 30
0.0
 11
-190.7768751607805
 21
-227.0418028279452
 31
0.0
  0
LINE
  5
90DDA
330
1E
100
AcDbEntity
  8
DETAIL
  6
CONTINUOUS
100
AcDbLine
 10
-190.7768915578894
 20
-225.0223691193987
 30
0.0
 11
-190.8781067783279
 21
-225.1045699329108
 31
0.0
  0
LINE
  5
90DDB
330
1E
100
AcDbEntity
  8
DETAIL
  6
CONTINUOUS
100
AcDbLine
 10
-190.7768751607805
 20
-231.0193496720567
 30
0.0
 11
-190.8780890392231
 21
-231.1015451842272
 31
0.0
  0
LINE
  5
90DDC
330
1E
100
AcDbEntity
  8
DETAIL
  6
CONTINUOUS
100
AcDbLine
 10
-190.6672866609046
 20
-224.9510658394269
 30
0.0
 11
-190.7768915578894
 21
-225.0223691193987
 31
0.0
  0
LINE
  5
90DDD
330
1E
100
AcDbEntity
  8
DETAIL
  6
CONTINUOUS
100
AcDbLine
 10
-190.7922007376551
 20
-224.9109563690467
 30
0.0
 11
-190.6789488429662
 21
-224.8425259949731
 31
0.0
  0
LINE
  5
90DDE
330
1E
100
AcDbEntity
  8
DETAIL
  6
CONTINUOUS
100
AcDbLine
 10
-190.5508695482481
 20
-224.8914513601703
 30
0.0
 11
-190.6672866609046
 21
-224.9510658394269
 31
0.0
  0
LINE
  5
90DDF
330
1E
100
AcDbEntity
  8
DETAIL
  6
CONTINUOUS
100
AcDbLine
 10
-190.6789488429662
 20
-224.8425259949731
 30
0.0
 11
-190.5595199447293
 21
-224.7855366418805
 31
0.0
  0
LINE
  5
90DE0
330
1E
100
AcDbEntity
  8
DETAIL
  6
CONTINUOUS
100
AcDbLine
 10
-190.6672625543219
 20
-230.9480455964819
 30
0.0
 11
-190.7768751607805
 21
-231.0193496720567
 31
0.0
  0
LINE
  5
90DE1
330
1E
100
AcDbEntity
  8
DETAIL
  6
CONTINUOUS
100
AcDbLine
 10
-190.7921484825278
 20
-230.907913597402
 30
0.0
 11
-190.6789058631861
 21
-230.8394966752485
 31
0.0
  0
LINE
  5
90DE2
330
1E
100
AcDbEntity
  8
DETAIL
  6
CONTINUOUS
100
AcDbLine
 10
-190.550839760514
 20
-230.8884305481792
 30
0.0
 11
-190.6672625543219
 21
-230.9480455964819
 31
0.0
  0
LINE
  5
90DE3
330
1E
100
AcDbEntity
  8
DETAIL
  6
CONTINUOUS
100
AcDbLine
 10
-190.6789058631861
 20
-230.8394966752485
 30
0.0
 11
-190.5594856512511
 21
-230.7825148703684
 31
0.0
  0
LINE
  5
90DE4
330
1E
100
AcDbEntity
  8
DETAIL
  6
CONTINUOUS
100
AcDbLine
 10
-190.4290438146804
 20
-224.8445151920539
 30
0.0
 11
-190.5508695482481
 21
-224.8914513601703
 31
0.0
  0
LINE
  5
90DE5
330
1E
100
AcDbEntity
  8
DETAIL
  6
CONTINUOUS
100
AcDbLine
 10
-190.4290219123363
 20
-230.8414996280985
 30
0.0
 11
-190.550839760514
 21
-230.8884305481792
 31
0.0
  0
LINE
  5
90DE6
330
1E
100
AcDbEntity
  8
DETAIL
  6
CONTINUOUS
100
AcDbLine
 10
-190.5595199447293
 20
-224.7855366418805
 30
0.0
 11
-190.4349793606711
 21
-224.7409784478754
 31
0.0
  0
LINE
  5
90DE7
330
1E
100
AcDbEntity
  8
DETAIL
  6
CONTINUOUS
100
AcDbLine
 10
-190.5594856512511
 20
-230.7825148703684
 30
0.0
 11
-190.4349671121367
 21
-230.7379658704217
 31
0.0
  0
LINE
  5
90DE8
330
1E
100
AcDbEntity
  8
DETAIL
  6
CONTINUOUS
100
AcDbLine
 10
-190.8979869457221
 20
-233.0710046189435
 30
0.0
 11
-190.995686498602
 21
-232.982009419492
 31
0.0
  0
LINE
  5
90DE9
330
1E
100
AcDbEntity
  8
DETAIL
  6
CONTINUOUS
100
AcDbLine
 10
-190.8979106453175
 20
-227.0740772356207
 30
0.0
 11
-190.9955885237327
 21
-226.985115011631
 31
0.0
  0
LINE
  5
90DEA
330
1E
100
AcDbEntity
  8
DETAIL
  6
CONTINUOUS
100
AcDbLine
 10
-190.9955885237327
 20
-226.985115011631
 30
0.0
 11
-191.0844979062171
 21
-226.8872331288639
 31
0.0
  0
LINE
  5
90DEB
330
1E
100
AcDbEntity
  8
DETAIL
  6
CONTINUOUS
100
AcDbLine
 10
-190.995686498602
 20
-232.982009419492
 30
0.0
 11
-191.0845991647788
 21
-232.8841039485523
 31
0.0
  0
LINE
  5
90DEC
330
1E
100
AcDbEntity
  8
DETAIL
  6
CONTINUOUS
100
AcDbLine
 10
-191.0524401085899
 20
-232.7624476340277
 30
0.0
 11
-190.970247928079
 21
-232.8642945509914
 31
0.0
  0
LINE
  5
90DED
330
1E
100
AcDbEntity
  8
DETAIL
  6
CONTINUOUS
100
AcDbLine
 10
-191.0524279786663
 20
-226.7654702997549
 30
0.0
 11
-190.9702289509245
 21
-226.8673231630718
 31
0.0
  0
LINE
  5
90DEE
330
1E
100
AcDbEntity
  8
DETAIL
  6
CONTINUOUS
100
AcDbLine
 10
-191.0845991647788
 20
-232.8841039485523
 30
0.0
 11
-191.163674047279
 21
-232.7781602034865
 31
0.0
  0
LINE
  5
90DEF
330
1E
100
AcDbEntity
  8
DETAIL
  6
CONTINUOUS
100
AcDbLine
 10
-191.0844979062171
 20
-226.8872331288639
 30
0.0
 11
-191.1635770919024
 21
-226.7813118458652
 31
0.0
  0
LINE
  5
90DF0
330
1E
100
AcDbEntity
  8
DETAIL
  6
CONTINUOUS
100
AcDbLine
 10
-191.1236773803252
 20
-232.6526791497406
 30
0.0
 11
-191.0524401085899
 21
-232.7624476340277
 31
0.0
  0
LINE
  5
90DF1
330
1E
100
AcDbEntity
  8
DETAIL
  6
CONTINUOUS
100
AcDbLine
 10
-191.1236726147203
 20
-226.6556949242567
 30
0.0
 11
-191.0524279786663
 21
-226.7654702997549
 31
0.0
  0
LINE
  5
90DF2
330
1E
100
AcDbEntity
  8
DETAIL
  6
CONTINUOUS
100
AcDbLine
 10
-191.1635770919024
 20
-226.7813118458652
 30
0.0
 11
-191.2317113384838
 21
-226.6681802934954
 31
0.0
  0
LINE
  5
90DF3
330
1E
100
AcDbEntity
  8
DETAIL
  6
CONTINUOUS
100
AcDbLine
 10
-191.163674047279
 20
-232.7781602034865
 30
0.0
 11
-191.2318032936987
 21
-232.6649996549901
 31
0.0
  0
LINE
  5
90DF4
330
1E
100
AcDbEntity
  8
DETAIL
  6
CONTINUOUS
100
AcDbLine
 10
-191.1827332064099
 20
-232.5365018621425
 30
0.0
 11
-191.1236773803252
 21
-232.6526791497406
 31
0.0
  0
LINE
  5
90DF5
330
1E
100
AcDbEntity
  8
DETAIL
  6
CONTINUOUS
100
AcDbLine
 10
-191.1827300626632
 20
-226.5395167810895
 30
0.0
 11
-191.1236726147203
 21
-226.6556949242567
 31
0.0
  0
LINE
  5
90DF6
330
1E
100
AcDbEntity
  8
DETAIL
  6
CONTINUOUS
100
AcDbLine
 10
-191.2317113384838
 20
-226.6681802934954
 30
0.0
 11
-191.2883755692896
 21
-226.5488727517249
 31
0.0
  0
LINE
  5
90DF7
330
1E
100
AcDbEntity
  8
DETAIL
  6
CONTINUOUS
100
AcDbLine
 10
-191.2318032936987
 20
-232.6649996549901
 30
0.0
 11
-191.2884575401808
 21
-232.5456672923364
 31
0.0
  0
LINE
  5
90DF8
330
1E
100
AcDbEntity
  8
DETAIL
  6
CONTINUOUS
100
AcDbLine
 10
-191.2293944790549
 20
-232.4148177828785
 30
0.0
 11
-191.1827332064099
 21
-232.5365018621425
 31
0.0
  0
LINE
  5
90DF9
330
1E
100
AcDbEntity
  8
DETAIL
  6
CONTINUOUS
100
AcDbLine
 10
-191.2293912726695
 20
-226.4178351592574
 30
0.0
 11
-191.1827300626632
 21
-226.5395167810895
 31
0.0
  0
LINE
  5
90DFA
330
1E
100
AcDbEntity
  8
DETAIL
  6
CONTINUOUS
100
AcDbLine
 10
-191.2884575401808
 20
-232.5456672923364
 30
0.0
 11
-191.3327739127966
 21
-232.4209928127582
 31
0.0
  0
LINE
  5
90DFB
330
1E
100
AcDbEntity
  8
DETAIL
  6
CONTINUOUS
100
AcDbLine
 10
-191.2883755692896
 20
-226.5488727517249
 30
0.0
 11
-191.3327107431437
 21
-226.4242061255424
 31
0.0
  0
LINE
  5
90DFC
330
1E
100
AcDbEntity
  8
DETAIL
  6
CONTINUOUS
100
AcDbLine
 10
-191.2904504420753
 20
-232.0290598783306
 30
0.0
 11
-191.2836675010553
 21
-232.1591480469373
 31
0.0
  0
LINE
  5
90DFD
330
1E
100
AcDbEntity
  8
DETAIL
  6
CONTINUOUS
100
AcDbLine
 10
-191.2904504420753
 20
-226.0320926216713
 30
0.0
 11
-191.2836650356334
 21
-226.1621790831334
 31
0.0
  0
LINE
  5
90DFE
330
1E
100
AcDbEntity
  8
DETAIL
  6
CONTINUOUS
100
AcDbLine
 10
-191.3835762167023
 20
-226.1645733144223
 30
0.0
 11
-191.3898671271404
 21
-226.0321999625082
 31
0.0
  0
LINE
  5
90DFF
330
1E
100
AcDbEntity
  8
DETAIL
  6
CONTINUOUS
100
AcDbLine
 10
-191.3835967823838
 20
-232.161337927376
 30
0.0
 11
-191.3898671271404
 21
-232.0289525374969
 31
0.0
  0
LINE
  5
90E00
330
1E
100
AcDbEntity
  8
DETAIL
  6
CONTINUOUS
100
AcDbLine
 10
-191.2631384630626
 20
-232.2883774941883
 30
0.0
 11
-191.2293944790549
 21
-232.4148177828785
 31
0.0
  0
LINE
  5
90E01
330
1E
100
AcDbEntity
  8
DETAIL
  6
CONTINUOUS
100
AcDbLine
 10
-191.2631354165955
 20
-226.2914018004278
 30
0.0
 11
-191.2293912726695
 21
-226.4178351592574
 31
0.0
  0
LINE
  5
90E02
330
1E
100
AcDbEntity
  8
DETAIL
  6
CONTINUOUS
100
AcDbLine
 10
-191.3327107431437
 20
-226.4242061255424
 30
0.0
 11
-191.364603997958
 21
-226.295661672096
 31
0.0
  0
LINE
  5
90E03
330
1E
100
AcDbEntity
  8
DETAIL
  6
CONTINUOUS
100
AcDbLine
 10
-191.3327739127966
 20
-232.4209928127582
 30
0.0
 11
-191.3646451000154
 21
-232.2924435683801
 31
0.0
  0
LINE
  5
90E04
330
1E
100
AcDbEntity
  8
DETAIL
  6
CONTINUOUS
100
AcDbLine
 10
-191.2836675010553
 20
-232.1591480469373
 30
0.0
 11
-191.2631384630626
 21
-232.2883774941883
 31
0.0
  0
LINE
  5
90E05
330
1E
100
AcDbEntity
  8
DETAIL
  6
CONTINUOUS
100
AcDbLine
 10
-191.2836650356334
 20
-226.1621790831334
 30
0.0
 11
-191.2631354165955
 21
-226.2914018004278
 31
0.0
  0
LINE
  5
90E06
330
1E
100
AcDbEntity
  8
DETAIL
  6
CONTINUOUS
100
AcDbLine
 10
-191.364603997958
 20
-226.295661672096
 30
0.0
 11
-191.3835762167023
 21
-226.1645733144223
 31
0.0
  0
LINE
  5
90E07
330
1E
100
AcDbEntity
  8
DETAIL
  6
CONTINUOUS
100
AcDbLine
 10
-191.3646451000154
 20
-232.2924435683801
 30
0.0
 11
-191.3835967823838
 21
-232.161337927376
 31
0.0
  0
LINE
  5
90E08
330
1E
100
AcDbEntity
  8
DETAIL
  6
CONTINUOUS
100
AcDbLine
 10
-191.3898671271404
 20
-226.0321999625082
 30
0.0
 11
-191.3835967823838
 21
-225.8998145739626
 31
0.0
  0
LINE
  5
90E09
330
1E
100
AcDbEntity
  8
DETAIL
  6
CONTINUOUS
100
AcDbLine
 10
-191.3898671271404
 20
-232.0289525374969
 30
0.0
 11
-191.3835762167023
 21
-231.8965791855826
 31
0.0
  0
LINE
  5
90E0A
330
1E
100
AcDbEntity
  8
DETAIL
  6
CONTINUOUS
100
AcDbLine
 10
-191.2836675010553
 20
-225.9020044544008
 30
0.0
 11
-191.2904504420753
 21
-226.0320926216713
 31
0.0
  0
LINE
  5
90E0B
330
1E
100
AcDbEntity
  8
DETAIL
  6
CONTINUOUS
100
AcDbLine
 10
-191.2836650356334
 20
-231.8989734168715
 30
0.0
 11
-191.2904504420753
 21
-232.0290598783306
 31
0.0
  0
LINE
  5
90E0C
330
1E
100
AcDbEntity
  8
DETAIL
  6
CONTINUOUS
100
AcDbLine
 10
-191.3835967823838
 20
-225.8998145739626
 30
0.0
 11
-191.3646451000154
 21
-225.7687089329551
 31
0.0
  0
LINE
  5
90E0D
330
1E
100
AcDbEntity
  8
DETAIL
  6
CONTINUOUS
100
AcDbLine
 10
-191.3835762167023
 20
-231.8965791855826
 30
0.0
 11
-191.364603997958
 21
-231.7654908279059
 31
0.0
  0
LINE
  5
90E0E
330
1E
100
AcDbEntity
  8
DETAIL
  6
CONTINUOUS
100
AcDbLine
 10
-191.2631384630626
 20
-225.7727750071469
 30
0.0
 11
-191.2836675010553
 21
-225.9020044544008
 31
0.0
  0
LINE
  5
90E0F
330
1E
100
AcDbEntity
  8
DETAIL
  6
CONTINUOUS
100
AcDbLine
 10
-191.2631354165955
 20
-231.7697507009075
 30
0.0
 11
-191.2836650356334
 21
-231.8989734168715
 31
0.0
  0
LINE
  5
90E10
330
1E
100
AcDbEntity
  8
DETAIL
  6
CONTINUOUS
100
AcDbLine
 10
-191.3646451000154
 20
-225.7687089329551
 30
0.0
 11
-191.3327739127966
 21
-225.6401596885771
 31
0.0
  0
LINE
  5
90E11
330
1E
100
AcDbEntity
  8
DETAIL
  6
CONTINUOUS
100
AcDbLine
 10
-191.364603997958
 20
-231.7654908279059
 30
0.0
 11
-191.3327107431437
 21
-231.6369463744595
 31
0.0
  0
LINE
  5
90E12
330
1E
100
AcDbEntity
  8
DETAIL
  6
CONTINUOUS
100
AcDbLine
 10
-191.2293944790549
 20
-225.6463347171263
 30
0.0
 11
-191.2631384630626
 21
-225.7727750071469
 31
0.0
  0
LINE
  5
90E13
330
1E
100
AcDbEntity
  8
DETAIL
  6
CONTINUOUS
100
AcDbLine
 10
-191.2293912726695
 20
-231.6433173420778
 30
0.0
 11
-191.2631354165955
 21
-231.7697507009075
 31
0.0
  0
LINE
  5
90E14
330
1E
100
AcDbEntity
  8
DETAIL
  6
CONTINUOUS
100
AcDbLine
 10
-191.3327739127966
 20
-225.6401596885771
 30
0.0
 11
-191.2884575401808
 21
-225.5154852090019
 31
0.0
  0
LINE
  5
90E15
330
1E
100
AcDbEntity
  8
DETAIL
  6
CONTINUOUS
100
AcDbLine
 10
-191.3327107431437
 20
-231.6369463744595
 30
0.0
 11
-191.2883755692896
 21
-231.5122797496101
 31
0.0
  0
LINE
  5
90E16
330
1E
100
AcDbEntity
  8
DETAIL
  6
CONTINUOUS
100
AcDbLine
 10
-191.1827332064099
 20
-225.5246506378593
 30
0.0
 11
-191.2293944790549
 21
-225.6463347171263
 31
0.0
  0
LINE
  5
90E17
330
1E
100
AcDbEntity
  8
DETAIL
  6
CONTINUOUS
100
AcDbLine
 10
-191.1827300626632
 20
-231.5216357189124
 30
0.0
 11
-191.2293912726695
 21
-231.6433173420778
 31
0.0
  0
LINE
  5
90E18
330
1E
100
AcDbEntity
  8
DETAIL
  6
CONTINUOUS
100
AcDbLine
 10
-191.2884575401808
 20
-225.5154852090019
 30
0.0
 11
-191.2318032936987
 21
-225.3961528450117
 31
0.0
  0
LINE
  5
90E19
330
1E
100
AcDbEntity
  8
DETAIL
  6
CONTINUOUS
100
AcDbLine
 10
-191.2883755692896
 20
-231.5122797496101
 30
0.0
 11
-191.2317113384838
 21
-231.3929722078398
 31
0.0
  0
LINE
  5
90E1A
330
1E
100
AcDbEntity
  8
DETAIL
  6
CONTINUOUS
100
AcDbLine
 10
-191.1236773803252
 20
-225.4084733502613
 30
0.0
 11
-191.1827332064099
 21
-225.5246506378593
 31
0.0
  0
LINE
  5
90E1B
330
1E
100
AcDbEntity
  8
DETAIL
  6
CONTINUOUS
100
AcDbLine
 10
-191.1236726147203
 20
-231.4054575757454
 30
0.0
 11
-191.1827300626632
 21
-231.5216357189124
 31
0.0
  0
LINE
  5
90E1C
330
1E
100
AcDbEntity
  8
DETAIL
  6
CONTINUOUS
100
AcDbLine
 10
-191.2318032936987
 20
-225.3961528450117
 30
0.0
 11
-191.163674047279
 21
-225.2829922965184
 31
0.0
  0
LINE
  5
90E1D
330
1E
100
AcDbEntity
  8
DETAIL
  6
CONTINUOUS
100
AcDbLine
 10
-191.2317113384838
 20
-231.3929722078398
 30
0.0
 11
-191.1635770919024
 21
-231.2798406541367
 31
0.0
  0
LINE
  5
90E1E
330
1E
100
AcDbEntity
  8
DETAIL
  6
CONTINUOUS
100
AcDbLine
 10
-191.0524401085899
 20
-225.2987048659742
 30
0.0
 11
-191.1236773803252
 21
-225.4084733502613
 31
0.0
  0
LINE
  5
90E1F
330
1E
100
AcDbEntity
  8
DETAIL
  6
CONTINUOUS
100
AcDbLine
 10
-191.0524279786663
 20
-231.295682200247
 30
0.0
 11
-191.1236726147203
 21
-231.4054575757454
 31
0.0
  0
LINE
  5
90E20
330
1E
100
AcDbEntity
  8
DETAIL
  6
CONTINUOUS
100
AcDbLine
 10
-191.163674047279
 20
-225.2829922965184
 30
0.0
 11
-191.0845991647788
 21
-225.1770485514493
 31
0.0
  0
LINE
  5
90E21
330
1E
100
AcDbEntity
  8
DETAIL
  6
CONTINUOUS
100
AcDbLine
 10
-191.1635770919024
 20
-231.2798406541367
 30
0.0
 11
-191.0844979062171
 21
-231.1739193711409
 31
0.0
  0
LINE
  5
90E22
330
1E
100
AcDbEntity
  8
DETAIL
  6
CONTINUOUS
100
AcDbLine
 10
-190.970247928079
 20
-225.1968579503436
 30
0.0
 11
-191.0524401085899
 21
-225.2987048659742
 31
0.0
  0
LINE
  5
90E23
330
1E
100
AcDbEntity
  8
DETAIL
  6
CONTINUOUS
100
AcDbLine
 10
-190.9702289509245
 20
-231.193829336933
 30
0.0
 11
-191.0524279786663
 21
-231.295682200247
 31
0.0
  0
LINE
  5
90E24
330
1E
100
AcDbEntity
  8
DETAIL
  6
CONTINUOUS
100
AcDbLine
 10
-191.0845991647788
 20
-225.1770485514493
 30
0.0
 11
-190.995686498602
 21
-225.0791430818462
 31
0.0
  0
LINE
  5
90E25
330
1E
100
AcDbEntity
  8
DETAIL
  6
CONTINUOUS
100
AcDbLine
 10
-191.0844979062171
 20
-231.1739193711409
 30
0.0
 11
-190.9955885237327
 21
-231.0760374883741
 31
0.0
  0
LINE
  5
90E26
330
1E
100
AcDbEntity
  8
DETAIL
  6
CONTINUOUS
100
AcDbLine
 10
-190.995686498602
 20
-225.0791430818462
 30
0.0
 11
-190.8979869457221
 21
-224.9901478823947
 31
0.0
  0
LINE
  5
90E27
330
1E
100
AcDbEntity
  8
DETAIL
  6
CONTINUOUS
100
AcDbLine
 10
-190.9955885237327
 20
-231.0760374883741
 30
0.0
 11
-190.8979106453175
 21
-230.9870752657175
 31
0.0
  0
LINE
  5
90E28
330
1E
100
AcDbEntity
  8
DETAIL
  6
CONTINUOUS
100
AcDbLine
 10
-190.7922007376551
 20
-233.1501961322885
 30
0.0
 11
-190.8979869457221
 21
-233.0710046189435
 31
0.0
  0
LINE
  5
90E29
330
1E
100
AcDbEntity
  8
DETAIL
  6
CONTINUOUS
100
AcDbLine
 10
-190.7921484825278
 20
-227.1532389026001
 30
0.0
 11
-190.8979106453175
 21
-227.0740772356207
 31
0.0
  0
LINE
  5
90E2A
330
1E
100
AcDbEntity
  8
DETAIL
  6
CONTINUOUS
100
AcDbLine
 10
-190.970247928079
 20
-232.8642945509914
 30
0.0
 11
-190.8781067783279
 21
-232.9565825684244
 31
0.0
  0
LINE
  5
90E2B
330
1E
100
AcDbEntity
  8
DETAIL
  6
CONTINUOUS
100
AcDbLine
 10
-190.9702289509245
 20
-226.8673231630718
 30
0.0
 11
-190.8780890392231
 21
-226.9596073157749
 31
0.0
  0
LINE
  5
90E2C
330
1E
100
AcDbEntity
  8
DETAIL
  6
CONTINUOUS
100
AcDbLine
 10
-190.8781067783279
 20
-225.1045699329108
 30
0.0
 11
-190.970247928079
 21
-225.1968579503436
 31
0.0
  0
LINE
  5
90E2D
330
1E
100
AcDbEntity
  8
DETAIL
  6
CONTINUOUS
100
AcDbLine
 10
-190.8780890392231
 20
-231.1015451842272
 30
0.0
 11
-190.9702289509245
 21
-231.193829336933
 31
0.0
  0
LINE
  5
90E2E
330
1E
100
AcDbEntity
  8
DETAIL
  6
CONTINUOUS
100
AcDbLine
 10
-190.8979869457221
 20
-224.9901478823947
 30
0.0
 11
-190.7922007376551
 21
-224.9109563690467
 31
0.0
  0
LINE
  5
90E2F
330
1E
100
AcDbEntity
  8
DETAIL
  6
CONTINUOUS
100
AcDbLine
 10
-190.8979106453175
 20
-230.9870752657175
 30
0.0
 11
-190.7921484825278
 21
-230.907913597402
 31
0.0
  0
LINE
  5
90E30
330
1E
100
AcDbEntity
  8
DETAIL
  6
CONTINUOUS
100
AcDbLine
 10
-180.0483849080942
 20
-230.7614070359798
 30
0.0
 11
-190.0433724080944
 21
-230.7796990625015
 31
0.0
  0
LINE
  5
90E31
330
1E
100
AcDbEntity
  8
DETAIL
  6
CONTINUOUS
100
AcDbLine
 10
-180.0483849080942
 20
-230.6618215022599
 30
0.0
 11
-190.0433724080944
 21
-230.6801135287846
 31
0.0
  0
LINE
  5
90E32
330
1E
100
AcDbEntity
  8
DETAIL
  6
CONTINUOUS
100
AcDbLine
 10
-180.0483849080942
 20
-224.7644145359793
 30
0.0
 11
-190.0433724080944
 21
-224.7827065625006
 31
0.0
  0
LINE
  5
90E33
330
1E
100
AcDbEntity
  8
DETAIL
  6
CONTINUOUS
100
AcDbLine
 10
-180.0483849080942
 20
-224.6648290022594
 30
0.0
 11
-190.0433724080944
 21
-224.6831210287841
 31
0.0
  0
LINE
  5
90E34
330
1E
100
AcDbEntity
  8
DETAIL
  6
CONTINUOUS
100
AcDbLine
 10
-190.0433724080944
 20
-233.378031471218
 30
0.0
 11
-180.0483849080942
 21
-233.3963234977425
 31
0.0
  0
LINE
  5
90E35
330
1E
100
AcDbEntity
  8
DETAIL
  6
CONTINUOUS
100
AcDbLine
 10
-190.0433724080944
 20
-233.2784459375013
 30
0.0
 11
-180.0483849080942
 21
-233.2967379640258
 31
0.0
  0
LINE
  5
90E36
330
1E
100
AcDbEntity
  8
DETAIL
  6
CONTINUOUS
100
AcDbLine
 10
-190.0433724080944
 20
-227.3810389712205
 30
0.0
 11
-180.0483849080942
 21
-227.3993309977417
 31
0.0
  0
LINE
  5
90E37
330
1E
100
AcDbEntity
  8
DETAIL
  6
CONTINUOUS
100
AcDbLine
 10
-190.0433724080944
 20
-227.2814534375006
 30
0.0
 11
-180.0483849080942
 21
-227.2997454640253
 31
0.0
  0
ARC
  5
90E39
330
1E
100
AcDbEntity
  8
DETAIL
  6
CONTINUOUS
100
AcDbCircle
 10
-213.9544809542112
 20
-17.36725004551272
 30
0.0
 40
0.99949875
100
AcDbArc
 50
0.0
 51
87.9999999999965
  0
LINE
  5
90E69
330
1E
100
AcDbEntity
  8
DETAIL
  6
CONTINUOUS
100
AcDbLine
 10
-216.4000476857963
 20
-16.65305273777812
 30
0.0
 11
-215.974680654619
 21
-16.38949957671866
 31
0.0
  0
LINE
  5
90E6A
330
1E
100
AcDbEntity
  8
DETAIL
  6
CONTINUOUS
100
AcDbLine
 10
-228.09803486911
 20
-24.95137434872549
 30
0.0
 11
-228.1684673551207
 21
-25.02881171644458
 31
0.0
  0
LINE
  5
90E6B
330
1E
100
AcDbEntity
  8
DETAIL
  6
CONTINUOUS
100
AcDbLine
 10
-228.0198895617522
 20
-24.88172778590478
 30
0.0
 11
-228.09803486911
 21
-24.95137434872549
 31
0.0
  0
LINE
  5
90E6C
330
1E
100
AcDbEntity
  8
DETAIL
  6
CONTINUOUS
100
AcDbLine
 10
-228.1684673551207
 20
-25.02881171644458
 30
0.0
 11
-228.2304145152065
 21
-25.11319042174273
 31
0.0
  0
LINE
  5
90E6D
330
1E
100
AcDbEntity
  8
DETAIL
  6
CONTINUOUS
100
AcDbLine
 10
-228.2831970646766
 20
-25.20358508869321
 30
0.0
 11
-228.3262361725101
 21
-25.2990044011085
 31
0.0
  0
LINE
  5
90E6E
330
1E
100
AcDbEntity
  8
DETAIL
  6
CONTINUOUS
100
AcDbLine
 10
-228.2304145152065
 20
-25.11319042174273
 30
0.0
 11
-228.2831970646766
 21
-25.20358508869321
 31
0.0
  0
LINE
  5
90E6F
330
1E
100
AcDbEntity
  8
DETAIL
  6
CONTINUOUS
100
AcDbLine
 10
-231.1810198678886
 20
-35.87809897460601
 30
0.0
 11
-230.2491029148586
 21
-32.38243578784295
 31
0.0
  0
LINE
  5
90E70
330
1E
100
AcDbEntity
  8
DETAIL
  6
CONTINUOUS
100
AcDbLine
 10
-230.2491029148586
 20
-32.38243578784295
 30
0.0
 11
-229.3084473469243
 21
-28.88914095334849
 31
0.0
  0
LINE
  5
90E71
330
1E
100
AcDbEntity
  8
DETAIL
  6
CONTINUOUS
100
AcDbLine
 10
-229.3084473469243
 20
-28.88914095334849
 30
0.0
 11
-228.359056470419
 21
-25.39822652241082
 31
0.0
  0
LINE
  5
90E72
330
1E
100
AcDbEntity
  8
DETAIL
  6
CONTINUOUS
100
AcDbLine
 10
-228.3262361725101
 20
-25.2990044011085
 30
0.0
 11
-228.3590597421116
 21
-25.39840172521326
 31
0.0
  0
LINE
  5
90E73
330
1E
100
AcDbEntity
  8
DETAIL
  6
CONTINUOUS
100
AcDbLine
 10
-214.4542303292164
 20
-16.1498679616352
 30
0.0
 11
-214.4542303292164
 21
-19.21880685655423
 31
0.0
  0
LINE
  5
90E74
330
1E
100
AcDbEntity
  8
DETAIL
  6
CONTINUOUS
100
AcDbLine
 10
-214.4542303292164
 20
-16.14979067373087
 30
0.0
 11
-215.5371423993238
 21
-16.24453320421935
 31
0.0
  0
LINE
  5
90E75
330
1E
100
AcDbEntity
  8
DETAIL
  6
CONTINUOUS
100
AcDbLine
 10
-213.9195989515865
 20
-16.36836016349707
 30
0.0
 11
-214.4542303292164
 21
-16.34969042372904
 31
0.0
  0
ARC
  5
90E76
330
1E
100
AcDbEntity
  8
DETAIL
  6
CONTINUOUS
100
AcDbCircle
 10
-153.019371431581
 20
-118.4725536871228
 30
0.0
 40
119.9346526065
100
AcDbArc
 50
121.6624152209921
 51
128.7075052169089
  0
ARC
  5
90E77
330
1E
100
AcDbEntity
  8
DETAIL
  6
CONTINUOUS
100
AcDbCircle
 10
-229.4467115792158
 20
-19.21880685655423
 30
0.0
 40
14.99248125
100
AcDbArc
 50
356.7251154513058
 51
0.0
  0
ARC
  5
90E78
330
1E
100
AcDbEntity
  8
DETAIL
  6
CONTINUOUS
100
AcDbCircle
 10
-227.3949177339945
 20
-25.66173031356311
 30
0.0
 40
0.99949875
100
AcDbArc
 50
128.7075402521892
 51
164.7140841691063
  0
ARC
  5
90E79
330
1E
100
AcDbEntity
  8
DETAIL
  6
CONTINUOUS
100
AcDbCircle
 10
-215.4500303434688
 20
-17.24022855896055
 30
0.0
 40
0.99949875
100
AcDbArc
 50
95.00000000002541
 51
121.6624152209921
  0
LINE
  5
90E7A
330
1E
100
AcDbEntity
  8
DETAIL
  6
CONTINUOUS
100
AcDbLine
 10
-234.4215074135827
 20
-48.39137659130983
 30
0.0
 11
-234.4253008405067
 21
-48.42576229616634
 31
0.0
  0
LINE
  5
90E7B
330
1E
100
AcDbEntity
  8
DETAIL
  6
CONTINUOUS
100
AcDbLine
 10
-234.4162097330518
 20
-48.34869565186091
 30
0.0
 11
-234.4222198189763
 21
-48.39735962147961
 31
0.0
  0
LINE
  5
90E7C
330
1E
100
AcDbEntity
  8
DETAIL
  6
CONTINUOUS
100
AcDbLine
 10
-234.413149527747
 20
-48.32771266685722
 30
0.0
 11
-234.4215074135827
 21
-48.39137659130983
 31
0.0
  0
LINE
  5
90E7D
330
1E
100
AcDbEntity
  8
DETAIL
  6
CONTINUOUS
100
AcDbLine
 10
-234.4119366453341
 20
-48.32034505106003
 30
0.0
 11
-234.4162097330518
 21
-48.34869565186091
 31
0.0
  0
LINE
  5
90E7E
330
1E
100
AcDbEntity
  8
DETAIL
  6
CONTINUOUS
100
AcDbLine
 10
-234.407190246995
 20
-48.28979125116575
 30
0.0
 11
-234.413149527747
 21
-48.32771266685722
 31
0.0
  0
LINE
  5
90E7F
330
1E
100
AcDbEntity
  8
DETAIL
  6
CONTINUOUS
100
AcDbLine
 10
-234.4023427420252
 20
-48.26265643664692
 30
0.0
 11
-234.4119366453341
 21
-48.32034505106003
 31
0.0
  0
LINE
  5
90E80
330
1E
100
AcDbEntity
  8
DETAIL
  6
CONTINUOUS
100
AcDbLine
 10
-234.4025725667688
 20
-48.2640383902617
 30
0.0
 11
-234.413139951217
 21
-48.32763971944041
 31
0.0
  0
LINE
  5
90E81
330
1E
100
AcDbEntity
  8
DETAIL
  6
CONTINUOUS
100
AcDbLine
 10
-234.4025666190864
 20
-48.2640026215322
 30
0.0
 11
-234.407190246995
 21
-48.28979125116575
 31
0.0
  0
LINE
  5
90E82
330
1E
100
AcDbEntity
  8
DETAIL
  6
CONTINUOUS
100
AcDbLine
 10
-234.3727711642168
 20
-48.12722782894434
 30
0.0
 11
-234.3732151775366
 21
-48.12964907068863
 31
0.0
  0
LINE
  5
90E83
330
1E
100
AcDbEntity
  8
DETAIL
  6
CONTINUOUS
100
AcDbLine
 10
-234.3890969501389
 20
-48.19649778996382
 30
0.0
 11
-234.4025666190864
 21
-48.2640026215322
 31
0.0
  0
LINE
  5
90E84
330
1E
100
AcDbEntity
  8
DETAIL
  6
CONTINUOUS
100
AcDbLine
 10
-234.3890916408072
 20
-48.1964714698297
 30
0.0
 11
-234.4025725667688
 21
-48.2640383902617
 31
0.0
  0
LINE
  5
90E85
330
1E
100
AcDbEntity
  8
DETAIL
  6
CONTINUOUS
100
AcDbLine
 10
-234.3872810608154
 20
-48.18826982963128
 30
0.0
 11
-234.3892256802537
 21
-48.1971358619694
 31
0.0
  0
LINE
  5
90E86
330
1E
100
AcDbEntity
  8
DETAIL
  6
CONTINUOUS
100
AcDbLine
 10
-234.3890916408072
 20
-48.1964714698297
 30
0.0
 11
-234.3724527692265
 21
-48.12588837001886
 31
0.0
  0
LINE
  5
90E87
330
1E
100
AcDbEntity
  8
DETAIL
  6
CONTINUOUS
100
AcDbLine
 10
-233.9242133472471
 20
-46.37882418644631
 30
0.0
 11
-234.3724527692265
 21
-48.12588837001886
 31
0.0
  0
LINE
  5
90E88
330
1E
100
AcDbEntity
  8
DETAIL
  6
CONTINUOUS
100
AcDbLine
 10
-233.9242133472471
 20
-46.37882418644631
 30
0.0
 11
-233.0185833059585
 21
-42.87632494930676
 31
0.0
  0
LINE
  5
90E89
330
1E
100
AcDbEntity
  8
DETAIL
  6
CONTINUOUS
100
AcDbLine
 10
-233.0185833059585
 20
-42.87632494797344
 30
0.0
 11
-232.1041844755673
 21
-39.37607916872002
 31
0.0
  0
LINE
  5
90E8A
330
1E
100
AcDbEntity
  8
DETAIL
  6
CONTINUOUS
100
AcDbLine
 10
-235.6944672038298
 20
-81.10198709508223
 30
0.0
 11
-235.2944052741077
 21
-69.56600292037092
 31
0.0
  0
LINE
  5
90E8B
330
1E
100
AcDbEntity
  8
DETAIL
  6
CONTINUOUS
100
AcDbLine
 10
-235.2944052741077
 20
-69.56600292037092
 30
0.0
 11
-234.8372909855552
 21
-57.90321962759254
 31
0.0
  0
LINE
  5
90E8C
330
1E
100
AcDbEntity
  8
DETAIL
  6
CONTINUOUS
100
AcDbLine
 10
-234.8372909855552
 20
-57.90321962759254
 30
0.0
 11
-234.7598934058842
 21
-56.04959276534874
 31
0.0
  0
LINE
  5
90E8D
330
1E
100
AcDbEntity
  8
DETAIL
  6
CONTINUOUS
100
AcDbLine
 10
-234.7598934058842
 20
-56.04959276534874
 30
0.0
 11
-234.6935050850461
 21
-54.4836382576932
 31
0.0
  0
LINE
  5
90E8E
330
1E
100
AcDbEntity
  8
DETAIL
  6
CONTINUOUS
100
AcDbLine
 10
-234.6935050850461
 20
-54.4836382576932
 30
0.0
 11
-234.6187863925788
 21
-52.7464475612187
 31
0.0
  0
LINE
  5
90E8F
330
1E
100
AcDbEntity
  8
DETAIL
  6
CONTINUOUS
100
AcDbLine
 10
-234.6187863925788
 20
-52.7464475612187
 30
0.0
 11
-234.5368210010001
 21
-50.87011238056402
 31
0.0
  0
LINE
  5
90E90
330
1E
100
AcDbEntity
  8
DETAIL
  6
CONTINUOUS
100
AcDbLine
 10
-234.4357134505735
 20
-48.59569938448067
 30
0.0
 11
-234.4327297215786
 21
-48.5292292300237
 31
0.0
  0
LINE
  5
90E91
330
1E
100
AcDbEntity
  8
DETAIL
  6
CONTINUOUS
100
AcDbLine
 10
-234.4382154544837
 20
-48.65146598812043
 30
0.0
 11
-234.435716479722
 21
-48.59576686664059
 31
0.0
  0
LINE
  5
90E92
330
1E
100
AcDbEntity
  8
DETAIL
  6
CONTINUOUS
100
AcDbLine
 10
-234.441585821567
 20
-48.72662798227565
 30
0.0
 11
-234.4382154544837
 21
-48.65146598812043
 31
0.0
  0
LINE
  5
90E93
330
1E
100
AcDbEntity
  8
DETAIL
  6
CONTINUOUS
100
AcDbLine
 10
-234.5368210010001
 20
-50.87011238056402
 30
0.0
 11
-234.441585821567
 21
-48.72662798227565
 31
0.0
  0
LINE
  5
90E94
330
1E
100
AcDbEntity
  8
DETAIL
  6
CONTINUOUS
100
AcDbLine
 10
-234.4328452956215
 20
-48.53180327646942
 30
0.0
 11
-234.4288198663798
 21
-48.46696477440037
 31
0.0
  0
LINE
  5
90E95
330
1E
100
AcDbEntity
  8
DETAIL
  6
CONTINUOUS
100
AcDbLine
 10
-234.4253008405067
 20
-48.42576229616634
 30
0.0
 11
-234.4295714614563
 21
-48.47576481050237
 31
0.0
  0
LINE
  5
90E96
330
1E
100
AcDbEntity
  8
DETAIL
  6
CONTINUOUS
100
AcDbLine
 10
-234.427557272902
 20
-48.45218331265505
 30
0.0
 11
-234.428825702118
 21
-48.46705877125941
 31
0.0
  0
LINE
  5
90E97
330
1E
100
AcDbEntity
  8
DETAIL
  6
CONTINUOUS
100
AcDbLine
 10
-234.4222198189763
 20
-48.39735962147961
 30
0.0
 11
-234.4287729405841
 21
-48.46516832332281
 31
0.0
  0
LINE
  5
90E98
330
1E
100
AcDbEntity
  8
DETAIL
  6
CONTINUOUS
100
AcDbLine
 10
-232.1041844755673
 20
-39.37607916872002
 30
0.0
 11
-231.1810198678886
 21
-35.87809897460601
 31
0.0
  0
ARC
  5
90E9A
330
1E
100
AcDbEntity
  8
DETAIL
  6
CONTINUOUS
100
AcDbCircle
 10
-150.9730872432537
 20
-173.1390632785892
 30
0.0
 40
169.9147874999999
100
AcDbArc
 50
92.00000000000349
 51
110.7021927798995
  0
LINE
  5
90EA5
330
1E
100
AcDbEntity
  8
DETAIL
  6
CONTINUOUS
100
AcDbLine
 10
-213.0318436580874
 20
-22.25695427210485
 30
0.0
 11
-213.0318436580874
 21
-21.03623759653419
 31
0.0
  0
LINE
  5
90EA6
330
1E
100
AcDbEntity
  8
DETAIL
  6
CONTINUOUS
100
AcDbLine
 10
-212.9549822042136
 20
-19.34743985492696
 30
0.0
 11
-212.9549822042136
 21
-17.36725004551272
 31
0.0
  0
LINE
  5
90EA7
330
1E
100
AcDbEntity
  8
DETAIL
  6
CONTINUOUS
100
AcDbLine
 10
-212.5630074227756
 20
-22.24877070550746
 30
0.0
 11
-213.1010262615873
 21
-22.25816185983239
 31
0.0
  0
ARC
  5
90EA8
330
1E
100
AcDbEntity
  8
DETAIL
  6
CONTINUOUS
100
AcDbCircle
 10
-224.9489672042218
 20
-19.34743985492696
 30
0.0
 40
11.993985
100
AcDbArc
 50
356.7221591209961
 51
0.0
  0
ARC
  5
90EA9
330
1E
100
AcDbEntity
  8
DETAIL
  6
CONTINUOUS
100
AcDbCircle
 10
-213.9544809542112
 20
-17.79195483547346
 30
0.0
 40
0.99949875
100
AcDbArc
 50
359.0790329449963
 51
0.0062653222020794
  0
ARC
  5
90EAA
330
1E
100
AcDbEntity
  8
DETAIL
  6
CONTINUOUS
100
AcDbCircle
 10
-210.686439785366
 20
-15.13054989505144
 30
0.0
 40
0.99949875
100
AcDbArc
 50
110.7021918957144
 51
176.6059032301977
  0
ARC
  5
90EAB
330
1E
100
AcDbEntity
  8
DETAIL
  6
CONTINUOUS
100
AcDbCircle
 10
-213.0543895726132
 20
-21.43327145683724
 30
0.0
 40
0.9994977838178748
100
AcDbArc
 50
306.5431013781181
 51
356.7546913096993
  0
ARC
  5
90EAC
330
1E
100
AcDbEntity
  8
DETAIL
  6
CONTINUOUS
100
AcDbCircle
 10
-212.5717294633322
 20
-21.74910111583039
 30
0.0
 40
0.4997475412529602
100
AcDbArc
 50
271.000031550477
 51
356.7616530361013
  0
LINE
  5
90EAD
330
1E
100
AcDbEntity
  8
DETAIL
  6
CONTINUOUS
100
AcDbLine
 10
-2.93720640809488
 20
-48.94652932361305
 30
0.0
 11
-2.93720640809488
 21
-94.0012373747918
 31
0.0
  0
LINE
  5
90EAE
330
1E
100
AcDbEntity
  8
DETAIL
  6
CONTINUOUS
100
AcDbLine
 10
-67.10502615808991
 20
-214.0380950000026
 30
0.0
 11
-67.10502615808991
 21
-0.1919679599845949
 31
0.0
  0
LINE
  5
90EAF
330
1E
100
AcDbEntity
  8
DETAIL
  6
CONTINUOUS
100
AcDbLine
 10
-5.13610365809518
 20
-9.628133521759309
 30
0.0
 11
-5.13610365809518
 21
-214.3869394620224
 31
0.0
  0
LINE
  5
90EB0
330
1E
100
AcDbEntity
  8
DETAIL
  6
CONTINUOUS
100
AcDbLine
 10
-3.137106158087135
 20
-168.9351402845886
 30
0.0
 11
-3.137106158087135
 21
-12.7981385625485
 31
0.0
  0
LINE
  5
90EB1
330
1E
100
AcDbEntity
  8
DETAIL
  6
CONTINUOUS
100
AcDbLine
 10
-1.338008408096811
 20
-23.4382456874996
 30
0.0
 11
-1.338008408096811
 21
-127.722778483474
 31
0.0
  0
LINE
  5
90EB2
330
1E
100
AcDbEntity
  8
DETAIL
  6
CONTINUOUS
100
AcDbLine
 10
-13.88171772059513
 20
-225.03258125
 30
0.0
 11
-8.384474595588926
 21
-225.03258125
 31
0.0
  0
LINE
  5
90EB3
330
1E
100
AcDbEntity
  8
DETAIL
  6
CONTINUOUS
100
AcDbLine
 10
-8.594431563215493
 20
-224.7327316250025
 30
0.0
 11
-13.67176075296856
 21
-224.7327316250025
 31
0.0
  0
LINE
  5
90EB4
330
1E
100
AcDbEntity
  8
DETAIL
  6
CONTINUOUS
100
AcDbLine
 10
-13.32183247315379
 20
-224.232982250001
 30
0.0
 11
-8.944359843030269
 21
-224.232982250001
 31
0.0
  0
LINE
  5
90EB5
330
1E
100
AcDbEntity
  8
DETAIL
  6
CONTINUOUS
100
AcDbLine
 10
-9.154316810655018
 20
-223.9331326250003
 30
0.0
 11
-13.11187550552904
 21
-223.9331326250003
 31
0.0
  0
LINE
  5
90EB6
330
1E
100
AcDbEntity
  8
DETAIL
  6
CONTINUOUS
100
AcDbLine
 10
-14.67382840532127
 20
-214.0978452884826
 30
0.0
 11
-7.592363910862786
 21
-214.0978452884826
 31
0.0
  0
LINE
  5
90EB7
330
1E
100
AcDbEntity
  8
DETAIL
  6
CONTINUOUS
100
AcDbLine
 10
-26.12557740809143
 20
-229.2566667546361
 30
0.0
 11
-5.140464905584394
 21
-229.2566667546361
 31
0.0
  0
LINE
  5
90EB8
330
1E
100
AcDbEntity
  8
DETAIL
  6
CONTINUOUS
100
AcDbLine
 10
-5.140464905584394
 20
-228.0048867453665
 30
0.0
 11
-26.12557740809143
 21
-228.0048867453665
 31
0.0
  0
LINE
  5
90EB9
330
1E
100
AcDbEntity
  8
DETAIL
  6
CONTINUOUS
100
AcDbLine
 10
-48.87612441608917
 20
-214.1425089509287
 30
0.0
 11
-5.384998245117913
 21
-214.142406122497
 31
0.0
  0
LINE
  5
90EBA
330
1E
100
AcDbEntity
  8
DETAIL
  6
CONTINUOUS
100
AcDbLine
 10
-67.10502615808991
 20
-214.0380950000026
 30
0.0
 11
-5.13610365809518
 21
-214.0380950000026
 31
0.0
  0
LINE
  5
90EBB
330
1E
100
AcDbEntity
  8
DETAIL
  6
CONTINUOUS
100
AcDbLine
 10
-14.67382840532127
 20
-214.0978452884826
 30
0.0
 11
-14.91594310980554
 21
-214.1380448750016
 31
0.0
  0
LINE
  5
90EBC
330
1E
100
AcDbEntity
  8
DETAIL
  6
CONTINUOUS
100
AcDbLine
 10
-13.32183247315379
 20
-224.232982250001
 30
0.0
 11
-13.3168057473872
 21
-224.2303655023054
 31
0.0
  0
LINE
  5
90EBD
330
1E
100
AcDbEntity
  8
DETAIL
  6
CONTINUOUS
100
AcDbLine
 10
-13.88171772059513
 20
-225.03258125
 30
0.0
 11
-13.87669099483946
 21
-225.0299645023046
 31
0.0
  0
LINE
  5
90EBE
330
1E
100
AcDbEntity
  8
DETAIL
  6
CONTINUOUS
100
AcDbLine
 10
-13.67176075296856
 20
-224.7327316250025
 30
0.0
 11
-13.67039856010751
 21
-224.7353483726981
 31
0.0
  0
LINE
  5
90EBF
330
1E
100
AcDbEntity
  8
DETAIL
  6
CONTINUOUS
100
AcDbLine
 10
-13.11187550552904
 20
-223.9331326250003
 30
0.0
 11
-13.11051331266617
 21
-223.9357493726988
 31
0.0
  0
LINE
  5
90EC0
330
1E
100
AcDbEntity
  8
DETAIL
  6
CONTINUOUS
100
AcDbLine
 10
-17.62983803309407
 20
-214.0380950000026
 30
0.0
 11
-17.62983803309407
 21
-214.1253199352427
 31
0.0
  0
LINE
  5
90EC1
330
1E
100
AcDbEntity
  8
DETAIL
  6
CONTINUOUS
100
AcDbLine
 10
-14.67382840532127
 20
-214.0978452884826
 30
0.0
 11
-14.6668750884296
 21
-214.0883702815445
 31
0.0
  0
LINE
  5
90EC2
330
1E
100
AcDbEntity
  8
DETAIL
  6
CONTINUOUS
100
AcDbLine
 10
-14.65981597658037
 20
-214.062319947156
 30
0.0
 11
-14.65575263568143
 21
-214.0380950000026
 31
0.0
  0
LINE
  5
90EC3
330
1E
100
AcDbEntity
  8
DETAIL
  6
CONTINUOUS
100
AcDbLine
 10
-14.6668750884296
 20
-214.0883702815445
 30
0.0
 11
-14.65981597658037
 21
-214.062319947156
 31
0.0
  0
LINE
  5
90EC4
330
1E
100
AcDbEntity
  8
DETAIL
  6
CONTINUOUS
100
AcDbLine
 10
-13.11187550552904
 20
-223.9331326250003
 30
0.0
 11
-13.32183247315379
 21
-224.232982250001
 31
0.0
  0
LINE
  5
90EC5
330
1E
100
AcDbEntity
  8
DETAIL
  6
CONTINUOUS
100
AcDbLine
 10
-13.67176075296856
 20
-224.7327316250025
 30
0.0
 11
-13.88171772059513
 21
-225.03258125
 31
0.0
  0
LINE
  5
90EC6
330
1E
100
AcDbEntity
  8
DETAIL
  6
CONTINUOUS
100
AcDbLine
 10
-47.86467522059729
 20
-225.03258125
 30
0.0
 11
-42.36743209559108
 21
-225.03258125
 31
0.0
  0
LINE
  5
90EC7
330
1E
100
AcDbEntity
  8
DETAIL
  6
CONTINUOUS
100
AcDbLine
 10
-42.57738906321764
 20
-224.7327316250025
 30
0.0
 11
-47.65471825297254
 21
-224.7327316250025
 31
0.0
  0
LINE
  5
90EC8
330
1E
100
AcDbEntity
  8
DETAIL
  6
CONTINUOUS
100
AcDbLine
 10
-47.30478997314321
 20
-224.232982250001
 30
0.0
 11
-42.92731734303242
 21
-224.232982250001
 31
0.0
  0
LINE
  5
90EC9
330
1E
100
AcDbEntity
  8
DETAIL
  6
CONTINUOUS
100
AcDbLine
 10
-43.13727431065899
 20
-223.9331326250003
 30
0.0
 11
-47.09483300551847
 21
-223.9331326250003
 31
0.0
  0
LINE
  5
90ECA
330
1E
100
AcDbEntity
  8
DETAIL
  6
CONTINUOUS
100
AcDbLine
 10
-46.74490472570369
 20
-223.4333832500015
 30
0.0
 11
-43.4872025904865
 21
-223.4333832500015
 31
0.0
  0
LINE
  5
90ECB
330
1E
100
AcDbEntity
  8
DETAIL
  6
CONTINUOUS
100
AcDbLine
 10
-43.69715955809851
 20
-223.133533625001
 30
0.0
 11
-46.53494775807712
 21
-223.133533625001
 31
0.0
  0
LINE
  5
90ECC
330
1E
100
AcDbEntity
  8
DETAIL
  6
CONTINUOUS
100
AcDbLine
 10
-46.18501947826234
 20
-222.6337842500024
 30
0.0
 11
-44.04708783792784
 21
-222.6337842500024
 31
0.0
  0
LINE
  5
90ECD
330
1E
100
AcDbEntity
  8
DETAIL
  6
CONTINUOUS
100
AcDbLine
 10
-50.60592990025771
 20
-214.1472686252773
 30
0.0
 11
-50.05965051746215
 21
-214.1449183359522
 31
0.0
  0
LINE
  5
90ECE
330
1E
100
AcDbEntity
  8
DETAIL
  6
CONTINUOUS
100
AcDbLine
 10
-50.05965051746215
 20
-214.1449183359522
 30
0.0
 11
-49.47807934420097
 21
-214.1433181078034
 31
0.0
  0
LINE
  5
90ECF
330
1E
100
AcDbEntity
  8
DETAIL
  6
CONTINUOUS
100
AcDbLine
 10
-49.47807934420097
 20
-214.1433181078034
 30
0.0
 11
-48.87612441608917
 21
-214.1425089509287
 31
0.0
  0
LINE
  5
90ED0
330
1E
100
AcDbEntity
  8
DETAIL
  6
CONTINUOUS
100
AcDbLine
 10
-50.86331994279726
 20
-214.1380448750016
 30
0.0
 11
-51.32819420638089
 21
-214.1380448750016
 31
0.0
  0
LINE
  5
90ED1
330
1E
100
AcDbEntity
  8
DETAIL
  6
CONTINUOUS
100
AcDbLine
 10
-51.32819420638089
 20
-214.1380448750016
 30
0.0
 11
-51.57030891086515
 21
-214.0978452884826
 31
0.0
  0
LINE
  5
90ED2
330
1E
100
AcDbEntity
  8
DETAIL
  6
CONTINUOUS
100
AcDbLine
 10
-42.36743209559108
 20
-225.03258125
 30
0.0
 11
-42.37245882268007
 21
-225.0299645023046
 31
0.0
  0
LINE
  5
90ED3
330
1E
100
AcDbEntity
  8
DETAIL
  6
CONTINUOUS
100
AcDbLine
 10
-42.92731734303242
 20
-224.232982250001
 30
0.0
 11
-42.93234407012142
 21
-224.2303655023054
 31
0.0
  0
LINE
  5
90ED4
330
1E
100
AcDbEntity
  8
DETAIL
  6
CONTINUOUS
100
AcDbLine
 10
-43.4872025904865
 20
-223.4333832500015
 30
0.0
 11
-43.49222931624035
 21
-223.4307665023032
 31
0.0
  0
LINE
  5
90ED5
330
1E
100
AcDbEntity
  8
DETAIL
  6
CONTINUOUS
100
AcDbLine
 10
-44.04708783792784
 20
-222.6337842500024
 30
0.0
 11
-44.0521145636817
 21
-222.6311675023039
 31
0.0
  0
LINE
  5
90ED6
330
1E
100
AcDbEntity
  8
DETAIL
  6
CONTINUOUS
100
AcDbLine
 10
-26.23034042795416
 20
-229.1260034064835
 30
0.0
 11
-26.10075737137276
 21
-229.2552960367202
 31
0.0
  0
LINE
  5
90ED7
330
1E
100
AcDbEntity
  8
DETAIL
  6
CONTINUOUS
100
AcDbLine
 10
-51.57726222775682
 20
-214.0883702815445
 30
0.0
 11
-51.57030891086515
 21
-214.0978452884826
 31
0.0
  0
LINE
  5
90ED8
330
1E
100
AcDbEntity
  8
DETAIL
  6
CONTINUOUS
100
AcDbLine
 10
-42.36743209559108
 20
-225.03258125
 30
0.0
 11
-42.57738906321764
 21
-224.7327316250025
 31
0.0
  0
LINE
  5
90ED9
330
1E
100
AcDbEntity
  8
DETAIL
  6
CONTINUOUS
100
AcDbLine
 10
-42.92731734303242
 20
-224.232982250001
 30
0.0
 11
-43.13727431065899
 21
-223.9331326250003
 31
0.0
  0
LINE
  5
90EDA
330
1E
100
AcDbEntity
  8
DETAIL
  6
CONTINUOUS
100
AcDbLine
 10
-43.4872025904865
 20
-223.4333832500015
 30
0.0
 11
-43.69715955809851
 21
-223.133533625001
 31
0.0
  0
LINE
  5
90EDB
330
1E
100
AcDbEntity
  8
DETAIL
  6
CONTINUOUS
100
AcDbLine
 10
-44.04708783792784
 20
-222.6337842500024
 30
0.0
 11
-45.11605365809418
 21
-221.1071428441043
 31
0.0
  0
LINE
  5
90EDC
330
1E
100
AcDbEntity
  8
DETAIL
  6
CONTINUOUS
100
AcDbLine
 10
-47.65471825297254
 20
-224.7327316250025
 30
0.0
 11
-47.65335606010967
 21
-224.7353483726981
 31
0.0
  0
LINE
  5
90EDD
330
1E
100
AcDbEntity
  8
DETAIL
  6
CONTINUOUS
100
AcDbLine
 10
-47.09483300551847
 20
-223.9331326250003
 30
0.0
 11
-47.09347081266833
 21
-223.9357493726988
 31
0.0
  0
LINE
  5
90EDE
330
1E
100
AcDbEntity
  8
DETAIL
  6
CONTINUOUS
100
AcDbLine
 10
-46.53494775807712
 20
-223.133533625001
 30
0.0
 11
-46.53358556521607
 21
-223.1361503726993
 31
0.0
  0
LINE
  5
90EDF
330
1E
100
AcDbEntity
  8
DETAIL
  6
CONTINUOUS
100
AcDbLine
 10
-46.18501947826234
 20
-222.6337842500024
 30
0.0
 11
-46.17999275250667
 21
-222.6311675023039
 31
0.0
  0
LINE
  5
90EE0
330
1E
100
AcDbEntity
  8
DETAIL
  6
CONTINUOUS
100
AcDbLine
 10
-46.74490472570369
 20
-223.4333832500015
 30
0.0
 11
-46.73987799994802
 21
-223.4307665023032
 31
0.0
  0
LINE
  5
90EE1
330
1E
100
AcDbEntity
  8
DETAIL
  6
CONTINUOUS
100
AcDbLine
 10
-47.30478997314321
 20
-224.232982250001
 30
0.0
 11
-47.29976324738936
 21
-224.2303655023054
 31
0.0
  0
LINE
  5
90EE2
330
1E
100
AcDbEntity
  8
DETAIL
  6
CONTINUOUS
100
AcDbLine
 10
-47.86467522059729
 20
-225.03258125
 30
0.0
 11
-47.85964849483071
 21
-225.0299645023046
 31
0.0
  0
LINE
  5
90EE3
330
1E
100
AcDbEntity
  8
DETAIL
  6
CONTINUOUS
100
AcDbLine
 10
-51.58432133960605
 20
-214.062319947156
 30
0.0
 11
-51.57726222775682
 21
-214.0883702815445
 31
0.0
  0
LINE
  5
90EE4
330
1E
100
AcDbEntity
  8
DETAIL
  6
CONTINUOUS
100
AcDbLine
 10
-26.10075737137276
 20
-229.2552960367202
 30
0.0
 11
-26.1047443225766
 21
-229.2453097168729
 31
0.0
  0
LINE
  5
90EE5
330
1E
100
AcDbEntity
  8
DETAIL
  6
CONTINUOUS
100
AcDbLine
 10
-51.58838468050499
 20
-214.0380950000026
 30
0.0
 11
-51.58432133960605
 21
-214.062319947156
 31
0.0
  0
LINE
  5
90EE6
330
1E
100
AcDbEntity
  8
DETAIL
  6
CONTINUOUS
100
AcDbLine
 10
-45.11605365809418
 20
-221.1071428441043
 30
0.0
 11
-45.11605365809418
 21
-221.1117050055077
 31
0.0
  0
LINE
  5
90EE7
330
1E
100
AcDbEntity
  8
DETAIL
  6
CONTINUOUS
100
AcDbLine
 10
-44.11655490809653
 20
-214.0380950000026
 30
0.0
 11
-44.11655490809653
 21
-214.1380448750016
 31
0.0
  0
LINE
  5
90EE8
330
1E
100
AcDbEntity
  8
DETAIL
  6
CONTINUOUS
100
AcDbLine
 10
-39.11906115809733
 20
-214.138045212167
 30
0.0
 11
-39.11906115809733
 21
-214.0380950000026
 31
0.0
  0
LINE
  5
90EE9
330
1E
100
AcDbEntity
  8
DETAIL
  6
CONTINUOUS
100
AcDbLine
 10
-43.69715955809851
 20
-223.133533625001
 30
0.0
 11
-43.69852175096139
 21
-223.1361503726993
 31
0.0
  0
LINE
  5
90EEA
330
1E
100
AcDbEntity
  8
DETAIL
  6
CONTINUOUS
100
AcDbLine
 10
-43.13727431065899
 20
-223.9331326250003
 30
0.0
 11
-43.13863650352004
 21
-223.9357493726988
 31
0.0
  0
LINE
  5
90EEB
330
1E
100
AcDbEntity
  8
DETAIL
  6
CONTINUOUS
100
AcDbLine
 10
-45.11605365809418
 20
-221.1071428441043
 30
0.0
 11
-46.18501947826234
 21
-222.6337842500024
 31
0.0
  0
LINE
  5
90EEC
330
1E
100
AcDbEntity
  8
DETAIL
  6
CONTINUOUS
100
AcDbLine
 10
-47.65471825297254
 20
-224.7327316250025
 30
0.0
 11
-47.86467522059729
 21
-225.03258125
 31
0.0
  0
LINE
  5
90EED
330
1E
100
AcDbEntity
  8
DETAIL
  6
CONTINUOUS
100
AcDbLine
 10
-47.09483300551847
 20
-223.9331326250003
 30
0.0
 11
-47.30478997314321
 21
-224.232982250001
 31
0.0
  0
LINE
  5
90EEE
330
1E
100
AcDbEntity
  8
DETAIL
  6
CONTINUOUS
100
AcDbLine
 10
-46.53494775807712
 20
-223.133533625001
 30
0.0
 11
-46.74490472570369
 21
-223.4333832500015
 31
0.0
  0
LINE
  5
90EEF
330
1E
100
AcDbEntity
  8
DETAIL
  6
CONTINUOUS
100
AcDbLine
 10
-26.1047443225766
 20
-229.2453097168729
 30
0.0
 11
-26.1085214789914
 21
-229.2245988807194
 31
0.0
  0
LINE
  5
90EF0
330
1E
100
AcDbEntity
  8
DETAIL
  6
CONTINUOUS
100
AcDbLine
 10
-26.1085214789914
 20
-229.2245988807194
 30
0.0
 11
-26.11212845809177
 21
-229.1927387879325
 31
0.0
  0
LINE
  5
90EF1
330
1E
100
AcDbEntity
  8
DETAIL
  6
CONTINUOUS
100
AcDbLine
 10
-26.11212845809177
 20
-229.1927387879325
 30
0.0
 11
-26.11544640347574
 21
-229.1510036568242
 31
0.0
  0
LINE
  5
90EF2
330
1E
100
AcDbEntity
  8
DETAIL
  6
CONTINUOUS
100
AcDbLine
 10
-26.11544640347574
 20
-229.1510036568242
 30
0.0
 11
-26.11838748984928
 21
-229.1000377896105
 31
0.0
  0
LINE
  5
90EF3
330
1E
100
AcDbEntity
  8
DETAIL
  6
CONTINUOUS
100
AcDbLine
 10
-26.11838748984928
 20
-229.1000377896105
 30
0.0
 11
-26.12089823603355
 21
-229.0413061849255
 31
0.0
  0
LINE
  5
90EF4
330
1E
100
AcDbEntity
  8
DETAIL
  6
CONTINUOUS
100
AcDbLine
 10
-26.12089823603355
 20
-229.0413061849255
 30
0.0
 11
-26.1229052655076
 21
-228.9759229760279
 31
0.0
  0
LINE
  5
90EF5
330
1E
100
AcDbEntity
  8
DETAIL
  6
CONTINUOUS
100
AcDbLine
 10
-26.1229052655076
 20
-228.9759229760279
 30
0.0
 11
-26.12438043771408
 21
-228.9055850545917
 31
0.0
  0
LINE
  5
90EF6
330
1E
100
AcDbEntity
  8
DETAIL
  6
CONTINUOUS
100
AcDbLine
 10
-26.12438043771408
 20
-228.9055850545917
 30
0.0
 11
-26.12526457697686
 21
-228.8326192217239
 31
0.0
  0
LINE
  5
90EF7
330
1E
100
AcDbEntity
  8
DETAIL
  6
CONTINUOUS
100
AcDbLine
 10
-26.12526457697686
 20
-228.8326192217239
 30
0.0
 11
-26.12557740809143
 21
-228.5053219497553
 31
0.0
  0
LINE
  5
90EF8
330
1E
100
AcDbEntity
  8
DETAIL
  6
CONTINUOUS
100
AcDbLine
 10
-32.12256990809009
 20
-214.0380950000026
 30
0.0
 11
-32.12256990809009
 21
-214.1380451761842
 31
0.0
  0
LINE
  5
90EF9
330
1E
100
AcDbEntity
  8
DETAIL
  6
CONTINUOUS
100
AcDbLine
 10
-26.23034042795416
 20
-229.1260034064835
 30
0.0
 11
-26.23034042795416
 21
-228.1361164881382
 31
0.0
  0
LINE
  5
90EFA
330
1E
100
AcDbEntity
  8
DETAIL
  6
CONTINUOUS
100
AcDbLine
 10
-26.12557740809143
 20
-228.5053219497553
 30
0.0
 11
-26.12526786599892
 21
-228.4293293561481
 31
0.0
  0
LINE
  5
90EFB
330
1E
100
AcDbEntity
  8
DETAIL
  6
CONTINUOUS
100
AcDbLine
 10
-26.12526786599892
 20
-228.4293293561481
 30
0.0
 11
-26.12439227044205
 21
-228.3566913215538
 31
0.0
  0
LINE
  5
90EFC
330
1E
100
AcDbEntity
  8
DETAIL
  6
CONTINUOUS
100
AcDbLine
 10
-26.12439227044205
 20
-228.3566913215538
 30
0.0
 11
-26.12293127246493
 21
-228.2866427096964
 31
0.0
  0
LINE
  5
90EFD
330
1E
100
AcDbEntity
  8
DETAIL
  6
CONTINUOUS
100
AcDbLine
 10
-26.12293127246493
 20
-228.2866427096964
 30
0.0
 11
-26.12094292162919
 21
-228.2214789267586
 31
0.0
  0
LINE
  5
90EFE
330
1E
100
AcDbEntity
  8
DETAIL
  6
CONTINUOUS
100
AcDbLine
 10
-26.12094292162919
 20
-228.2214789267586
 30
0.0
 11
-26.11845480008787
 21
-228.1628724033421
 31
0.0
  0
LINE
  5
90EFF
330
1E
100
AcDbEntity
  8
DETAIL
  6
CONTINUOUS
100
AcDbLine
 10
-26.11845480008787
 20
-228.1628724033421
 30
0.0
 11
-26.11553894772305
 21
-228.111926923239
 31
0.0
  0
LINE
  5
90F00
330
1E
100
AcDbEntity
  8
DETAIL
  6
CONTINUOUS
100
AcDbLine
 10
-26.11553894772305
 20
-228.111926923239
 30
0.0
 11
-26.11224729316063
 21
-228.0700883280173
 31
0.0
  0
LINE
  5
90F01
330
1E
100
AcDbEntity
  8
DETAIL
  6
CONTINUOUS
100
AcDbLine
 10
-26.11224729316063
 20
-228.0700883280173
 30
0.0
 11
-26.10866776163902
 21
-228.0380028735837
 31
0.0
  0
LINE
  5
90F02
330
1E
100
AcDbEntity
  8
DETAIL
  6
CONTINUOUS
100
AcDbLine
 10
-26.10866776163902
 20
-228.0380028735837
 30
0.0
 11
-26.10491874043737
 21
-228.0169397887489
 31
0.0
  0
LINE
  5
90F03
330
1E
100
AcDbEntity
  8
DETAIL
  6
CONTINUOUS
100
AcDbLine
 10
-42.57738906321764
 20
-224.7327316250025
 30
0.0
 11
-42.5787512560787
 21
-224.7353483726981
 31
0.0
  0
LINE
  5
90F04
330
1E
100
AcDbEntity
  8
DETAIL
  6
CONTINUOUS
100
AcDbLine
 10
-26.10096076803211
 20
-228.0064759976899
 30
0.0
 11
-26.23034042795416
 21
-228.1361164881382
 31
0.0
  0
LINE
  5
90F05
330
1E
100
AcDbEntity
  8
DETAIL
  6
CONTINUOUS
100
AcDbLine
 10
-26.10491874043737
 20
-228.0169397887489
 30
0.0
 11
-26.10096076803211
 21
-228.0064759976899
 31
0.0
  0
LINE
  5
90F06
330
1E
100
AcDbEntity
  8
DETAIL
  6
CONTINUOUS
100
AcDbLine
 10
-32.12184682272573
 20
-214.1209523775787
 30
0.0
 11
-25.12607865809377
 21
-214.0599012334792
 31
0.0
  0
LINE
  5
90F07
330
1E
100
AcDbEntity
  8
DETAIL
  6
CONTINUOUS
100
AcDbLine
 10
-27.62482553309428
 20
-214.0380950000026
 30
0.0
 11
-17.62983803309407
 21
-214.1253199352427
 31
0.0
  0
LINE
  5
90F08
330
1E
100
AcDbEntity
  8
DETAIL
  6
CONTINUOUS
100
AcDbLine
 10
-58.65177340532364
 20
-214.0978452884826
 30
0.0
 11
-59.23402698435211
 21
-214.1932488901133
 31
0.0
  0
LINE
  5
90F09
330
1E
100
AcDbEntity
  8
DETAIL
  6
CONTINUOUS
100
AcDbLine
 10
-67.10502615808991
 20
-228.2227416548294
 30
0.0
 11
-67.75176716458054
 21
-228.2207260696486
 31
0.0
  0
LINE
  5
90F0A
330
1E
100
AcDbEntity
  8
DETAIL
  6
CONTINUOUS
100
AcDbLine
 10
-67.75176716458054
 20
-228.2207260696486
 30
0.0
 11
-67.84430801522148
 21
-228.2197707047646
 31
0.0
  0
LINE
  5
90F0B
330
1E
100
AcDbEntity
  8
DETAIL
  6
CONTINUOUS
100
AcDbLine
 10
-67.84430801522148
 20
-228.2197707047646
 30
0.0
 11
-67.93510775902951
 21
-228.2183520202397
 31
0.0
  0
LINE
  5
90F0C
330
1E
100
AcDbEntity
  8
DETAIL
  6
CONTINUOUS
100
AcDbLine
 10
-67.93510775902951
 20
-228.2183520202397
 30
0.0
 11
-68.02296654705106
 21
-228.2164918224637
 31
0.0
  0
LINE
  5
90F0D
330
1E
100
AcDbEntity
  8
DETAIL
  6
CONTINUOUS
100
AcDbLine
 10
-68.02296654705106
 20
-228.2164918224637
 30
0.0
 11
-68.10705200475286
 21
-228.2142008327314
 31
0.0
  0
LINE
  5
90F0E
330
1E
100
AcDbEntity
  8
DETAIL
  6
CONTINUOUS
100
AcDbLine
 10
-68.10705200475286
 20
-228.2142008327314
 30
0.0
 11
-68.18666166705816
 21
-228.211505043341
 31
0.0
  0
LINE
  5
90F0F
330
1E
100
AcDbEntity
  8
DETAIL
  6
CONTINUOUS
100
AcDbLine
 10
-68.18666166705816
 20
-228.211505043341
 30
0.0
 11
-68.26101489748589
 21
-228.208423172902
 31
0.0
  0
LINE
  5
90F10
330
1E
100
AcDbEntity
  8
DETAIL
  6
CONTINUOUS
100
AcDbLine
 10
-68.26101489748589
 20
-228.208423172902
 30
0.0
 11
-68.32951383583576
 21
-228.2049877531046
 31
0.0
  0
LINE
  5
90F11
330
1E
100
AcDbEntity
  8
DETAIL
  6
CONTINUOUS
100
AcDbLine
 10
-68.32951383583576
 20
-228.2049877531046
 30
0.0
 11
-68.39145734440944
 21
-228.2012249028462
 31
0.0
  0
LINE
  5
90F12
330
1E
100
AcDbEntity
  8
DETAIL
  6
CONTINUOUS
100
AcDbLine
 10
-68.39145734440944
 20
-228.2012249028462
 30
0.0
 11
-68.44637460866806
 21
-228.1971725790908
 31
0.0
  0
LINE
  5
90F13
330
1E
100
AcDbEntity
  8
DETAIL
  6
CONTINUOUS
100
AcDbLine
 10
-59.73931764838972
 20
-214.1991023292698
 30
0.0
 11
-59.13823388738683
 21
-214.1982942598513
 31
0.0
  0
LINE
  5
90F14
330
1E
100
AcDbEntity
  8
DETAIL
  6
CONTINUOUS
100
AcDbLine
 10
-67.10066491193401
 20
-214.1991023292698
 30
0.0
 11
-59.73931764838972
 21
-214.1991023292698
 31
0.0
  0
LINE
  5
90F15
330
1E
100
AcDbEntity
  8
DETAIL
  6
CONTINUOUS
100
AcDbLine
 10
-66.80517653308971
 20
-214.1380448750016
 30
0.0
 11
-58.89825567412344
 21
-214.1380448750016
 31
0.0
  0
LINE
  5
90F16
330
1E
100
AcDbEntity
  8
DETAIL
  6
CONTINUOUS
100
AcDbLine
 10
-68.44637460866806
 20
-228.1971725790908
 30
0.0
 11
-68.49366955152118
 21
-228.1928634347975
 31
0.0
  0
LINE
  5
90F17
330
1E
100
AcDbEntity
  8
DETAIL
  6
CONTINUOUS
100
AcDbLine
 10
-68.49366955152118
 20
-228.1928634347975
 30
0.0
 11
-68.53301681747007
 21
-228.1883395035579
 31
0.0
  0
LINE
  5
90F18
330
1E
100
AcDbEntity
  8
DETAIL
  6
CONTINUOUS
100
AcDbLine
 10
-68.53301681747007
 20
-228.1883395035579
 30
0.0
 11
-68.56394800277167
 21
-228.1836388422791
 31
0.0
  0
LINE
  5
90F19
330
1E
100
AcDbEntity
  8
DETAIL
  6
CONTINUOUS
100
AcDbLine
 10
-68.56394800277167
 20
-228.1836388422791
 30
0.0
 11
-68.58629617513952
 21
-228.1788060206129
 31
0.0
  0
LINE
  5
90F1A
330
1E
100
AcDbEntity
  8
DETAIL
  6
CONTINUOUS
100
AcDbLine
 10
-68.58629617513952
 20
-228.1788060206129
 30
0.0
 11
-68.59969788616263
 21
-228.173905448923
 31
0.0
  0
LINE
  5
90F1B
330
1E
100
AcDbEntity
  8
DETAIL
  6
CONTINUOUS
100
AcDbLine
 10
-68.59969788616263
 20
-228.173905448923
 30
0.0
 11
-68.60427428309276
 21
-228.1689156593092
 31
0.0
  0
LINE
  5
90F1C
330
1E
100
AcDbEntity
  8
DETAIL
  6
CONTINUOUS
100
AcDbLine
 10
-67.10066491193401
 20
-214.1991023292698
 30
0.0
 11
-67.10502615808991
 21
-214.1947410831078
 31
0.0
  0
LINE
  5
90F1D
330
1E
100
AcDbEntity
  8
DETAIL
  6
CONTINUOUS
100
AcDbLine
 10
-65.4058782830948
 20
-214.1380448750016
 30
0.0
 11
-65.4058782830948
 21
-214.0380950000026
 31
0.0
  0
LINE
  5
90F1E
330
1E
100
AcDbEntity
  8
DETAIL
  6
CONTINUOUS
100
AcDbLine
 10
-59.24310305269364
 20
-214.1947410831078
 30
0.0
 11
-59.24310305269364
 21
-214.1380448750016
 31
0.0
  0
LINE
  5
90F1F
330
1E
100
AcDbEntity
  8
DETAIL
  6
CONTINUOUS
100
AcDbLine
 10
-58.63776097658274
 20
-214.062319947156
 30
0.0
 11
-58.6336976356838
 21
-214.0380950000026
 31
0.0
  0
LINE
  5
90F20
330
1E
100
AcDbEntity
  8
DETAIL
  6
CONTINUOUS
100
AcDbLine
 10
-58.64482008841924
 20
-214.0883702815445
 30
0.0
 11
-58.63776097658274
 21
-214.062319947156
 31
0.0
  0
LINE
  5
90F21
330
1E
100
AcDbEntity
  8
DETAIL
  6
CONTINUOUS
100
AcDbLine
 10
-58.65177340532364
 20
-214.0978452884826
 30
0.0
 11
-58.64482008841924
 21
-214.0883702815445
 31
0.0
  0
ARC
  5
90F22
330
1E
100
AcDbEntity
  8
DETAIL
  6
CONTINUOUS
100
AcDbCircle
 10
-66.80517653308971
 20
-214.4378945000021
 30
0.0
 40
0.299849625
100
AcDbArc
 50
90.0
 51
125.8142935612143
  0
LINE
  5
90F23
330
1E
100
AcDbEntity
  8
DETAIL
  6
CONTINUOUS
100
AcDbLine
 10
-59.13823388738683
 20
-214.1982942598513
 30
0.0
 11
-50.60592990025771
 21
-214.1472686252773
 31
0.0
  0
LINE
  5
90F24
330
1E
100
AcDbEntity
  8
DETAIL
  6
CONTINUOUS
100
AcDbLine
 10
-58.65177340532364
 20
-214.0978452884826
 30
0.0
 11
-51.57030891086515
 21
-214.0978452884826
 31
0.0
  0
LINE
  5
90F25
330
1E
100
AcDbEntity
  8
DETAIL
  6
CONTINUOUS
100
AcDbLine
 10
-4.793811046313294
 20
-169.4781472511829
 30
0.0
 11
-4.743620439633104
 21
-169.4643414894562
 31
0.0
  0
LINE
  5
90F26
330
1E
100
AcDbEntity
  8
DETAIL
  6
CONTINUOUS
100
AcDbLine
 10
-4.743620439633104
 20
-169.4643414894562
 30
0.0
 11
-4.692266029935581
 21
-169.4558314772411
 31
0.0
  0
LINE
  5
90F27
330
1E
100
AcDbEntity
  8
DETAIL
  6
CONTINUOUS
100
AcDbLine
 10
-4.692266029935581
 20
-169.4558314772411
 30
0.0
 11
-4.645172677991013
 21
-169.4527717397036
 31
0.0
  0
LINE
  5
90F28
330
1E
100
AcDbEntity
  8
DETAIL
  6
CONTINUOUS
100
AcDbLine
 10
-3.627981025005738
 20
-169.4348229796965
 30
0.0
 11
-4.645095573984235
 21
-169.4527732802637
 31
0.0
  0
LINE
  5
90F29
330
1E
100
AcDbEntity
  8
DETAIL
  6
CONTINUOUS
100
AcDbLine
 10
-4.842293295056606
 20
-169.497098976198
 30
0.0
 11
-4.793811046313294
 21
-169.4781472511829
 31
0.0
  0
LINE
  5
90F2A
330
1E
100
AcDbEntity
  8
DETAIL
  6
CONTINUOUS
100
AcDbLine
 10
-4.888541167027597
 20
-169.5209910422968
 30
0.0
 11
-4.842293295056606
 21
-169.497098976198
 31
0.0
  0
LINE
  5
90F2B
330
1E
100
AcDbEntity
  8
DETAIL
  6
CONTINUOUS
100
AcDbLine
 10
-4.932052885839311
 20
-169.54956422747
 30
0.0
 11
-4.888541167027597
 21
-169.5209910422968
 31
0.0
  0
LINE
  5
90F2C
330
1E
100
AcDbEntity
  8
DETAIL
  6
CONTINUOUS
100
AcDbLine
 10
-4.972356361586662
 20
-169.5825085178644
 30
0.0
 11
-4.932052885839311
 21
-169.54956422747
 31
0.0
  0
LINE
  5
90F2D
330
1E
100
AcDbEntity
  8
DETAIL
  6
CONTINUOUS
100
AcDbLine
 10
-5.009014312236558
 20
-169.619466474063
 30
0.0
 11
-4.972356361586662
 21
-169.5825085178644
 31
0.0
  0
LINE
  5
90F2E
330
1E
100
AcDbEntity
  8
DETAIL
  6
CONTINUOUS
100
AcDbLine
 10
-5.069846600765686
 20
-169.7037802399281
 30
0.0
 11
-5.041629011928762
 21
-169.6600371091681
 31
0.0
  0
LINE
  5
90F2F
330
1E
100
AcDbEntity
  8
DETAIL
  6
CONTINUOUS
100
AcDbLine
 10
-5.041629011928762
 20
-169.6600371091681
 30
0.0
 11
-5.009014312236558
 21
-169.619466474063
 31
0.0
  0
LINE
  5
90F30
330
1E
100
AcDbEntity
  8
DETAIL
  6
CONTINUOUS
100
AcDbLine
 10
-5.111916878457577
 20
-169.7988562831596
 30
0.0
 11
-5.093360930961807
 21
-169.7502212616909
 31
0.0
  0
LINE
  5
90F31
330
1E
100
AcDbEntity
  8
DETAIL
  6
CONTINUOUS
100
AcDbLine
 10
-5.093360930961807
 20
-169.7502212616909
 30
0.0
 11
-5.069846600765686
 21
-169.7037802399281
 31
0.0
  0
LINE
  5
90F32
330
1E
100
AcDbEntity
  8
DETAIL
  6
CONTINUOUS
100
AcDbLine
 10
-5.125313141549213
 20
-169.8491576782744
 30
0.0
 11
-5.111916878457577
 21
-169.7988562831596
 31
0.0
  0
ARC
  5
90F33
330
1E
100
AcDbEntity
  8
DETAIL
  6
CONTINUOUS
100
AcDbCircle
 10
-3.63685553309233
 20
-168.9351496132451
 30
0.0
 40
0.4997493750000002
100
AcDbArc
 50
271.011075571093
 51
0.0
  0
LINE
  5
90F34
330
1E
100
AcDbEntity
  8
DETAIL
  6
CONTINUOUS
100
AcDbLine
 10
-12.76194722569971
 20
-223.4333832500015
 30
0.0
 11
-9.504245090484346
 21
-223.4333832500015
 31
0.0
  0
LINE
  5
90F35
330
1E
100
AcDbEntity
  8
DETAIL
  6
CONTINUOUS
100
AcDbLine
 10
-9.714202058109094
 20
-223.133533625001
 30
0.0
 11
-12.55199025807496
 21
-223.133533625001
 31
0.0
  0
LINE
  5
90F36
330
1E
100
AcDbEntity
  8
DETAIL
  6
CONTINUOUS
100
AcDbLine
 10
-12.20206197826019
 20
-222.6337842500024
 30
0.0
 11
-10.06413033792387
 21
-222.6337842500024
 31
0.0
  0
LINE
  5
90F37
330
1E
100
AcDbEntity
  8
DETAIL
  6
CONTINUOUS
100
AcDbLine
 10
-7.350249206378521
 20
-214.1380448750016
 30
0.0
 11
-7.592363910862786
 21
-214.0978452884826
 31
0.0
  0
LINE
  5
90F38
330
1E
100
AcDbEntity
  8
DETAIL
  6
CONTINUOUS
100
AcDbLine
 10
-8.384474595588926
 20
-225.03258125
 30
0.0
 11
-8.389501322677915
 21
-225.0299645023046
 31
0.0
  0
LINE
  5
90F39
330
1E
100
AcDbEntity
  8
DETAIL
  6
CONTINUOUS
100
AcDbLine
 10
-8.944359843030269
 20
-224.232982250001
 30
0.0
 11
-8.949386570130172
 21
-224.2303655023054
 31
0.0
  0
LINE
  5
90F3A
330
1E
100
AcDbEntity
  8
DETAIL
  6
CONTINUOUS
100
AcDbLine
 10
-9.504245090484346
 20
-223.4333832500015
 30
0.0
 11
-9.509271816238197
 21
-223.4307665023032
 31
0.0
  0
LINE
  5
90F3B
330
1E
100
AcDbEntity
  8
DETAIL
  6
CONTINUOUS
100
AcDbLine
 10
-10.06413033792387
 20
-222.6337842500024
 30
0.0
 11
-10.06915706367954
 21
-222.6311675023039
 31
0.0
  0
LINE
  5
90F3C
330
1E
100
AcDbEntity
  8
DETAIL
  6
CONTINUOUS
100
AcDbLine
 10
-7.599317227754454
 20
-214.0883702815445
 30
0.0
 11
-7.592363910862786
 21
-214.0978452884826
 31
0.0
  0
LINE
  5
90F3D
330
1E
100
AcDbEntity
  8
DETAIL
  6
CONTINUOUS
100
AcDbLine
 10
-8.384474595588926
 20
-225.03258125
 30
0.0
 11
-8.594431563215493
 21
-224.7327316250025
 31
0.0
  0
LINE
  5
90F3E
330
1E
100
AcDbEntity
  8
DETAIL
  6
CONTINUOUS
100
AcDbLine
 10
-8.944359843030269
 20
-224.232982250001
 30
0.0
 11
-9.154316810655018
 21
-223.9331326250003
 31
0.0
  0
LINE
  5
90F3F
330
1E
100
AcDbEntity
  8
DETAIL
  6
CONTINUOUS
100
AcDbLine
 10
-9.504245090484346
 20
-223.4333832500015
 30
0.0
 11
-9.714202058109094
 21
-223.133533625001
 31
0.0
  0
LINE
  5
90F40
330
1E
100
AcDbEntity
  8
DETAIL
  6
CONTINUOUS
100
AcDbLine
 10
-10.06413033792387
 20
-222.6337842500024
 30
0.0
 11
-11.13309615809203
 21
-221.1071428441043
 31
0.0
  0
LINE
  5
90F41
330
1E
100
AcDbEntity
  8
DETAIL
  6
CONTINUOUS
100
AcDbLine
 10
-12.20206197826019
 20
-222.6337842500024
 30
0.0
 11
-12.19703525250452
 21
-222.6311675023039
 31
0.0
  0
LINE
  5
90F42
330
1E
100
AcDbEntity
  8
DETAIL
  6
CONTINUOUS
100
AcDbLine
 10
-12.76194722569971
 20
-223.4333832500015
 30
0.0
 11
-12.75692049994586
 21
-223.4307665023032
 31
0.0
  0
LINE
  5
90F43
330
1E
100
AcDbEntity
  8
DETAIL
  6
CONTINUOUS
100
AcDbLine
 10
-12.55199025807496
 20
-223.133533625001
 30
0.0
 11
-12.55062806522482
 21
-223.1361503726993
 31
0.0
  0
LINE
  5
90F44
330
1E
100
AcDbEntity
  8
DETAIL
  6
CONTINUOUS
100
AcDbLine
 10
-1.411625892819301
 20
-227.0566924221275
 30
0.0
 11
-2.646540486783578
 21
-228.2916070160918
 31
0.0
  0
LINE
  5
90F45
330
1E
100
AcDbEntity
  8
DETAIL
  6
CONTINUOUS
100
AcDbLine
 10
-7.606376339603684
 20
-214.062319947156
 30
0.0
 11
-7.599317227754454
 21
-214.0883702815445
 31
0.0
  0
LINE
  5
90F46
330
1E
100
AcDbEntity
  8
DETAIL
  6
CONTINUOUS
100
AcDbLine
 10
-7.610439680502622
 20
-214.0380950000026
 30
0.0
 11
-7.606376339603684
 21
-214.062319947156
 31
0.0
  0
LINE
  5
90F47
330
1E
100
AcDbEntity
  8
DETAIL
  6
CONTINUOUS
100
AcDbLine
 10
-5.140236654723139
 20
-228.0062574632856
 30
0.0
 11
-5.140464905584394
 21
-228.0048867453665
 31
0.0
  0
LINE
  5
90F48
330
1E
100
AcDbEntity
  8
DETAIL
  6
CONTINUOUS
100
AcDbLine
 10
-5.140236654723139
 20
-228.0062574632856
 30
0.0
 11
-5.139573275404927
 21
-228.0162284374939
 31
0.0
  0
LINE
  5
90F49
330
1E
100
AcDbEntity
  8
DETAIL
  6
CONTINUOUS
100
AcDbLine
 10
-5.139573275404927
 20
-228.0162284374939
 30
0.0
 11
-5.138944681315933
 21
-228.0369165143941
 31
0.0
  0
LINE
  5
90F4A
330
1E
100
AcDbEntity
  8
DETAIL
  6
CONTINUOUS
100
AcDbLine
 10
-5.138944681315933
 20
-228.0369165143941
 30
0.0
 11
-5.138344278414024
 21
-228.068742367019
 31
0.0
  0
LINE
  5
90F4B
330
1E
100
AcDbEntity
  8
DETAIL
  6
CONTINUOUS
100
AcDbLine
 10
-5.138344278414024
 20
-228.068742367019
 30
0.0
 11
-5.137301982468216
 21
-228.1613866697746
 31
0.0
  0
LINE
  5
90F4C
330
1E
100
AcDbEntity
  8
DETAIL
  6
CONTINUOUS
100
AcDbLine
 10
-5.137301982468216
 20
-228.1613866697746
 30
0.0
 11
-5.136303232670343
 21
-228.3558744618785
 31
0.0
  0
LINE
  5
90F4D
330
1E
100
AcDbEntity
  8
DETAIL
  6
CONTINUOUS
100
AcDbLine
 10
-5.136303232670343
 20
-228.3558744618785
 30
0.0
 11
-5.136155838594731
 21
-228.8326681172038
 31
0.0
  0
LINE
  5
90F4E
330
1E
100
AcDbEntity
  8
DETAIL
  6
CONTINUOUS
100
AcDbLine
 10
-11.13309615809203
 20
-221.1071428441043
 30
0.0
 11
-11.13309615809203
 21
-221.1117050055077
 31
0.0
  0
LINE
  5
90F4F
330
1E
100
AcDbEntity
  8
DETAIL
  6
CONTINUOUS
100
AcDbLine
 10
-7.135101158088673
 20
-214.1380448750016
 30
0.0
 11
-7.135101158088673
 21
-214.0380950000026
 31
0.0
  0
LINE
  5
90F50
330
1E
100
AcDbEntity
  8
DETAIL
  6
CONTINUOUS
100
AcDbLine
 10
-5.140464905584394
 20
-214.3869394620224
 30
0.0
 11
-5.140464905584394
 21
-228.0048867453665
 31
0.0
  0
LINE
  5
90F51
330
1E
100
AcDbEntity
  8
DETAIL
  6
CONTINUOUS
100
AcDbLine
 10
-5.136155838594731
 20
-228.8326681172038
 30
0.0
 11
-5.136883665578807
 21
-229.0414444049415
 31
0.0
  0
LINE
  5
90F52
330
1E
100
AcDbEntity
  8
DETAIL
  6
CONTINUOUS
100
AcDbLine
 10
-5.136883665578807
 20
-229.0414444049415
 30
0.0
 11
-5.137791848796496
 21
-229.1511095210669
 31
0.0
  0
LINE
  5
90F53
330
1E
100
AcDbEntity
  8
DETAIL
  6
CONTINUOUS
100
AcDbLine
 10
-5.137791848796496
 20
-229.1511095210669
 30
0.0
 11
-5.138344278414024
 21
-229.1928111316506
 31
0.0
  0
LINE
  5
90F54
330
1E
100
AcDbEntity
  8
DETAIL
  6
CONTINUOUS
100
AcDbLine
 10
-5.138344278414024
 20
-229.1928111316506
 30
0.0
 11
-5.138944681315933
 21
-229.2246369842755
 31
0.0
  0
LINE
  5
90F55
330
1E
100
AcDbEntity
  8
DETAIL
  6
CONTINUOUS
100
AcDbLine
 10
-5.138944681315933
 20
-229.2246369842755
 30
0.0
 11
-5.139573275404927
 21
-229.2453250611754
 31
0.0
  0
LINE
  5
90F56
330
1E
100
AcDbEntity
  8
DETAIL
  6
CONTINUOUS
100
AcDbLine
 10
-5.139573275404927
 20
-229.2453250611754
 30
0.0
 11
-5.140236654723139
 21
-229.2552960367202
 31
0.0
  0
LINE
  5
90F57
330
1E
100
AcDbEntity
  8
DETAIL
  6
CONTINUOUS
100
AcDbLine
 10
-9.714202058109094
 20
-223.133533625001
 30
0.0
 11
-9.715564250959232
 21
-223.1361503726993
 31
0.0
  0
LINE
  5
90F58
330
1E
100
AcDbEntity
  8
DETAIL
  6
CONTINUOUS
100
AcDbLine
 10
-9.154316810655018
 20
-223.9331326250003
 30
0.0
 11
-9.155679003517889
 21
-223.9357493726988
 31
0.0
  0
LINE
  5
90F59
330
1E
100
AcDbEntity
  8
DETAIL
  6
CONTINUOUS
100
AcDbLine
 10
-8.594431563215493
 20
-224.7327316250025
 30
0.0
 11
-8.595793756076545
 21
-224.7353483726981
 31
0.0
  0
LINE
  5
90F5A
330
1E
100
AcDbEntity
  8
DETAIL
  6
CONTINUOUS
100
AcDbLine
 10
-12.55199025807496
 20
-223.133533625001
 30
0.0
 11
-12.76194722569971
 21
-223.4333832500015
 31
0.0
  0
LINE
  5
90F5B
330
1E
100
AcDbEntity
  8
DETAIL
  6
CONTINUOUS
100
AcDbLine
 10
-11.13309615809203
 20
-221.1071428441043
 30
0.0
 11
-12.20206197826019
 21
-222.6337842500024
 31
0.0
  0
LINE
  5
90F5C
330
1E
100
AcDbEntity
  8
DETAIL
  6
CONTINUOUS
100
AcDbLine
 10
-5.140236654723139
 20
-229.2552960367202
 30
0.0
 11
-5.140464905584394
 21
-229.2566667546361
 31
0.0
  0
ARC
  5
90F5D
330
1E
100
AcDbEntity
  8
DETAIL
  6
CONTINUOUS
100
AcDbCircle
 10
-0.7383091580963992
 20
-230.1998383447826
 30
0.0
 40
2.698646624999999
100
AcDbArc
 50
135.0000000005158
 51
180.0
  0
ARC
  5
90F5E
330
1E
100
AcDbEntity
  8
DETAIL
  6
CONTINUOUS
100
AcDbCircle
 10
-3.037156283091917
 20
-225.431162030525
 30
0.0
 40
2.298847124999999
100
AcDbArc
 50
315.0000000000092
 51
317.7037269476039
  0
ARC
  5
90F5F
330
1E
100
AcDbEntity
  8
DETAIL
  6
CONTINUOUS
100
AcDbCircle
 10
-0.7383091580963992
 20
-201.0446112500007
 30
0.0
 40
0.5996992500000001
100
AcDbArc
 50
180.0
 51
0.0
  0
ARC
  5
90F60
330
1E
100
AcDbEntity
  8
DETAIL
  6
CONTINUOUS
100
AcDbCircle
 10
-5.435953283095386
 20
-214.4378945000021
 30
0.0
 40
0.299849625
100
AcDbArc
 50
9.784057712598301
 51
80.21594228748094
  0
LINE
  5
90F61
330
1E
100
AcDbEntity
  8
DETAIL
  6
CONTINUOUS
100
AcDbLine
 10
-2.937189813749228
 20
-93.79694479313821
 30
0.0
 11
-2.937191434274154
 21
-93.8421047027141
 31
0.0
  0
LINE
  5
90F62
330
1E
100
AcDbEntity
  8
DETAIL
  6
CONTINUOUS
100
AcDbLine
 10
-2.4102628776659
 20
-95.27339159436541
 30
0.0
 11
-1.338008408096811
 21
-96.34564606260733
 31
0.0
  0
ARC
  5
90F63
330
1E
100
AcDbEntity
  8
DETAIL
  6
CONTINUOUS
100
AcDbCircle
 10
-1.138108658091823
 20
-94.00123560901102
 30
0.0
 40
1.799096416002335
100
AcDbArc
 50
180.0000562211952
 51
224.9999999999908
  0
LINE
  5
90F64
330
1E
100
AcDbEntity
  8
DETAIL
  6
CONTINUOUS
100
AcDbLine
 10
-0.8861187913612411
 20
-145.0889112559652
 30
0.0
 11
-0.9350723650718464
 21
-145.1018464582753
 31
0.0
  0
LINE
  5
90F65
330
1E
100
AcDbEntity
  8
DETAIL
  6
CONTINUOUS
100
AcDbLine
 10
-0.5934750286128292
 20
-145.0549592016348
 30
0.0
 11
-0.6418505135720807
 21
-145.0648729698636
 31
0.0
  0
LINE
  5
90F66
330
1E
100
AcDbEntity
  8
DETAIL
  6
CONTINUOUS
100
AcDbLine
 10
-0.8369147912367225
 20
-145.0798518579319
 30
0.0
 11
-0.8861187913612411
 21
-145.0889112559652
 31
0.0
  0
LINE
  5
90F67
330
1E
100
AcDbEntity
  8
DETAIL
  6
CONTINUOUS
100
AcDbLine
 10
-0.6418505135720807
 20
-145.0648729698636
 30
0.0
 11
-0.6901105470974472
 21
-145.0708201113661
 31
0.0
  0
LINE
  5
90F68
330
1E
100
AcDbEntity
  8
DETAIL
  6
CONTINUOUS
100
AcDbLine
 10
-0.7876679832393166
 20
-145.0744135545805
 30
0.0
 11
-0.8369147912367225
 21
-145.0798518579319
 31
0.0
  0
LINE
  5
90F69
330
1E
100
AcDbEntity
  8
DETAIL
  6
CONTINUOUS
100
AcDbLine
 10
-0.6901105470974472
 20
-145.0708201113661
 30
0.0
 11
-0.7876679832393166
 21
-145.0744135545805
 31
0.0
  0
LINE
  5
90F6A
330
1E
100
AcDbEntity
  8
DETAIL
  6
CONTINUOUS
100
AcDbLine
 10
-3.137106158087135
 20
-150.8697740000025
 30
0.0
 11
-1.338008408096811
 21
-150.8697740000025
 31
0.0
  0
LINE
  5
90F6B
330
1E
100
AcDbEntity
  8
DETAIL
  6
CONTINUOUS
100
AcDbLine
 10
-0.5451461775996905
 20
-145.0407207195867
 30
0.0
 11
-0.5934750286128292
 21
-145.0549592016348
 31
0.0
  0
LINE
  5
90F6C
330
1E
100
AcDbEntity
  8
DETAIL
  6
CONTINUOUS
100
AcDbLine
 10
-0.1386099080941676
 20
-143.1736336250009
 30
0.0
 11
-0.7383091580963992
 21
-143.1736336250009
 31
0.0
  0
LINE
  5
90F6D
330
1E
100
AcDbEntity
  8
DETAIL
  6
CONTINUOUS
100
AcDbLine
 10
-0.1386099080941676
 20
-141.1746361250029
 30
0.0
 11
-0.7383091580963992
 21
-141.1746361250029
 31
0.0
  0
LINE
  5
90F6E
330
1E
100
AcDbEntity
  8
DETAIL
  6
CONTINUOUS
100
AcDbLine
 10
-3.137106158087135
 20
-140.8747865000023
 30
0.0
 11
-0.7383091580963992
 21
-140.8747865000023
 31
0.0
  0
LINE
  5
90F6F
330
1E
100
AcDbEntity
  8
DETAIL
  6
CONTINUOUS
100
AcDbLine
 10
-0.1386099080941676
 20
-132.1791473750004
 30
0.0
 11
-0.7383091580963992
 21
-132.1791473750004
 31
0.0
  0
LINE
  5
90F70
330
1E
100
AcDbEntity
  8
DETAIL
  6
CONTINUOUS
100
AcDbLine
 10
-3.137106158087135
 20
-130.8797990000023
 30
0.0
 11
-0.7383091580963992
 21
-130.8797990000023
 31
0.0
  0
LINE
  5
90F71
330
1E
100
AcDbEntity
  8
DETAIL
  6
CONTINUOUS
100
AcDbLine
 10
-0.1386099080941676
 20
-130.1801498750023
 30
0.0
 11
-0.7383091580963992
 21
-130.1801498750023
 31
0.0
  0
LINE
  5
90F72
330
1E
100
AcDbEntity
  8
DETAIL
  6
CONTINUOUS
100
AcDbLine
 10
-0.4968359798917846
 20
-145.0219313504803
 30
0.0
 11
-0.5451461775996905
 21
-145.0407207195867
 31
0.0
  0
LINE
  5
90F73
330
1E
100
AcDbEntity
  8
DETAIL
  6
CONTINUOUS
100
AcDbLine
 10
-0.9350723650718464
 20
-145.1018464582753
 30
0.0
 11
-0.98372830672497
 21
-145.1187979610749
 31
0.0
  0
LINE
  5
90F74
330
1E
100
AcDbEntity
  8
DETAIL
  6
CONTINUOUS
100
AcDbLine
 10
-0.6901105377642125
 20
-128.2829633899709
 30
0.0
 11
-0.7869627489112645
 21
-128.2793250146216
 31
0.0
  0
LINE
  5
90F75
330
1E
100
AcDbEntity
  8
DETAIL
  6
CONTINUOUS
100
AcDbLine
 10
-0.449060612640551
 20
-144.9983147222521
 30
0.0
 11
-0.4968359798917846
 21
-145.0219313504803
 31
0.0
  0
LINE
  5
90F76
330
1E
100
AcDbEntity
  8
DETAIL
  6
CONTINUOUS
100
AcDbLine
 10
-0.98372830672497
 20
-145.1187979610749
 30
0.0
 11
-1.031674594920787
 21
-145.1400234871102
 31
0.0
  0
LINE
  5
90F77
330
1E
100
AcDbEntity
  8
DETAIL
  6
CONTINUOUS
100
AcDbLine
 10
-0.7869627489112645
 20
-128.2793250146216
 30
0.0
 11
-0.8355744940531621
 21
-128.2737097733397
 31
0.0
  0
LINE
  5
90F78
330
1E
100
AcDbEntity
  8
DETAIL
  6
CONTINUOUS
100
AcDbLine
 10
-0.6418504989055692
 20
-128.2889105328031
 30
0.0
 11
-0.6901105377642125
 21
-128.2829633899709
 31
0.0
  0
LINE
  5
90F79
330
1E
100
AcDbEntity
  8
DETAIL
  6
CONTINUOUS
100
AcDbLine
 10
-1.078715038746395
 20
-145.1657720155203
 30
0.0
 11
-1.124154933235786
 21
-145.1962102813561
 31
0.0
  0
LINE
  5
90F7A
330
1E
100
AcDbEntity
  8
DETAIL
  6
CONTINUOUS
100
AcDbLine
 10
-0.4020725745399432
 20
-144.96954794483
 30
0.0
 11
-0.449060612640551
 21
-144.9983147222521
 31
0.0
  0
LINE
  5
90F7B
330
1E
100
AcDbEntity
  8
DETAIL
  6
CONTINUOUS
100
AcDbLine
 10
-1.031674594920787
 20
-145.1400234871102
 30
0.0
 11
-1.078715038746395
 21
-145.1657720155203
 31
0.0
  0
LINE
  5
90F7C
330
1E
100
AcDbEntity
  8
DETAIL
  6
CONTINUOUS
100
AcDbLine
 10
-0.8355744940531621
 20
-128.2737097733397
 30
0.0
 11
-0.8841980612692168
 21
-128.2643572809597
 31
0.0
  0
LINE
  5
90F7D
330
1E
100
AcDbEntity
  8
DETAIL
  6
CONTINUOUS
100
AcDbLine
 10
-0.5934750139463177
 20
-128.2988243023682
 30
0.0
 11
-0.6418504989055692
 21
-128.2889105328031
 31
0.0
  0
LINE
  5
90F7E
330
1E
100
AcDbEntity
  8
DETAIL
  6
CONTINUOUS
100
AcDbLine
 10
-0.8841980612692168
 20
-128.2643572809597
 30
0.0
 11
-0.9326724472998648
 21
-128.2509652690719
 31
0.0
  0
LINE
  5
90F7F
330
1E
100
AcDbEntity
  8
DETAIL
  6
CONTINUOUS
100
AcDbLine
 10
-1.124154933235786
 20
-145.1962102813561
 30
0.0
 11
-1.167552594583412
 21
-145.2316243105037
 31
0.0
  0
LINE
  5
90F80
330
1E
100
AcDbEntity
  8
DETAIL
  6
CONTINUOUS
100
AcDbLine
 10
-0.3566349189154607
 20
-144.9355443909932
 30
0.0
 11
-0.4020725745399432
 21
-144.96954794483
 31
0.0
  0
LINE
  5
90F81
330
1E
100
AcDbEntity
  8
DETAIL
  6
CONTINUOUS
100
AcDbLine
 10
-0.5451461642664981
 20
-128.3130627857497
 30
0.0
 11
-0.5934750139463177
 21
-128.2988243023682
 31
0.0
  0
LINE
  5
90F82
330
1E
100
AcDbEntity
  8
DETAIL
  6
CONTINUOUS
100
AcDbLine
 10
-0.9326724472998648
 20
-128.2509652690719
 30
0.0
 11
-0.9809987862395246
 21
-128.2333621490615
 31
0.0
  0
LINE
  5
90F83
330
1E
100
AcDbEntity
  8
DETAIL
  6
CONTINUOUS
100
AcDbLine
 10
-0.4968359678937305
 20
-128.3318521548562
 30
0.0
 11
-0.5451461642664981
 21
-128.3130627857497
 31
0.0
  0
LINE
  5
90F84
330
1E
100
AcDbEntity
  8
DETAIL
  6
CONTINUOUS
100
AcDbLine
 10
-1.167552594583412
 20
-145.2316243105037
 30
0.0
 11
-1.207952763178127
 21
-145.2719052042484
 31
0.0
  0
LINE
  5
90F85
330
1E
100
AcDbEntity
  8
DETAIL
  6
CONTINUOUS
100
AcDbLine
 10
-0.3133361546410924
 20
-144.8961119344235
 30
0.0
 11
-0.3566349189154607
 21
-144.9355443909932
 31
0.0
  0
LINE
  5
90F86
330
1E
100
AcDbEntity
  8
DETAIL
  6
CONTINUOUS
100
AcDbLine
 10
-0.9809987862395246
 20
-128.2333621490615
 30
0.0
 11
-1.028744329782512
 21
-128.2112566390039
 31
0.0
  0
LINE
  5
90F87
330
1E
100
AcDbEntity
  8
DETAIL
  6
CONTINUOUS
100
AcDbLine
 10
-0.4490606019758161
 20
-128.355468783084
 30
0.0
 11
-0.4968359678937305
 21
-128.3318521548562
 31
0.0
  0
LINE
  5
90F88
330
1E
100
AcDbEntity
  8
DETAIL
  6
CONTINUOUS
100
AcDbLine
 10
-1.207952763178127
 20
-145.2719052042484
 30
0.0
 11
-1.244595878605196
 21
-145.317231314473
 31
0.0
  0
LINE
  5
90F89
330
1E
100
AcDbEntity
  8
DETAIL
  6
CONTINUOUS
100
AcDbLine
 10
-0.2729524004757877
 20
-144.8512441823304
 30
0.0
 11
-0.3133361546410924
 21
-144.8961119344235
 31
0.0
  0
LINE
  5
90F8A
330
1E
100
AcDbEntity
  8
DETAIL
  6
CONTINUOUS
100
AcDbLine
 10
-1.028744329782512
 20
-128.2112566390039
 30
0.0
 11
-1.075719333090546
 21
-128.1843560057113
 31
0.0
  0
LINE
  5
90F8B
330
1E
100
AcDbEntity
  8
DETAIL
  6
CONTINUOUS
100
AcDbLine
 10
-0.4020725665400278
 20
-128.3842355618367
 30
0.0
 11
-0.4490606019758161
 21
-128.355468783084
 31
0.0
  0
LINE
  5
90F8C
330
1E
100
AcDbEntity
  8
DETAIL
  6
CONTINUOUS
100
AcDbLine
 10
-1.075719333090546
 20
-128.1843560057113
 30
0.0
 11
-1.121195926518794
 21
-128.1524930157083
 31
0.0
  0
LINE
  5
90F8D
330
1E
100
AcDbEntity
  8
DETAIL
  6
CONTINUOUS
100
AcDbLine
 10
-0.2038467863808364
 20
-144.7449914908681
 30
0.0
 11
-0.236151844008873
 21
-144.8008564838305
 31
0.0
  0
LINE
  5
90F8E
330
1E
100
AcDbEntity
  8
DETAIL
  6
CONTINUOUS
100
AcDbLine
 10
-1.244595878605196
 20
-145.317231314473
 30
0.0
 11
-1.276453168801253
 21
-145.3670269085814
 31
0.0
  0
LINE
  5
90F8F
330
1E
100
AcDbEntity
  8
DETAIL
  6
CONTINUOUS
100
AcDbLine
 10
-0.236151844008873
 20
-144.8008564838305
 30
0.0
 11
-0.2729524004757877
 21
-144.8512441823304
 31
0.0
  0
LINE
  5
90F90
330
1E
100
AcDbEntity
  8
DETAIL
  6
CONTINUOUS
100
AcDbLine
 10
-0.3566349109173643
 20
-128.4182391156732
 30
0.0
 11
-0.4020725665400278
 21
-128.3842355618367
 31
0.0
  0
LINE
  5
90F91
330
1E
100
AcDbEntity
  8
DETAIL
  6
CONTINUOUS
100
AcDbLine
 10
-1.121195926518794
 20
-128.1524930157083
 30
0.0
 11
-1.16468091473007
 21
-128.1153995941122
 31
0.0
  0
LINE
  5
90F92
330
1E
100
AcDbEntity
  8
DETAIL
  6
CONTINUOUS
100
AcDbLine
 10
-0.3133361479744963
 20
-128.4576715722428
 30
0.0
 11
-0.3566349109173643
 21
-128.4182391156732
 31
0.0
  0
LINE
  5
90F93
330
1E
100
AcDbEntity
  8
DETAIL
  6
CONTINUOUS
100
AcDbLine
 10
-0.1561282679435862
 20
-144.6168729345008
 30
0.0
 11
-0.176763323436262
 21
-144.6832846022907
 31
0.0
  0
LINE
  5
90F94
330
1E
100
AcDbEntity
  8
DETAIL
  6
CONTINUOUS
100
AcDbLine
 10
-1.302487312638277
 20
-145.4211318029015
 30
0.0
 11
-1.321964406185088
 21
-145.4784777158497
 31
0.0
  0
LINE
  5
90F95
330
1E
100
AcDbEntity
  8
DETAIL
  6
CONTINUOUS
100
AcDbLine
 10
-0.176763323436262
 20
-144.6832846022907
 30
0.0
 11
-0.2038467863808364
 21
-144.7449914908681
 31
0.0
  0
LINE
  5
90F96
330
1E
100
AcDbEntity
  8
DETAIL
  6
CONTINUOUS
100
AcDbLine
 10
-1.276453168801253
 20
-145.3670269085814
 30
0.0
 11
-1.302487312638277
 21
-145.4211318029015
 31
0.0
  0
LINE
  5
90F97
330
1E
100
AcDbEntity
  8
DETAIL
  6
CONTINUOUS
100
AcDbLine
 10
-1.16468091473007
 20
-128.1153995941122
 30
0.0
 11
-1.20528052597956
 21
-128.0730855186795
 31
0.0
  0
LINE
  5
90F98
330
1E
100
AcDbEntity
  8
DETAIL
  6
CONTINUOUS
100
AcDbLine
 10
-0.2729523951534247
 20
-128.5025393243363
 30
0.0
 11
-0.3133361479744963
 21
-128.4576715722428
 31
0.0
  0
LINE
  5
90F99
330
1E
100
AcDbEntity
  8
DETAIL
  6
CONTINUOUS
100
AcDbLine
 10
-1.20528052597956
 20
-128.0730855186795
 30
0.0
 11
-1.242297395300283
 21
-128.0253167467838
 31
0.0
  0
LINE
  5
90F9A
330
1E
100
AcDbEntity
  8
DETAIL
  6
CONTINUOUS
100
AcDbLine
 10
-1.333481261132419
 20
-127.7893863688595
 30
0.0
 11
-1.338008408096811
 21
-127.722778483474
 31
0.0
  0
LINE
  5
90F9B
330
1E
100
AcDbEntity
  8
DETAIL
  6
CONTINUOUS
100
AcDbLine
 10
-0.1386099080941676
 20
-128.880801500001
 30
0.0
 11
-0.143594068530092
 21
-128.8068844868184
 31
0.0
  0
LINE
  5
90F9C
330
1E
100
AcDbEntity
  8
DETAIL
  6
CONTINUOUS
100
AcDbLine
 10
-0.7383091580963992
 20
-145.0726812500001
 30
0.0
 11
-0.7383091580963992
 21
-128.2811022500031
 31
0.0
  0
LINE
  5
90F9D
330
1E
100
AcDbEntity
  8
DETAIL
  6
CONTINUOUS
100
AcDbLine
 10
-0.1386099080941676
 20
-144.472982000002
 30
0.0
 11
-0.143594068530092
 21
-144.5468990145181
 31
0.0
  0
LINE
  5
90F9E
330
1E
100
AcDbEntity
  8
DETAIL
  6
CONTINUOUS
100
AcDbLine
 10
-1.333669811902382
 20
-145.5378027562587
 30
0.0
 11
-1.338008408096811
 21
-145.5995275558552
 31
0.0
  0
LINE
  5
90F9F
330
1E
100
AcDbEntity
  8
DETAIL
  6
CONTINUOUS
100
AcDbLine
 10
-0.143594068530092
 20
-144.5468990145181
 30
0.0
 11
-0.1561282679435862
 21
-144.6168729345008
 31
0.0
  0
LINE
  5
90FA0
330
1E
100
AcDbEntity
  8
DETAIL
  6
CONTINUOUS
100
AcDbLine
 10
-1.321964406185088
 20
-145.4784777158497
 30
0.0
 11
-1.333669811902382
 21
-145.5378027562587
 31
0.0
  0
LINE
  5
90FA1
330
1E
100
AcDbEntity
  8
DETAIL
  6
CONTINUOUS
100
AcDbLine
 10
-0.2361518400089153
 20
-128.552927022836
 30
0.0
 11
-0.2729523951534247
 21
-128.5025393243363
 31
0.0
  0
LINE
  5
90FA2
330
1E
100
AcDbEntity
  8
DETAIL
  6
CONTINUOUS
100
AcDbLine
 10
-1.242297395300283
 20
-128.0253167467838
 30
0.0
 11
-1.274649094872529
 21
-127.9725566647036
 31
0.0
  0
LINE
  5
90FA3
330
1E
100
AcDbEntity
  8
DETAIL
  6
CONTINUOUS
100
AcDbLine
 10
-0.2038467837141979
 20
-128.6087920144655
 30
0.0
 11
-0.2361518400089153
 21
-128.552927022836
 31
0.0
  0
LINE
  5
90FA4
330
1E
100
AcDbEntity
  8
DETAIL
  6
CONTINUOUS
100
AcDbLine
 10
-1.274649094872529
 20
-127.9725566647036
 30
0.0
 11
-1.301328990869023
 21
-127.9147571392463
 31
0.0
  0
LINE
  5
90FA5
330
1E
100
AcDbEntity
  8
DETAIL
  6
CONTINUOUS
100
AcDbLine
 10
-0.1767633221029428
 20
-128.6704989017123
 30
0.0
 11
-0.2038467837141979
 21
-128.6087920144655
 31
0.0
  0
LINE
  5
90FA6
330
1E
100
AcDbEntity
  8
DETAIL
  6
CONTINUOUS
100
AcDbLine
 10
-1.301328990869023
 20
-127.9147571392463
 30
0.0
 11
-1.321412327044981
 21
-127.8532186941952
 31
0.0
  0
LINE
  5
90FA7
330
1E
100
AcDbEntity
  8
DETAIL
  6
CONTINUOUS
100
AcDbLine
 10
-0.156128266610267
 20
-128.7369105695024
 30
0.0
 11
-0.1767633221029428
 21
-128.6704989017123
 31
0.0
  0
LINE
  5
90FA8
330
1E
100
AcDbEntity
  8
DETAIL
  6
CONTINUOUS
100
AcDbLine
 10
-1.321412327044981
 20
-127.8532186941952
 30
0.0
 11
-1.333481261132419
 21
-127.7893863688595
 31
0.0
  0
LINE
  5
90FA9
330
1E
100
AcDbEntity
  8
DETAIL
  6
CONTINUOUS
100
AcDbLine
 10
-0.143594068530092
 20
-128.8068844868184
 30
0.0
 11
-0.156128266610267
 21
-128.7369105695024
 31
0.0
  0
TEXT
  5
90FAA
330
1E
100
AcDbEntity
  8
SIZE
  6
CONTINUOUS
100
AcDbText
 10
112.7873766678508
 20
-229.0
 30
0.0
 40
50.0
  1
41
 50
90.0
 41
0.9
100
AcDbText
  0
ARC
  5
90FAB
330
1E
100
AcDbEntity
  8
DETAIL
  6
CONTINUOUS
100
AcDbCircle
 10
-6.135602408092381
 20
-13.4284200528441
 30
0.0
 40
2.99849625
100
AcDbArc
 50
13.69645923070649
 51
34.99999999999736
  0
ARC
  5
90FAC
330
1E
100
AcDbEntity
  8
DETAIL
  6
CONTINUOUS
100
AcDbCircle
 10
-4.136604908097069
 20
-12.7981385625485
 30
0.0
 40
0.99949875
100
AcDbArc
 50
0.0
 51
34.99714405459912
  0
ARC
  5
90FAD
330
1E
100
AcDbEntity
  8
DETAIL
  6
CONTINUOUS
100
AcDbCircle
 10
-4.636354283089531
 20
-12.01771433837029
 30
0.0
 40
0.4997493750000002
100
AcDbArc
 50
180.0
 51
269.0000000000242
  0
POINT
  5
90FAE
330
1E
100
AcDbEntity
  8
ARRANGE
  6
CONTINUOUS
100
AcDbPoint
 10
0.0
 20
0.0
 30
0.0
  0
CIRCLE
  5
90FAF
330
1E
100
AcDbEntity
  8
ARRANGE
  6
CONTINUOUS
100
AcDbCircle
 10
0.0
 20
0.0
 30
0.0
 40
13.00138232471456
  0
LINE
  5
90FB0
330
1E
100
AcDbEntity
  8
DETAIL
  6
CONTINUOUS
100
AcDbLine
 10
-3.619397810834925
 20
-15.05929818388176
 30
0.0
 11
-4.653795285736123
 21
-15.09542013933787
 31
0.0
  0
LINE
  5
90FB1
330
1E
100
AcDbEntity
  8
DETAIL
  6
CONTINUOUS
100
AcDbLine
 10
-3.628133704438369
 20
-21.83751011592812
 30
0.0
 11
-4.64507611308727
 21
-21.85526091254587
 31
0.0
  0
LINE
  5
90FB2
330
1E
100
AcDbEntity
  8
DETAIL
  6
CONTINUOUS
100
AcDbLine
 10
-3.13710615808668
 20
-23.13839606249894
 30
0.0
 11
-1.637858033096563
 21
-23.13839606249894
 31
0.0
  0
LINE
  5
90FB3
330
1E
100
AcDbEntity
  8
DETAIL
  6
CONTINUOUS
100
AcDbLine
 10
-1.637858033096563
 20
-21.93899756250039
 30
0.0
 11
-3.13710615808668
 21
-21.93899756250039
 31
0.0
  0
LINE
  5
90FB4
330
1E
100
AcDbEntity
  8
DETAIL
  6
CONTINUOUS
100
AcDbLine
 10
-4.653795285736123
 20
-19.28733686066107
 30
0.0
 11
-3.619414531778602
 21
-19.32345823374453
 31
0.0
  0
LINE
  5
90FB5
330
1E
100
AcDbEntity
  8
DETAIL
  6
CONTINUOUS
100
AcDbLine
 10
-4.64507611308727
 20
-12.51738759954287
 30
0.0
 11
-3.628133704438369
 21
-12.53513839482775
 31
0.0
  0
LINE
  5
90FB6
330
1E
100
AcDbEntity
  8
DETAIL
  6
CONTINUOUS
100
AcDbLine
 10
-3.210035819764016
 20
-12.76082983559263
 30
0.0
 11
-3.212345875934261
 21
-12.7538641022511
 31
0.0
  0
LINE
  5
90FB7
330
1E
100
AcDbEntity
  8
DETAIL
  6
CONTINUOUS
100
AcDbLine
 10
-3.212345875934261
 20
-12.7538641022511
 30
0.0
 11
-3.214594538894743
 21
-12.74673083292782
 31
0.0
  0
LINE
  5
90FB8
330
1E
100
AcDbEntity
  8
DETAIL
  6
CONTINUOUS
100
AcDbLine
 10
-3.214594538894743
 20
-12.74673083292782
 30
0.0
 11
-3.216766585615914
 21
-12.73945968875068
 31
0.0
  0
LINE
  5
90FB9
330
1E
100
AcDbEntity
  8
DETAIL
  6
CONTINUOUS
100
AcDbLine
 10
-3.216766585615914
 20
-12.73945968875068
 30
0.0
 11
-3.218371382139594
 21
-12.73381088030146
 31
0.0
  0
LINE
  5
90FBA
330
1E
100
AcDbEntity
  8
DETAIL
  6
CONTINUOUS
100
AcDbLine
 10
-3.218367348164974
 20
-12.73381035923148
 30
0.0
 11
-3.222372134419856
 21
-12.71844179058734
 31
0.0
  0
LINE
  5
90FBB
330
1E
100
AcDbEntity
  8
DETAIL
  6
CONTINUOUS
100
AcDbLine
 10
-3.13710615808668
 20
-23.78659912510556
 30
0.0
 11
-1.338008408096357
 21
-25.58569687510544
 31
0.0
  0
LINE
  5
90FBC
330
1E
100
AcDbEntity
  8
DETAIL
  6
CONTINUOUS
100
AcDbLine
 10
-3.184167964531297
 20
-12.82281271909096
 30
0.0
 11
-3.187182665982618
 21
-12.81668647540982
 31
0.0
  0
LINE
  5
90FBD
330
1E
100
AcDbEntity
  8
DETAIL
  6
CONTINUOUS
100
AcDbLine
 10
-3.187182665982618
 20
-12.81668647540982
 30
0.0
 11
-3.188115335591646
 21
-12.81475006652226
 31
0.0
  0
LINE
  5
90FBE
330
1E
100
AcDbEntity
  8
DETAIL
  6
CONTINUOUS
100
AcDbLine
 10
-3.188115335591646
 20
-12.81475006652226
 30
0.0
 11
-3.189565977421807
 21
-12.8116870746162
 31
0.0
  0
LINE
  5
90FBF
330
1E
100
AcDbEntity
  8
DETAIL
  6
CONTINUOUS
100
AcDbLine
 10
-3.189565977421807
 20
-12.8116870746162
 30
0.0
 11
-3.191413892025593
 21
-12.80769813374399
 31
0.0
  0
LINE
  5
90FC0
330
1E
100
AcDbEntity
  8
DETAIL
  6
CONTINUOUS
100
AcDbLine
 10
-3.191413892025593
 20
-12.80769813374399
 30
0.0
 11
-3.193515812570694
 21
-12.80304053886675
 31
0.0
  0
LINE
  5
90FC1
330
1E
100
AcDbEntity
  8
DETAIL
  6
CONTINUOUS
100
AcDbLine
 10
-3.193515812570694
 20
-12.80304053886675
 30
0.0
 11
-3.195782943601443
 21
-12.7978662177943
 31
0.0
  0
LINE
  5
90FC2
330
1E
100
AcDbEntity
  8
DETAIL
  6
CONTINUOUS
100
AcDbLine
 10
-3.195782943601443
 20
-12.7978662177943
 30
0.0
 11
-3.198141582077369
 21
-12.79230534258158
 31
0.0
  0
LINE
  5
90FC3
330
1E
100
AcDbEntity
  8
DETAIL
  6
CONTINUOUS
100
AcDbLine
 10
-3.198141582077369
 20
-12.79230534258158
 30
0.0
 11
-3.200512626328418
 21
-12.7865171173853
 31
0.0
  0
LINE
  5
90FC4
330
1E
100
AcDbEntity
  8
DETAIL
  6
CONTINUOUS
100
AcDbLine
 10
-3.200512626328418
 20
-12.7865171173853
 30
0.0
 11
-3.202901357712107
 21
-12.78046587076096
 31
0.0
  0
LINE
  5
90FC5
330
1E
100
AcDbEntity
  8
DETAIL
  6
CONTINUOUS
100
AcDbLine
 10
-3.202901357712107
 20
-12.78046587076096
 30
0.0
 11
-3.205296926993469
 21
-12.77415280476998
 31
0.0
  0
LINE
  5
90FC6
330
1E
100
AcDbEntity
  8
DETAIL
  6
CONTINUOUS
100
AcDbLine
 10
-3.205296926993469
 20
-12.77415280476998
 30
0.0
 11
-3.207679953236947
 21
-12.76760258171771
 31
0.0
  0
LINE
  5
90FC7
330
1E
100
AcDbEntity
  8
DETAIL
  6
CONTINUOUS
100
AcDbLine
 10
-3.207679953236947
 20
-12.76760258171771
 30
0.0
 11
-3.210035819764016
 21
-12.76082983559263
 31
0.0
  0
ARC
  5
90FC8
330
1E
100
AcDbEntity
  8
DETAIL
  6
CONTINUOUS
100
AcDbCircle
 10
-1.637858033096563
 20
-23.4382456874996
 30
0.0
 40
1.499248125
100
AcDbArc
 50
0.0
 51
90.0
  0
ARC
  5
90FC9
330
1E
100
AcDbEntity
  8
DETAIL
  6
CONTINUOUS
100
AcDbCircle
 10
-4.636354283089531
 20
-15.59486582530598
 30
0.0
 40
0.4997497468135351
100
AcDbArc
 50
91.99999701769145
 51
179.9999145462939
  0
ARC
  5
90FCA
330
1E
100
AcDbEntity
  8
DETAIL
  6
CONTINUOUS
100
AcDbCircle
 10
-4.636354283089531
 20
-22.35493417238558
 30
0.0
 40
0.4997493750000002
100
AcDbArc
 50
90.99999999997569
 51
179.9998655600017
  0
ARC
  5
90FCB
330
1E
100
AcDbEntity
  8
DETAIL
  6
CONTINUOUS
100
AcDbCircle
 10
-4.636354283089531
 20
-18.78789191965324
 30
0.0
 40
0.4997493750000002
100
AcDbArc
 50
180.0
 51
267.9999999999965
  0
ARC
  5
90FCC
330
1E
100
AcDbEntity
  8
DETAIL
  6
CONTINUOUS
100
AcDbCircle
 10
-3.636855533091875
 20
-21.33783685608887
 30
0.0
 40
0.4997493750000002
100
AcDbArc
 50
270.999004117894
 51
0.0
  0
ARC
  5
90FCD
330
1E
100
AcDbEntity
  8
DETAIL
  6
CONTINUOUS
100
AcDbCircle
 10
-3.636855533091875
 20
-19.82290317475235
 30
0.0
 40
0.4997493750000002
100
AcDbArc
 50
0.0
 51
87.9999999999965
  0
ARC
  5
90FCE
330
1E
100
AcDbEntity
  8
DETAIL
  6
CONTINUOUS
100
AcDbCircle
 10
-2.736830830048347
 20
-12.60012408441343
 30
0.0
 40
0.4997493750000002
100
AcDbArc
 50
193.6951736281961
 51
205.7786322362062
  0
ARC
  5
90FCF
330
1E
100
AcDbEntity
  8
DETAIL
  6
CONTINUOUS
100
AcDbCircle
 10
-3.636855533091875
 20
-13.03481165600032
 30
0.0
 40
0.4997493750000002
100
AcDbArc
 50
0.0
 51
89.0000000000243
  0
ARC
  5
90FD0
330
1E
100
AcDbEntity
  8
DETAIL
  6
CONTINUOUS
100
AcDbCircle
 10
-3.636855533091875
 20
-14.55985382658309
 30
0.0
 40
0.4997493750000002
100
AcDbArc
 50
272.0019181365113
 51
0.0
  0
ARC
  5
90FD1
330
1E
100
AcDbEntity
  8
DETAIL
  6
CONTINUOUS
100
AcDbCircle
 10
-1.637858033096563
 20
-23.4382456874996
 30
0.0
 40
0.299849625
100
AcDbArc
 50
0.0
 51
90.0
  0
LINE
  5
90FD2
330
1E
100
AcDbEntity
  8
DETAIL
  6
CONTINUOUS
100
AcDbLine
 10
-2.950829265548236
 20
-56.50408549661825
 30
0.0
 11
-2.946843331157651
 21
-56.52035937524487
 31
0.0
  0
LINE
  5
90FD3
330
1E
100
AcDbEntity
  8
DETAIL
  6
CONTINUOUS
100
AcDbLine
 10
-2.950844727121875
 20
-56.50402796680282
 30
0.0
 11
-3.13710615808668
 21
-55.80889084436194
 31
0.0
  0
LINE
  5
90FD5
330
1E
100
AcDbEntity
  8
DETAIL
  6
CONTINUOUS
100
AcDbLine
 10
-61.60778303309598
 20
0.0
 30
0.0
 11
0.0
 21
0.0
 31
0.0
  0
LINE
  5
90FD6
330
1E
100
AcDbEntity
  8
DETAIL
  6
CONTINUOUS
100
AcDbLine
 10
-67.10502615808946
 20
-0.3498245624987248
 30
0.0
 11
-11.63284553309676
 21
-0.3498245624987248
 31
0.0
  0
LINE
  5
90FD7
330
1E
100
AcDbEntity
  8
DETAIL
  6
CONTINUOUS
100
AcDbLine
 10
-28.18914594963098
 20
-0.3498245624987248
 30
0.0
 11
-28.20136209254269
 21
0.0
 31
0.0
  0
LINE
  5
90FD8
330
1E
100
AcDbEntity
  8
DETAIL
  6
CONTINUOUS
100
AcDbLine
 10
-67.16580990162947
 20
-2.159083267432379
 30
0.0
 11
-67.16138742483781
 21
-2.234082575177126
 31
0.0
  0
LINE
  5
90FD9
330
1E
100
AcDbEntity
  8
DETAIL
  6
CONTINUOUS
100
AcDbLine
 10
-67.16138819911975
 20
-2.234072521553116
 30
0.0
 11
-67.13790750138469
 21
-2.906471737754145
 31
0.0
  0
LINE
  5
90FDA
330
1E
100
AcDbEntity
  8
DETAIL
  6
CONTINUOUS
100
AcDbLine
 10
-67.17353152255601
 20
-2.085696662915779
 30
0.0
 11
-67.16580990162947
 21
-2.159083267432379
 31
0.0
  0
LINE
  5
90FDB
330
1E
100
AcDbEntity
  8
DETAIL
  6
CONTINUOUS
100
AcDbLine
 10
-67.19879929873423
 20
-1.943757128454763
 30
0.0
 11
-67.18458601871316
 21
-2.013797339193388
 31
0.0
  0
LINE
  5
90FDC
330
1E
100
AcDbEntity
  8
DETAIL
  6
CONTINUOUS
100
AcDbLine
 10
-67.18458601871316
 20
-2.013797339193388
 30
0.0
 11
-67.17353152255601
 21
-2.085696662915779
 31
0.0
  0
LINE
  5
90FDD
330
1E
100
AcDbEntity
  8
DETAIL
  6
CONTINUOUS
100
AcDbLine
 10
-67.65708525569607
 20
-2.579740659173694
 30
0.0
 11
-67.57862067245333
 21
-2.583852814255351
 31
0.0
  0
LINE
  5
90FDE
330
1E
100
AcDbEntity
  8
DETAIL
  6
CONTINUOUS
100
AcDbLine
 10
-67.25890176259963
 20
-1.747344549633908
 30
0.0
 11
-67.23616154817682
 21
-1.810241000311179
 31
0.0
  0
LINE
  5
90FDF
330
1E
100
AcDbEntity
  8
DETAIL
  6
CONTINUOUS
100
AcDbLine
 10
-67.23616154817682
 20
-1.810241000311179
 30
0.0
 11
-67.21605014074885
 21
-1.875829131771752
 31
0.0
  0
LINE
  5
90FE0
330
1E
100
AcDbEntity
  8
DETAIL
  6
CONTINUOUS
100
AcDbLine
 10
-67.21605014074885
 20
-1.875829131771752
 30
0.0
 11
-67.19879929873423
 21
-1.943757128454763
 31
0.0
  0
LINE
  5
90FE1
330
1E
100
AcDbEntity
  8
DETAIL
  6
CONTINUOUS
100
AcDbLine
 10
-67.28427467004985
 20
-1.687018147409617
 30
0.0
 11
-67.25890176259963
 21
-1.747344549633908
 31
0.0
  0
ARC
  5
90FE2
330
1E
100
AcDbEntity
  8
DETAIL
  6
CONTINUOUS
100
AcDbCircle
 10
-67.60477553309465
 20
-1.581611687561235
 30
0.0
 40
0.99949875
100
AcDbArc
 50
180.0
 51
266.9999999999946
  0
ARC
  5
90FE3
330
1E
100
AcDbEntity
  8
DETAIL
  6
CONTINUOUS
100
AcDbCircle
 10
-67.60477553309465
 20
-3.082917299394921
 30
0.0
 40
0.4997493750000002
100
AcDbArc
 50
0.0
 51
86.99999999999457
  0
LINE
  5
90FE4
330
1E
100
AcDbEntity
  8
DETAIL
  6
CONTINUOUS
100
AcDbLine
 10
-3.317834887720891
 20
-12.22489044193525
 30
0.0
 11
-11.63284553309676
 21
-0.3498245624987248
 31
0.0
  0
LINE
  5
90FE5
330
1E
100
AcDbEntity
  8
NOTE
  6
CONTINUOUS
 62
     4
100
AcDbLine
 10
288.3621088557015
 20
65.10428993650203
 30
0.0
 11
805.8153600000009
 21
65.10428993650203
 31
0.0
  0
TEXT
  5
90FE6
330
1E
100
AcDbEntity
  8
NOTE
 62
     4
100
AcDbText
 10
295.7860671428575
 20
-435.9295700634975
 30
0.0
 40
64.0
  1
D,RL,RG%%C65
 41
0.9
100
AcDbText
  0
LINE
  5
90FE7
330
1E
100
AcDbEntity
  8
NOTE
  6
CONTINUOUS
 62
     4
100
AcDbLine
 10
263.2260939860975
 20
-457.1246400634972
 30
0.0
 11
781.7722099999996
 21
-457.1246400634972
 31
0.0
  0
LINE
  5
90FE8
330
1E
100
AcDbEntity
  8
SIZE
  6
CONTINUOUS
100
AcDbLine
 10
206.5300923373556
 20
-248.0000000002494
 30
0.0
 11
206.5300923373556
 21
-145.1428571431065
 31
0.0
  0
LINE
  5
90FE9
330
1E
100
AcDbEntity
  8
SIZE
  6
CONTINUOUS
100
AcDbLine
 10
318.9023588550021
 20
-280.0000000000002
 30
0.0
 11
318.9023588550021
 21
-4.798044187501545
 31
0.0
  0
CIRCLE
  5
90FEA
330
1E
100
AcDbEntity
  8
SIZE
  6
BYBLOCK
100
AcDbCircle
 10
318.9023588550021
 20
-290.0000000000002
 30
0.0
 40
5.0
  0
LINE
  5
90FEB
330
1E
100
AcDbEntity
  8
SIZE
  6
BYBLOCK
100
AcDbLine
 10
206.5300923373556
 20
-290.0000000000002
 30
0.0
 11
206.5300923373556
 21
-280.0000000000002
 31
0.0
  0
CIRCLE
  5
90FEC
330
1E
100
AcDbEntity
  8
SIZE
  6
BYBLOCK
100
AcDbCircle
 10
206.5300923373556
 20
-290.0000000000002
 30
0.0
 40
5.0
  0
LINE
  5
90FED
330
1E
100
AcDbEntity
  8
SIZE
  6
BYBLOCK
100
AcDbLine
 10
206.5300923373556
 20
-248.0000000002494
 30
0.0
 11
206.5300923373556
 21
-258.0000000002494
 31
0.0
  0
CIRCLE
  5
90FEE
330
1E
100
AcDbEntity
  8
SIZE
  6
BYBLOCK
100
AcDbCircle
 10
206.5300923373556
 20
-248.0000000002494
 30
0.0
 40
5.0
  0
LINE
  5
90FEF
330
1E
100
AcDbEntity
  8
SIZE
  6
CONTINUOUS
100
AcDbLine
 10
206.5300923373556
 20
-280.0000000000002
 30
0.0
 11
206.5300923373556
 21
-258.0000000002494
 31
0.0
  0
LINE
  5
90FF0
330
1E
100
AcDbEntity
  8
SIZE
  6
BYBLOCK
100
AcDbLine
 10
318.9023588550021
 20
-290.0000000000002
 30
0.0
 11
318.9023588550021
 21
-280.0000000000002
 31
0.0
  0
TEXT
  5
90FF1
330
1E
100
AcDbEntity
  8
SIZE
  6
CONTINUOUS
100
AcDbText
 10
308.9023588550021
 20
-200.2561649508934
 30
0.0
 40
50.0
  1
290
 50
90.0
 41
0.9
100
AcDbText
  0
CIRCLE
  5
90FF2
330
1E
100
AcDbEntity
  8
SIZE
  6
BYBLOCK
100
AcDbCircle
 10
318.9023588550026
 20
0.0
 30
0.0
 40
5.0
  0
LINE
  5
90FF3
330
1E
100
AcDbEntity
  8
SIZE
  6
BYBLOCK
100
AcDbLine
 10
318.9023588550026
 20
0.0
 30
0.0
 11
318.9023588550026
 21
-10.0
 31
0.0
  0
TEXT
  5
90FF4
330
1E
100
AcDbEntity
  8
SIZE
  6
CONTINUOUS
100
AcDbText
 10
-176.1656622462669
 20
150.2914243537384
 30
0.0
 40
50.0
  1
237
 41
0.9
100
AcDbText
  0
LINE
  5
90FF5
330
1E
100
AcDbEntity
  8
SIZE
  6
CONTINUOUS
100
AcDbLine
 10
-226.6170387782481
 20
140.2914243537384
 30
0.0
 11
-10.00000000000045
 21
140.2914243537384
 31
0.0
  0
CIRCLE
  5
90FF6
330
1E
100
AcDbEntity
  8
SIZE
  6
BYBLOCK
100
AcDbCircle
 10
-236.6170387782481
 20
140.2914243537384
 30
0.0
 40
5.0
  0
LINE
  5
90FF7
330
1E
100
AcDbEntity
  8
SIZE
  6
BYBLOCK
100
AcDbLine
 10
-236.6170387782481
 20
140.2914243537384
 30
0.0
 11
-226.6170387782481
 21
140.2914243537384
 31
0.0
  0
CIRCLE
  5
90FF8
330
1E
100
AcDbEntity
  8
SIZE
  6
BYBLOCK
100
AcDbCircle
 10
-0.0000000000004547
 20
140.2914243537384
 30
0.0
 40
5.0
  0
LINE
  5
90FF9
330
1E
100
AcDbEntity
  8
SIZE
  6
BYBLOCK
100
AcDbLine
 10
-0.0000000000004547
 20
140.2914243537384
 30
0.0
 11
-10.00000000000045
 21
140.2914243537384
 31
0.0
  0
TEXT
  5
90FFA
330
1E
100
AcDbEntity
  8
ETC
100
AcDbText
 10
438.9392013846531
 20
441.4573090396957
 30
0.0
 40
64.0
  1
室内機
 41
0.75
 72
     5
 11
598.9392013846532
 21
441.4573090396957
 31
0.0
100
AcDbText
  0
TEXT
  5
90FFB
330
1E
100
AcDbEntity
  8
ETC
100
AcDbText
 10
350.1739147703451
 20
313.3783045283121
 30
0.0
 40
64.0
  1
SMSZ6014
 41
0.9032258135080693
 72
     5
 11
776.8405847703474
 21
313.3783045283121
 31
0.0
100
AcDbText
  0
TEXT
  5
90FFC
330
1E
100
AcDbEntity
  8
NOTE
 62
     4
100
AcDbText
 10
319.8292171428588
 20
86.29934993650204
 30
0.0
 40
64.0
  1
D,RL,RG%%C65
 41
0.9
100
AcDbText
  0
LINE
  5
938C2
330
1E
100
AcDbEntity
  8
OUTLINE
  6
CONTINUOUS
100
AcDbLine
 10
-61.60778303309598
 20
0.0
 30
0.0
 11
0.0
 21
0.0
 31
0.0
  0
LINE
  5
938CA
330
1E
100
AcDbEntity
  8
OUTLINE
  6
CONTINUOUS
100
AcDbLine
 10
-67.14427737888809
 20
-290.0
 30
0.0
 11
0.0
 21
-290.0
 31
0.0
  0
LINE
  5
938D2
330
1E
100
AcDbEntity
  8
OUTLINE
  6
CONTINUOUS
100
AcDbLine
 10
-201.5863304587333
 20
-266.4034727682469
 30
0.0
 11
-202.4919824570065
 21
-265.6458332748316
 31
0.0
  0
LINE
  5
938D8
330
1E
100
AcDbEntity
  8
OUTLINE
  6
CONTINUOUS
100
AcDbLine
 10
-179.5110311010998
 20
-279.4716554686201
 30
0.0
 11
-178.9426604224413
 21
-279.7201384127479
 31
0.0
  0
LINE
  5
938D9
330
1E
100
AcDbEntity
  8
OUTLINE
  6
CONTINUOUS
100
AcDbLine
 10
-181.5876247438614
 20
-278.5196527739494
 30
0.0
 11
-177.9739805220856
 21
-280.1285022937017
 31
0.0
  0
LINE
  5
938DA
330
1E
100
AcDbEntity
  8
OUTLINE
  6
CONTINUOUS
100
AcDbLine
 10
-179.0813272688251
 20
-279.6599359603603
 30
0.0
 11
-181.1483705251289
 21
-278.7300763289163
 31
0.0
  0
LINE
  5
938DB
330
1E
100
AcDbEntity
  8
OUTLINE
  6
CONTINUOUS
100
AcDbLine
 10
-178.9393491510513
 20
-279.7168424083674
 30
0.0
 11
-181.4538617115363
 21
-278.5825487475326
 31
0.0
  0
ARC
  5
938DC
330
1E
100
AcDbEntity
  8
OUTLINE
  6
CONTINUOUS
100
AcDbCircle
 10
-260.7457358540964
 20
-255.5550267561998
 30
0.0
 40
89.95488750000001
100
AcDbArc
 50
333.8729683661987
 51
343.2590066683167
  0
ARC
  5
938DD
330
1E
100
AcDbEntity
  8
OUTLINE
  6
CONTINUOUS
100
AcDbCircle
 10
-204.5028264133293
 20
-283.6194751153536
 30
0.0
 40
29.9849625
100
AcDbArc
 50
323.6232720490069
 51
333.3328564596062
  0
ARC
  5
938DE
330
1E
100
AcDbEntity
  8
OUTLINE
  6
CONTINUOUS
100
AcDbCircle
 10
-179.4671716540092
 20
-279.4781243884497
 30
0.0
 40
0.4997493750000002
100
AcDbArc
 50
245.500014348891
 51
328.0000018729061
  0
LINE
  5
938DF
330
1E
100
AcDbEntity
  8
OUTLINE
  6
CONTINUOUS
100
AcDbLine
 10
-179.9593464170215
 20
-279.2724275843456
 30
0.0
 11
-179.5110311010998
 21
-279.4716554686201
 31
0.0
  0
LINE
  5
938E0
330
1E
100
AcDbEntity
  8
OUTLINE
  6
CONTINUOUS
100
AcDbLine
 10
-180.3662368688951
 20
-279.0891238127742
 30
0.0
 11
-179.9593464170215
 21
-279.2724275843456
 31
0.0
  0
LINE
  5
938E1
330
1E
100
AcDbEntity
  8
OUTLINE
  6
CONTINUOUS
100
AcDbLine
 10
-179.6744142282336
 20
-279.9328770173801
 30
0.0
 11
-181.272881169531
 21
-279.2044136640863
 31
0.0
  0
LINE
  5
938E2
330
1E
100
AcDbEntity
  8
OUTLINE
  6
CONTINUOUS
100
AcDbLine
 10
-180.7654893925396
 20
-278.9069477889661
 30
0.0
 11
-180.3662368688951
 21
-279.0891238127742
 31
0.0
  0
LINE
  5
938E3
330
1E
100
AcDbEntity
  8
OUTLINE
  6
CONTINUOUS
100
AcDbLine
 10
-181.1479678457312
 20
-278.7302574754021
 30
0.0
 11
-180.7654893925396
 21
-278.9069477889661
 31
0.0
  0
LINE
  5
938E4
330
1E
100
AcDbEntity
  8
OUTLINE
  6
CONTINUOUS
100
AcDbLine
 10
-181.6658594637069
 20
-278.4876303692303
 30
0.0
 11
-181.1479678457312
 21
-278.7302574754021
 31
0.0
  0
LINE
  5
938E5
330
1E
100
AcDbEntity
  8
OUTLINE
  6
CONTINUOUS
100
AcDbLine
 10
-182.2296604167499
 20
-278.2190131291474
 30
0.0
 11
-181.6658594637069
 21
-278.4876303692303
 31
0.0
  0
LINE
  5
938E6
330
1E
100
AcDbEntity
  8
OUTLINE
  6
CONTINUOUS
100
AcDbLine
 10
-182.2121831562913
 20
-278.2261346483621
 30
0.0
 11
-182.1094051356126
 21
-278.2767010119268
 31
0.0
  0
LINE
  5
938E7
330
1E
100
AcDbEntity
  8
OUTLINE
  6
CONTINUOUS
100
AcDbLine
 10
-181.3636741673858
 20
-302.68980834497
 30
0.0
 11
-180.3608907619768
 21
-301.403313821077
 31
0.0
  0
LINE
  5
938E8
330
1E
100
AcDbEntity
  8
OUTLINE
  6
CONTINUOUS
100
AcDbLine
 10
-181.9193161694843
 20
-303.3446631037381
 30
0.0
 11
-181.3636741673858
 21
-302.68980834497
 31
0.0
  0
ARC
  5
938E9
330
1E
100
AcDbEntity
  8
OUTLINE
  6
CONTINUOUS
100
AcDbCircle
 10
-181.0656383674163
 20
-278.7496611391043
 30
0.0
 40
0.4997493750000002
100
AcDbArc
 50
156.9272102728894
 51
245.499985725586
  0
LINE
  5
938EA
330
1E
100
AcDbEntity
  8
OUTLINE
  6
CONTINUOUS
100
AcDbLine
 10
-182.7734493991652
 20
-303.6821319133341
 30
0.0
 11
-182.7381801414089
 21
-303.6844687973821
 31
0.0
  0
LINE
  5
938EB
330
1E
100
AcDbEntity
  8
OUTLINE
  6
CONTINUOUS
100
AcDbLine
 10
-182.9003960672348
 20
-303.6647631811104
 30
0.0
 11
-182.7734493991652
 21
-303.6821319133341
 31
0.0
  0
LINE
  5
938EC
330
1E
100
AcDbEntity
  8
OUTLINE
  6
CONTINUOUS
100
AcDbLine
 10
-183.234746231496
 20
-277.7284453508975
 30
0.0
 11
-185.2862159952515
 21
-276.6796446245718
 31
0.0
  0
LINE
  5
938ED
330
1E
100
AcDbEntity
  8
OUTLINE
  6
CONTINUOUS
100
AcDbLine
 10
-185.5430149249009
 20
-276.5428351267241
 30
0.0
 11
-183.8745957580836
 21
-277.4082344997459
 31
0.0
  0
LINE
  5
938EE
330
1E
100
AcDbEntity
  8
OUTLINE
  6
CONTINUOUS
100
AcDbLine
 10
-183.936818462646
 20
-277.3717401084013
 30
0.0
 11
-186.3871858213665
 21
-276.0846571009671
 31
0.0
  0
LINE
  5
938EF
330
1E
100
AcDbEntity
  8
OUTLINE
  6
CONTINUOUS
100
AcDbLine
 10
-185.8833862588767
 20
-276.3621029908058
 30
0.0
 11
-185.5433988883419
 21
-276.5435753741564
 31
0.0
  0
LINE
  5
938F0
330
1E
100
AcDbEntity
  8
OUTLINE
  6
CONTINUOUS
100
AcDbLine
 10
-186.258483277867
 20
-276.1597728756378
 30
0.0
 11
-185.7789267361317
 21
-276.4180531850406
 31
0.0
  0
LINE
  5
938F1
330
1E
100
AcDbEntity
  8
OUTLINE
  6
CONTINUOUS
100
AcDbLine
 10
-185.2862159952515
 20
-276.6796446245718
 30
0.0
 11
-187.2555208128401
 21
-275.6110467945231
 31
0.0
  0
LINE
  5
938F2
330
1E
100
AcDbEntity
  8
OUTLINE
  6
CONTINUOUS
100
AcDbLine
 10
-186.7101011095696
 20
-275.9131978746713
 30
0.0
 11
-186.258483277867
 21
-276.1597728756378
 31
0.0
  0
LINE
  5
938F3
330
1E
100
AcDbEntity
  8
OUTLINE
  6
CONTINUOUS
100
AcDbLine
 10
-186.8977946196832
 20
-276.3476548339094
 30
0.0
 11
-188.4220054631791
 21
-275.5027709670007
 31
0.0
  0
LINE
  5
938F4
330
1E
100
AcDbEntity
  8
OUTLINE
  6
CONTINUOUS
100
AcDbLine
 10
-187.3299097187032
 20
-275.5694645280859
 30
0.0
 11
-186.7101011095696
 21
-275.9131978746713
 31
0.0
  0
LINE
  5
938F5
330
1E
100
AcDbEntity
  8
OUTLINE
  6
CONTINUOUS
100
AcDbLine
 10
-187.7189988486284
 20
-275.3505036759217
 30
0.0
 11
-187.3299097187032
 21
-275.5694645280859
 31
0.0
  0
LINE
  5
938F6
330
1E
100
AcDbEntity
  8
OUTLINE
  6
CONTINUOUS
100
AcDbLine
 10
-188.1502934577934
 20
-275.1048984126341
 30
0.0
 11
-187.7189988486284
 21
-275.3505036759217
 31
0.0
  0
LINE
  5
938F7
330
1E
100
AcDbEntity
  8
OUTLINE
  6
CONTINUOUS
100
AcDbLine
 10
-183.6760373660513
 20
-302.7140451874938
 30
0.0
 11
-183.6416784157795
 21
-302.1954852806679
 31
0.0
  0
LINE
  5
938F8
330
1E
100
AcDbEntity
  8
OUTLINE
  6
CONTINUOUS
100
AcDbLine
 10
-183.6409351525294
 20
-302.1842677436107
 30
0.0
 11
-183.6115095601749
 21
-301.8806965183303
 31
0.0
  0
ARC
  5
938F9
330
1E
100
AcDbEntity
  8
OUTLINE
  6
CONTINUOUS
100
AcDbCircle
 10
-178.6543583170191
 20
-302.5144120104714
 30
0.0
 40
4.99749375
100
AcDbArc
 50
143.0403483243107
 51
172.7148998818011
  0
ARC
  5
938FA
330
1E
100
AcDbEntity
  8
OUTLINE
  6
CONTINUOUS
100
AcDbCircle
 10
-182.7784566027044
 20
-302.7735174540691
 30
0.0
 40
0.8995488750000001
100
AcDbArc
 50
176.2092141382014
 51
262.2092141436773
  0
ARC
  5
938FB
330
1E
100
AcDbEntity
  8
OUTLINE
  6
CONTINUOUS
100
AcDbCircle
 10
-186.6555114237148
 20
-275.9105641221717
 30
0.0
 40
0.4997493750000002
100
AcDbArc
 50
241.0000142140702
 51
328.0000007438953
  0
LINE
  5
938FC
330
1E
100
AcDbEntity
  8
OUTLINE
  6
CONTINUOUS
100
AcDbLine
 10
-189.1120425526337
 20
-274.5461331315236
 30
0.0
 11
-188.5914425355917
 21
-274.85050798978
 31
0.0
  0
LINE
  5
938FD
330
1E
100
AcDbEntity
  8
OUTLINE
  6
CONTINUOUS
100
AcDbLine
 10
-189.2951899333061
 20
-274.4379750116381
 30
0.0
 11
-189.1120425526337
 21
-274.5461331315236
 31
0.0
  0
LINE
  5
938FE
330
1E
100
AcDbEntity
  8
OUTLINE
  6
CONTINUOUS
100
AcDbLine
 10
-189.1121490685423
 20
-274.5460720341643
 30
0.0
 11
-190.801946422182
 21
-273.5264540566511
 31
0.0
  0
LINE
  5
938FF
330
1E
100
AcDbEntity
  8
OUTLINE
  6
CONTINUOUS
100
AcDbLine
 10
-192.9874997201882
 20
-272.1335967764971
 30
0.0
 11
-191.0021732987866
 21
-273.4023750837605
 31
0.0
  0
LINE
  5
93900
330
1E
100
AcDbEntity
  8
OUTLINE
  6
CONTINUOUS
100
AcDbLine
 10
-191.1835598558523
 20
-273.2838652645984
 30
0.0
 11
-193.5261914375464
 21
-271.7713514097145
 31
0.0
  0
LINE
  5
93901
330
1E
100
AcDbEntity
  8
OUTLINE
  6
CONTINUOUS
100
AcDbLine
 10
-192.3616730624585
 20
-272.541184549334
 30
0.0
 11
-193.7926802890274
 21
-271.5986336239211
 31
0.0
  0
LINE
  5
93902
330
1E
100
AcDbEntity
  8
OUTLINE
  6
CONTINUOUS
100
AcDbLine
 10
-195.3193005481994
 20
-270.5451152061923
 30
0.0
 11
-192.0048892740128
 21
-272.7648259008869
 31
0.0
  0
LINE
  5
93903
330
1E
100
AcDbEntity
  8
OUTLINE
  6
CONTINUOUS
100
AcDbLine
 10
-195.0924376562493
 20
-270.7094290359145
 30
0.0
 11
-192.9874997201882
 21
-272.1335967764971
 31
0.0
  0
LINE
  5
93904
330
1E
100
AcDbEntity
  8
OUTLINE
  6
CONTINUOUS
100
AcDbLine
 10
-193.7926802890274
 20
-271.5986336239211
 30
0.0
 11
-195.1427868234045
 21
-270.6743350969063
 31
0.0
  0
LINE
  5
93905
330
1E
100
AcDbEntity
  8
OUTLINE
  6
CONTINUOUS
100
AcDbLine
 10
-193.5261914375464
 20
-271.7713514097145
 30
0.0
 11
-195.8294814024579
 21
-270.1849445016296
 31
0.0
  0
LINE
  5
93906
330
1E
100
AcDbEntity
  8
OUTLINE
  6
CONTINUOUS
100
AcDbLine
 10
-195.4846517936571
 20
-270.4347539191965
 30
0.0
 11
-195.7947113983359
 21
-270.2154944781095
 31
0.0
  0
LINE
  5
93908
330
1E
100
AcDbEntity
  8
OUTLINE
  6
CONTINUOUS
100
AcDbLine
 10
-195.7947113983359
 20
-270.2154944781095
 30
0.0
 11
-195.9353928889965
 21
-270.1154930010259
 31
0.0
  0
LINE
  5
9390A
330
1E
100
AcDbEntity
  8
OUTLINE
  6
CONTINUOUS
100
AcDbLine
 10
-195.4815233359117
 20
-270.4303916442174
 30
0.0
 11
-195.0924376562493
 21
-270.7094290359145
 31
0.0
  0
LINE
  5
9390F
330
1E
100
AcDbEntity
  8
OUTLINE
  6
CONTINUOUS
100
AcDbLine
 10
-196.9323328569412
 20
-270.0121008749474
 30
0.0
 11
-197.87939524918
 21
-269.3146646734985
 31
0.0
  0
LINE
  5
93910
330
1E
100
AcDbEntity
  8
OUTLINE
  6
CONTINUOUS
100
AcDbLine
 10
-197.87939524918
 20
-269.3146646734985
 30
0.0
 11
-198.818457918624
 21
-268.6049968595484
 31
0.0
  0
LINE
  5
93913
330
1E
100
AcDbEntity
  8
OUTLINE
  6
CONTINUOUS
100
AcDbLine
 10
-198.818457918624
 20
-268.6049968595484
 30
0.0
 11
-199.7494128194507
 21
-267.8831651764667
 31
0.0
  0
LINE
  5
93916
330
1E
100
AcDbEntity
  8
OUTLINE
  6
CONTINUOUS
100
AcDbLine
 10
-199.7494128194507
 20
-267.8831651764667
 30
0.0
 11
-200.6720884523478
 21
-267.1492877250191
 31
0.0
  0
ARC
  5
93918
330
1E
100
AcDbEntity
  8
OUTLINE
  6
CONTINUOUS
100
AcDbCircle
 10
-196.3446549395598
 20
-269.20362550779
 30
0.0
 40
0.99949875
100
AcDbArc
 50
233.9867279610705
 51
294.1713755657255
  0
LINE
  5
93919
330
1E
100
AcDbEntity
  8
OUTLINE
  6
CONTINUOUS
100
AcDbLine
 10
-188.8032473978223
 20
-274.7218858846108
 30
0.0
 11
-191.1835598558523
 21
-273.2838652645984
 31
0.0
  0
LINE
  5
9391A
330
1E
100
AcDbEntity
  8
OUTLINE
  6
CONTINUOUS
100
AcDbLine
 10
-191.0021732987866
 20
-273.4023750837605
 30
0.0
 11
-189.2939748613212
 21
-274.4359668827182
 31
0.0
  0
LINE
  5
9391B
330
1E
100
AcDbEntity
  8
OUTLINE
  6
CONTINUOUS
100
AcDbLine
 10
-192.0048892740128
 20
-272.7648259008869
 30
0.0
 11
-188.6078424616666
 21
-274.8356688596243
 31
0.0
  0
LINE
  5
9391C
330
1E
100
AcDbEntity
  8
OUTLINE
  6
CONTINUOUS
100
AcDbLine
 10
-190.801946422182
 20
-273.5264540566511
 30
0.0
 11
-192.3616730624585
 21
-272.541184549334
 31
0.0
  0
LINE
  5
9391D
330
1E
100
AcDbEntity
  8
OUTLINE
  6
CONTINUOUS
100
AcDbLine
 10
-188.6078424616666
 20
-274.8356688596243
 30
0.0
 11
-185.1338522418886
 21
-276.7546728231609
 31
0.0
  0
LINE
  5
9391E
330
1E
100
AcDbEntity
  8
OUTLINE
  6
CONTINUOUS
100
AcDbLine
 10
-186.3871858213665
 20
-276.0846571009671
 30
0.0
 11
-188.8032473978223
 21
-274.7218858846108
 31
0.0
  0
LINE
  5
9391F
330
1E
100
AcDbEntity
  8
OUTLINE
  6
CONTINUOUS
100
AcDbLine
 10
-187.2555208128401
 20
-275.6110467945231
 30
0.0
 11
-189.1121490685423
 21
-274.5460720341643
 31
0.0
  0
LINE
  5
93920
330
1E
100
AcDbEntity
  8
OUTLINE
  6
CONTINUOUS
100
AcDbLine
 10
-188.5914425355917
 20
-274.85050798978
 30
0.0
 11
-188.1502934577934
 21
-275.1048984126341
 31
0.0
  0
ARC
  5
93921
330
1E
100
AcDbEntity
  8
OUTLINE
  6
CONTINUOUS
100
AcDbCircle
 10
-188.1797221579222
 20
-275.0656803152296
 30
0.0
 40
0.4997493750000002
100
AcDbArc
 50
152.2279491699989
 51
240.9999999999701
  0
LINE
  5
93922
330
1E
100
AcDbEntity
  8
OUTLINE
  6
CONTINUOUS
100
AcDbLine
 10
-181.1483705251289
 20
-278.7300763289163
 30
0.0
 11
-183.234746231496
 21
-277.7284453508975
 31
0.0
  0
LINE
  5
93923
330
1E
100
AcDbEntity
  8
OUTLINE
  6
CONTINUOUS
100
AcDbLine
 10
-181.4538617115363
 20
-278.5825487475326
 30
0.0
 11
-183.936818462646
 21
-277.3717401084013
 31
0.0
  0
LINE
  5
93924
330
1E
100
AcDbEntity
  8
OUTLINE
  6
CONTINUOUS
100
AcDbLine
 10
-183.8745957580836
 20
-277.4082344997459
 30
0.0
 11
-182.2290752702087
 21
-278.217823798931
 31
0.0
  0
LINE
  5
93925
330
1E
100
AcDbEntity
  8
OUTLINE
  6
CONTINUOUS
100
AcDbLine
 10
-185.1338522418886
 20
-276.7546728231609
 30
0.0
 11
-181.5876247438614
 21
-278.5196527739494
 31
0.0
  0
ARC
  5
93926
330
1E
100
AcDbEntity
  8
OUTLINE
  6
CONTINUOUS
100
AcDbCircle
 10
-204.2114331461093
 20
-283.2839771893607
 30
0.0
 40
26.98646625
100
AcDbArc
 50
323.0403483243106
 51
333.8729683661987
  0
ARC
  5
93927
330
1E
100
AcDbEntity
  8
OUTLINE
  6
CONTINUOUS
100
AcDbCircle
 10
-182.6720957361635
 20
-302.6871529126704
 30
0.0
 40
0.9994987673246448
100
AcDbArc
 50
266.2089940240739
 51
318.8646331911949
  0
LINE
  5
93928
330
1E
100
AcDbEntity
  8
OUTLINE
  6
CONTINUOUS
100
AcDbLine
 10
-200.6720884523478
 20
-267.1492877250191
 30
0.0
 11
-201.5863304587333
 21
-266.4034727682469
 31
0.0
  0
LINE
  5
93929
330
1E
100
AcDbEntity
  8
OUTLINE
  6
CONTINUOUS
100
AcDbLine
 10
-68.60427428309276
 20
-290.1998997500013
 30
0.0
 11
-136.3532961606256
 21
-287.8340517740207
 31
0.0
  0
LINE
  5
9392A
330
1E
100
AcDbEntity
  8
OUTLINE
  6
CONTINUOUS
100
AcDbLine
 10
-145.5159472931231
 20
-287.3901069343034
 30
0.0
 11
-147.8461330550894
 21
-287.2161321015862
 31
0.0
  0
LINE
  5
9392B
330
1E
100
AcDbEntity
  8
OUTLINE
  6
CONTINUOUS
100
AcDbLine
 10
-147.5046799063188
 20
-287.2403754675056
 30
0.0
 11
-146.3027747154269
 21
-287.3316575360893
 31
0.0
  0
LINE
  5
9392C
330
1E
100
AcDbEntity
  8
OUTLINE
  6
CONTINUOUS
100
AcDbLine
 10
-147.2909411805781
 20
-287.2572551823066
 30
0.0
 11
-148.2283312195199
 21
-287.1810471887215
 31
0.0
  0
LINE
  5
9392D
330
1E
100
AcDbEntity
  8
OUTLINE
  6
CONTINUOUS
100
AcDbLine
 10
-148.6398452926482
 20
-287.1457590590987
 30
0.0
 11
-147.5046799063188
 21
-287.2403754675056
 31
0.0
  0
LINE
  5
9392E
330
1E
100
AcDbEntity
  8
OUTLINE
  6
CONTINUOUS
100
AcDbLine
 10
-148.2283312195199
 20
-287.1810471887215
 30
0.0
 11
-149.2185131872361
 21
-287.0941571935059
 31
0.0
  0
LINE
  5
9392F
330
1E
100
AcDbEntity
  8
OUTLINE
  6
CONTINUOUS
100
AcDbLine
 10
-147.7762933438011
 20
-287.2218302506232
 30
0.0
 11
-148.5161932723044
 21
-287.1560654957383
 31
0.0
  0
LINE
  5
93930
330
1E
100
AcDbEntity
  8
OUTLINE
  6
CONTINUOUS
100
AcDbLine
 10
-150.0515976888732
 20
-287.0190185089936
 30
0.0
 11
-148.5823602747918
 21
-287.1499805926607
 31
0.0
  0
LINE
  5
93931
330
1E
100
AcDbEntity
  8
OUTLINE
  6
CONTINUOUS
100
AcDbLine
 10
-149.4128068220329
 20
-287.0756898335771
 30
0.0
 11
-150.1259471691778
 21
-287.0117613697928
 31
0.0
  0
LINE
  5
93932
330
1E
100
AcDbEntity
  8
OUTLINE
  6
CONTINUOUS
100
AcDbLine
 10
-149.7165786213922
 20
-287.0478254262852
 30
0.0
 11
-148.6398452926482
 21
-287.1457590590987
 31
0.0
  0
LINE
  5
93933
330
1E
100
AcDbEntity
  8
OUTLINE
  6
CONTINUOUS
100
AcDbLine
 10
-149.2185131872361
 20
-287.0941571935059
 30
0.0
 11
-150.2628313402369
 21
-286.9948960957494
 31
0.0
  0
LINE
  5
93934
330
1E
100
AcDbEntity
  8
OUTLINE
  6
CONTINUOUS
100
AcDbLine
 10
-150.7394333156921
 20
-286.9468474268897
 30
0.0
 11
-149.7165786213922
 21
-287.0478254262852
 31
0.0
  0
LINE
  5
93935
330
1E
100
AcDbEntity
  8
OUTLINE
  6
CONTINUOUS
100
AcDbLine
 10
-150.2628313402369
 20
-286.9948960957494
 30
0.0
 11
-151.366198482769
 21
-286.8809157930281
 31
0.0
  0
LINE
  5
93936
330
1E
100
AcDbEntity
  8
OUTLINE
  6
CONTINUOUS
100
AcDbLine
 10
-150.6534160961168
 20
-286.9553391975896
 30
0.0
 11
-150.0515976888732
 21
-287.0190185089936
 31
0.0
  0
LINE
  5
93937
330
1E
100
AcDbEntity
  8
OUTLINE
  6
CONTINUOUS
100
AcDbLine
 10
-150.1259471691778
 20
-287.0117613697928
 30
0.0
 11
-152.2711238561119
 21
-286.7834520285741
 31
0.0
  0
LINE
  5
93938
330
1E
100
AcDbEntity
  8
OUTLINE
  6
CONTINUOUS
100
AcDbLine
 10
-151.366198482769
 20
-286.8809157930281
 30
0.0
 11
-152.5288773563702
 21
-286.7499620371836
 31
0.0
  0
LINE
  5
93939
330
1E
100
AcDbEntity
  8
OUTLINE
  6
CONTINUOUS
100
AcDbLine
 10
-152.641948556346
 20
-286.7366042881144
 30
0.0
 11
-151.7144793221054
 21
-286.8428904694453
 31
0.0
  0
LINE
  5
9393A
330
1E
100
AcDbEntity
  8
OUTLINE
  6
CONTINUOUS
100
AcDbLine
 10
-153.5422344044131
 20
-286.6261461257002
 30
0.0
 11
-152.641948556346
 21
-286.7366042881144
 31
0.0
  0
LINE
  5
9393B
330
1E
100
AcDbEntity
  8
OUTLINE
  6
CONTINUOUS
100
AcDbLine
 10
-152.5288773563702
 20
-286.7499620371836
 30
0.0
 11
-153.7528874296299
 21
-286.5992244123095
 31
0.0
  0
LINE
  5
9393C
330
1E
100
AcDbEntity
  8
OUTLINE
  6
CONTINUOUS
100
AcDbLine
 10
-152.2711238561119
 20
-286.7834520285741
 30
0.0
 11
-154.3929834339364
 21
-286.5183734165288
 31
0.0
  0
LINE
  5
9393D
330
1E
100
AcDbEntity
  8
OUTLINE
  6
CONTINUOUS
100
AcDbLine
 10
-154.4297698375053
 20
-286.5098657711266
 30
0.0
 11
-153.5422344044131
 21
-286.6261461257002
 31
0.0
  0
LINE
  5
9393E
330
1E
100
AcDbEntity
  8
OUTLINE
  6
CONTINUOUS
100
AcDbLine
 10
-153.7528874296299
 20
-286.5992244123095
 30
0.0
 11
-155.0384182674829
 21
-286.4257030055362
 31
0.0
  0
LINE
  5
9393F
330
1E
100
AcDbEntity
  8
OUTLINE
  6
CONTINUOUS
100
AcDbLine
 10
-155.3201768331732
 20
-286.3854871498433
 30
0.0
 11
-154.4297698375053
 21
-286.5098657711266
 31
0.0
  0
LINE
  5
93941
330
1E
100
AcDbEntity
  8
OUTLINE
  6
CONTINUOUS
100
AcDbLine
 10
-154.3929834339364
 20
-286.5183734165288
 30
0.0
 11
-154.9010709900035
 21
-286.4442421907761
 31
0.0
  0
LINE
  5
93944
330
1E
100
AcDbEntity
  8
OUTLINE
  6
CONTINUOUS
100
AcDbLine
 10
-156.2394892340694
 20
-286.2485856048219
 30
0.0
 11
-155.3201768331732
 21
-286.3854871498433
 31
0.0
  0
LINE
  5
93945
330
1E
100
AcDbEntity
  8
OUTLINE
  6
CONTINUOUS
100
AcDbLine
 10
-157.1691635397951
 20
-286.1009909237593
 30
0.0
 11
-156.2394892340694
 21
-286.2485856048219
 31
0.0
  0
LINE
  5
9396C
330
1E
100
AcDbEntity
  8
OUTLINE
  6
CONTINUOUS
100
AcDbLine
 10
-168.2608711971283
 20
-283.5824838465277
 30
0.0
 11
-167.9689548842202
 21
-283.6675418977965
 31
0.0
  0
LINE
  5
9396D
330
1E
100
AcDbEntity
  8
OUTLINE
  6
CONTINUOUS
100
AcDbLine
 10
-168.8592934288776
 20
-283.4048664525621
 30
0.0
 11
-168.2608711971283
 21
-283.5824838465277
 31
0.0
  0
LINE
  5
9396F
330
1E
100
AcDbEntity
  8
OUTLINE
  6
CONTINUOUS
100
AcDbLine
 10
-168.2618310610819
 20
-283.5822114817838
 30
0.0
 11
-169.867407395674
 21
-283.095601540007
 31
0.0
  0
LINE
  5
93970
330
1E
100
AcDbEntity
  8
OUTLINE
  6
CONTINUOUS
100
AcDbLine
 10
-170.8596280556434
 20
-282.7787996619197
 30
0.0
 11
-170.292172290156
 21
-282.9566658364537
 31
0.0
  0
LINE
  5
93971
330
1E
100
AcDbEntity
  8
OUTLINE
  6
CONTINUOUS
100
AcDbLine
 10
-168.587342711206
 20
-283.4819487396889
 30
0.0
 11
-171.2177624560886
 21
-282.6570821873995
 31
0.0
  0
LINE
  5
93972
330
1E
100
AcDbEntity
  8
OUTLINE
  6
CONTINUOUS
100
AcDbLine
 10
-170.2935488145017
 20
-282.9610574340613
 30
0.0
 11
-169.8660217385809
 21
-283.0960214973993
 31
0.0
  0
LINE
  5
93973
330
1E
100
AcDbEntity
  8
OUTLINE
  6
CONTINUOUS
100
AcDbLine
 10
-169.867407395674
 20
-283.095601540007
 30
0.0
 11
-171.5400442659761
 21
-282.5543623602025
 31
0.0
  0
LINE
  5
93974
330
1E
100
AcDbEntity
  8
OUTLINE
  6
CONTINUOUS
100
AcDbLine
 10
-172.766010041118
 20
-282.1350404120682
 30
0.0
 11
-170.8596280556434
 21
-282.7787996619197
 31
0.0
  0
LINE
  5
93975
330
1E
100
AcDbEntity
  8
OUTLINE
  6
CONTINUOUS
100
AcDbLine
 10
-171.5400442659761
 20
-282.5543623602025
 30
0.0
 11
-173.2912973674724
 21
-281.9494389114779
 31
0.0
  0
LINE
  5
93976
330
1E
100
AcDbEntity
  8
OUTLINE
  6
CONTINUOUS
100
AcDbLine
 10
-174.2977103086527
 20
-281.5793025473749
 30
0.0
 11
-170.5627212001804
 21
-282.8706120378845
 31
0.0
  0
LINE
  5
93977
330
1E
100
AcDbEntity
  8
OUTLINE
  6
CONTINUOUS
100
AcDbLine
 10
-171.2177624560886
 20
-282.6570821873995
 30
0.0
 11
-173.8203461954185
 21
-281.7544221073403
 31
0.0
  0
LINE
  5
93978
330
1E
100
AcDbEntity
  8
OUTLINE
  6
CONTINUOUS
100
AcDbLine
 10
-174.6582272862292
 20
-281.4495523612702
 30
0.0
 11
-172.766010041118
 21
-282.1350404120682
 31
0.0
  0
LINE
  5
93979
330
1E
100
AcDbEntity
  8
OUTLINE
  6
CONTINUOUS
100
AcDbLine
 10
-173.2912973674724
 20
-281.9494389114779
 30
0.0
 11
-175.1336430045944
 21
-281.2699105079077
 31
0.0
  0
LINE
  5
9397A
330
1E
100
AcDbEntity
  8
OUTLINE
  6
CONTINUOUS
100
AcDbLine
 10
-173.8203461954185
 20
-281.7544221073403
 30
0.0
 11
-176.3945627209545
 21
-280.7742148972727
 31
0.0
  0
LINE
  5
9397B
330
1E
100
AcDbEntity
  8
OUTLINE
  6
CONTINUOUS
100
AcDbLine
 10
-166.4435807894301
 20
-287.3342926958871
 30
0.0
 11
-167.4077288118683
 21
-286.9641909450915
 31
0.0
  0
LINE
  5
9397C
330
1E
100
AcDbEntity
  8
OUTLINE
  6
CONTINUOUS
100
AcDbLine
 10
-176.5461958953715
 20
-280.7183019150452
 30
0.0
 11
-174.6582272862292
 21
-281.4495523612702
 31
0.0
  0
LINE
  5
9397D
330
1E
100
AcDbEntity
  8
OUTLINE
  6
CONTINUOUS
100
AcDbLine
 10
-175.1336430045944
 20
-281.2699105079077
 30
0.0
 11
-177.0594052015298
 21
-280.5112015201784
 31
0.0
  0
LINE
  5
9397E
330
1E
100
AcDbEntity
  8
OUTLINE
  6
CONTINUOUS
100
AcDbLine
 10
-177.9739805220856
 20
-280.1285022937017
 30
0.0
 11
-174.2977103086527
 21
-281.5793025473749
 31
0.0
  0
LINE
  5
9397F
330
1E
100
AcDbEntity
  8
OUTLINE
  6
CONTINUOUS
100
AcDbLine
 10
-178.4203407011705
 20
-279.9444807540887
 30
0.0
 11
-178.3019663020936
 21
-279.9933567080627
 31
0.0
  0
LINE
  5
93980
330
1E
100
AcDbEntity
  8
OUTLINE
  6
CONTINUOUS
100
AcDbLine
 10
-178.2846635701066
 20
-280.0005008839154
 30
0.0
 11
-176.5461958953715
 21
-280.7183019150452
 31
0.0
  0
LINE
  5
93981
330
1E
100
AcDbEntity
  8
OUTLINE
  6
CONTINUOUS
100
AcDbLine
 10
-176.3945627209545
 20
-280.7742148972727
 30
0.0
 11
-178.9393491510513
 21
-279.7168424083674
 31
0.0
  0
LINE
  5
93982
330
1E
100
AcDbEntity
  8
OUTLINE
  6
CONTINUOUS
100
AcDbLine
 10
-177.0594052015298
 20
-280.5112015201784
 30
0.0
 11
-179.0813272688251
 21
-279.6599359603603
 31
0.0
  0
LINE
  5
93983
330
1E
100
AcDbEntity
  8
OUTLINE
  6
CONTINUOUS
100
AcDbLine
 10
-178.64354824894
 20
-279.8490782225903
 30
0.0
 11
-178.2852364934465
 21
-280.0018884680407
 31
0.0
  0
LINE
  5
93984
330
1E
100
AcDbEntity
  8
OUTLINE
  6
CONTINUOUS
100
AcDbLine
 10
-178.9426604224413
 20
-279.7201384127479
 30
0.0
 11
-178.64354824894
 21
-279.8490782225903
 31
0.0
  0
LINE
  5
93985
330
1E
100
AcDbEntity
  8
OUTLINE
  6
CONTINUOUS
100
AcDbLine
 10
-178.4928491127689
 20
-279.9126521588391
 30
0.0
 11
-178.4203407011705
 21
-279.9444807540887
 31
0.0
  0
LINE
  5
93995
330
1E
100
AcDbEntity
  8
OUTLINE
  6
CONTINUOUS
100
AcDbLine
 10
-167.6614303068913
 20
-286.2477600241854
 30
0.0
 11
-166.4219253803116
 21
-284.1008745142275
 31
0.0
  0
LINE
  5
93996
330
1E
100
AcDbEntity
  8
OUTLINE
  6
CONTINUOUS
100
AcDbLine
 10
-179.0433600334567
 20
-279.7429512614085
 30
0.0
 11
-179.0106681911206
 21
-279.6906333775641
 31
0.0
  0
LINE
  5
93997
330
1E
100
AcDbEntity
  8
OUTLINE
  6
CONTINUOUS
100
AcDbLine
 10
-165.8406751247825
 20
-287.1325632821328
 30
0.0
 11
-164.2899687501671
 21
-284.6509143271692
 31
0.0
  0
ARC
  5
93998
330
1E
100
AcDbEntity
  8
OUTLINE
  6
CONTINUOUS
100
AcDbCircle
 10
-262.559589687899
 20
-254.4616676319747
 30
0.0
 40
94.95238125
100
AcDbArc
 50
333.3415385049797
 51
342.8613528496005
  0
ARC
  5
93999
330
1E
100
AcDbEntity
  8
OUTLINE
  6
CONTINUOUS
100
AcDbCircle
 10
-154.6608074518285
 20
-256.2233361234652
 30
0.0
 40
29.9849625
100
AcDbArc
 50
257.571231041574
 51
265.2224321271071
  0
ARC
  5
9399B
330
1E
100
AcDbEntity
  8
OUTLINE
  6
CONTINUOUS
100
AcDbCircle
 10
-167.2286346518399
 20
-286.4976347116846
 30
0.0
 40
0.4997493750000002
100
AcDbArc
 50
149.9999999999849
 51
249.0000000000146
  0
ARC
  5
9399C
330
1E
100
AcDbEntity
  8
OUTLINE
  6
CONTINUOUS
100
AcDbCircle
 10
-166.264486630735
 20
-286.8677364611471
 30
0.0
 40
0.4997493750000002
100
AcDbArc
 50
249.0000000000146
 51
327.99999999989
  0
ARC
  5
9399D
330
1E
100
AcDbEntity
  8
OUTLINE
  6
CONTINUOUS
100
AcDbCircle
 10
-141.7537383660896
 20
-197.6588462664729
 30
0.0
 40
89.95488750000001
100
AcDbArc
 50
255.4593928673089
 51
257.571231041574
  0
ARC
  5
9399E
330
1E
100
AcDbEntity
  8
OUTLINE
  6
CONTINUOUS
100
AcDbCircle
 10
-141.7537383660896
 20
-197.6588462664729
 30
0.0
 40
89.95488750000001
100
AcDbArc
 50
251.2560636480794
 51
254.0629892396875
  0
LINE
  5
9399F
330
1E
100
AcDbEntity
  8
OUTLINE
  6
CONTINUOUS
100
AcDbLine
 10
-136.3532961606256
 20
-287.8340517740207
 30
0.0
 11
-137.1844679601604
 21
-287.8043069404302
 31
0.0
  0
LINE
  5
939A0
330
1E
100
AcDbEntity
  8
OUTLINE
  6
CONTINUOUS
100
AcDbLine
 10
-137.8927798047848
 20
-287.7777361430546
 30
0.0
 11
-136.3532961606256
 21
-287.8340517740207
 31
0.0
  0
LINE
  5
939A1
330
1E
100
AcDbEntity
  8
OUTLINE
  6
CONTINUOUS
100
AcDbLine
 10
-136.3572941263014
 20
-287.8370502702709
 30
0.0
 11
-138.6416934502326
 21
-287.7514452266527
 31
0.0
  0
LINE
  5
939A2
330
1E
100
AcDbEntity
  8
OUTLINE
  6
CONTINUOUS
100
AcDbLine
 10
-137.1844679601604
 20
-287.8043069404302
 30
0.0
 11
-138.0194010040872
 21
-287.772858373261
 31
0.0
  0
LINE
  5
939A3
330
1E
100
AcDbEntity
  8
OUTLINE
  6
CONTINUOUS
100
AcDbLine
 10
-138.0194010040872
 20
-287.772858373261
 30
0.0
 11
-138.8590332926692
 21
-287.739458424717
 31
0.0
  0
LINE
  5
939A4
330
1E
100
AcDbEntity
  8
OUTLINE
  6
CONTINUOUS
100
AcDbLine
 10
-139.3985555894964
 20
-287.7169660713302
 30
0.0
 11
-137.8927798047848
 21
-287.7777361430546
 31
0.0
  0
LINE
  5
939A5
330
1E
100
AcDbEntity
  8
OUTLINE
  6
CONTINUOUS
100
AcDbLine
 10
-138.8590332926692
 20
-287.739458424717
 30
0.0
 11
-139.700183029578
 21
-287.7040155860143
 31
0.0
  0
LINE
  5
939A6
330
1E
100
AcDbEntity
  8
OUTLINE
  6
CONTINUOUS
100
AcDbLine
 10
-138.6416934502326
 20
-287.7514452266527
 30
0.0
 11
-140.8653960003416
 21
-287.6544391779848
 31
0.0
  0
LINE
  5
939A7
330
1E
100
AcDbEntity
  8
OUTLINE
  6
CONTINUOUS
100
AcDbLine
 10
-139.700183029578
 20
-287.7040155860143
 30
0.0
 11
-140.5408321308991
 21
-287.6664042868003
 31
0.0
  0
LINE
  5
939A8
330
1E
100
AcDbEntity
  8
OUTLINE
  6
CONTINUOUS
100
AcDbLine
 10
-140.8774581125039
 20
-287.6506816037483
 30
0.0
 11
-139.3985555894964
 21
-287.7169660713302
 31
0.0
  0
LINE
  5
939A9
330
1E
100
AcDbEntity
  8
OUTLINE
  6
CONTINUOUS
100
AcDbLine
 10
-140.5408321308991
 20
-287.6664042868003
 30
0.0
 11
-141.3789290254885
 21
-287.6265141704141
 31
0.0
  0
LINE
  5
939AA
330
1E
100
AcDbEntity
  8
OUTLINE
  6
CONTINUOUS
100
AcDbLine
 10
-142.3155374217535
 20
-287.5788354173749
 30
0.0
 11
-140.8774581125039
 21
-287.6506816037483
 31
0.0
  0
LINE
  5
939AB
330
1E
100
AcDbEntity
  8
OUTLINE
  6
CONTINUOUS
100
AcDbLine
 10
-141.3789290254885
 20
-287.6265141704141
 30
0.0
 11
-142.2110707092874
 21
-287.5843248484179
 31
0.0
  0
LINE
  5
939AC
330
1E
100
AcDbEntity
  8
OUTLINE
  6
CONTINUOUS
100
AcDbLine
 10
-140.8653960003416
 20
-287.6544391779848
 30
0.0
 11
-143.177554536322
 21
-287.5350203426951
 31
0.0
  0
LINE
  5
939AD
330
1E
100
AcDbEntity
  8
OUTLINE
  6
CONTINUOUS
100
AcDbLine
 10
-142.2110707092874
 20
-287.5843248484179
 30
0.0
 11
-143.0397623006433
 21
-287.5395297132388
 31
0.0
  0
LINE
  5
939AE
330
1E
100
AcDbEntity
  8
OUTLINE
  6
CONTINUOUS
100
AcDbLine
 10
-143.7046057167522
 20
-287.5014304773917
 30
0.0
 11
-142.3155374217535
 21
-287.5788354173749
 31
0.0
  0
LINE
  5
939AF
330
1E
100
AcDbEntity
  8
OUTLINE
  6
CONTINUOUS
100
AcDbLine
 10
-143.0397623006433
 20
-287.5395297132388
 30
0.0
 11
-143.862463632126
 21
-287.4920869884986
 31
0.0
  0
LINE
  5
939B0
330
1E
100
AcDbEntity
  8
OUTLINE
  6
CONTINUOUS
100
AcDbLine
 10
-143.177554536322
 20
-287.5350203426951
 30
0.0
 11
-145.5159472931231
 21
-287.3901069343034
 31
0.0
  0
LINE
  5
939B1
330
1E
100
AcDbEntity
  8
OUTLINE
  6
CONTINUOUS
100
AcDbLine
 10
-145.0372578392166
 20
-287.4187470672373
 30
0.0
 11
-143.7046057167522
 21
-287.5014304773917
 31
0.0
  0
LINE
  5
939B2
330
1E
100
AcDbEntity
  8
OUTLINE
  6
CONTINUOUS
100
AcDbLine
 10
-144.6907683388421
 20
-287.4410953661999
 30
0.0
 11
-145.5313991000243
 21
-287.3857863131013
 31
0.0
  0
LINE
  5
939B3
330
1E
100
AcDbEntity
  8
OUTLINE
  6
CONTINUOUS
100
AcDbLine
 10
-146.3027747154269
 20
-287.3316575360893
 30
0.0
 11
-145.0372578392166
 21
-287.4187470672373
 31
0.0
  0
LINE
  5
939B4
330
1E
100
AcDbEntity
  8
OUTLINE
  6
CONTINUOUS
100
AcDbLine
 10
-145.5313991000243
 20
-287.3857863131013
 30
0.0
 11
-146.3950237324156
 21
-287.324957796017
 31
0.0
  0
LINE
  5
939B5
330
1E
100
AcDbEntity
  8
OUTLINE
  6
CONTINUOUS
100
AcDbLine
 10
-140.3819513378352
 20
-290.6269946666471
 30
0.0
 11
-140.2711927101031
 21
-287.6784681660801
 31
0.0
  0
LINE
  5
939B6
330
1E
100
AcDbEntity
  8
OUTLINE
  6
CONTINUOUS
100
AcDbLine
 10
-138.2620954431554
 20
-290.4458552070004
 30
0.0
 11
-138.3191708131166
 21
-290.623751425137
 31
0.0
  0
LINE
  5
939B7
330
1E
100
AcDbEntity
  8
OUTLINE
  6
CONTINUOUS
100
AcDbLine
 10
-138.3191708131166
 20
-290.623751425137
 30
0.0
 11
-138.4329774509246
 21
-290.974740018541
 31
0.0
  0
ARC
  5
939B8
330
1E
100
AcDbEntity
  8
OUTLINE
  6
CONTINUOUS
100
AcDbCircle
 10
-223.9450031149303
 20
-263.053865175736
 30
0.0
 40
89.95488750000001
100
AcDbArc
 50
342.2714287550085
 51
344.0365650740017
  0
ARC
  5
939B9
330
1E
100
AcDbEntity
  8
OUTLINE
  6
CONTINUOUS
100
AcDbCircle
 10
-139.3831110696069
 20
-290.6645080749524
 30
0.0
 40
0.99949875
100
AcDbArc
 50
275.8487493482894
 51
341.9174139419967
  0
ARC
  5
939BA
330
1E
100
AcDbEntity
  8
OUTLINE
  6
CONTINUOUS
100
AcDbCircle
 10
-139.3831570185616
 20
-290.6645134362663
 30
0.0
 40
0.99949875
100
AcDbArc
 50
179.1557958478996
 51
272.6017675395061
  0
LINE
  5
939BB
330
1E
100
AcDbEntity
  8
OUTLINE
  6
CONTINUOUS
100
AcDbLine
 10
-67.1227914407832
 20
-288.5230605245173
 30
0.0
 11
-67.65708525569653
 21
-288.5510616765673
 31
0.0
  0
LINE
  5
939BF
330
1E
100
AcDbEntity
  8
OUTLINE
  6
CONTINUOUS
100
AcDbLine
 10
-68.60427428309276
 20
-290.1998997500013
 30
0.0
 11
-68.60427317431788
 21
-289.5491850976313
 31
0.0
  0
LINE
  5
939C2
330
1E
100
AcDbEntity
  8
OUTLINE
  6
CONTINUOUS
100
AcDbLine
 10
-67.14427737888809
 20
-290.0
 30
0.0
 11
-67.1227914407832
 21
-288.5230605245173
 31
0.0
  0
ARC
  5
939CF
330
1E
100
AcDbEntity
  8
OUTLINE
  6
CONTINUOUS
100
AcDbCircle
 10
-67.6047755330951
 20
-289.5491850976313
 30
0.0
 40
0.9994976412227199
100
AcDbArc
 50
93.00001665171489
 51
180.0
  0
ARC
  5
939D2
330
1E
100
AcDbEntity
  8
OUTLINE
  6
CONTINUOUS
100
AcDbCircle
 10
1954.591028639193
 20
-153.0135916422612
 30
0.0
 40
2171.640980794801
100
AcDbArc
 50
176.4892985522196
 51
176.5480946530947
  0
LINE
  5
939D3
330
1E
100
AcDbEntity
  8
OUTLINE
  6
CONTINUOUS
100
AcDbLine
 10
-236.5333157361351
 20
-108.7197644984974
 30
0.0
 11
-236.3167855596552
 21
-98.39359330490902
 31
0.0
  0
ARC
  5
939D4
330
1E
100
AcDbEntity
  8
OUTLINE
  6
CONTINUOUS
100
AcDbCircle
 10
234.9370876261895
 20
-44.31628008763451
 30
0.0
 40
447.5777316680024
100
AcDbArc
 50
176.2536023348018
 51
177.1135001791357
  0
LINE
  5
939DD
330
1E
100
AcDbEntity
  8
OUTLINE
  6
CONTINUOUS
100
AcDbLine
 10
-236.4710945721403
 20
-185.813367383784
 30
0.0
 11
-236.6727277794657
 21
-179.8934739664873
 31
0.0
  0
LINE
  5
93A25
330
1E
100
AcDbEntity
  8
OUTLINE
  6
CONTINUOUS
100
AcDbLine
 10
-226.4045814250134
 20
-234.0704825153998
 30
0.0
 11
-226.2455124676439
 21
-234.3956238952187
 31
0.0
  0
LINE
  5
93A26
330
1E
100
AcDbEntity
  8
OUTLINE
  6
CONTINUOUS
100
AcDbLine
 10
-225.3277181787457
 20
-236.2131114120572
 30
0.0
 11
-226.5890957921405
 21
-233.6893370163943
 31
0.0
  0
LINE
  5
93A28
330
1E
100
AcDbEntity
  8
OUTLINE
  6
CONTINUOUS
100
AcDbLine
 10
-214.1728584509314
 20
-253.8781694704384
 30
0.0
 11
-213.4055889176656
 21
-254.7856026487834
 31
0.0
  0
LINE
  5
93A2E
330
1E
100
AcDbEntity
  8
OUTLINE
  6
CONTINUOUS
100
AcDbLine
 10
-214.7277303725645
 20
-252.4156721708495
 30
0.0
 11
-214.3409824658488
 21
-252.8858799703221
 31
0.0
  0
LINE
  5
93A31
330
1E
100
AcDbEntity
  8
OUTLINE
  6
CONTINUOUS
100
AcDbLine
 10
-214.5126815825028
 20
-252.6804177232559
 30
0.0
 11
-214.6563428841641
 21
-252.503769411297
 31
0.0
  0
LINE
  5
93A32
330
1E
100
AcDbEntity
  8
OUTLINE
  6
CONTINUOUS
100
AcDbLine
 10
-214.6563428841641
 20
-252.503769411297
 30
0.0
 11
-214.6839311259504
 21
-252.4697486740751
 31
0.0
  0
LINE
  5
93A33
330
1E
100
AcDbEntity
  8
OUTLINE
  6
CONTINUOUS
100
AcDbLine
 10
-214.7204411867737
 20
-252.4246772641156
 30
0.0
 11
-215.4267838216369
 21
-251.5416225346129
 31
0.0
  0
LINE
  5
93A34
330
1E
100
AcDbEntity
  8
OUTLINE
  6
CONTINUOUS
100
AcDbLine
 10
-215.6158048286729
 20
-251.3016686291587
 30
0.0
 11
-214.7277303725645
 21
-252.4156721708495
 31
0.0
  0
LINE
  5
93A35
330
1E
100
AcDbEntity
  8
OUTLINE
  6
CONTINUOUS
100
AcDbLine
 10
-214.4010166612756
 20
-252.8092513743361
 30
0.0
 11
-216.1744694335998
 21
-250.5750003129899
 31
0.0
  0
LINE
  5
93A36
330
1E
100
AcDbEntity
  8
OUTLINE
  6
CONTINUOUS
100
AcDbLine
 10
-215.4267838216369
 20
-251.5416225346129
 30
0.0
 11
-216.0847363735288
 21
-250.6995425575485
 31
0.0
  0
LINE
  5
93A37
330
1E
100
AcDbEntity
  8
OUTLINE
  6
CONTINUOUS
100
AcDbLine
 10
-216.4276805971935
 20
-250.2528821037135
 30
0.0
 11
-215.6158048286729
 21
-251.3016686291587
 31
0.0
  0
LINE
  5
93A38
330
1E
100
AcDbEntity
  8
OUTLINE
  6
CONTINUOUS
100
AcDbLine
 10
-216.0847363735288
 20
-250.6995425575485
 30
0.0
 11
-216.7008939483171
 21
-249.8931349414101
 31
0.0
  0
LINE
  5
93A39
330
1E
100
AcDbEntity
  8
OUTLINE
  6
CONTINUOUS
100
AcDbLine
 10
-217.1653345507152
 20
-249.2734463307697
 30
0.0
 11
-216.4276805971935
 21
-250.2528821037135
 31
0.0
  0
LINE
  5
93A3A
330
1E
100
AcDbEntity
  8
OUTLINE
  6
CONTINUOUS
100
AcDbLine
 10
-218.0234762701224
 20
-248.0861209454212
 30
0.0
 11
-215.6962842867819
 21
-251.1909218848056
 31
0.0
  0
LINE
  5
93A3B
330
1E
100
AcDbEntity
  8
OUTLINE
  6
CONTINUOUS
100
AcDbLine
 10
-216.7008939483171
 20
-249.8931349414101
 30
0.0
 11
-217.2838370788745
 21
-249.113656377651
 31
0.0
  0
LINE
  5
93A3C
330
1E
100
AcDbEntity
  8
OUTLINE
  6
CONTINUOUS
100
AcDbLine
 10
-216.1744694335998
 20
-250.5750003129899
 30
0.0
 11
-217.8804405080959
 21
-248.2900260627236
 31
0.0
  0
LINE
  5
93A3D
330
1E
100
AcDbEntity
  8
OUTLINE
  6
CONTINUOUS
100
AcDbLine
 10
-217.2188913372506
 20
-249.2004981490511
 30
0.0
 11
-217.1653345507152
 21
-249.2734463307697
 31
0.0
  0
LINE
  5
93A3E
330
1E
100
AcDbEntity
  8
OUTLINE
  6
CONTINUOUS
100
AcDbLine
 10
-217.2838370788745
 20
-249.113656377651
 30
0.0
 11
-217.8321462104108
 21
-248.3652010530281
 31
0.0
  0
LINE
  5
93A3F
330
1E
100
AcDbEntity
  8
OUTLINE
  6
CONTINUOUS
100
AcDbLine
 10
-218.8652256236678
 20
-246.9008508480058
 30
0.0
 11
-218.8499771934389
 21
-246.9221082673803
 31
0.0
  0
LINE
  5
93A40
330
1E
100
AcDbEntity
  8
OUTLINE
  6
CONTINUOUS
100
AcDbLine
 10
-217.8804405080959
 20
-248.2900260627236
 30
0.0
 11
-219.5168114044977
 21
-245.9572919840761
 31
0.0
  0
LINE
  5
93A41
330
1E
100
AcDbEntity
  8
OUTLINE
  6
CONTINUOUS
100
AcDbLine
 10
-218.7952120329123
 20
-247.0041234273312
 30
0.0
 11
-218.8666153933613
 21
-246.9018477613876
 31
0.0
  0
LINE
  5
93A42
330
1E
100
AcDbEntity
  8
OUTLINE
  6
CONTINUOUS
100
AcDbLine
 10
-219.5157071556173
 20
-245.9589167652452
 30
0.0
 11
-221.081546776892
 21
-243.5799460236846
 31
0.0
  0
LINE
  5
93A43
330
1E
100
AcDbEntity
  8
OUTLINE
  6
CONTINUOUS
100
AcDbLine
 10
-221.0806811909792
 20
-243.5813045104016
 30
0.0
 11
-222.5727455959645
 21
-241.1612320480753
 31
0.0
  0
LINE
  5
93A44
330
1E
100
AcDbEntity
  8
OUTLINE
  6
CONTINUOUS
100
AcDbLine
 10
-222.5721114313223
 20
-241.1622956173589
 30
0.0
 11
-223.9887427461003
 21
-238.7043463023269
 31
0.0
  0
LINE
  5
93A45
330
1E
100
AcDbEntity
  8
OUTLINE
  6
CONTINUOUS
100
AcDbLine
 10
-225.3277181787457
 20
-236.2131114120572
 30
0.0
 11
-223.9883160187714
 21
-238.705112767278
 31
0.0
  0
LINE
  5
93A46
330
1E
100
AcDbEntity
  8
OUTLINE
  6
CONTINUOUS
100
AcDbLine
 10
-225.887290271236
 20
-235.1165762312934
 30
0.0
 11
-225.7020104120097
 21
-235.4835522842979
 31
0.0
  0
LINE
  5
93A47
330
1E
100
AcDbEntity
  8
OUTLINE
  6
CONTINUOUS
100
AcDbLine
 10
-226.1066531591118
 20
-234.6769144129691
 30
0.0
 11
-225.887290271236
 21
-235.1165762312934
 31
0.0
  0
LINE
  5
93A48
330
1E
100
AcDbEntity
  8
OUTLINE
  6
CONTINUOUS
100
AcDbLine
 10
-226.2455124676439
 20
-234.3956238952187
 30
0.0
 11
-226.1066531591118
 21
-234.6769144129691
 31
0.0
  0
ARC
  5
93A49
330
1E
100
AcDbEntity
  8
OUTLINE
  6
CONTINUOUS
100
AcDbCircle
 10
-213.4056767336264
 20
-253.2375213896684
 30
0.0
 40
0.99949875
100
AcDbArc
 50
159.5857486453116
 51
219.8641407444015
  0
ARC
  5
93A4A
330
1E
100
AcDbEntity
  8
OUTLINE
  6
CONTINUOUS
100
AcDbCircle
 10
-217.5894092486637
 20
-248.1891653605034
 30
0.0
 40
0.299849625
100
AcDbArc
 50
204.9770067897989
 51
215.9500627310917
  0
LINE
  5
93A4B
330
1E
100
AcDbEntity
  8
OUTLINE
  6
CONTINUOUS
100
AcDbLine
 10
-210.2284497773221
 20
-258.3173521422154
 30
0.0
 11
-211.0386574010849
 21
-257.4494243185477
 31
0.0
  0
LINE
  5
93A4D
330
1E
100
AcDbEntity
  8
OUTLINE
  6
CONTINUOUS
100
AcDbLine
 10
-211.0386574010849
 20
-257.4494243185477
 30
0.0
 11
-211.8383572744846
 21
-256.5713746656583
 31
0.0
  0
LINE
  5
93A51
330
1E
100
AcDbEntity
  8
OUTLINE
  6
CONTINUOUS
100
AcDbLine
 10
-212.6273934930764
 20
-255.68336887645
 30
0.0
 11
-211.8383575316952
 21
-256.5713743791352
 31
0.0
  0
LINE
  5
93A52
330
1E
100
AcDbEntity
  8
OUTLINE
  6
CONTINUOUS
100
AcDbLine
 10
-213.4055889176656
 20
-254.7856026487834
 30
0.0
 11
-212.6273934930764
 21
-255.68336887645
 31
0.0
  0
LINE
  5
93A55
330
1E
100
AcDbEntity
  8
OUTLINE
  6
CONTINUOUS
100
AcDbLine
 10
-202.4919824570065
 20
-265.6458332748316
 30
0.0
 11
-203.3888936268199
 21
-264.876480595592
 31
0.0
  0
LINE
  5
93A57
330
1E
100
AcDbEntity
  8
OUTLINE
  6
CONTINUOUS
100
AcDbLine
 10
-203.3888936268199
 20
-264.876480595592
 30
0.0
 11
-204.2768966987137
 21
-264.0955435072846
 31
0.0
  0
LINE
  5
93A5A
330
1E
100
AcDbEntity
  8
OUTLINE
  6
CONTINUOUS
100
AcDbLine
 10
-204.2768966987137
 20
-264.0955435072846
 30
0.0
 11
-205.1558440120975
 21
-263.3031371921433
 31
0.0
  0
LINE
  5
93A5D
330
1E
100
AcDbEntity
  8
OUTLINE
  6
CONTINUOUS
100
AcDbLine
 10
-205.1558440120975
 20
-263.3031371921433
 30
0.0
 11
-206.025532426162
 21
-262.4994313757174
 31
0.0
  0
LINE
  5
93A5F
330
1E
100
AcDbEntity
  8
OUTLINE
  6
CONTINUOUS
100
AcDbLine
 10
-206.025532426162
 20
-262.4994313757174
 30
0.0
 11
-206.885782616177
 21
-261.6845808150628
 31
0.0
  0
LINE
  5
93A62
330
1E
100
AcDbEntity
  8
OUTLINE
  6
CONTINUOUS
100
AcDbLine
 10
-206.885782616177
 20
-261.6845808150628
 30
0.0
 11
-207.7363902939219
 21
-260.8587701082713
 31
0.0
  0
LINE
  5
93A67
330
1E
100
AcDbEntity
  8
OUTLINE
  6
CONTINUOUS
100
AcDbLine
 10
-207.7363902939219
 20
-260.8587701082713
 30
0.0
 11
-208.5771491815071
 21
-260.0221895039285
 31
0.0
  0
LINE
  5
93A69
330
1E
100
AcDbEntity
  8
OUTLINE
  6
CONTINUOUS
100
AcDbLine
 10
-208.5771491815071
 20
-260.0221895039285
 30
0.0
 11
-209.4078944935904
 21
-259.1749930434527
 31
0.0
  0
LINE
  5
93A6B
330
1E
100
AcDbEntity
  8
OUTLINE
  6
CONTINUOUS
100
AcDbLine
 10
-209.4078944935904
 20
-259.1749930434527
 30
0.0
 11
-210.2284497773221
 21
-258.3173521422154
 31
0.0
  0
LINE
  5
93A72
330
1E
100
AcDbEntity
  8
OUTLINE
  6
CONTINUOUS
100
AcDbLine
 10
-224.3712574304631
 20
-219.2112980248898
 30
0.0
 11
-230.5325670212155
 21
-219.4264556976879
 31
0.0
  0
LINE
  5
93A73
330
1E
100
AcDbEntity
  8
OUTLINE
  6
CONTINUOUS
100
AcDbLine
 10
-230.5325670212155
 20
-219.6263554476893
 30
0.0
 11
-231.3733169653009
 21
-219.5527993588366
 31
0.0
  0
LINE
  5
93A74
330
1E
100
AcDbEntity
  8
OUTLINE
  6
CONTINUOUS
100
AcDbLine
 10
-226.5822086153971
 20
-233.7036442546268
 30
0.0
 11
-226.7754955897093
 21
-233.299829757487
 31
0.0
  0
LINE
  5
93A75
330
1E
100
AcDbEntity
  8
OUTLINE
  6
CONTINUOUS
100
AcDbLine
 10
-226.7754955897093
 20
-233.299829757487
 30
0.0
 11
-226.8765836525749
 21
-233.0866649905783
 31
0.0
  0
LINE
  5
93A76
330
1E
100
AcDbEntity
  8
OUTLINE
  6
CONTINUOUS
100
AcDbLine
 10
-226.8765836525749
 20
-233.0866649905783
 30
0.0
 11
-226.9805616501366
 21
-232.8659631288662
 31
0.0
  0
LINE
  5
93A77
330
1E
100
AcDbEntity
  8
OUTLINE
  6
CONTINUOUS
100
AcDbLine
 10
-226.5890957921405
 20
-233.6893370163943
 30
0.0
 11
-227.77085723981
 21
-231.1379476283527
 31
0.0
  0
LINE
  5
93A78
330
1E
100
AcDbEntity
  8
OUTLINE
  6
CONTINUOUS
100
AcDbLine
 10
-227.6407860386921
 20
-231.428764487297
 30
0.0
 11
-226.9805616501366
 21
-232.8659631288662
 31
0.0
  0
LINE
  5
93A79
330
1E
100
AcDbEntity
  8
OUTLINE
  6
CONTINUOUS
100
AcDbLine
 10
-228.2744011118598
 20
-229.9863829303021
 30
0.0
 11
-227.6407860386921
 21
-231.428764487297
 31
0.0
  0
LINE
  5
93A7A
330
1E
100
AcDbEntity
  8
OUTLINE
  6
CONTINUOUS
100
AcDbLine
 10
-227.7707983186887
 20
-231.1380799673177
 30
0.0
 11
-228.8723509512005
 21
-228.5615201209648
 31
0.0
  0
LINE
  5
93A7B
330
1E
100
AcDbEntity
  8
OUTLINE
  6
CONTINUOUS
100
AcDbLine
 10
-228.2744011065392
 20
-229.9863829449618
 30
0.0
 11
-228.8814968351894
 21
-228.539201734997
 31
0.0
  0
LINE
  5
93A7C
330
1E
100
AcDbEntity
  8
OUTLINE
  6
CONTINUOUS
100
AcDbLine
 10
-228.8814968351894
 20
-228.539201734997
 30
0.0
 11
-229.4620631643706
 21
-227.0878496993764
 31
0.0
  0
LINE
  5
93A7D
330
1E
100
AcDbEntity
  8
OUTLINE
  6
CONTINUOUS
100
AcDbLine
 10
-228.8723509512005
 20
-228.5615201209648
 30
0.0
 11
-229.8926118422937
 21
-225.9636175113673
 31
0.0
  0
LINE
  5
93A7E
330
1E
100
AcDbEntity
  8
OUTLINE
  6
CONTINUOUS
100
AcDbLine
 10
-229.4620631643706
 20
-227.0878496993764
 30
0.0
 11
-230.0161065841716
 21
-225.6329528041724
 31
0.0
  0
LINE
  5
93A7F
330
1E
100
AcDbEntity
  8
OUTLINE
  6
CONTINUOUS
100
AcDbLine
 10
-230.5437412933083
 20
-224.1748753853398
 30
0.0
 11
-230.0161065708384
 21
-225.6329528388218
 31
0.0
  0
LINE
  5
93A80
330
1E
100
AcDbEntity
  8
OUTLINE
  6
CONTINUOUS
100
AcDbLine
 10
-229.8926118422937
 20
-225.9636175113673
 30
0.0
 11
-230.8313382550299
 21
-223.3465154823061
 31
0.0
  0
LINE
  5
93A81
330
1E
100
AcDbEntity
  8
OUTLINE
  6
CONTINUOUS
100
AcDbLine
 10
-230.5437412933083
 20
-224.1748753853398
 30
0.0
 11
-230.6559569036839
 21
-223.8546578455443
 31
0.0
  0
LINE
  5
93A82
330
1E
100
AcDbEntity
  8
OUTLINE
  6
CONTINUOUS
100
AcDbLine
 10
-230.6559569036839
 20
-223.8546578455443
 30
0.0
 11
-230.763754816217
 21
-223.5434662752127
 31
0.0
  0
LINE
  5
93A83
330
1E
100
AcDbEntity
  8
OUTLINE
  6
CONTINUOUS
100
AcDbLine
 10
-230.8313423316562
 20
-223.3465143908536
 30
0.0
 11
-230.763754816217
 21
-223.5434662752127
 31
0.0
  0
LINE
  5
93A84
330
1E
100
AcDbEntity
  8
OUTLINE
  6
CONTINUOUS
100
AcDbLine
 10
-235.4464946170869
 20
-201.8119610736755
 30
0.0
 11
-235.6504733708029
 21
-199.7071852469839
 31
0.0
  0
LINE
  5
93A85
330
1E
100
AcDbEntity
  8
OUTLINE
  6
CONTINUOUS
100
AcDbLine
 10
-235.6504733708029
 20
-199.7071852469839
 30
0.0
 11
-235.8245297426206
 21
-197.6268291670921
 31
0.0
  0
LINE
  5
93A86
330
1E
100
AcDbEntity
  8
OUTLINE
  6
CONTINUOUS
100
AcDbLine
 10
-235.8245297426206
 20
-197.6268291670921
 30
0.0
 11
-235.9737931108361
 21
-195.5656579912742
 31
0.0
  0
LINE
  5
93A87
330
1E
100
AcDbEntity
  8
OUTLINE
  6
CONTINUOUS
100
AcDbLine
 10
-235.9737931108361
 20
-195.5656579912742
 30
0.0
 11
-236.1040074388442
 21
-193.4930809781688
 31
0.0
  0
LINE
  5
93A88
330
1E
100
AcDbEntity
  8
OUTLINE
  6
CONTINUOUS
100
AcDbLine
 10
-236.1040074388442
 20
-193.4930809781688
 30
0.0
 11
-236.2170133648764
 21
-191.4254419753106
 31
0.0
  0
LINE
  5
93A89
330
1E
100
AcDbEntity
  8
OUTLINE
  6
CONTINUOUS
100
AcDbLine
 10
-236.2170133648764
 20
-191.4254419753106
 30
0.0
 11
-236.4710945721403
 21
-185.813367383784
 31
0.0
  0
LINE
  5
93A8A
330
1E
100
AcDbEntity
  8
OUTLINE
  6
CONTINUOUS
100
AcDbLine
 10
-230.5325670212155
 20
-219.4264556976879
 30
0.0
 11
-230.5325670212155
 21
-219.6263554476893
 31
0.0
  0
LINE
  5
93A9C
330
1E
100
AcDbEntity
  8
OUTLINE
  6
CONTINUOUS
100
AcDbLine
 10
-232.2472589768408
 20
-218.8316451293401
 30
0.0
 11
-232.9338111966212
 21
-216.2909527207525
 31
0.0
  0
LINE
  5
93A9D
330
1E
100
AcDbEntity
  8
OUTLINE
  6
CONTINUOUS
100
AcDbLine
 10
-232.9338111966212
 20
-216.2909527207525
 30
0.0
 11
-233.5393547063909
 21
-213.7652932824373
 31
0.0
  0
LINE
  5
93A9E
330
1E
100
AcDbEntity
  8
OUTLINE
  6
CONTINUOUS
100
AcDbLine
 10
-233.5393547063909
 20
-213.7652932824373
 30
0.0
 11
-234.07504866313
 21
-211.2083633569846
 31
0.0
  0
LINE
  5
93A9F
330
1E
100
AcDbEntity
  8
OUTLINE
  6
CONTINUOUS
100
AcDbLine
 10
-234.07504866313
 20
-211.2083633569846
 30
0.0
 11
-234.5290910482495
 21
-208.6898917019898
 31
0.0
  0
LINE
  5
93AA0
330
1E
100
AcDbEntity
  8
OUTLINE
  6
CONTINUOUS
100
AcDbLine
 10
-234.5290910482495
 20
-208.6898917019898
 30
0.0
 11
-234.8983073924068
 21
-206.2930988582368
 31
0.0
  0
LINE
  5
93AA1
330
1E
100
AcDbEntity
  8
OUTLINE
  6
CONTINUOUS
100
AcDbLine
 10
-234.8983073924068
 20
-206.2930988582368
 30
0.0
 11
-235.2013286375026
 21
-203.9890120476111
 31
0.0
  0
LINE
  5
93AA2
330
1E
100
AcDbEntity
  8
OUTLINE
  6
CONTINUOUS
100
AcDbLine
 10
-235.2013286375026
 20
-203.9890120476111
 30
0.0
 11
-235.4464946170869
 21
-201.8119610736755
 31
0.0
  0
LINE
  5
93AC0
330
1E
100
AcDbEntity
  8
OUTLINE
  6
CONTINUOUS
100
AcDbLine
 10
-222.4271319080985
 20
-219.3279051955689
 30
0.0
 11
-222.4271319080985
 21
-218.6525324279432
 31
0.0
  0
LINE
  5
93AE2
330
1E
100
AcDbEntity
  8
OUTLINE
  6
CONTINUOUS
100
AcDbLine
 10
-224.1139142804136
 20
-219.168233551119
 30
0.0
 11
-222.4271319080985
 21
-218.6525324270832
 31
0.0
  0
LINE
  5
93AE3
330
1E
100
AcDbEntity
  8
OUTLINE
  6
CONTINUOUS
100
AcDbLine
 10
-230.177821114778
 20
-222.0673237733785
 30
0.0
 11
-222.780769122989
 21
-219.8058165367532
 31
0.0
  0
ARC
  5
93AE5
330
1E
100
AcDbEntity
  8
OUTLINE
  6
CONTINUOUS
100
AcDbCircle
 10
-229.8855976385862
 20
-223.0231496946935
 30
0.0
 40
0.99949875
100
AcDbArc
 50
106.9998994978845
 51
198.8764191311982
  0
ARC
  5
93AE6
330
1E
100
AcDbEntity
  8
OUTLINE
  6
CONTINUOUS
100
AcDbCircle
 10
-231.2862049094478
 20
-218.5571040027621
 30
0.0
 40
0.99949875
100
AcDbArc
 50
195.9428741693933
 51
264.9999999999745
  0
ARC
  5
93AE7
330
1E
100
AcDbEntity
  8
OUTLINE
  6
CONTINUOUS
100
AcDbCircle
 10
-224.4061394330897
 20
-218.2124081428776
 30
0.0
 40
0.99949875
100
AcDbArc
 50
272.0000000000034
 51
286.9999999999807
  0
ARC
  5
93AEA
330
1E
100
AcDbEntity
  8
OUTLINE
  6
CONTINUOUS
100
AcDbCircle
 10
-222.9268741533292
 20
-219.3279030166604
 30
0.0
 40
0.4997479490484502
100
AcDbArc
 50
286.999145266684
 51
359.9997500966001
  0
LINE
  5
93AEB
330
1E
100
AcDbEntity
  8
OUTLINE
  6
CONTINUOUS
100
AcDbLine
 10
-226.5822086153971
 20
-233.7036442546268
 30
0.0
 11
-226.4045814250134
 21
-234.0704825153998
 31
0.0
  0
LINE
  5
93B72
330
1E
100
AcDbEntity
  8
OUTLINE
  6
CONTINUOUS
100
AcDbLine
 10
-236.9810501433808
 20
-160.2795492740738
 30
0.0
 11
-237.0000000000004
 21
-152.9175364269917
 31
0.0
  0
LINE
  5
93B73
330
1E
100
AcDbEntity
  8
OUTLINE
  6
CONTINUOUS
100
AcDbLine
 10
-236.6727277794657
 20
-179.8934739664873
 30
0.0
 11
-236.8210792463364
 21
-173.7315637676051
 31
0.0
  0
LINE
  5
93B74
330
1E
100
AcDbEntity
  8
OUTLINE
  6
CONTINUOUS
100
AcDbLine
 10
-236.8210792463364
 20
-173.7315637676051
 30
0.0
 11
-236.9225822890935
 21
-167.2151032828482
 31
0.0
  0
LINE
  5
93B75
330
1E
100
AcDbEntity
  8
OUTLINE
  6
CONTINUOUS
100
AcDbLine
 10
-236.9225822890935
 20
-167.2151032828482
 30
0.0
 11
-236.9810501433808
 21
-160.2795492740738
 31
0.0
  0
LINE
  5
93B76
330
1E
100
AcDbEntity
  8
OUTLINE
  6
CONTINUOUS
100
AcDbLine
 10
-237.0000000000004
 20
-152.9175364269917
 30
0.0
 11
-236.9795679467047
 21
-145.0137867016978
 31
0.0
  0
LINE
  5
93B77
330
1E
100
AcDbEntity
  8
OUTLINE
  6
CONTINUOUS
100
AcDbLine
 10
-236.9795679467047
 20
-145.0137867016978
 30
0.0
 11
-236.9205913995197
 21
-136.6384945435868
 31
0.0
  0
LINE
  5
93B78
330
1E
100
AcDbEntity
  8
OUTLINE
  6
CONTINUOUS
100
AcDbLine
 10
-236.9205913995197
 20
-136.6384945435868
 30
0.0
 11
-236.8277995294452
 21
-127.8130433648439
 31
0.0
  0
LINE
  5
93B79
330
1E
100
AcDbEntity
  8
OUTLINE
  6
CONTINUOUS
100
AcDbLine
 10
-236.8277995294452
 20
-127.8130433648439
 30
0.0
 11
-236.7007618203611
 21
-118.5033970199776
 31
0.0
  0
LINE
  5
93B7A
330
1E
100
AcDbEntity
  8
OUTLINE
  6
CONTINUOUS
100
AcDbLine
 10
-236.7007618203611
 20
-118.5033970199776
 30
0.0
 11
-236.5333157361351
 21
-108.7197644984974
 31
0.0
  0
ARC
  5
93C47
330
1E
100
AcDbEntity
  8
OUTLINE
  6
CONTINUOUS
100
AcDbCircle
 10
-150.9730872432537
 20
-173.1390632785892
 30
0.0
 40
169.9147874999999
100
AcDbArc
 50
92.00000000000349
 51
110.7021927798995
  0
ARC
  5
93C49
330
1E
100
AcDbEntity
  8
OUTLINE
  6
CONTINUOUS
100
AcDbCircle
 10
-213.9544809542112
 20
-17.36725004551272
 30
0.0
 40
0.99949875
100
AcDbArc
 50
0.0
 51
87.9999999999965
  0
LINE
  5
93C4A
330
1E
100
AcDbEntity
  8
OUTLINE
  6
CONTINUOUS
100
AcDbLine
 10
-214.4542303292164
 20
-16.1498679616352
 30
0.0
 11
-214.4542303292164
 21
-16.34969042372904
 31
0.0
  0
ARC
  5
93C4B
330
1E
100
AcDbEntity
  8
OUTLINE
  6
CONTINUOUS
100
AcDbCircle
 10
-153.019371431581
 20
-118.4725536871228
 30
0.0
 40
119.9346526065
100
AcDbArc
 50
121.6624152209921
 51
128.7075052169089
  0
LINE
  5
93C4C
330
1E
100
AcDbEntity
  8
OUTLINE
  6
CONTINUOUS
100
AcDbLine
 10
-236.0377695745487
 20
-87.35230902418834
 30
0.0
 11
-235.6944672038298
 21
-81.10198709508223
 31
0.0
  0
LINE
  5
93C4D
330
1E
100
AcDbEntity
  8
OUTLINE
  6
CONTINUOUS
100
AcDbLine
 10
-236.3167855596552
 20
-98.39359330490902
 30
0.0
 11
-236.0377695745487
 21
-87.35230902418834
 31
0.0
  0
LINE
  5
93C4E
330
1E
100
AcDbEntity
  8
OUTLINE
  6
CONTINUOUS
100
AcDbLine
 10
-228.09803486911
 20
-24.95137434872549
 30
0.0
 11
-228.1684673551207
 21
-25.02881171644458
 31
0.0
  0
LINE
  5
93C4F
330
1E
100
AcDbEntity
  8
OUTLINE
  6
CONTINUOUS
100
AcDbLine
 10
-228.0198895617522
 20
-24.88172778590478
 30
0.0
 11
-228.09803486911
 21
-24.95137434872549
 31
0.0
  0
LINE
  5
93C50
330
1E
100
AcDbEntity
  8
OUTLINE
  6
CONTINUOUS
100
AcDbLine
 10
-228.1684673551207
 20
-25.02881171644458
 30
0.0
 11
-228.2304145152065
 21
-25.11319042174273
 31
0.0
  0
LINE
  5
93C51
330
1E
100
AcDbEntity
  8
OUTLINE
  6
CONTINUOUS
100
AcDbLine
 10
-228.2831970646766
 20
-25.20358508869321
 30
0.0
 11
-228.3262361725101
 21
-25.2990044011085
 31
0.0
  0
LINE
  5
93C52
330
1E
100
AcDbEntity
  8
OUTLINE
  6
CONTINUOUS
100
AcDbLine
 10
-228.2304145152065
 20
-25.11319042174273
 30
0.0
 11
-228.2831970646766
 21
-25.20358508869321
 31
0.0
  0
LINE
  5
93C53
330
1E
100
AcDbEntity
  8
OUTLINE
  6
CONTINUOUS
100
AcDbLine
 10
-231.1810198678886
 20
-35.87809897460601
 30
0.0
 11
-230.2491029148586
 21
-32.38243578784295
 31
0.0
  0
LINE
  5
93C54
330
1E
100
AcDbEntity
  8
OUTLINE
  6
CONTINUOUS
100
AcDbLine
 10
-230.2491029148586
 20
-32.38243578784295
 30
0.0
 11
-229.3084473469243
 21
-28.88914095334849
 31
0.0
  0
LINE
  5
93C55
330
1E
100
AcDbEntity
  8
OUTLINE
  6
CONTINUOUS
100
AcDbLine
 10
-229.3084473469243
 20
-28.88914095334849
 30
0.0
 11
-228.359056470419
 21
-25.39822652241082
 31
0.0
  0
LINE
  5
93C56
330
1E
100
AcDbEntity
  8
OUTLINE
  6
CONTINUOUS
100
AcDbLine
 10
-228.3262361725101
 20
-25.2990044011085
 30
0.0
 11
-228.3590597421116
 21
-25.39840172521326
 31
0.0
  0
ARC
  5
93C58
330
1E
100
AcDbEntity
  8
OUTLINE
  6
CONTINUOUS
100
AcDbCircle
 10
-227.3949177339945
 20
-25.66173031356311
 30
0.0
 40
0.99949875
100
AcDbArc
 50
128.7075402521892
 51
164.7140841691063
  0
LINE
  5
93C59
330
1E
100
AcDbEntity
  8
OUTLINE
  6
CONTINUOUS
100
AcDbLine
 10
-234.4215074135827
 20
-48.39137659130983
 30
0.0
 11
-234.4253008405067
 21
-48.42576229616634
 31
0.0
  0
LINE
  5
93C5A
330
1E
100
AcDbEntity
  8
OUTLINE
  6
CONTINUOUS
100
AcDbLine
 10
-234.4162097330518
 20
-48.34869565186091
 30
0.0
 11
-234.4222198189763
 21
-48.39735962147961
 31
0.0
  0
LINE
  5
93C5B
330
1E
100
AcDbEntity
  8
OUTLINE
  6
CONTINUOUS
100
AcDbLine
 10
-234.413149527747
 20
-48.32771266685722
 30
0.0
 11
-234.4215074135827
 21
-48.39137659130983
 31
0.0
  0
LINE
  5
93C5C
330
1E
100
AcDbEntity
  8
OUTLINE
  6
CONTINUOUS
100
AcDbLine
 10
-234.4119366453341
 20
-48.32034505106003
 30
0.0
 11
-234.4162097330518
 21
-48.34869565186091
 31
0.0
  0
LINE
  5
93C5D
330
1E
100
AcDbEntity
  8
OUTLINE
  6
CONTINUOUS
100
AcDbLine
 10
-234.407190246995
 20
-48.28979125116575
 30
0.0
 11
-234.413149527747
 21
-48.32771266685722
 31
0.0
  0
LINE
  5
93C5E
330
1E
100
AcDbEntity
  8
OUTLINE
  6
CONTINUOUS
100
AcDbLine
 10
-234.4023427420252
 20
-48.26265643664692
 30
0.0
 11
-234.4119366453341
 21
-48.32034505106003
 31
0.0
  0
LINE
  5
93C5F
330
1E
100
AcDbEntity
  8
OUTLINE
  6
CONTINUOUS
100
AcDbLine
 10
-234.4025725667688
 20
-48.2640383902617
 30
0.0
 11
-234.413139951217
 21
-48.32763971944041
 31
0.0
  0
LINE
  5
93C60
330
1E
100
AcDbEntity
  8
OUTLINE
  6
CONTINUOUS
100
AcDbLine
 10
-234.4025666190864
 20
-48.2640026215322
 30
0.0
 11
-234.407190246995
 21
-48.28979125116575
 31
0.0
  0
LINE
  5
93C61
330
1E
100
AcDbEntity
  8
OUTLINE
  6
CONTINUOUS
100
AcDbLine
 10
-234.3727711642168
 20
-48.12722782894434
 30
0.0
 11
-234.3732151775366
 21
-48.12964907068863
 31
0.0
  0
LINE
  5
93C62
330
1E
100
AcDbEntity
  8
OUTLINE
  6
CONTINUOUS
100
AcDbLine
 10
-234.3890969501389
 20
-48.19649778996382
 30
0.0
 11
-234.4025666190864
 21
-48.2640026215322
 31
0.0
  0
LINE
  5
93C63
330
1E
100
AcDbEntity
  8
OUTLINE
  6
CONTINUOUS
100
AcDbLine
 10
-234.3890916408072
 20
-48.1964714698297
 30
0.0
 11
-234.4025725667688
 21
-48.2640383902617
 31
0.0
  0
LINE
  5
93C64
330
1E
100
AcDbEntity
  8
OUTLINE
  6
CONTINUOUS
100
AcDbLine
 10
-234.3872810608154
 20
-48.18826982963128
 30
0.0
 11
-234.3892256802537
 21
-48.1971358619694
 31
0.0
  0
LINE
  5
93C65
330
1E
100
AcDbEntity
  8
OUTLINE
  6
CONTINUOUS
100
AcDbLine
 10
-234.3890916408072
 20
-48.1964714698297
 30
0.0
 11
-234.3724527692265
 21
-48.12588837001886
 31
0.0
  0
LINE
  5
93C66
330
1E
100
AcDbEntity
  8
OUTLINE
  6
CONTINUOUS
100
AcDbLine
 10
-233.9242133472471
 20
-46.37882418644631
 30
0.0
 11
-234.3724527692265
 21
-48.12588837001886
 31
0.0
  0
LINE
  5
93C67
330
1E
100
AcDbEntity
  8
OUTLINE
  6
CONTINUOUS
100
AcDbLine
 10
-233.9242133472471
 20
-46.37882418644631
 30
0.0
 11
-233.0185833059585
 21
-42.87632494930676
 31
0.0
  0
LINE
  5
93C68
330
1E
100
AcDbEntity
  8
OUTLINE
  6
CONTINUOUS
100
AcDbLine
 10
-233.0185833059585
 20
-42.87632494797344
 30
0.0
 11
-232.1041844755673
 21
-39.37607916872002
 31
0.0
  0
LINE
  5
93C69
330
1E
100
AcDbEntity
  8
OUTLINE
  6
CONTINUOUS
100
AcDbLine
 10
-235.6944672038298
 20
-81.10198709508223
 30
0.0
 11
-235.2944052741077
 21
-69.56600292037092
 31
0.0
  0
LINE
  5
93C6A
330
1E
100
AcDbEntity
  8
OUTLINE
  6
CONTINUOUS
100
AcDbLine
 10
-235.2944052741077
 20
-69.56600292037092
 30
0.0
 11
-234.8372909855552
 21
-57.90321962759254
 31
0.0
  0
LINE
  5
93C6B
330
1E
100
AcDbEntity
  8
OUTLINE
  6
CONTINUOUS
100
AcDbLine
 10
-234.8372909855552
 20
-57.90321962759254
 30
0.0
 11
-234.7598934058842
 21
-56.04959276534874
 31
0.0
  0
LINE
  5
93C6C
330
1E
100
AcDbEntity
  8
OUTLINE
  6
CONTINUOUS
100
AcDbLine
 10
-234.7598934058842
 20
-56.04959276534874
 30
0.0
 11
-234.6935050850461
 21
-54.4836382576932
 31
0.0
  0
LINE
  5
93C6D
330
1E
100
AcDbEntity
  8
OUTLINE
  6
CONTINUOUS
100
AcDbLine
 10
-234.6935050850461
 20
-54.4836382576932
 30
0.0
 11
-234.6187863925788
 21
-52.7464475612187
 31
0.0
  0
LINE
  5
93C6E
330
1E
100
AcDbEntity
  8
OUTLINE
  6
CONTINUOUS
100
AcDbLine
 10
-234.6187863925788
 20
-52.7464475612187
 30
0.0
 11
-234.5368210010001
 21
-50.87011238056402
 31
0.0
  0
LINE
  5
93C6F
330
1E
100
AcDbEntity
  8
OUTLINE
  6
CONTINUOUS
100
AcDbLine
 10
-234.4357134505735
 20
-48.59569938448067
 30
0.0
 11
-234.4327297215786
 21
-48.5292292300237
 31
0.0
  0
LINE
  5
93C70
330
1E
100
AcDbEntity
  8
OUTLINE
  6
CONTINUOUS
100
AcDbLine
 10
-234.4382154544837
 20
-48.65146598812043
 30
0.0
 11
-234.435716479722
 21
-48.59576686664059
 31
0.0
  0
LINE
  5
93C71
330
1E
100
AcDbEntity
  8
OUTLINE
  6
CONTINUOUS
100
AcDbLine
 10
-234.441585821567
 20
-48.72662798227565
 30
0.0
 11
-234.4382154544837
 21
-48.65146598812043
 31
0.0
  0
LINE
  5
93C72
330
1E
100
AcDbEntity
  8
OUTLINE
  6
CONTINUOUS
100
AcDbLine
 10
-234.5368210010001
 20
-50.87011238056402
 30
0.0
 11
-234.441585821567
 21
-48.72662798227565
 31
0.0
  0
LINE
  5
93C73
330
1E
100
AcDbEntity
  8
OUTLINE
  6
CONTINUOUS
100
AcDbLine
 10
-234.4328452956215
 20
-48.53180327646942
 30
0.0
 11
-234.4288198663798
 21
-48.46696477440037
 31
0.0
  0
LINE
  5
93C74
330
1E
100
AcDbEntity
  8
OUTLINE
  6
CONTINUOUS
100
AcDbLine
 10
-234.4253008405067
 20
-48.42576229616634
 30
0.0
 11
-234.4295714614563
 21
-48.47576481050237
 31
0.0
  0
LINE
  5
93C75
330
1E
100
AcDbEntity
  8
OUTLINE
  6
CONTINUOUS
100
AcDbLine
 10
-234.427557272902
 20
-48.45218331265505
 30
0.0
 11
-234.428825702118
 21
-48.46705877125941
 31
0.0
  0
LINE
  5
93C76
330
1E
100
AcDbEntity
  8
OUTLINE
  6
CONTINUOUS
100
AcDbLine
 10
-234.4222198189763
 20
-48.39735962147961
 30
0.0
 11
-234.4287729405841
 21
-48.46516832332281
 31
0.0
  0
LINE
  5
93C77
330
1E
100
AcDbEntity
  8
OUTLINE
  6
CONTINUOUS
100
AcDbLine
 10
-232.1041844755673
 20
-39.37607916872002
 30
0.0
 11
-231.1810198678886
 21
-35.87809897460601
 31
0.0
  0
LINE
  5
93C79
330
1E
100
AcDbEntity
  8
OUTLINE
  6
CONTINUOUS
100
AcDbLine
 10
-212.9549822042136
 20
-19.34743985492696
 30
0.0
 11
-212.9549822042136
 21
-17.36725004551272
 31
0.0
  0
LINE
  5
93C7A
330
1E
100
AcDbEntity
  8
OUTLINE
  6
CONTINUOUS
100
AcDbLine
 10
-212.5630074227756
 20
-22.24877070550746
 30
0.0
 11
-213.1010262615873
 21
-22.25816185983239
 31
0.0
  0
ARC
  5
93C7B
330
1E
100
AcDbEntity
  8
OUTLINE
  6
CONTINUOUS
100
AcDbCircle
 10
-224.9489672042218
 20
-19.34743985492696
 30
0.0
 40
11.993985
100
AcDbArc
 50
356.7221591209961
 51
0.0
  0
ARC
  5
93C7C
330
1E
100
AcDbEntity
  8
OUTLINE
  6
CONTINUOUS
100
AcDbCircle
 10
-213.9544809542112
 20
-17.79195483547346
 30
0.0
 40
0.99949875
100
AcDbArc
 50
359.0790329449963
 51
0.0062653222020794
  0
ARC
  5
93C7E
330
1E
100
AcDbEntity
  8
OUTLINE
  6
CONTINUOUS
100
AcDbCircle
 10
-212.5717294633322
 20
-21.74910111583039
 30
0.0
 40
0.4997475412529602
100
AcDbArc
 50
271.000031550477
 51
356.7616530361013
  0
LINE
  5
93C7F
330
1E
100
AcDbEntity
  8
OUTLINE
  6
CONTINUOUS
100
AcDbLine
 10
-214.4542303292164
 20
-16.14979067373087
 30
0.0
 11
-215.5371423993238
 21
-16.24453320421935
 31
0.0
  0
LINE
  5
93C80
330
1E
100
AcDbEntity
  8
OUTLINE
  6
CONTINUOUS
100
AcDbLine
 10
-213.9195989515865
 20
-16.36836016349707
 30
0.0
 11
-214.4542303292164
 21
-16.34969042372904
 31
0.0
  0
ARC
  5
93C81
330
1E
100
AcDbEntity
  8
OUTLINE
  6
CONTINUOUS
100
AcDbCircle
 10
-215.4500303434688
 20
-17.24022855896055
 30
0.0
 40
0.99949875
100
AcDbArc
 50
95.00000000002541
 51
121.6624152209921
  0
ARC
  5
93C82
330
1E
100
AcDbEntity
  8
OUTLINE
  6
CONTINUOUS
100
AcDbCircle
 10
-210.686439785366
 20
-15.13054989505144
 30
0.0
 40
0.99949875
100
AcDbArc
 50
110.7021918957144
 51
176.6059032301977
  0
LINE
  5
93C83
330
1E
100
AcDbEntity
  8
OUTLINE
  6
CONTINUOUS
100
AcDbLine
 10
-156.9030278098962
 20
-3.327783276104128
 30
0.0
 11
-61.60778303309598
 21
0.0
 31
0.0
  0
LINE
  5
93C94
330
1E
100
AcDbEntity
  8
OUTLINE
  6
CONTINUOUS
100
AcDbLine
 10
0.0
 20
-290.0
 30
0.0
 11
-0.0000000000004547
 21
0.0
 31
0.0
  0
ENDSEC
  0
SECTION
  2
OBJECTS
  0
DICTIONARY
  5
C
330
0
100
AcDbDictionary
  3
ACAD_GROUP
350
D
  3
ACAD_LAYOUT
350
19
  3
ACAD_MLINESTYLE
350
16
  3
ACAD_PLOTSETTINGS
350
18
  3
ACAD_PLOTSTYLENAME
350
E
  3
ACDBHEADERROUNDTRIPXREC
350
93E49
  0
DICTIONARY
  5
66E76
330
1E
100
AcDbDictionary
280
     1
  3
ACAD_LAYOUTSELFREF
360
93E6B
  0
DICTIONARY
  5
66E74
330
1A
100
AcDbDictionary
280
     1
  3
ACAD_LAYOUTSELFREF
360
93E6A
  0
DICTIONARY
  5
D
102
{ACAD_REACTORS
330
C
102
}
330
C
100
AcDbDictionary
  3
*A1
350
677EB
  0
DICTIONARY
  5
19
102
{ACAD_REACTORS
330
C
102
}
330
C
100
AcDbDictionary
  0
DICTIONARY
  5
16
102
{ACAD_REACTORS
330
C
102
}
330
C
100
AcDbDictionary
  3
STANDARD
350
17
  0
DICTIONARY
  5
18
102
{ACAD_REACTORS
330
C
102
}
330
C
100
AcDbDictionary
  0
ACDBDICTIONARYWDFLT
  5
E
102
{ACAD_REACTORS
330
C
102
}
330
C
100
AcDbDictionary
281
     1
  3
Normal
350
F
100
AcDbDictionaryWithDefault
340
F
  0
DICTIONARY
  5
93E49
102
{ACAD_REACTORS
330
C
102
}
330
C
100
AcDbDictionary
  3
CEPSNTYPE
350
93E53
  3
DIMSTYLEDATA
350
93E57
  3
FINGERPRINTGUID
350
93E54
  3
HYPERLINKBASE
350
93E4C
  3
INSUNITS
350
93E52
  3
LAYOUTDICT
350
93E4E
  3
LWETCUNION
350
93E51
  3
PLOTSETDICT
350
93E4F
  3
PLOTSTYLNAMDICT
350
93E50
  3
PSVPSCALE
350
93E56
  3
PUCSBASE
350
93E5A
  3
PUCSORGBACK
350
93E60
  3
PUCSORGBOTTOM
350
93E5C
  3
PUCSORGFRONT
350
93E5F
  3
PUCSORGLEFT
350
93E5D
  3
PUCSORGRIGHT
350
93E5E
  3
PUCSORGTOP
350
93E5B
  3
PUCSORTHOREF
350
93E58
  3
PUCSORTHOVIEW
350
93E59
  3
STYLESHEET
350
93E4D
  3
TSTACKALIGN
350
93E4A
  3
TSTACKSIZE
350
93E4B
  3
UCSBASE
350
93E63
  3
UCSORGBACK
350
93E69
  3
UCSORGBOTTOM
350
93E65
  3
UCSORGFRONT
350
93E68
  3
UCSORGLEFT
350
93E66
  3
UCSORGRIGHT
350
93E67
  3
UCSORGTOP
350
93E64
  3
UCSORTHOREF
350
93E61
  3
UCSORTHOVIEW
350
93E62
  3
VERSIONGUID
350
93E55
  0
XRECORD
  5
93E6B
102
{ACAD_REACTORS
330
66E76
102
}
330
66E76
100
AcDbXrecord
340
1E
  0
XRECORD
  5
93E6A
102
{ACAD_REACTORS
330
66E74
102
}
330
66E74
100
AcDbXrecord
340
1A
  0
GROUP
  5
677EB
102
{ACAD_REACTORS
330
D
102
}
330
D
100
AcDbGroup
300

 70
     1
 71
     1
  0
MLINESTYLE
  5
17
102
{ACAD_REACTORS
330
16
102
}
330
16
100
AcDbMlineStyle
  2
STANDARD
 70
     0
  3

 62
   256
 51
90.0
 52
90.0
 71
     2
 49
0.5
 62
   256
  6
BYLAYER
 49
-0.5
 62
   256
  6
BYLAYER
  0
ACDBPLACEHOLDER
  5
F
102
{ACAD_REACTORS
330
E
102
}
330
E
100
AcDbPlaceHolder
280
     0
  0
XRECORD
  5
93E53
102
{ACAD_REACTORS
330
93E49
102
}
330
93E49
100
AcDbXrecord
 90
        0
  0
XRECORD
  5
93E57
102
{ACAD_REACTORS
330
93E49
102
}
330
93E49
100
AcDbXrecord
1000
DSTYLE
1002
{
1070
   341
340
46
1070
   342
340
46
1002
}
  0
XRECORD
  5
93E54
102
{ACAD_REACTORS
330
93E49
102
}
330
93E49
100
AcDbXrecord
  1
{97DA8DB6-C4F0-4C3D-ABEB-53C4FBBC7EFF}
  0
XRECORD
  5
93E4C
102
{ACAD_REACTORS
330
93E49
102
}
330
93E49
100
AcDbXrecord
  1

  0
XRECORD
  5
93E52
102
{ACAD_REACTORS
330
93E49
102
}
330
93E49
100
AcDbXrecord
 90
        0
  0
XRECORD
  5
93E4E
102
{ACAD_REACTORS
330
93E49
102
}
330
93E49
100
AcDbXrecord
340
19
  0
XRECORD
  5
93E51
102
{ACAD_REACTORS
330
93E49
102
}
330
93E49
100
AcDbXrecord
 90
    10781
  0
XRECORD
  5
93E4F
102
{ACAD_REACTORS
330
93E49
102
}
330
93E49
100
AcDbXrecord
340
18
  0
XRECORD
  5
93E50
102
{ACAD_REACTORS
330
93E49
102
}
330
93E49
100
AcDbXrecord
340
E
  0
XRECORD
  5
93E56
102
{ACAD_REACTORS
330
93E49
102
}
330
93E49
100
AcDbXrecord
 40
0.0
  0
XRECORD
  5
93E5A
102
{ACAD_REACTORS
330
93E49
102
}
330
93E49
100
AcDbXrecord
340
0
  0
XRECORD
  5
93E60
102
{ACAD_REACTORS
330
93E49
102
}
330
93E49
100
AcDbXrecord
 10
0.0
 20
0.0
 30
0.0
  0
XRECORD
  5
93E5C
102
{ACAD_REACTORS
330
93E49
102
}
330
93E49
100
AcDbXrecord
 10
0.0
 20
0.0
 30
0.0
  0
XRECORD
  5
93E5F
102
{ACAD_REACTORS
330
93E49
102
}
330
93E49
100
AcDbXrecord
 10
0.0
 20
0.0
 30
0.0
  0
XRECORD
  5
93E5D
102
{ACAD_REACTORS
330
93E49
102
}
330
93E49
100
AcDbXrecord
 10
0.0
 20
0.0
 30
0.0
  0
XRECORD
  5
93E5E
102
{ACAD_REACTORS
330
93E49
102
}
330
93E49
100
AcDbXrecord
 10
0.0
 20
0.0
 30
0.0
  0
XRECORD
  5
93E5B
102
{ACAD_REACTORS
330
93E49
102
}
330
93E49
100
AcDbXrecord
 10
0.0
 20
0.0
 30
0.0
  0
XRECORD
  5
93E58
102
{ACAD_REACTORS
330
93E49
102
}
330
93E49
100
AcDbXrecord
340
0
  0
XRECORD
  5
93E59
102
{ACAD_REACTORS
330
93E49
102
}
330
93E49
100
AcDbXrecord
 70
     0
  0
XRECORD
  5
93E4D
102
{ACAD_REACTORS
330
93E49
102
}
330
93E49
100
AcDbXrecord
  1

  0
XRECORD
  5
93E4A
102
{ACAD_REACTORS
330
93E49
102
}
330
93E49
100
AcDbXrecord
 90
        1
  0
XRECORD
  5
93E4B
102
{ACAD_REACTORS
330
93E49
102
}
330
93E49
100
AcDbXrecord
 90
       70
  0
XRECORD
  5
93E63
102
{ACAD_REACTORS
330
93E49
102
}
330
93E49
100
AcDbXrecord
340
0
  0
XRECORD
  5
93E69
102
{ACAD_REACTORS
330
93E49
102
}
330
93E49
100
AcDbXrecord
 10
0.0
 20
0.0
 30
0.0
  0
XRECORD
  5
93E65
102
{ACAD_REACTORS
330
93E49
102
}
330
93E49
100
AcDbXrecord
 10
0.0
 20
0.0
 30
0.0
  0
XRECORD
  5
93E68
102
{ACAD_REACTORS
330
93E49
102
}
330
93E49
100
AcDbXrecord
 10
0.0
 20
0.0
 30
0.0
  0
XRECORD
  5
93E66
102
{ACAD_REACTORS
330
93E49
102
}
330
93E49
100
AcDbXrecord
 10
0.0
 20
0.0
 30
0.0
  0
XRECORD
  5
93E67
102
{ACAD_REACTORS
330
93E49
102
}
330
93E49
100
AcDbXrecord
 10
0.0
 20
0.0
 30
0.0
  0
XRECORD
  5
93E64
102
{ACAD_REACTORS
330
93E49
102
}
330
93E49
100
AcDbXrecord
 10
0.0
 20
0.0
 30
0.0
  0
XRECORD
  5
93E61
102
{ACAD_REACTORS
330
93E49
102
}
330
93E49
100
AcDbXrecord
340
0
  0
XRECORD
  5
93E62
102
{ACAD_REACTORS
330
93E49
102
}
330
93E49
100
AcDbXrecord
 70
     0
  0
XRECORD
  5
93E55
102
{ACAD_REACTORS
330
93E49
102
}
330
93E49
100
AcDbXrecord
  1
{741C7C91-700B-4E3C-8B1A-1F5A0EE0D8C0}
  0
ENDSEC
  0
EOF
