  0
SECTION
  2
HEADER
  9
$ACADVER
  1
AC1015
  9
$ACADMAINTVER
 70
    10
  9
$DWGCODEPAGE
  3
ANSI_932
  9
$INSBASE
 10
0.0
 20
0.0
 30
0.0
  9
$EXTMIN
 10
-986.8026099999974
 20
-448.9639481947592
 30
0.0
  9
$EXTMAX
 10
951.7853010199425
 20
503.5125358909764
 30
0.0
  9
$LIMMIN
 10
-1158.996257720395
 20
-736.6082481839802
  9
$LIMMAX
 10
1198.065532219455
 20
740.7324109960353
  9
$ORTHOMODE
 70
     1
  9
$REGENMODE
 70
     1
  9
$FILLMODE
 70
     1
  9
$QTEXTMODE
 70
     0
  9
$MIRRTEXT
 70
     0
  9
$LTSCALE
 40
20.0
  9
$ATTMODE
 70
     1
  9
$TEXTSIZE
 40
64.0
  9
$TRACEWID
 40
0.05
  9
$TEXTSTYLE
  7
STANDARD
  9
$CLAYER
  8
OUTLINE
  9
$CELTYPE
  6
BYLAYER
  9
$CECOLOR
 62
     1
  9
$CELTSCALE
 40
1.0
  9
$DISPSILH
 70
     0
  9
$DIMSCALE
 40
1.0
  9
$DIMASZ
 40
10.0
  9
$DIMEXO
 40
20.0
  9
$DIMDLI
 40
200.0
  9
$DIMRND
 40
0.0
  9
$DIMDLE
 40
0.0
  9
$DIMEXE
 40
20.0
  9
$DIMTP
 40
0.0
  9
$DIMTM
 40
0.0
  9
$DIMTXT
 40
50.0
  9
$DIMCEN
 40
0.082
  9
$DIMTSZ
 40
0.0
  9
$DIMTOL
 70
     0
  9
$DIMLIM
 70
     0
  9
$DIMTIH
 70
     0
  9
$DIMTOH
 70
     0
  9
$DIMSE1
 70
     0
  9
$DIMSE2
 70
     0
  9
$DIMTAD
 70
     1
  9
$DIMZIN
 70
     8
  9
$DIMBLK
  1
ORIGIN
  9
$DIMASO
 70
     1
  9
$DIMSHO
 70
     0
  9
$DIMPOST
  1

  9
$DIMAPOST
  1

  9
$DIMALT
 70
     0
  9
$DIMALTD
 70
     2
  9
$DIMALTF
 40
25.4
  9
$DIMLFAC
 40
1.0
  9
$DIMTOFL
 70
     1
  9
$DIMTVP
 40
0.0
  9
$DIMTIX
 70
     0
  9
$DIMSOXD
 70
     0
  9
$DIMSAH
 70
     0
  9
$DIMBLK1
  1

  9
$DIMBLK2
  1

  9
$DIMSTYLE
  2
STANDARD
  9
$DIMCLRD
 70
     0
  9
$DIMCLRE
 70
     0
  9
$DIMCLRT
 70
     0
  9
$DIMTFAC
 40
1.0
  9
$DIMGAP
 40
10.0
  9
$DIMJUST
 70
     0
  9
$DIMSD1
 70
     0
  9
$DIMSD2
 70
     0
  9
$DIMTOLJ
 70
     1
  9
$DIMTZIN
 70
     0
  9
$DIMALTZ
 70
     0
  9
$DIMALTTZ
 70
     0
  9
$DIMUPT
 70
     0
  9
$DIMDEC
 70
     1
  9
$DIMTDEC
 70
     1
  9
$DIMALTU
 70
     2
  9
$DIMALTTD
 70
     2
  9
$DIMTXSTY
  7
STANDARD
  9
$DIMAUNIT
 70
     0
  9
$DIMADEC
 70
     0
  9
$DIMALTRND
 40
0.0
  9
$DIMAZIN
 70
     0
  9
$DIMDSEP
 70
    46
  9
$DIMATFIT
 70
     3
  9
$DIMFRAC
 70
     0
  9
$DIMLDRBLK
  1
ORIGIN
  9
$DIMLUNIT
 70
     2
  9
$DIMLWD
 70
    -2
  9
$DIMLWE
 70
    -2
  9
$DIMTMOVE
 70
     0
  9
$LUNITS
 70
     2
  9
$LUPREC
 70
     4
  9
$SKETCHINC
 40
0.1
  9
$FILLETRAD
 40
10.0
  9
$AUNITS
 70
     1
  9
$AUPREC
 70
     3
  9
$MENU
  1
ACAD
  9
$ELEVATION
 40
0.0
  9
$PELEVATION
 40
0.0
  9
$THICKNESS
 40
0.0
  9
$LIMCHECK
 70
     0
  9
$CHAMFERA
 40
0.0
  9
$CHAMFERB
 40
0.0
  9
$CHAMFERC
 40
0.0
  9
$CHAMFERD
 40
0.0
  9
$SKPOLY
 70
     0
  9
$TDCREATE
 40
2450330.393205995
  9
$TDUCREATE
 40
2450330.018205995
  9
$TDUPDATE
 40
2456527.806994166
  9
$TDUUPDATE
 40
2456527.431994167
  9
$TDINDWG
 40
2.9125070602
  9
$TDUSRTIMER
 40
2.9125063310
  9
$USRTIMER
 70
     1
  9
$ANGBASE
 50
0.0
  9
$ANGDIR
 70
     0
  9
$PDMODE
 70
     3
  9
$PDSIZE
 40
-2.0
  9
$PLINEWID
 40
0.0
  9
$SPLFRAME
 70
     0
  9
$SPLINETYPE
 70
     6
  9
$SPLINESEGS
 70
     8
  9
$HANDSEED
  5
942C0
  9
$SURFTAB1
 70
     6
  9
$SURFTAB2
 70
     6
  9
$SURFTYPE
 70
     6
  9
$SURFU
 70
     6
  9
$SURFV
 70
     6
  9
$UCSBASE
  2

  9
$UCSNAME
  2

  9
$UCSORG
 10
0.0
 20
0.0
 30
0.0
  9
$UCSXDIR
 10
1.0
 20
0.0
 30
0.0
  9
$UCSYDIR
 10
0.0
 20
1.0
 30
0.0
  9
$UCSORTHOREF
  2

  9
$UCSORTHOVIEW
 70
     0
  9
$UCSORGTOP
 10
0.0
 20
0.0
 30
0.0
  9
$UCSORGBOTTOM
 10
0.0
 20
0.0
 30
0.0
  9
$UCSORGLEFT
 10
0.0
 20
0.0
 30
0.0
  9
$UCSORGRIGHT
 10
0.0
 20
0.0
 30
0.0
  9
$UCSORGFRONT
 10
0.0
 20
0.0
 30
0.0
  9
$UCSORGBACK
 10
0.0
 20
0.0
 30
0.0
  9
$PUCSBASE
  2

  9
$PUCSNAME
  2

  9
$PUCSORG
 10
0.0
 20
0.0
 30
0.0
  9
$PUCSXDIR
 10
1.0
 20
0.0
 30
0.0
  9
$PUCSYDIR
 10
0.0
 20
1.0
 30
0.0
  9
$PUCSORTHOREF
  2

  9
$PUCSORTHOVIEW
 70
     0
  9
$PUCSORGTOP
 10
0.0
 20
0.0
 30
0.0
  9
$PUCSORGBOTTOM
 10
0.0
 20
0.0
 30
0.0
  9
$PUCSORGLEFT
 10
0.0
 20
0.0
 30
0.0
  9
$PUCSORGRIGHT
 10
0.0
 20
0.0
 30
0.0
  9
$PUCSORGFRONT
 10
0.0
 20
0.0
 30
0.0
  9
$PUCSORGBACK
 10
0.0
 20
0.0
 30
0.0
  9
$USERI1
 70
     0
  9
$USERI2
 70
     0
  9
$USERI3
 70
     0
  9
$USERI4
 70
     0
  9
$USERI5
 70
     0
  9
$USERR1
 40
20.0
  9
$USERR2
 40
0.0
  9
$USERR3
 40
0.0
  9
$USERR4
 40
0.0
  9
$USERR5
 40
0.0
  9
$WORLDVIEW
 70
     1
  9
$SHADEDGE
 70
     3
  9
$SHADEDIF
 70
    70
  9
$TILEMODE
 70
     1
  9
$MAXACTVP
 70
    64
  9
$PINSBASE
 10
0.0
 20
0.0
 30
0.0
  9
$PLIMCHECK
 70
     0
  9
$PEXTMIN
 10
1.000000000000000E+20
 20
1.000000000000000E+20
 30
1.000000000000000E+20
  9
$PEXTMAX
 10
-1.000000000000000E+20
 20
-1.000000000000000E+20
 30
-1.000000000000000E+20
  9
$PLIMMIN
 10
0.0
 20
0.0
  9
$PLIMMAX
 10
12.0
 20
9.0
  9
$UNITMODE
 70
     0
  9
$VISRETAIN
 70
     1
  9
$PLINEGEN
 70
     0
  9
$PSLTSCALE
 70
     1
  9
$TREEDEPTH
 70
  3020
  9
$CMLSTYLE
  2
STANDARD
  9
$CMLJUST
 70
     0
  9
$CMLSCALE
 40
1.0
  9
$PROXYGRAPHICS
 70
     1
  9
$MEASUREMENT
 70
     0
  9
$CELWEIGHT
370
    -1
  9
$ENDCAPS
280
     0
  9
$JOINSTYLE
280
     0
  9
$LWDISPLAY
290
     0
  9
$INSUNITS
 70
     0
  9
$HYPERLINKBASE
  1

  9
$STYLESHEET
  1
monochrome.ctb
  9
$XEDIT
290
     1
  9
$CEPSNTYPE
380
     0
  9
$PSTYLEMODE
290
     1
  9
$FINGERPRINTGUID
  2
{97DA8DB6-C4F0-4C3D-ABEB-53C4FBBC7EFF}
  9
$VERSIONGUID
  2
{FC3C9332-90B6-48EC-9146-60F76360638F}
  9
$EXTNAMES
290
     1
  9
$PSVPSCALE
 40
0.0
  9
$OLESTARTUP
290
     0
  0
ENDSEC
  0
SECTION
  2
CLASSES
  0
CLASS
  1
ACDBDICTIONARYWDFLT
  2
AcDbDictionaryWithDefault
  3
AutoCAD 2000
 90
        0
280
     0
281
     0
  0
CLASS
  1
ACDBPLACEHOLDER
  2
AcDbPlaceHolder
  3
AutoCAD 2000
 90
        0
280
     0
281
     0
  0
CLASS
  1
LAYOUT
  2
AcDbLayout
  3
AutoCAD 2000
 90
        0
280
     0
281
     0
  0
CLASS
  1
LONG_TRANSACTION
  2
AcDbLongTransaction
  3
AutoCAD 2000
 90
    32768
280
     0
281
     0
  0
CLASS
  1
LWPOLYLINE
  2
AcDbPolyline
  3
AutoCAD 2000
 90
    32768
280
     0
281
     1
  0
CLASS
  1
HATCH
  2
AcDbHatch
  3
AutoCAD 2000
 90
    32768
280
     0
281
     1
  0
CLASS
  1
XRECORD
  2
AcDbXrecord
  3
AutoCAD 2000
 90
    32768
280
     0
281
     0
  0
CLASS
  1
LONG_TRANSACTION
  2
AcDbLongTransaction
  3
AutoCAD 2000
 90
    32768
280
     0
281
     0
  0
CLASS
  1
LWPOLYLINE
  2
AcDbPolyline
  3
AutoCAD 2000
 90
    32768
280
     0
281
     1
  0
CLASS
  1
HATCH
  2
AcDbHatch
  3
AutoCAD 2000
 90
    32768
280
     0
281
     1
  0
CLASS
  1
XRECORD
  2
AcDbXrecord
  3
AutoCAD 2000
 90
    32768
280
     0
281
     0
  0
CLASS
  1
LONG_TRANSACTION
  2
AcDbLongTransaction
  3
AutoCAD 2000
 90
    32768
280
     0
281
     0
  0
CLASS
  1
LWPOLYLINE
  2
AcDbPolyline
  3
AutoCAD 2000
 90
    32768
280
     0
281
     1
  0
CLASS
  1
HATCH
  2
AcDbHatch
  3
AutoCAD 2000
 90
    32768
280
     0
281
     1
  0
CLASS
  1
XRECORD
  2
AcDbXrecord
  3
AutoCAD 2000
 90
    32768
280
     0
281
     0
  0
CLASS
  1
LONG_TRANSACTION
  2
AcDbLongTransaction
  3
AutoCAD 2000
 90
    32768
280
     0
281
     0
  0
CLASS
  1
LWPOLYLINE
  2
AcDbPolyline
  3
AutoCAD 2000
 90
    32768
280
     0
281
     1
  0
CLASS
  1
HATCH
  2
AcDbHatch
  3
AutoCAD 2000
 90
    32768
280
     0
281
     1
  0
CLASS
  1
XRECORD
  2
AcDbXrecord
  3
AutoCAD 2000
 90
    32768
280
     0
281
     0
  0
CLASS
  1
LONG_TRANSACTION
  2
AcDbLongTransaction
  3
AutoCAD 2000
 90
    32768
280
     0
281
     0
  0
CLASS
  1
LWPOLYLINE
  2
AcDbPolyline
  3
AutoCAD 2000
 90
    32768
280
     0
281
     1
  0
CLASS
  1
HATCH
  2
AcDbHatch
  3
AutoCAD 2000
 90
    32768
280
     0
281
     1
  0
CLASS
  1
XRECORD
  2
AcDbXrecord
  3
AutoCAD 2000
 90
    32768
280
     0
281
     0
  0
ENDSEC
  0
SECTION
  2
TABLES
  0
TABLE
  2
VPORT
  5
8
330
0
100
AcDbSymbolTable
 70
     2
  0
VPORT
  5
942BF
330
8
100
AcDbSymbolTableRecord
100
AcDbViewportTableRecord
  2
*Active
 70
     0
 10
0.0
 20
0.0
 11
1.0
 21
1.0
 12
2.72478847062166
 22
21.23915960534566
 13
0.0
 23
0.0
 14
50.0
 24
50.0
 15
100.0
 25
100.0
 16
0.0
 26
0.0
 36
1.0
 17
0.0
 27
0.0
 37
0.0
 40
1324.058606921516
 41
1.56020278833967
 42
50.0
 43
0.0
 44
0.0
 50
0.0
 51
0.0
 71
     0
 72
   500
 73
     1
 74
     0
 75
     0
 76
     0
 77
     0
 78
     0
281
     0
 65
     1
110
0.0
120
0.0
130
0.0
111
1.0
121
0.0
131
0.0
112
0.0
122
1.0
132
0.0
 79
     0
146
0.0
  0
ENDTAB
  0
TABLE
  2
LTYPE
  5
5
330
0
100
AcDbSymbolTable
 70
     2
  0
LTYPE
  5
13
330
5
100
AcDbSymbolTableRecord
100
AcDbLinetypeTableRecord
  2
BYBLOCK
 70
     0
  3

 72
    65
 73
     0
 40
0.0
  0
LTYPE
  5
14
330
5
100
AcDbSymbolTableRecord
100
AcDbLinetypeTableRecord
  2
BYLAYER
 70
     0
  3

 72
    65
 73
     0
 40
0.0
  0
LTYPE
  5
15
330
5
100
AcDbSymbolTableRecord
100
AcDbLinetypeTableRecord
  2
CONTINUOUS
 70
     0
  3
実線
 72
    65
 73
     0
 40
0.0
  0
LTYPE
  5
23
330
5
100
AcDbSymbolTableRecord
100
AcDbLinetypeTableRecord
  2
DASHDOT
 70
     0
  3
____ _ ____ _ ____ _ ____ _ ____ _ ____ _ ____
 72
    65
 73
     4
 40
5.5
 49
4.0
 74
     0
 49
-0.6
 74
     0
 49
0.3
 74
     0
 49
-0.6
 74
     0
  0
ENDTAB
  0
TABLE
  2
LAYER
  5
2
330
0
100
AcDbSymbolTable
 70
     9
  0
LAYER
  5
10
330
2
100
AcDbSymbolTableRecord
100
AcDbLayerTableRecord
  2
0
 70
     0
 62
     7
  6
CONTINUOUS
370
    -3
390
F
  0
LAYER
  5
22
330
2
100
AcDbSymbolTableRecord
100
AcDbLayerTableRecord
  2
SIZE
 70
     0
 62
    32
  6
CONTINUOUS
370
    -3
390
F
  0
LAYER
  5
31
330
2
100
AcDbSymbolTableRecord
100
AcDbLayerTableRecord
  2
DETAIL
 70
     0
 62
     5
  6
CONTINUOUS
370
    -3
390
F
  0
LAYER
  5
32
330
2
100
AcDbSymbolTableRecord
100
AcDbLayerTableRecord
  2
OUTLINE
 70
     0
 62
     3
  6
CONTINUOUS
370
    -3
390
F
  0
LAYER
  5
33
330
2
100
AcDbSymbolTableRecord
100
AcDbLayerTableRecord
  2
BASIS
 70
     0
 62
     6
  6
CONTINUOUS
370
    -3
390
F
  0
LAYER
  5
34
330
2
100
AcDbSymbolTableRecord
100
AcDbLayerTableRecord
  2
NOTE
 70
     0
 62
     4
  6
CONTINUOUS
370
    -3
390
F
  0
LAYER
  5
35
330
2
100
AcDbSymbolTableRecord
100
AcDbLayerTableRecord
  2
ARRANGE
 70
     0
 62
     1
  6
CONTINUOUS
370
    -3
390
F
  0
LAYER
  5
37
330
2
100
AcDbSymbolTableRecord
100
AcDbLayerTableRecord
  2
ETC
 70
     0
 62
    83
  6
CONTINUOUS
370
    -3
390
F
  0
LAYER
  5
3A
330
2
100
AcDbSymbolTableRecord
100
AcDbLayerTableRecord
  2
DEFPOINTS
 70
     0
 62
     7
  6
CONTINUOUS
290
     0
370
    -3
390
F
  0
ENDTAB
  0
TABLE
  2
STYLE
  5
3
330
0
100
AcDbSymbolTable
 70
     1
  0
STYLE
  5
11
330
3
100
AcDbSymbolTableRecord
100
AcDbTextStyleTableRecord
  2
STANDARD
 70
     0
 40
0.0
 41
0.9
 50
0.0
 71
     0
 42
64.0
  3
SIMPLEX
  4
BIGFONT
  0
ENDTAB
  0
TABLE
  2
VIEW
  5
6
330
0
100
AcDbSymbolTable
 70
     1
  0
VIEW
  5
3C
330
6
100
AcDbSymbolTableRecord
100
AcDbViewTableRecord
  2
ALL
 70
     0
 40
4282.62
 10
0.0
 20
41.30990399999999
 41
5940.0
 11
0.0
 21
0.0
 31
1.0
 12
0.0
 22
0.0
 32
0.0
 42
50.0
 43
0.0
 44
0.0
 50
0.0
 71
     0
281
     0
 72
     0
  0
ENDTAB
  0
TABLE
  2
UCS
  5
7
330
0
100
AcDbSymbolTable
 70
     0
  0
ENDTAB
  0
TABLE
  2
APPID
  5
9
330
0
100
AcDbSymbolTable
 70
     1
  0
APPID
  5
12
330
9
100
AcDbSymbolTableRecord
100
AcDbRegAppTableRecord
  2
ACAD
 70
     0
  0
ENDTAB
  0
TABLE
  2
DIMSTYLE
  5
A
330
0
100
AcDbSymbolTable
 70
     1
100
AcDbDimStyleTable
 71
     1
340
213
  0
DIMSTYLE
105
213
330
A
100
AcDbSymbolTableRecord
100
AcDbDimStyleTableRecord
  2
STANDARD
 70
     0
340
11
  0
ENDTAB
  0
TABLE
  2
BLOCK_RECORD
  5
1
330
0
100
AcDbSymbolTable
 70
     2
  0
BLOCK_RECORD
  5
1E
102
{ACAD_XDICTIONARY
360
66E76
102
}
330
1
100
AcDbSymbolTableRecord
100
AcDbBlockTableRecord
  2
*MODEL_SPACE
340
93D4F
  0
BLOCK_RECORD
  5
1A
102
{ACAD_XDICTIONARY
360
66E74
102
}
330
1
100
AcDbSymbolTableRecord
100
AcDbBlockTableRecord
  2
*PAPER_SPACE
340
93D50
  0
BLOCK_RECORD
  5
46
330
1
100
AcDbSymbolTableRecord
100
AcDbBlockTableRecord
  2
_ORIGIN
340
0
  0
BLOCK_RECORD
  5
93F39
330
1
100
AcDbSymbolTableRecord
100
AcDbBlockTableRecord
  2
A$C4DE55E56
340
0
  0
ENDTAB
  0
ENDSEC
  0
SECTION
  2
BLOCKS
  0
BLOCK
  5
1F
330
1E
100
AcDbEntity
  8
0
100
AcDbBlockBegin
  2
*MODEL_SPACE
 70
     0
 10
0.0
 20
0.0
 30
0.0
  3
*MODEL_SPACE
  1

  0
ENDBLK
  5
20
330
1E
100
AcDbEntity
  8
0
100
AcDbBlockEnd
  0
BLOCK
  5
1B
330
1A
100
AcDbEntity
 67
     1
  8
0
100
AcDbBlockBegin
  2
*PAPER_SPACE
 70
     0
 10
0.0
 20
0.0
 30
0.0
  3
*PAPER_SPACE
  1

  0
ENDBLK
  5
1C
330
1A
100
AcDbEntity
 67
     1
  8
0
100
AcDbBlockEnd
  0
BLOCK
  5
47
330
46
100
AcDbEntity
  8
0
100
AcDbBlockBegin
  2
_ORIGIN
 70
     0
 10
0.0
 20
0.0
 30
0.0
  3
_ORIGIN
  1

  0
CIRCLE
  5
48
330
46
100
AcDbEntity
  8
0
  6
ByBlock
 62
     0
100
AcDbCircle
 10
0.0
 20
0.0
 30
0.0
 40
0.5
  0
LINE
  5
49
330
46
100
AcDbEntity
  8
0
  6
ByBlock
 62
     0
100
AcDbLine
 10
0.0
 20
0.0
 30
0.0
 11
-1.0
 21
0.0
 31
0.0
  0
ENDBLK
  5
4A
330
46
100
AcDbEntity
  8
0
100
AcDbBlockEnd
  0
BLOCK
  5
9404E
330
93F39
100
AcDbEntity
  8
0
100
AcDbBlockBegin
  2
A$C4DE55E56
 70
     0
 10
0.0
 20
0.0
 30
0.0
  3
A$C4DE55E56
  1

  0
ARC
  5
93F3A
330
93F39
100
AcDbEntity
  8
OUTLINE
100
AcDbCircle
 10
520.1937632463299
 20
271.7132741541164
 30
0.0
 40
241.6508016799371
100
AcDbArc
 50
245.2731244025014
 51
266.9918790539572
  0
ARC
  5
93F3B
330
93F39
100
AcDbEntity
  8
OUTLINE
100
AcDbCircle
 10
503.3868025320376
 20
274.6615036642892
 30
0.0
 40
245.1159139610431
100
AcDbArc
 50
248.2056553465943
 51
265.228408672801
  0
LINE
  5
93F3C
330
93F39
100
AcDbEntity
  8
OUTLINE
100
AcDbLine
 10
291.5711786224347
 20
52.21893434656886
 30
0.0
 11
507.5699376065757
 21
52.21893434656886
 31
0.0
  0
LINE
  5
93F3D
330
93F39
100
AcDbEntity
  8
OUTLINE
100
AcDbLine
 10
291.5647990637213
 20
30.39544154995258
 30
0.0
 11
507.5635580478621
 21
30.39248563310843
 31
0.0
  0
LINE
  5
93F3E
330
93F39
100
AcDbEntity
  8
OUTLINE
100
AcDbLine
 10
732.5686017529362
 20
192.176057505846
 30
0.0
 11
403.5558889330697
 21
192.171917172354
 31
0.0
  0
LINE
  5
93F3F
330
93F39
100
AcDbEntity
  8
OUTLINE
100
AcDbLine
 10
776.8703667325706
 20
55.32828311994961
 30
0.0
 11
21.92726976343249
 21
55.32828311994956
 31
0.0
  0
LINE
  5
93F40
330
93F39
100
AcDbEntity
  8
OUTLINE
100
AcDbLine
 10
770.2256927322554
 20
207.3914425411127
 30
0.0
 11
28.88922385961985
 21
207.3821134784614
 31
0.0
  0
LINE
  5
93F41
330
93F39
100
AcDbEntity
  8
OUTLINE
100
AcDbLine
 10
403.5566241565535
 20
113.9413095103346
 30
0.0
 11
776.8696873876586
 21
113.9460073244873
 31
0.0
  0
LINE
  5
93F42
330
93F39
100
AcDbEntity
  8
OUTLINE
100
AcDbLine
 10
406.5558020038937
 20
60.59794558056416
 30
0.0
 11
776.8703667325707
 21
60.60260566126976
 31
0.0
  0
LINE
  5
93F43
330
93F39
100
AcDbEntity
  8
OUTLINE
100
AcDbLine
 10
7.248646811304752
 20
310.9958922522195
 30
0.0
 11
791.8915482381566
 21
310.995892254577
 31
0.0
  0
LINE
  5
93F44
330
93F39
100
AcDbEntity
  8
OUTLINE
100
AcDbLine
 10
773.9267003425434
 20
0.00000126336721
 30
0.0
 11
25.21349470558709
 21
0.00000126336721
 31
0.0
  0
LINE
  5
93F45
330
93F39
100
AcDbEntity
  8
OUTLINE
100
AcDbLine
 10
198.1355850247324
 20
314.0001520703335
 30
0.0
 11
601.0046100247312
 21
314.0001520703335
 31
0.0
  0
LINE
  5
93F46
330
93F39
100
AcDbEntity
  8
OUTLINE
100
AcDbLine
 10
102.6666225247305
 20
241.523714570334
 30
0.0
 11
680.6287237747328
 21
241.523714570334
 31
0.0
  0
LINE
  5
93F47
330
93F39
100
AcDbEntity
  8
OUTLINE
100
AcDbLine
 10
102.6791599234193
 20
243.0232270703363
 30
0.0
 11
680.6161863760443
 21
243.0232270703363
 31
0.0
  0
LINE
  5
93F48
330
93F39
100
AcDbEntity
  8
OUTLINE
100
AcDbLine
 10
45.11739795801026
 20
172.9705129448054
 30
0.0
 11
59.72249381832586
 21
172.9703291526138
 31
0.0
  0
LINE
  5
93F49
330
93F39
100
AcDbEntity
  8
OUTLINE
100
AcDbLine
 10
22.24702822353532
 20
113.9518561896749
 30
0.0
 11
395.5600914439737
 21
113.9565540038274
 31
0.0
  0
LINE
  5
93F4A
330
93F39
100
AcDbEntity
  8
OUTLINE
100
AcDbLine
 10
22.24702828552244
 20
113.9460827913753
 30
0.0
 11
395.5600915166268
 21
113.950780605528
 31
0.0
  0
LINE
  5
93F4B
330
93F39
100
AcDbEntity
  8
OUTLINE
100
AcDbLine
 10
21.93168951094747
 20
60.60923435764215
 30
0.0
 11
392.5628090050055
 21
60.59776949114464
 31
0.0
  0
LINE
  5
93F4C
330
93F39
100
AcDbEntity
  8
OUTLINE
100
AcDbLine
 10
40.1869350247307
 20
267.9262285716213
 30
0.0
 11
69.17751002473005
 21
267.9262285716213
 31
0.0
  0
LINE
  5
93F4D
330
93F39
100
AcDbEntity
  8
OUTLINE
100
AcDbLine
 10
40.1869350247307
 20
269.6038535649049
 30
0.0
 11
69.17751002473005
 21
269.6038535649049
 31
0.0
  0
LINE
  5
93F4E
330
93F39
100
AcDbEntity
  8
OUTLINE
100
AcDbLine
 10
65.27877752472955
 20
314.0001520703335
 30
0.0
 11
7.248646811304752
 21
314.0001520703335
 31
0.0
  0
LINE
  5
93F4F
330
93F39
100
AcDbEntity
  8
OUTLINE
100
AcDbLine
 10
0.0000000247324579
 20
241.523714570334
 30
0.0
 11
102.4666875247326
 21
241.523714570334
 31
0.0
  0
LINE
  5
93F50
330
93F39
100
AcDbEntity
  8
OUTLINE
100
AcDbLine
 10
17.194410024732
 20
243.0284618871319
 30
0.0
 11
102.4666875247326
 21
243.0284618871319
 31
0.0
  0
LINE
  5
93F51
330
93F39
100
AcDbEntity
  8
OUTLINE
100
AcDbLine
 10
15.35048647405818
 20
138.7172659600498
 30
0.0
 11
15.35150441320217
 21
75.95538131023776
 31
0.0
  0
LINE
  5
93F52
330
93F39
100
AcDbEntity
  8
OUTLINE
100
AcDbLine
 10
19.24529178537812
 20
58.03393841502978
 30
0.0
 11
19.24854314440756
 21
112.885343706218
 31
0.0
  0
LINE
  5
93F53
330
93F39
100
AcDbEntity
  8
OUTLINE
100
AcDbLine
 10
0.0000000247324579
 20
241.523714570334
 30
0.0
 11
0.0000000247324579
 21
23.21450624278168
 31
0.0
  0
ARC
  5
93F54
330
93F39
100
AcDbEntity
  8
OUTLINE
100
AcDbCircle
 10
25.21873429972208
 20
36.62870012461826
 30
0.0
 40
36.62854818751611
100
AcDbArc
 50
233.058505942461
 51
269.9951131433433
  0
ARC
  5
93F55
330
93F39
100
AcDbEntity
  8
OUTLINE
100
AcDbCircle
 10
0.9996750247331647
 20
23.21448813534243
 30
0.0
 40
0.999675
100
AcDbArc
 50
179.9999676375807
 51
209.6581655207193
  0
ARC
  5
93F56
330
93F39
100
AcDbEntity
  8
OUTLINE
100
AcDbCircle
 10
54.05367651872978
 20
25.51626715475794
 30
0.0
 40
53.99517545405792
100
AcDbArc
 50
182.9687109255842
 51
199.6565029486042
  0
ARC
  5
93F57
330
93F39
100
AcDbEntity
  8
OUTLINE
100
AcDbCircle
 10
5.03443902521559
 20
57.92287687714213
 30
0.0
 40
3.987043172835879
100
AcDbArc
 50
217.6785271666111
 51
272.390838008545
  0
LINE
  5
93F58
330
93F39
100
AcDbEntity
  8
OUTLINE
100
AcDbLine
 10
13.52683420928497
 20
53.93930437143717
 30
0.0
 11
4.365242652893073
 21
54.24545189638275
 31
0.0
  0
ARC
  5
93F59
330
93F39
100
AcDbEntity
  8
OUTLINE
100
AcDbCircle
 10
9.45331723582899
 20
62.03352912830112
 30
0.0
 40
9.814706417569588
100
AcDbArc
 50
195.5965396620174
 51
219.4893031996004
  0
ARC
  5
93F5A
330
93F39
100
AcDbEntity
  8
OUTLINE
100
AcDbCircle
 10
9.453317235829558
 20
61.72738160335592
 30
0.0
 40
9.814706417570512
100
AcDbArc
 50
195.5965396620237
 51
219.4893031995984
  0
ARC
  5
93F5B
330
93F39
100
AcDbEntity
  8
OUTLINE
100
AcDbCircle
 10
4.925661466598057
 20
57.91831084630058
 30
0.0
 40
3.715368368378304
100
AcDbArc
 50
214.9104557338079
 51
261.3245057598084
  0
ARC
  5
93F5C
330
93F39
100
AcDbEntity
  8
OUTLINE
100
AcDbCircle
 10
22.03242362153338
 20
58.11459835039449
 30
0.0
 40
2.78829874606056
100
AcDbArc
 50
181.6576841653295
 51
267.8387174888655
  0
LINE
  5
93F5D
330
93F39
100
AcDbEntity
  8
OUTLINE
100
AcDbLine
 10
14.66144244884037
 20
55.19946281588545
 30
0.0
 11
15.81237093107739
 21
75.96504129971757
 31
0.0
  0
ARC
  5
93F5E
330
93F39
100
AcDbEntity
  8
OUTLINE
100
AcDbCircle
 10
13.08474113510436
 20
55.47821404930317
 30
0.0
 40
1.601152485826618
100
AcDbArc
 50
286.0281314391483
 51
349.974054175294
  0
ARC
  5
93F5F
330
93F39
100
AcDbEntity
  8
OUTLINE
100
AcDbCircle
 10
13.49852375867754
 20
56.01144954069622
 30
0.0
 40
2.97816130498645
100
AcDbArc
 50
315.9105916563556
 51
346.738720257909
  0
LINE
  5
93F60
330
93F39
100
AcDbEntity
  8
OUTLINE
100
AcDbLine
 10
21.92726976343249
 20
55.32828311994956
 30
0.0
 11
16.39726976343252
 21
55.32828311994956
 31
0.0
  0
LINE
  5
93F61
330
93F39
100
AcDbEntity
  8
OUTLINE
100
AcDbLine
 10
15.63760280257326
 20
53.939304371437
 30
0.0
 11
5.200762065856793
 21
53.93930437143712
 31
0.0
  0
ARC
  5
93F62
330
93F39
100
AcDbEntity
  8
OUTLINE
100
AcDbCircle
 10
22.03684336904836
 20
63.39554958808699
 30
0.0
 40
2.78829874606056
100
AcDbArc
 50
181.6576841653295
 51
267.8387174888655
  0
LINE
  5
93F63
330
93F39
100
AcDbEntity
  8
OUTLINE
100
AcDbLine
 10
15.35150441320217
 20
75.95538131023776
 30
0.0
 11
19.24955268277818
 21
75.95543036372155
 31
0.0
  0
ARC
  5
93F64
330
93F39
100
AcDbEntity
  8
OUTLINE
100
AcDbCircle
 10
28.88622818800616
 20
197.3917235645483
 30
0.0
 40
9.990390363047104
100
AcDbArc
 50
89.98281955593329
 51
175.2453399303538
  0
ARC
  5
93F65
330
93F39
100
AcDbEntity
  8
OUTLINE
100
AcDbCircle
 10
22.2581723989449
 20
142.0085923148247
 30
0.0
 40
3.008849846565353
100
AcDbArc
 50
90.13900509635659
 51
179.8848794399846
  0
ARC
  5
93F66
330
93F39
100
AcDbEntity
  8
OUTLINE
100
AcDbCircle
 10
846.38346792764
 20
118.5804824131837
 30
0.0
 40
831.2769131373991
100
AcDbArc
 50
174.5024251944483
 51
178.6119359765191
  0
SPLINE
  5
93F67
330
93F39
100
AcDbEntity
  8
OUTLINE
100
AcDbSpline
210
0.0
220
0.0
230
1.0
 70
     8
 71
     3
 72
    10
 73
     6
 74
     4
 42
0.0000000001
 43
0.0000000001
 44
0.0000000001
 12
-0.0000000000000001
 22
-1.0
 32
0.0
 13
0.9360653312168595
 23
-0.3518262294000705
 33
0.0
 40
0.0
 40
0.0
 40
0.0
 40
0.0
 40
0.1038093340122188
 40
0.1851862362632007
 40
0.2348932859631208
 40
0.2348932859631208
 40
0.2348932859631208
 40
0.2348932859631208
 10
0.0000000247315484
 20
135.6574634597092
 30
0.0
 10
0.0000000247315484
 20
135.6228603483718
 30
0.0
 10
0.0511973603989319
 20
135.5696619674042
 30
0.0
 10
0.1186270211324442
 20
135.535127294793
 30
0.0
 10
0.1594445241571669
 20
135.5185029663532
 30
0.0
 10
0.1749542061375564
 20
135.5126735517297
 30
0.0
 11
0.0000000247315484
 21
135.6574634597092
 31
0.0
 11
0.05801601807309
 21
135.5713790688787
 31
0.0
 11
0.1289469140360779
 21
135.5314916245152
 31
0.0
 11
0.1749542061375564
 21
135.5126735517297
 31
0.0
  0
ARC
  5
93F68
330
93F39
100
AcDbEntity
  8
OUTLINE
100
AcDbCircle
 10
22.26833067199942
 20
116.9657969198014
 30
0.0
 40
3.019789265675033
100
AcDbArc
 50
180.5181136878241
 51
269.595817173191
  0
ARC
  5
93F69
330
93F39
100
AcDbEntity
  8
OUTLINE
100
AcDbCircle
 10
22.14806573678345
 20
113.0395677972806
 30
0.0
 40
2.903621244921962
100
AcDbArc
 50
137.9915426465855
 51
183.044663486007
  0
LINE
  5
93F6A
330
93F39
100
AcDbEntity
  8
OUTLINE
100
AcDbLine
 10
19.24932863975084
 20
142.0157784734179
 30
0.0
 11
19.24866487265717
 21
116.9384899725371
 31
0.0
  0
ARC
  5
93F6B
330
93F39
100
AcDbEntity
  8
OUTLINE
100
AcDbCircle
 10
45.14078303909025
 20
169.9533944565114
 30
0.0
 40
3.017209113472723
100
AcDbArc
 50
90.44407921824854
 51
166.9275944220219
  0
LINE
  5
93F6C
330
93F39
100
AcDbEntity
  8
OUTLINE
100
AcDbLine
 10
22.2508726497814
 20
145.0177577879487
 30
0.0
 11
36.24922136726127
 21
145.0175816311323
 31
0.0
  0
LINE
  5
93F6D
330
93F39
100
AcDbEntity
  8
OUTLINE
100
AcDbLine
 10
42.20176486162228
 20
170.6358334552032
 30
0.0
 11
36.24922136726127
 21
145.0175816311324
 31
0.0
  0
ARC
  5
93F6E
330
93F39
100
AcDbEntity
  8
OUTLINE
100
AcDbCircle
 10
4.198635024730037
 20
256.7605297928139
 30
0.0
 40
3.998699999999998
100
AcDbArc
 50
145.0000000000189
 51
180.0
  0
LINE
  5
93F6F
330
93F39
100
AcDbEntity
  8
OUTLINE
100
AcDbLine
 10
0.1999350393930399
 20
243.0232270703363
 30
0.0
 11
17.19440863451808
 21
242.8749185462729
 31
0.0
  0
ARC
  5
93F70
330
93F39
100
AcDbEntity
  8
OUTLINE
100
AcDbCircle
 10
0.3887345182813533
 20
242.5233895703322
 30
0.0
 40
0.999675
100
AcDbArc
 50
270.0
 51
355.0000000000264
  0
LINE
  5
93F71
330
93F39
100
AcDbEntity
  8
OUTLINE
100
AcDbLine
 10
1.384605452337837
 20
242.43626215329
 30
0.0
 11
1.435015242495524
 21
243.0124486877821
 31
0.0
  0
LINE
  5
93F72
330
93F39
100
AcDbEntity
  8
OUTLINE
100
AcDbLine
 10
0.1999350247306211
 20
256.7605297928139
 30
0.0
 11
0.1999350247306211
 21
243.0232270703363
 31
0.0
  0
LINE
  5
93F73
330
93F39
100
AcDbEntity
  8
OUTLINE
100
AcDbLine
 10
17.19440863451808
 20
242.8749185462729
 30
0.0
 11
17.19440863451808
 21
243.0284618871319
 31
0.0
  0
LINE
  5
93F74
330
93F39
100
AcDbEntity
  8
OUTLINE
100
AcDbLine
 10
0.9230917450550464
 20
259.0540898887784
 30
0.0
 11
5.389768223254577
 21
265.4331649980258
 31
0.0
  0
ARC
  5
93F75
330
93F39
100
AcDbEntity
  8
OUTLINE
100
AcDbCircle
 10
40.18693502473047
 20
288.0086020703375
 30
0.0
 40
18.40474850543548
100
AcDbArc
 50
180.0
 51
270.0
  0
ARC
  5
93F76
330
93F39
100
AcDbEntity
  8
OUTLINE
100
AcDbCircle
 10
40.18693502473047
 20
288.0086020703375
 30
0.0
 40
18.49398749999998
100
AcDbArc
 50
180.0
 51
270.0
  0
ARC
  5
93F77
330
93F39
100
AcDbEntity
  8
OUTLINE
100
AcDbCircle
 10
40.18693502473047
 20
288.0086020703375
 30
0.0
 40
19.9935
100
AcDbArc
 50
180.0
 51
270.0
  0
ARC
  5
93F78
330
93F39
100
AcDbEntity
  8
OUTLINE
100
AcDbCircle
 10
40.18693502473047
 20
288.0086020703375
 30
0.0
 40
20.0827389945645
100
AcDbArc
 50
180.0
 51
270.0
  0
SPLINE
  5
93F79
330
93F39
100
AcDbEntity
  8
OUTLINE
100
AcDbSpline
210
0.0
220
0.0
230
1.0
 70
     8
 71
     3
 72
    11
 73
     7
 74
     5
 42
0.0000000001
 43
0.0000000001
 44
0.0000000001
 12
0.0000000000000001
 22
1.0
 32
0.0
 13
0.0000000000000001
 23
1.0
 33
0.0
 40
0.0
 40
0.0
 40
0.0
 40
0.0
 40
1.521296774543263
 40
3.086525365334631
 40
4.67782345914377
 40
6.276667013913042
 40
6.276667013913042
 40
6.276667013913042
 40
6.276667013913042
 10
7.1976600247296
 20
284.7311996870739
 30
0.0
 10
7.1976600247296
 20
285.2382986119217
 30
0.0
 10
7.206004501730233
 20
286.267131546851
 30
0.0
 10
7.226790252748335
 20
287.8262608260089
 30
0.0
 10
7.244223702059807
 20
289.4112949566003
 30
0.0
 10
7.248646811302535
 20
290.4746792187568
 30
0.0
 10
7.248646811302535
 20
291.0076270703466
 30
0.0
 11
7.1976600247296
 21
284.7311996870739
 31
0.0
 11
7.207190382356657
 21
286.252466609254
 31
0.0
 11
7.226071025485566
 21
287.817581321582
 31
0.0
 11
7.242386598533357
 21
289.40879577144
 31
0.0
 11
7.248646811302535
 21
291.0076270703466
 31
0.0
  0
ARC
  5
93F7A
330
93F39
100
AcDbEntity
  8
OUTLINE
100
AcDbCircle
 10
-2.799089975268316
 20
271.167065237274
 30
0.0
 40
9.99675
100
AcDbArc
 50
325.0000000000189
 51
0.0
  0
LINE
  5
93F7B
330
93F39
100
AcDbEntity
  8
OUTLINE
100
AcDbLine
 10
7.197660024732158
 20
284.7311996870666
 30
0.0
 11
7.197660024732158
 21
271.1670652372731
 31
0.0
  0
ARC
  5
93F7C
330
93F39
100
AcDbEntity
  8
OUTLINE
100
AcDbCircle
 10
40.16597952582384
 20
268.7797061006544
 30
0.0
 40
0.8541001370294859
100
AcDbArc
 50
271.4059032271513
 51
319.5825186743915
  0
ARC
  5
93F7D
330
93F39
100
AcDbEntity
  8
OUTLINE
100
AcDbCircle
 10
40.16597951443976
 20
268.7500105161662
 30
0.0
 40
0.8541001611585887
100
AcDbArc
 50
40.41748198197295
 51
88.59409604865055
  0
ARC
  5
93F7E
330
93F39
100
AcDbEntity
  8
OUTLINE
100
AcDbCircle
 10
40.18693502473047
 20
268.7648583203326
 30
0.0
 40
0.74975625
100
AcDbArc
 50
270.0
 51
90.0
  0
ARC
  5
93F7F
330
93F39
100
AcDbEntity
  8
OUTLINE
100
AcDbCircle
 10
40.18693502473047
 20
268.7648583203326
 30
0.0
 40
0.8285224186728001
100
AcDbArc
 50
319.4246860210748
 51
40.5753139787888
  0
ARC
  5
93F80
330
93F39
100
AcDbEntity
  8
OUTLINE
100
AcDbCircle
 10
20.93004076299223
 20
287.9889507319071
 30
0.0
 40
0.8520069160212353
100
AcDbArc
 50
1.321630830146999
 51
49.61255460209542
  0
ARC
  5
93F81
330
93F39
100
AcDbEntity
  8
OUTLINE
100
AcDbCircle
 10
20.95634179378202
 20
287.9889507266243
 30
0.0
 40
0.8520069247820465
100
AcDbArc
 50
130.387445542019
 51
178.6783688279711
  0
LINE
  5
93F82
330
93F39
100
AcDbEntity
  8
OUTLINE
100
AcDbLine
 10
21.78182102212122
 20
310.9960749448164
 30
0.0
 11
21.78218651929609
 21
288.0086020703365
 31
0.0
  0
LINE
  5
93F83
330
93F39
100
AcDbEntity
  8
OUTLINE
100
AcDbLine
 10
20.10419603016771
 20
310.9958922522
 30
0.0
 11
20.10419603016771
 21
288.0086020703365
 31
0.0
  0
ARC
  5
93F84
330
93F39
100
AcDbEntity
  8
OUTLINE
100
AcDbCircle
 10
20.9431912747317
 20
288.0086020703375
 30
0.0
 40
0.74975625
100
AcDbArc
 50
0.0
 51
180.0
  0
ARC
  5
93F85
330
93F39
100
AcDbEntity
  8
OUTLINE
100
AcDbCircle
 10
20.9431912747317
 20
288.0086020703375
 30
0.0
 40
0.8285224186728001
100
AcDbArc
 50
49.42468602107484
 51
130.5753139787679
  0
LINE
  5
93F86
330
93F39
100
AcDbEntity
  8
OUTLINE
100
AcDbLine
 10
7.248646811304752
 20
309.5014076842617
 30
0.0
 11
7.248646811304752
 21
314.0001520703335
 31
0.0
  0
LINE
  5
93F87
330
93F39
100
AcDbEntity
  8
OUTLINE
100
AcDbLine
 10
7.248646811304752
 20
309.5014076842617
 30
0.0
 11
7.248646811304752
 21
291.0076270703411
 31
0.0
  0
LINE
  5
93F88
330
93F39
100
AcDbEntity
  8
OUTLINE
100
AcDbLine
 10
398.5609654206039
 20
207.3867654698071
 30
0.0
 11
398.5597308656512
 21
65.84113249799227
 31
0.0
  0
LINE
  5
93F89
330
93F39
100
AcDbEntity
  8
OUTLINE
100
AcDbLine
 10
400.5574942764698
 20
207.3867905943539
 30
0.0
 11
400.5587481776586
 21
65.84115765385425
 31
0.0
  0
ARC
  5
93F8A
330
93F39
100
AcDbEntity
  8
OUTLINE
100
AcDbCircle
 10
278.8888265753448
 20
271.7132741541163
 30
0.0
 40
241.6508016799371
100
AcDbArc
 50
273.0081209460427
 51
294.7268755974985
  0
ARC
  5
93F8B
330
93F39
100
AcDbEntity
  8
OUTLINE
100
AcDbCircle
 10
295.6957872896372
 20
274.6615036642892
 30
0.0
 40
245.1159139610431
100
AcDbArc
 50
274.7715913271989
 51
291.7943446534057
  0
LINE
  5
93F8C
330
93F39
100
AcDbEntity
  8
OUTLINE
100
AcDbLine
 10
291.5700562106231
 20
30.39544147800916
 30
0.0
 11
291.5711786224347
 21
52.21893434656886
 31
0.0
  0
ARC
  5
93F8D
330
93F39
100
AcDbEntity
  8
OUTLINE
100
AcDbCircle
 10
399.3785357854268
 20
53.71040979686785
 30
0.0
 40
14.31284183174794
100
AcDbArc
 50
185.9813883658867
 51
270.7212005822193
  0
ARC
  5
93F8E
330
93F39
100
AcDbEntity
  8
OUTLINE
100
AcDbCircle
 10
395.9368332183744
 20
46.97844057629635
 30
0.0
 40
2.660886982947731
100
AcDbArc
 50
227.0173545062388
 51
273.9840872417153
  0
ARC
  5
93F8F
330
93F39
100
AcDbEntity
  8
OUTLINE
100
AcDbCircle
 10
395.907338749042
 20
45.38954223718474
 30
0.0
 40
2.58003291738799
100
AcDbArc
 50
85.23489846360217
 51
133.7665437872163
  0
LINE
  5
93F90
330
93F39
100
AcDbEntity
  8
OUTLINE
100
AcDbLine
 10
394.1226742400824
 20
47.25274980493145
 30
0.0
 11
394.1227021882463
 21
45.03184145435386
 31
0.0
  0
ARC
  5
93F91
330
93F39
100
AcDbEntity
  8
OUTLINE
100
AcDbCircle
 10
399.6338485955931
 20
53.82855850369839
 30
0.0
 40
14.43005240975638
100
AcDbArc
 50
269.7015805249002
 51
353.5955185485915
  0
ARC
  5
93F92
330
93F39
100
AcDbEntity
  8
OUTLINE
100
AcDbCircle
 10
403.1895355676469
 20
47.01674128465225
 30
0.0
 40
2.69811252966753
100
AcDbArc
 50
266.3603584346621
 51
312.6410836803039
  0
ARC
  5
93F93
330
93F39
100
AcDbEntity
  8
OUTLINE
100
AcDbCircle
 10
402.8645594365196
 20
44.35027498693244
 30
0.0
 40
3.61373743163257
100
AcDbArc
 50
53.43831962198279
 51
87.56312795919022
  0
LINE
  5
93F94
330
93F39
100
AcDbEntity
  8
OUTLINE
100
AcDbLine
 10
405.0172467373854
 20
45.03197855254472
 30
0.0
 11
405.0172187892214
 21
47.25288690312225
 31
0.0
  0
LINE
  5
93F95
330
93F39
100
AcDbEntity
  8
OUTLINE
100
AcDbLine
 10
403.0182108826356
 20
47.96074442407655
 30
0.0
 11
396.1216643305157
 21
47.9606576371487
 31
0.0
  0
LINE
  5
93F96
330
93F39
100
AcDbEntity
  8
OUTLINE
100
AcDbLine
 10
396.1217100961657
 20
44.32398393206944
 30
0.0
 11
403.0182566456189
 21
44.32407072299446
 31
0.0
  0
ARC
  5
93F97
330
93F39
100
AcDbEntity
  8
OUTLINE
100
AcDbCircle
 10
392.9226582251315
 20
66.23727528519456
 30
0.0
 40
5.650974877164807
100
AcDbArc
 50
266.3489836977269
 51
355.9801730609084
  0
ARC
  5
93F98
330
93F39
100
AcDbEntity
  8
OUTLINE
100
AcDbCircle
 10
406.1796495679295
 20
66.21895745321356
 30
0.0
 40
5.633583684258593
100
AcDbArc
 50
183.845259648267
 51
273.8284676722074
  0
LINE
  5
93F99
330
93F39
100
AcDbEntity
  8
OUTLINE
100
AcDbLine
 10
66.54856728468701
 20
192.1345616284128
 30
0.0
 11
395.5625901102399
 21
192.171892016492
 31
0.0
  0
LINE
  5
93F9A
330
93F39
100
AcDbEntity
  8
OUTLINE
100
AcDbLine
 10
63.63293418829915
 20
189.7998821388106
 30
0.0
 11
59.72249381832586
 21
172.9703291526138
 31
0.0
  0
ARC
  5
93F9B
330
93F39
100
AcDbEntity
  8
OUTLINE
100
AcDbCircle
 10
66.57195236576706
 20
189.1174431401188
 30
0.0
 40
3.017209113472723
100
AcDbArc
 50
90.44407921824854
 51
166.9275944220219
  0
LINE
  5
93F9C
330
93F39
100
AcDbEntity
  8
OUTLINE
100
AcDbLine
 10
65.27877752473
 20
314.0001520703335
 30
0.0
 11
198.1355850247324
 21
314.0001520703335
 31
0.0
  0
LINE
  5
93F9D
330
93F39
100
AcDbEntity
  8
OUTLINE
100
AcDbLine
 10
102.6666225247305
 20
244.4598706747019
 30
0.0
 11
102.6666225247305
 21
311.0011270703417
 31
0.0
  0
LINE
  5
93F9E
330
93F39
100
AcDbEntity
  8
OUTLINE
100
AcDbLine
 10
102.4666875247326
 20
310.9958922522
 30
0.0
 11
102.4666875247326
 21
243.0284618871319
 31
0.0
  0
LINE
  5
93F9F
330
93F39
100
AcDbEntity
  8
OUTLINE
100
AcDbLine
 10
62.12633206422657
 20
214.9363754160069
 30
0.0
 11
77.31872446302157
 21
214.936566598805
 31
0.0
  0
LINE
  5
93FA0
330
93F39
100
AcDbEntity
  8
OUTLINE
100
AcDbLine
 10
62.12633206422657
 20
214.9363754160069
 30
0.0
 11
61.73148289302014
 21
207.4003899028866
 31
0.0
  0
LINE
  5
93FA1
330
93F39
100
AcDbEntity
  8
OUTLINE
100
AcDbLine
 10
77.31872446302157
 20
214.936566598805
 30
0.0
 11
77.71329925442064
 21
207.4094434510291
 31
0.0
  0
LINE
  5
93FA2
330
93F39
100
AcDbEntity
  8
OUTLINE
100
AcDbLine
 10
102.6666225247305
 20
241.523714570334
 30
0.0
 11
102.6666225247305
 21
207.3830419016583
 31
0.0
  0
LINE
  5
93FA3
330
93F39
100
AcDbEntity
  8
OUTLINE
100
AcDbLine
 10
102.4666875247326
 20
241.523714570334
 30
0.0
 11
102.4666875247327
 21
207.3830393856535
 31
0.0
  0
LINE
  5
93FA4
330
93F39
100
AcDbEntity
  8
OUTLINE
100
AcDbLine
 10
102.440521408816
 20
243.0227703388282
 30
0.0
 11
102.4666875247326
 21
241.523714570334
 31
0.0
  0
LINE
  5
93FA5
330
93F39
100
AcDbEntity
  8
OUTLINE
100
AcDbLine
 10
102.6791599234193
 20
243.0232270703363
 30
0.0
 11
102.6666225247305
 21
244.4598706747019
 31
0.0
  0
LINE
  5
93FA6
330
93F39
100
AcDbEntity
  8
OUTLINE
100
AcDbLine
 10
102.6666224794132
 20
241.5237132640941
 30
0.0
 11
102.7189381472922
 21
243.0218379846046
 31
0.0
  0
ARC
  5
93FA7
330
93F39
100
AcDbEntity
  8
OUTLINE
100
AcDbCircle
 10
69.17751002473
 20
288.0086020703375
 30
0.0
 40
18.40474850543548
100
AcDbArc
 50
270.0
 51
0.0
  0
ARC
  5
93FA8
330
93F39
100
AcDbEntity
  8
OUTLINE
100
AcDbCircle
 10
69.17751002473
 20
288.0086020703375
 30
0.0
 40
18.49398749999998
100
AcDbArc
 50
270.0
 51
0.0
  0
ARC
  5
93FA9
330
93F39
100
AcDbEntity
  8
OUTLINE
100
AcDbCircle
 10
69.17751002473
 20
288.0086020703375
 30
0.0
 40
19.9935
100
AcDbArc
 50
270.0
 51
0.0
  0
ARC
  5
93FAA
330
93F39
100
AcDbEntity
  8
OUTLINE
100
AcDbCircle
 10
69.17751002473
 20
288.0086020703375
 30
0.0
 40
20.0827389945645
100
AcDbArc
 50
270.0
 51
0.0
  0
ARC
  5
93FAB
330
93F39
100
AcDbEntity
  8
OUTLINE
100
AcDbCircle
 10
69.1984655304472
 20
268.7797061149367
 30
0.0
 40
0.8541001514746668
100
AcDbArc
 50
220.4174817586982
 51
268.5940963396108
  0
ARC
  5
93FAC
330
93F39
100
AcDbEntity
  8
OUTLINE
100
AcDbCircle
 10
69.19716136011221
 20
268.751707815958
 30
0.0
 40
0.8520069085968742
100
AcDbArc
 50
91.3216306367992
 51
139.6125548939975
  0
ARC
  5
93FAD
330
93F39
100
AcDbEntity
  8
OUTLINE
100
AcDbCircle
 10
69.17751002473
 20
268.7648583203326
 30
0.0
 40
0.74975625
100
AcDbArc
 50
90.0
 51
270.0
  0
ARC
  5
93FAE
330
93F39
100
AcDbEntity
  8
OUTLINE
100
AcDbCircle
 10
69.17751002473
 20
268.7648583203326
 30
0.0
 40
0.8285224186728001
100
AcDbArc
 50
139.4246860210748
 51
220.5753139787866
  0
ARC
  5
93FAF
330
93F39
100
AcDbEntity
  8
OUTLINE
100
AcDbCircle
 10
88.32485100923856
 20
287.9487569419339
 30
0.0
 40
0.9373104559397328
100
AcDbArc
 50
3.660701754115066
 51
47.32772860973271
  0
ARC
  5
93FB0
330
93F39
100
AcDbEntity
  8
OUTLINE
100
AcDbCircle
 10
88.43610157571248
 20
287.9876465615702
 30
0.0
 40
0.8541001579303198
100
AcDbArc
 50
130.4174819516818
 51
178.5940961455981
  0
ARC
  5
93FB1
330
93F39
100
AcDbEntity
  8
OUTLINE
100
AcDbCircle
 10
88.42125377473195
 20
288.0086020703375
 30
0.0
 40
0.74975625
100
AcDbArc
 50
0.0
 51
180.0
  0
ARC
  5
93FB2
330
93F39
100
AcDbEntity
  8
OUTLINE
100
AcDbCircle
 10
88.42125377473195
 20
288.0086020703375
 30
0.0
 40
0.8285224186728001
100
AcDbArc
 50
49.42468602107484
 51
130.5753139787679
  0
LINE
  5
93FB3
330
93F39
100
AcDbEntity
  8
OUTLINE
100
AcDbLine
 10
89.25988352212124
 20
310.9960749448164
 30
0.0
 11
89.26024901929622
 21
288.0086020703365
 31
0.0
  0
LINE
  5
93FB4
330
93F39
100
AcDbEntity
  8
OUTLINE
100
AcDbLine
 10
87.58225853016801
 20
310.9958922522
 30
0.0
 11
87.58225853016801
 21
288.0086020703365
 31
0.0
  0
LINE
  5
93FB5
330
93F39
100
AcDbEntity
  8
OUTLINE
100
AcDbLine
 10
102.5186335781105
 20
268.8779395609908
 30
0.0
 11
102.4684323748051
 21
268.5764644389182
 31
0.0
  0
LINE
  5
93FB6
330
93F39
100
AcDbEntity
  8
OUTLINE
100
AcDbLine
 10
176.6420567270915
 20
305.3866212033062
 30
0.0
 11
175.2485542046718
 21
306.3032207293495
 31
0.0
  0
LINE
  5
93FB7
330
93F39
100
AcDbEntity
  8
OUTLINE
100
AcDbLine
 10
175.5857760899043
 20
307.936708242235
 30
0.0
 11
176.4027493219505
 21
308.7536814756149
 31
0.0
  0
LINE
  5
93FB8
330
93F39
100
AcDbEntity
  8
OUTLINE
100
AcDbLine
 10
176.6420567270907
 20
306.3824921386903
 30
0.0
 11
176.1488984746175
 21
306.6761556276055
 31
0.0
  0
LINE
  5
93FB9
330
93F39
100
AcDbEntity
  8
OUTLINE
100
AcDbLine
 10
176.2899621576953
 20
307.2325201884268
 30
0.0
 11
177.1069364134064
 21
308.0494943841513
 31
0.0
  0
LINE
  5
93FBA
330
93F39
100
AcDbEntity
  8
OUTLINE
100
AcDbLine
 10
176.2899625596629
 20
307.2325217738139
 30
0.0
 11
176.448638929658
 21
307.2982467990223
 31
0.0
  0
LINE
  5
93FBB
330
93F39
100
AcDbEntity
  8
OUTLINE
100
AcDbLine
 10
175.2485542046718
 20
306.3032207293495
 30
0.0
 11
175.5857760899043
 21
307.936708242235
 31
0.0
  0
LINE
  5
93FBC
330
93F39
100
AcDbEntity
  8
OUTLINE
100
AcDbLine
 10
176.1488984746175
 20
306.6761556276055
 30
0.0
 11
176.2899621576953
 21
307.2325201884268
 31
0.0
  0
LINE
  5
93FBD
330
93F39
100
AcDbEntity
  8
OUTLINE
100
AcDbLine
 10
176.4027493219519
 20
308.7536814756203
 30
0.0
 11
178.1420850247345
 21
309.6816575800076
 31
0.0
  0
LINE
  5
93FBE
330
93F39
100
AcDbEntity
  8
OUTLINE
100
AcDbLine
 10
178.1420850247345
 20
309.6816575800076
 30
0.0
 11
179.8814207261904
 21
308.7536814756203
 31
0.0
  0
LINE
  5
93FBF
330
93F39
100
AcDbEntity
  8
OUTLINE
100
AcDbLine
 10
179.8814207261904
 20
308.7536814756203
 30
0.0
 11
180.6983939595644
 21
307.936708242235
 31
0.0
  0
LINE
  5
93FC0
330
93F39
100
AcDbEntity
  8
OUTLINE
100
AcDbLine
 10
180.6983939595644
 20
307.936708242235
 30
0.0
 11
181.0356153008929
 21
306.3032194191505
 31
0.0
  0
LINE
  5
93FC1
330
93F39
100
AcDbEntity
  8
OUTLINE
100
AcDbLine
 10
181.0356153008929
 20
306.3032194191505
 30
0.0
 11
179.6421133223784
 21
305.3866212033062
 31
0.0
  0
LINE
  5
93FC2
330
93F39
100
AcDbEntity
  8
OUTLINE
100
AcDbLine
 10
179.6421133223784
 20
305.3866212033062
 30
0.0
 11
176.6420567270915
 21
305.3866212033062
 31
0.0
  0
LINE
  5
93FC3
330
93F39
100
AcDbEntity
  8
OUTLINE
100
AcDbLine
 10
177.1069364134064
 20
308.0494943841513
 30
0.0
 11
178.1420850740523
 21
308.9174664375332
 31
0.0
  0
LINE
  5
93FC4
330
93F39
100
AcDbEntity
  8
OUTLINE
100
AcDbLine
 10
178.1420850740523
 20
308.9174664375332
 30
0.0
 11
179.1772336360618
 21
308.0494943841613
 31
0.0
  0
LINE
  5
93FC5
330
93F39
100
AcDbEntity
  8
OUTLINE
100
AcDbLine
 10
179.1772336360618
 20
308.0494943841613
 30
0.0
 11
179.9942084555888
 21
307.2325196579222
 31
0.0
  0
LINE
  5
93FC6
330
93F39
100
AcDbEntity
  8
OUTLINE
100
AcDbLine
 10
179.9942084555888
 20
307.2325196579222
 30
0.0
 11
180.1352709781039
 21
306.6761541899391
 31
0.0
  0
LINE
  5
93FC7
330
93F39
100
AcDbEntity
  8
OUTLINE
100
AcDbLine
 10
180.1352709781039
 20
306.6761541899391
 30
0.0
 11
179.6421147859009
 21
306.382492093373
 31
0.0
  0
LINE
  5
93FC8
330
93F39
100
AcDbEntity
  8
OUTLINE
100
AcDbLine
 10
179.6421147859009
 20
306.382492093373
 30
0.0
 11
176.6420567270907
 21
306.3824921386903
 31
0.0
  0
LINE
  5
93FC9
330
93F39
100
AcDbEntity
  8
OUTLINE
100
AcDbLine
 10
176.6420567270907
 20
306.3824921386903
 30
0.0
 11
176.8007324753748
 21
306.4482177855798
 31
0.0
  0
LINE
  5
93FCA
330
93F39
100
AcDbEntity
  8
OUTLINE
100
AcDbLine
 10
176.8007324753748
 20
306.4482177855798
 30
0.0
 11
179.4834375727638
 21
306.4482177855798
 31
0.0
  0
LINE
  5
93FCB
330
93F39
100
AcDbEntity
  8
OUTLINE
100
AcDbLine
 10
179.4834375727638
 20
306.4482177855798
 30
0.0
 11
179.6421133223784
 21
306.3824912218824
 31
0.0
  0
LINE
  5
93FCC
330
93F39
100
AcDbEntity
  8
OUTLINE
100
AcDbLine
 10
179.6421133223784
 20
306.3824912218824
 30
0.0
 11
179.6421133223784
 21
305.3866212033062
 31
0.0
  0
LINE
  5
93FCD
330
93F39
100
AcDbEntity
  8
OUTLINE
100
AcDbLine
 10
176.6420567270915
 20
305.3866212033062
 30
0.0
 11
176.6420567270907
 21
306.3824921386903
 31
0.0
  0
LINE
  5
93FCE
330
93F39
100
AcDbEntity
  8
OUTLINE
100
AcDbLine
 10
176.448638929658
 20
307.2982467990223
 30
0.0
 11
179.83553111847
 21
307.2982467990309
 31
0.0
  0
LINE
  5
93FCF
330
93F39
100
AcDbEntity
  8
OUTLINE
100
AcDbLine
 10
179.83553111847
 20
307.2982467990309
 30
0.0
 11
179.9942062764174
 21
307.2325205604252
 31
0.0
  0
LINE
  5
93FD0
330
93F39
100
AcDbEntity
  8
OUTLINE
100
AcDbLine
 10
178.1420850247313
 20
309.6816575800076
 30
0.0
 11
178.1420850247342
 21
308.9174663961799
 31
0.0
  0
ARC
  5
93FD1
330
93F39
100
AcDbEntity
  8
OUTLINE
100
AcDbCircle
 10
403.5650342150795
 20
116.9519982266884
 30
0.0
 40
3.004927087132772
100
AcDbArc
 50
188.233575371534
 51
269.8396414831917
  0
ARC
  5
93FD2
330
93F39
100
AcDbEntity
  8
OUTLINE
100
AcDbCircle
 10
395.5511251366449
 20
116.9531964778938
 30
0.0
 40
3.002429260882677
100
AcDbArc
 50
270.1711069435637
 51
354.3472510524965
  0
ARC
  5
93FD3
330
93F39
100
AcDbEntity
  8
OUTLINE
100
AcDbCircle
 10
395.5452887794871
 20
189.1561029911451
 30
0.0
 40
3.015838653086248
100
AcDbArc
 50
0.4112239275033325
 51
89.67130248543034
  0
ARC
  5
93FD4
330
93F39
100
AcDbEntity
  8
OUTLINE
100
AcDbCircle
 10
403.5731902638228
 20
189.156128147007
 30
0.0
 40
3.015838653086248
100
AcDbArc
 50
90.32869751456967
 51
179.5887760724966
  0
LINE
  5
93FD5
330
93F39
100
AcDbEntity
  8
OUTLINE
100
AcDbLine
 10
785.2706993074706
 20
53.93930437143717
 30
0.0
 11
794.4322908638626
 21
54.24545189638275
 31
0.0
  0
LINE
  5
93FD6
330
93F39
100
AcDbEntity
  8
OUTLINE
100
AcDbLine
 10
783.1599307141823
 20
53.939304371437
 30
0.0
 11
793.5967714508988
 21
53.93930437143712
 31
0.0
  0
LINE
  5
93FD7
330
93F39
100
AcDbEntity
  8
OUTLINE
100
AcDbLine
 10
798.999837524733
 20
241.523714570334
 30
0.0
 11
680.8286587747311
 21
241.523714570334
 31
0.0
  0
LINE
  5
93FD8
330
93F39
100
AcDbEntity
  8
OUTLINE
100
AcDbLine
 10
733.8614175247301
 20
314.0001520703326
 30
0.0
 11
791.8915482381566
 21
314.0001520703326
 31
0.0
  0
LINE
  5
93FD9
330
93F39
100
AcDbEntity
  8
OUTLINE
100
AcDbLine
 10
781.9457850247322
 20
242.8775357434151
 30
0.0
 11
798.799837524733
 21
243.0246188308797
 31
0.0
  0
ARC
  5
93FDA
330
93F39
100
AcDbEntity
  8
OUTLINE
100
AcDbCircle
 10
773.9865181358113
 20
36.31359738822664
 30
0.0
 40
36.31349813204556
100
AcDbArc
 50
269.9022810501201
 51
307.2977318877515
  0
LINE
  5
93FDB
330
93F39
100
AcDbEntity
  8
OUTLINE
100
AcDbLine
 10
779.8688309726702
 20
58.05013882912607
 30
0.0
 11
779.8681960939894
 21
113.1570908475867
 31
0.0
  0
LINE
  5
93FDC
330
93F39
100
AcDbEntity
  8
OUTLINE
100
AcDbLine
 10
783.7661582860696
 20
138.7269357904781
 30
0.0
 11
783.7667199523561
 21
75.96505113492449
 31
0.0
  0
LINE
  5
93FDD
330
93F39
100
AcDbEntity
  8
OUTLINE
100
AcDbLine
 10
507.5635580478621
 20
30.39248563310843
 30
0.0
 11
507.5699376065757
 21
52.21893434656886
 31
0.0
  0
ARC
  5
93FDE
330
93F39
100
AcDbEntity
  8
OUTLINE
100
AcDbCircle
 10
777.0265567956848
 20
58.16873965311351
 30
0.0
 40
2.844747555163562
100
AcDbArc
 50
266.8526086974837
 51
357.610579981728
  0
LINE
  5
93FDF
330
93F39
100
AcDbEntity
  8
OUTLINE
100
AcDbLine
 10
784.1360910679152
 20
55.19946281588545
 30
0.0
 11
782.9851625856782
 21
75.96504129971757
 31
0.0
  0
LINE
  5
93FE0
330
93F39
100
AcDbEntity
  8
OUTLINE
100
AcDbLine
 10
776.8703667325706
 20
55.32828311994961
 30
0.0
 11
782.400263753323
 21
55.32828311994956
 31
0.0
  0
ARC
  5
93FE1
330
93F39
100
AcDbEntity
  8
OUTLINE
100
AcDbCircle
 10
785.7127923816513
 20
55.47821404930317
 30
0.0
 40
1.601152485826618
100
AcDbArc
 50
190.0259458247059
 51
253.9718685608548
  0
ARC
  5
93FE2
330
93F39
100
AcDbEntity
  8
OUTLINE
100
AcDbCircle
 10
785.299009758078
 20
56.01144954069622
 30
0.0
 40
2.97816130498645
100
AcDbArc
 50
193.261279742091
 51
224.0894083436467
  0
ARC
  5
93FE3
330
93F39
100
AcDbEntity
  8
OUTLINE
100
AcDbCircle
 10
777.0265567956851
 20
63.44306219443365
 30
0.0
 40
2.844747555163562
100
AcDbArc
 50
266.8526086974837
 51
357.610579981728
  0
LINE
  5
93FE4
330
93F39
100
AcDbEntity
  8
OUTLINE
100
AcDbLine
 10
779.8686716827742
 20
75.96500208144056
 30
0.0
 11
783.7667199523561
 21
75.96505113492449
 31
0.0
  0
LINE
  5
93FE5
330
93F39
100
AcDbEntity
  8
OUTLINE
100
AcDbLine
 10
601.0046100247312
 20
314.0001520703335
 30
0.0
 11
733.8614175247307
 21
314.0001520703335
 31
0.0
  0
ARC
  5
93FE6
330
93F39
100
AcDbEntity
  8
OUTLINE
100
AcDbCircle
 10
770.2283341152097
 20
197.4003942733294
 30
0.0
 40
9.991048616941043
100
AcDbArc
 50
4.759577003709311
 51
90.01514756888076
  0
ARC
  5
93FE7
330
93F39
100
AcDbEntity
  8
OUTLINE
100
AcDbCircle
 10
776.8589966386785
 20
142.0500881922581
 30
0.0
 40
3.008849846565353
100
AcDbArc
 50
0.1151205600153193
 51
89.86099490364342
  0
ARC
  5
93FE8
330
93F39
100
AcDbEntity
  8
OUTLINE
100
AcDbCircle
 10
69.62579302916435
 20
125.6045305090401
 30
0.0
 40
714.2609178791992
100
AcDbArc
 50
1.052697583135612
 51
5.835825314932304
  0
ARC
  5
93FE9
330
93F39
100
AcDbEntity
  8
OUTLINE
100
AcDbCircle
 10
776.9092631096599
 20
116.905337515721
 30
0.0
 40
2.959594806475893
100
AcDbArc
 50
269.2338176095972
 51
1.2599413899619
  0
ARC
  5
93FEA
330
93F39
100
AcDbEntity
  8
OUTLINE
100
AcDbCircle
 10
776.9146032747859
 20
113.0211832489978
 30
0.0
 40
2.956718014455227
100
AcDbArc
 50
357.3667515679095
 51
41.08150734273357
  0
LINE
  5
93FEB
330
93F39
100
AcDbEntity
  8
OUTLINE
100
AcDbLine
 10
779.8678403978725
 20
142.0572743508512
 30
0.0
 11
779.8681423658142
 21
116.9704141322517
 31
0.0
  0
LINE
  5
93FEC
330
93F39
100
AcDbEntity
  8
OUTLINE
100
AcDbLine
 10
753.999771079613
 20
173.0120088222388
 30
0.0
 11
739.3946752192976
 21
173.0118250300471
 31
0.0
  0
ARC
  5
93FED
330
93F39
100
AcDbEntity
  8
OUTLINE
100
AcDbCircle
 10
732.5452166718563
 20
189.1589390175521
 30
0.0
 40
3.017209113472723
100
AcDbArc
 50
13.07240557797802
 51
89.55592078175147
  0
LINE
  5
93FEE
330
93F39
100
AcDbEntity
  8
OUTLINE
100
AcDbLine
 10
735.4842348493242
 20
189.841378016244
 30
0.0
 11
739.3946752192976
 21
173.0118250300471
 31
0.0
  0
ARC
  5
93FEF
330
93F39
100
AcDbEntity
  8
OUTLINE
100
AcDbCircle
 10
753.9763859985331
 20
169.9948903339447
 30
0.0
 40
3.017209113472723
100
AcDbArc
 50
13.07240557797802
 51
89.55592078175147
  0
LINE
  5
93FF0
330
93F39
100
AcDbEntity
  8
OUTLINE
100
AcDbLine
 10
776.866296387842
 20
145.059253665382
 30
0.0
 11
762.8679476703621
 21
145.0590775085656
 31
0.0
  0
LINE
  5
93FF1
330
93F39
100
AcDbEntity
  8
OUTLINE
100
AcDbLine
 10
756.9154041760011
 20
170.6773293326366
 30
0.0
 11
762.8679476703621
 21
145.0590775085657
 31
0.0
  0
LINE
  5
93FF2
330
93F39
100
AcDbEntity
  8
OUTLINE
100
AcDbLine
 10
690.8115175144494
 20
214.9442868620628
 30
0.0
 11
706.0039099132447
 21
214.9444780448611
 31
0.0
  0
LINE
  5
93FF3
330
93F39
100
AcDbEntity
  8
OUTLINE
100
AcDbLine
 10
680.8286587747311
 20
243.0284618871319
 30
0.0
 11
781.9457850247322
 21
243.0284618871319
 31
0.0
  0
LINE
  5
93FF4
330
93F39
100
AcDbEntity
  8
OUTLINE
100
AcDbLine
 10
680.7661955581566
 20
311.0005118821919
 30
0.0
 11
680.7666413885759
 21
207.3903167782105
 31
0.0
  0
LINE
  5
93FF5
330
93F39
100
AcDbEntity
  8
OUTLINE
100
AcDbLine
 10
680.8286587747311
 20
243.0284618871319
 30
0.0
 11
680.8286587747311
 21
310.9958922522
 31
0.0
  0
LINE
  5
93FF6
330
93F39
100
AcDbEntity
  8
OUTLINE
100
AcDbLine
 10
680.6287237747328
 20
244.4598706747019
 30
0.0
 11
680.6287237747328
 21
311.0011270703417
 31
0.0
  0
LINE
  5
93FF7
330
93F39
100
AcDbEntity
  8
OUTLINE
100
AcDbLine
 10
680.5667401634259
 20
207.3903142626307
 30
0.0
 11
680.5663401296907
 21
241.523714570334
 31
0.0
  0
LINE
  5
93FF8
330
93F39
100
AcDbEntity
  8
OUTLINE
100
AcDbLine
 10
690.8115175144494
 20
214.9442868620628
 30
0.0
 11
690.4180475678388
 21
207.434624872789
 31
0.0
  0
LINE
  5
93FF9
330
93F39
100
AcDbEntity
  8
OUTLINE
100
AcDbLine
 10
680.8286587747311
 20
243.0232270703363
 30
0.0
 11
680.8269139233248
 21
243.0249719204093
 31
0.0
  0
LINE
  5
93FFA
330
93F39
100
AcDbEntity
  8
OUTLINE
100
AcDbLine
 10
680.5764081521678
 20
243.0218379846046
 30
0.0
 11
680.6287238200501
 21
241.5237132627598
 31
0.0
  0
LINE
  5
93FFB
330
93F39
100
AcDbEntity
  8
OUTLINE
100
AcDbLine
 10
680.6161863760443
 20
243.0232270703363
 30
0.0
 11
680.6287237747328
 21
244.4598706747019
 31
0.0
  0
LINE
  5
93FFC
330
93F39
100
AcDbEntity
  8
OUTLINE
100
AcDbLine
 10
680.8548248906439
 20
243.0227703388282
 30
0.0
 11
680.8286587747311
 21
241.523714570334
 31
0.0
  0
LINE
  5
93FFD
330
93F39
100
AcDbEntity
  8
OUTLINE
100
AcDbLine
 10
680.8269139233248
 20
243.0249719204093
 30
0.0
 11
680.8286587747311
 21
243.0284618871319
 31
0.0
  0
LINE
  5
93FFE
330
93F39
100
AcDbEntity
  8
OUTLINE
100
AcDbLine
 10
620.998110024728
 20
309.6816575800076
 30
0.0
 11
620.9981100247309
 21
308.9174663961799
 31
0.0
  0
LINE
  5
93FFF
330
93F39
100
AcDbEntity
  8
OUTLINE
100
AcDbLine
 10
622.6915561184669
 20
307.2982467990304
 30
0.0
 11
622.8502312764142
 21
307.2325205604247
 31
0.0
  0
LINE
  5
94000
330
93F39
100
AcDbEntity
  8
OUTLINE
100
AcDbLine
 10
619.3046639296547
 20
307.2982467990218
 30
0.0
 11
622.6915561184669
 21
307.2982467990304
 31
0.0
  0
LINE
  5
94001
330
93F39
100
AcDbEntity
  8
OUTLINE
100
AcDbLine
 10
619.1459875596597
 20
307.2325217738134
 30
0.0
 11
619.3046639296547
 21
307.2982467990218
 31
0.0
  0
LINE
  5
94002
330
93F39
100
AcDbEntity
  8
OUTLINE
100
AcDbLine
 10
619.4980817270882
 20
305.3866212033062
 30
0.0
 11
619.4980817270873
 21
306.3824921386903
 31
0.0
  0
LINE
  5
94003
330
93F39
100
AcDbEntity
  8
OUTLINE
100
AcDbLine
 10
622.4981383223753
 20
306.3824912218819
 30
0.0
 11
622.4981383223753
 21
305.3866212033062
 31
0.0
  0
LINE
  5
94004
330
93F39
100
AcDbEntity
  8
OUTLINE
100
AcDbLine
 10
622.3394625727604
 20
306.4482177855798
 30
0.0
 11
622.4981383223753
 21
306.3824912218819
 31
0.0
  0
LINE
  5
94005
330
93F39
100
AcDbEntity
  8
OUTLINE
100
AcDbLine
 10
619.6567574753717
 20
306.4482177855798
 30
0.0
 11
622.3394625727604
 21
306.4482177855798
 31
0.0
  0
LINE
  5
94006
330
93F39
100
AcDbEntity
  8
OUTLINE
100
AcDbLine
 10
619.4980817270873
 20
306.3824921386903
 30
0.0
 11
619.6567574753717
 21
306.4482177855798
 31
0.0
  0
LINE
  5
94007
330
93F39
100
AcDbEntity
  8
OUTLINE
100
AcDbLine
 10
622.4981397858978
 20
306.382492093373
 30
0.0
 11
619.4980817270873
 21
306.3824921386903
 31
0.0
  0
LINE
  5
94008
330
93F39
100
AcDbEntity
  8
OUTLINE
100
AcDbLine
 10
622.9912959781006
 20
306.6761541899386
 30
0.0
 11
622.4981397858978
 21
306.382492093373
 31
0.0
  0
LINE
  5
94009
330
93F39
100
AcDbEntity
  8
OUTLINE
100
AcDbLine
 10
622.8502334555854
 20
307.2325196579222
 30
0.0
 11
622.9912959781006
 21
306.6761541899386
 31
0.0
  0
LINE
  5
9400A
330
93F39
100
AcDbEntity
  8
OUTLINE
100
AcDbLine
 10
622.0332586360586
 20
308.0494943841613
 30
0.0
 11
622.8502334555854
 21
307.2325196579222
 31
0.0
  0
LINE
  5
9400B
330
93F39
100
AcDbEntity
  8
OUTLINE
100
AcDbLine
 10
620.9981100740492
 20
308.9174664375332
 30
0.0
 11
622.0332586360586
 21
308.0494943841613
 31
0.0
  0
LINE
  5
9400C
330
93F39
100
AcDbEntity
  8
OUTLINE
100
AcDbLine
 10
619.9629614134032
 20
308.0494943841513
 30
0.0
 11
620.9981100740492
 21
308.9174664375332
 31
0.0
  0
LINE
  5
9400D
330
93F39
100
AcDbEntity
  8
OUTLINE
100
AcDbLine
 10
619.1459871576921
 20
307.2325201884268
 30
0.0
 11
619.9629614134032
 21
308.0494943841513
 31
0.0
  0
LINE
  5
9400E
330
93F39
100
AcDbEntity
  8
OUTLINE
100
AcDbLine
 10
619.0049234746145
 20
306.6761556276051
 30
0.0
 11
619.1459871576921
 21
307.2325201884268
 31
0.0
  0
LINE
  5
9400F
330
93F39
100
AcDbEntity
  8
OUTLINE
100
AcDbLine
 10
619.4980817270873
 20
306.3824921386903
 30
0.0
 11
619.0049234746145
 21
306.6761556276051
 31
0.0
  0
LINE
  5
94010
330
93F39
100
AcDbEntity
  8
OUTLINE
100
AcDbLine
 10
618.4418010899012
 20
307.936708242235
 30
0.0
 11
619.2587743219473
 21
308.7536814756149
 31
0.0
  0
LINE
  5
94011
330
93F39
100
AcDbEntity
  8
OUTLINE
100
AcDbLine
 10
618.1045792046683
 20
306.303220729349
 30
0.0
 11
618.4418010899012
 21
307.936708242235
 31
0.0
  0
LINE
  5
94012
330
93F39
100
AcDbEntity
  8
OUTLINE
100
AcDbLine
 10
619.4980817270882
 20
305.3866212033062
 30
0.0
 11
618.1045792046683
 21
306.303220729349
 31
0.0
  0
LINE
  5
94013
330
93F39
100
AcDbEntity
  8
OUTLINE
100
AcDbLine
 10
622.4981383223753
 20
305.3866212033062
 30
0.0
 11
619.4980817270882
 21
305.3866212033062
 31
0.0
  0
LINE
  5
94014
330
93F39
100
AcDbEntity
  8
OUTLINE
100
AcDbLine
 10
623.8916403008897
 20
306.30321941915
 30
0.0
 11
622.4981383223753
 21
305.3866212033062
 31
0.0
  0
LINE
  5
94015
330
93F39
100
AcDbEntity
  8
OUTLINE
100
AcDbLine
 10
623.5544189595612
 20
307.936708242235
 30
0.0
 11
623.8916403008897
 21
306.30321941915
 31
0.0
  0
LINE
  5
94016
330
93F39
100
AcDbEntity
  8
OUTLINE
100
AcDbLine
 10
622.737445726187
 20
308.7536814756203
 30
0.0
 11
623.5544189595612
 21
307.936708242235
 31
0.0
  0
LINE
  5
94017
330
93F39
100
AcDbEntity
  8
OUTLINE
100
AcDbLine
 10
620.9981100247314
 20
309.6816575800076
 30
0.0
 11
622.737445726187
 21
308.7536814756203
 31
0.0
  0
LINE
  5
94018
330
93F39
100
AcDbEntity
  8
OUTLINE
100
AcDbLine
 10
619.2587743219487
 20
308.7536814756203
 30
0.0
 11
620.9981100247314
 21
309.6816575800076
 31
0.0
  0
ARC
  5
94019
330
93F39
100
AcDbEntity
  8
OUTLINE
100
AcDbCircle
 10
680.6960638487598
 20
307.0032971514636
 30
0.0
 40
3.997829918870273
100
AcDbArc
 50
88.12146405093576
 51
89.99940693929966
  0
LINE
  5
9401A
330
93F39
100
AcDbEntity
  8
OUTLINE
100
AcDbLine
 10
680.8271157665246
 20
310.998978502005
 30
0.0
 11
680.8286587747311
 21
310.9958922522
 31
0.0
  0
LINE
  5
9401B
330
93F39
100
AcDbEntity
  8
OUTLINE
100
AcDbLine
 10
706.0039099132447
 20
214.9444780448611
 30
0.0
 11
706.3980441514352
 21
207.4257591257798
 31
0.0
  0
LINE
  5
9401C
330
93F39
100
AcDbEntity
  8
OUTLINE
100
AcDbLine
 10
704.6709075247329
 20
214.9823433203337
 30
0.0
 11
704.673527062439
 21
214.9323595703353
 31
0.0
  0
LINE
  5
9401D
330
93F39
100
AcDbEntity
  8
OUTLINE
100
AcDbLine
 10
704.6709075247329
 20
214.9323595703353
 30
0.0
 11
704.6709075247329
 21
214.9823433203337
 31
0.0
  0
LINE
  5
9401E
330
93F39
100
AcDbEntity
  8
OUTLINE
100
AcDbLine
 10
781.9457850247322
 20
243.0284618871319
 30
0.0
 11
781.9457850247322
 21
242.8775357434151
 31
0.0
  0
LINE
  5
9401F
330
93F39
100
AcDbEntity
  8
OUTLINE
100
AcDbLine
 10
727.9633350247327
 20
267.9263187889519
 30
0.0
 11
743.9581350247302
 21
267.9263187889519
 31
0.0
  0
LINE
  5
94020
330
93F39
100
AcDbEntity
  8
OUTLINE
100
AcDbLine
 10
727.9633350247327
 20
269.6037633475616
 30
0.0
 11
743.9581350247302
 21
269.6037633475616
 31
0.0
  0
ARC
  5
94021
330
93F39
100
AcDbEntity
  8
OUTLINE
100
AcDbCircle
 10
727.9633350247323
 20
288.0086020703365
 30
0.0
 40
18.40483872277198
100
AcDbArc
 50
180.0
 51
270.0
  0
ARC
  5
94022
330
93F39
100
AcDbEntity
  8
OUTLINE
100
AcDbCircle
 10
727.9633350247323
 20
288.0086020703365
 30
0.0
 40
18.49398749999998
100
AcDbArc
 50
180.0
 51
270.0
  0
ARC
  5
94023
330
93F39
100
AcDbEntity
  8
OUTLINE
100
AcDbCircle
 10
727.9633350247323
 20
288.0086020703365
 30
0.0
 40
19.9935
100
AcDbArc
 50
180.0
 51
270.0
  0
ARC
  5
94024
330
93F39
100
AcDbEntity
  8
OUTLINE
100
AcDbCircle
 10
727.9633350247323
 20
288.0086020703365
 30
0.0
 40
20.082648777228
100
AcDbArc
 50
180.0
 51
270.0
  0
ARC
  5
94025
330
93F39
100
AcDbEntity
  8
OUTLINE
100
AcDbCircle
 10
727.9633350247323
 20
268.7648583203317
 30
0.0
 40
0.74975625
100
AcDbArc
 50
270.0
 51
90.0
  0
ARC
  5
94026
330
93F39
100
AcDbEntity
  8
OUTLINE
100
AcDbCircle
 10
727.9633350247323
 20
268.7648583203317
 30
0.0
 40
0.8284322013363
100
AcDbArc
 50
319.4275574709068
 51
40.57244252696831
  0
ARC
  5
94027
330
93F39
100
AcDbEntity
  8
OUTLINE
100
AcDbCircle
 10
727.9423807497135
 20
268.7797037833261
 30
0.0
 40
0.8540076001933554
100
AcDbArc
 50
271.4059734598105
 51
319.5853859236142
  0
ARC
  5
94028
330
93F39
100
AcDbEntity
  8
OUTLINE
100
AcDbCircle
 10
727.7864811520949
 20
268.4230991182198
 30
0.0
 40
1.193836385239265
100
AcDbArc
 50
47.52774180503757
 51
81.48089873842879
  0
ARC
  5
94029
330
93F39
100
AcDbEntity
  8
OUTLINE
100
AcDbCircle
 10
708.7195912747302
 20
288.0086020703365
 30
0.0
 40
0.74975625
100
AcDbArc
 50
0.0
 51
180.0
  0
ARC
  5
9402A
330
93F39
100
AcDbEntity
  8
OUTLINE
100
AcDbCircle
 10
708.7195912747302
 20
288.0086020703365
 30
0.0
 40
0.8284322013363
100
AcDbArc
 50
49.42755747097148
 51
130.5724425291119
  0
LINE
  5
9402B
330
93F39
100
AcDbEntity
  8
OUTLINE
100
AcDbLine
 10
709.5581308047862
 20
310.9960749448164
 30
0.0
 11
709.5584963019576
 21
288.0086020703365
 31
0.0
  0
LINE
  5
9402C
330
93F39
100
AcDbEntity
  8
OUTLINE
100
AcDbLine
 10
707.8806862475034
 20
310.9958922522
 30
0.0
 11
707.8806862475034
 21
288.0086020703365
 31
0.0
  0
ARC
  5
9402D
330
93F39
100
AcDbEntity
  8
OUTLINE
100
AcDbCircle
 10
708.7064429221786
 20
287.9889519113767
 30
0.0
 40
0.8519145368683441
100
AcDbArc
 50
1.321694822795618
 51
49.61542600566826
  0
ARC
  5
9402E
330
93F39
100
AcDbEntity
  8
OUTLINE
100
AcDbCircle
 10
708.7327396433836
 20
287.9889519030789
 30
0.0
 40
0.851914554485978
100
AcDbArc
 50
130.384574526001
 51
178.6783046464509
  0
ARC
  5
9402F
330
93F39
100
AcDbEntity
  8
OUTLINE
100
AcDbCircle
 10
743.9581350247299
 20
288.0086020703365
 30
0.0
 40
18.40483872277198
100
AcDbArc
 50
270.0
 51
0.0
  0
ARC
  5
94030
330
93F39
100
AcDbEntity
  8
OUTLINE
100
AcDbCircle
 10
743.9581350247299
 20
288.0086020703365
 30
0.0
 40
18.49398749999998
100
AcDbArc
 50
270.0
 51
0.0
  0
ARC
  5
94031
330
93F39
100
AcDbEntity
  8
OUTLINE
100
AcDbCircle
 10
743.9581350247299
 20
288.0086020703365
 30
0.0
 40
19.9935
100
AcDbArc
 50
270.0
 51
0.0
  0
ARC
  5
94032
330
93F39
100
AcDbEntity
  8
OUTLINE
100
AcDbCircle
 10
743.9581350247299
 20
288.0086020703365
 30
0.0
 40
20.082648777228
100
AcDbArc
 50
270.0
 51
0.0
  0
ARC
  5
94033
330
93F39
100
AcDbEntity
  8
OUTLINE
100
AcDbCircle
 10
743.9581350247299
 20
268.7648583203317
 30
0.0
 40
0.74975625
100
AcDbArc
 50
90.0
 51
270.0
  0
ARC
  5
94034
330
93F39
100
AcDbEntity
  8
OUTLINE
100
AcDbCircle
 10
743.9581350247299
 20
268.7648583203317
 30
0.0
 40
0.8284322013363
100
AcDbArc
 50
139.4275574709714
 51
220.5724425290931
  0
ARC
  5
94035
330
93F39
100
AcDbEntity
  8
OUTLINE
100
AcDbCircle
 10
743.9790892964524
 20
268.7797037764139
 30
0.0
 40
0.85400759320245
100
AcDbArc
 50
220.4146138666787
 51
268.5940267498854
  0
ARC
  5
94036
330
93F39
100
AcDbEntity
  8
OUTLINE
100
AcDbCircle
 10
744.0481371396516
 20
268.6052229547413
 30
0.0
 40
1.002588298750054
100
AcDbArc
 50
95.15036192278719
 51
135.8409974621259
  0
ARC
  5
94037
330
93F39
100
AcDbEntity
  8
OUTLINE
100
AcDbCircle
 10
763.2018787747315
 20
288.0086020703365
 30
0.0
 40
0.74975625
100
AcDbArc
 50
0.0
 51
180.0
  0
ARC
  5
94038
330
93F39
100
AcDbEntity
  8
OUTLINE
100
AcDbCircle
 10
763.2018787747315
 20
288.0086020703365
 30
0.0
 40
0.8284322013363
100
AcDbArc
 50
49.42755747097148
 51
130.5724425291119
  0
LINE
  5
94039
330
93F39
100
AcDbEntity
  8
OUTLINE
100
AcDbLine
 10
764.0404183047843
 20
310.9960749448164
 30
0.0
 11
764.0407838019589
 21
288.0086020703365
 31
0.0
  0
LINE
  5
9403A
330
93F39
100
AcDbEntity
  8
OUTLINE
100
AcDbLine
 10
762.3629737475048
 20
310.9958922522
 30
0.0
 11
762.3629737475048
 21
288.0086020703365
 31
0.0
  0
ARC
  5
9403B
330
93F39
100
AcDbEntity
  8
OUTLINE
100
AcDbCircle
 10
763.1887303594505
 20
287.9889518815016
 30
0.0
 40
0.8519146002662186
100
AcDbArc
 50
1.321696734081293
 51
49.61542409399366
  0
ARC
  5
9403C
330
93F39
100
AcDbEntity
  8
OUTLINE
100
AcDbCircle
 10
763.215027200042
 20
287.9889518760906
 30
0.0
 40
0.8519146117491377
100
AcDbArc
 50
130.3845762523348
 51
178.6783029197106
  0
LINE
  5
9403D
330
93F39
100
AcDbEntity
  8
OUTLINE
100
AcDbLine
 10
798.999837524733
 20
241.523714570334
 30
0.0
 11
798.999837524733
 21
23.21450621479022
 31
0.0
  0
ARC
  5
9403E
330
93F39
100
AcDbEntity
  8
OUTLINE
100
AcDbCircle
 10
798.0001625247321
 20
23.21450621479022
 30
0.0
 40
0.999675
100
AcDbArc
 50
330.3418344966706
 51
0.0000313288133208
  0
ARC
  5
9403F
330
93F39
100
AcDbEntity
  8
OUTLINE
100
AcDbCircle
 10
749.6427515939749
 20
24.06566238957515
 30
0.0
 40
49.24451516064867
100
AcDbArc
 50
340.2514637831445
 51
358.4339496816253
  0
LINE
  5
94040
330
93F39
100
AcDbEntity
  8
OUTLINE
100
AcDbLine
 10
799.009230643858
 20
22.71982464786777
 30
0.0
 11
799.0090046314703
 21
22.1126123283675
 31
0.0
  0
ARC
  5
94041
330
93F39
100
AcDbEntity
  8
OUTLINE
100
AcDbCircle
 10
790.4463111339885
 20
61.38429405908451
 30
0.0
 40
8.553635548539775
100
AcDbArc
 50
319.1721188367033
 51
0.2894610271058137
  0
ARC
  5
94042
330
93F39
100
AcDbEntity
  8
OUTLINE
100
AcDbCircle
 10
790.4217264167284
 20
61.09262919011721
 30
0.0
 40
8.581708362347201
100
AcDbArc
 50
319.2062659499302
 51
1.659019531338334
  0
ARC
  5
94043
330
93F39
100
AcDbEntity
  8
OUTLINE
100
AcDbCircle
 10
793.8718720501575
 20
57.91831084630058
 30
0.0
 40
3.715368368378304
100
AcDbArc
 50
278.6754942401916
 51
325.0895442661902
  0
ARC
  5
94044
330
93F39
100
AcDbEntity
  8
OUTLINE
100
AcDbCircle
 10
793.7630944915399
 20
57.92287687714213
 30
0.0
 40
3.987043172835879
100
AcDbArc
 50
267.6091619914581
 51
322.3214728333868
  0
ARC
  5
94045
330
93F39
100
AcDbEntity
  8
OUTLINE
100
AcDbCircle
 10
792.7559693650744
 20
256.445748305999
 30
0.0
 40
6.052059956393062
100
AcDbArc
 50
2.981429896168778
 51
25.53002950057945
  0
ARC
  5
94046
330
93F39
100
AcDbEntity
  8
OUTLINE
100
AcDbCircle
 10
798.7514605311816
 20
242.5233895703313
 30
0.0
 40
0.999675
100
AcDbArc
 50
185.0000000000259
 51
270.0
  0
LINE
  5
94047
330
93F39
100
AcDbEntity
  8
OUTLINE
100
AcDbLine
 10
797.7555895957926
 20
242.43626215329
 30
0.0
 11
797.7049510049717
 21
243.0150639010046
 31
0.0
  0
LINE
  5
94048
330
93F39
100
AcDbEntity
  8
OUTLINE
100
AcDbLine
 10
798.7998375247325
 20
256.760529792813
 30
0.0
 11
798.7998375247325
 21
243.0258442794684
 31
0.0
  0
LINE
  5
94049
330
93F39
100
AcDbEntity
  8
OUTLINE
100
AcDbLine
 10
791.942535024732
 20
308.9991598612023
 30
0.0
 11
791.942535024732
 21
271.1670652372731
 31
0.0
  0
ARC
  5
9404A
330
93F39
100
AcDbEntity
  8
OUTLINE
100
AcDbCircle
 10
801.9392850247312
 20
271.1670652372731
 30
0.0
 40
9.99675
100
AcDbArc
 50
180.0
 51
214.9999999999784
  0
LINE
  5
9404B
330
93F39
100
AcDbEntity
  8
OUTLINE
100
AcDbLine
 10
798.217103304406
 20
259.0540898887784
 30
0.0
 11
793.7504268262096
 21
265.4331649980258
 31
0.0
  0
LINE
  5
9404C
330
93F39
100
AcDbEntity
  8
OUTLINE
100
AcDbLine
 10
791.8915482381557
 20
308.9996048152124
 30
0.0
 11
791.8915482381566
 21
314.0001520703326
 31
0.0
  0
LINE
  5
9404D
330
93F39
100
AcDbEntity
  8
OUTLINE
100
AcDbLine
 10
791.8915482381557
 20
308.9996048152124
 30
0.0
 11
791.942535024732
 21
308.9991598612023
 31
0.0
  0
ENDBLK
  5
9404F
330
93F39
100
AcDbEntity
  8
0
100
AcDbBlockEnd
  0
ENDSEC
  0
SECTION
  2
ENTITIES
  0
MTEXT
  5
38341
330
1E
100
AcDbEntity
  8
0
  6
Continuous
100
AcDbMText
 10
383.9605305094082
 20
4023.282340837186
 30
0.0
 40
64.0
 41
187.9848
 71
     1
 72
     5
  1

 73
     1
 44
1.0
1001
ACAD
1000
MTEXTBEGIN
1070
    73
1070
     1
1070
    44
1040
1.0
1070
    74
1070
     0
1000
MTEXTEND
1000
MTEXTBEGIN
1070
    73
1070
     1
1070
    44
1040
1.0
1070
    74
1070
     0
1000
MTEXTEND
1000
MTEXTBEGIN
1070
    73
1070
     1
1070
    44
1040
1.0
1070
    74
1070
     0
1000
MTEXTEND
1000
MTEXTBEGIN
1070
    73
1070
     1
1070
    44
1040
1.0
1070
    74
1070
     0
1000
MTEXTEND
1000
MTEXTBEGIN
1070
    73
1070
     1
1070
    44
1040
1.0
1070
    74
1070
     0
1000
MTEXTEND
  0
LINE
  5
693AB
330
1E
100
AcDbEntity
  8
BASIS
  6
DASHDOT
 62
     6
100
AcDbLine
 10
-0.070259999998882
 20
26.44865704833501
 30
0.0
 11
-0.070259999998882
 21
-328.0716615575156
 31
0.0
  0
CIRCLE
  5
693B5
330
1E
100
AcDbEntity
  8
ARRANGE
  6
Continuous
100
AcDbCircle
 10
-0.070259999998882
 20
0.0
 30
0.0
 40
13.00138232471456
  0
POINT
  5
693B6
330
1E
100
AcDbEntity
  8
ARRANGE
  6
Continuous
100
AcDbPoint
 10
-0.070259999998882
 20
0.0
 30
0.0
  0
TEXT
  5
8FCCA
330
1E
100
AcDbEntity
  8
NOTE
 62
     4
100
AcDbText
 10
-961.1116128571403
 20
138.6564237204602
 30
0.0
 40
64.0
  1
D,RL,RG%%C65
 41
0.9
100
AcDbText
  0
TEXT
  5
8FCCC
330
1E
100
AcDbEntity
  8
NOTE
 62
     4
100
AcDbText
 10
460.1443321428562
 20
134.0882237204604
 30
0.0
 40
64.0
  1
D,RL,RG%%C65
 41
0.9
100
AcDbText
  0
LINE
  5
8FCCE
330
1E
100
AcDbEntity
  8
NOTE
  6
Continuous
 62
     4
100
AcDbLine
 10
-439.8972558964146
 20
111.90556372046
 30
0.0
 11
-986.8026099999974
 21
111.90556372046
 31
0.0
  0
LINE
  5
8FCD0
330
1E
100
AcDbEntity
  8
DETAIL
100
AcDbLine
 10
-296.8909376013125
 20
-70.97692499999721
 30
0.0
 11
281.0460888513125
 21
-70.97692499999721
 31
0.0
  0
LINE
  5
8FCD1
330
1E
100
AcDbEntity
  8
DETAIL
100
AcDbLine
 10
-296.9034750000013
 20
-72.47643749999951
 30
0.0
 11
281.0586262500009
 21
-72.47643749999951
 31
0.0
  0
LINE
  5
8FCD3
330
1E
100
AcDbEntity
  8
DETAIL
100
AcDbLine
 10
-201.4345124999993
 20
0.0
 30
0.0
 11
201.4345124999993
 21
0.0
 31
0.0
  0
LINE
  5
8FCDA
330
1E
100
AcDbEntity
  8
DETAIL
100
AcDbLine
 10
374.3566028178115
 20
-314.0001508069663
 30
0.0
 11
-374.3566028191447
 21
-314.0001508069663
 31
0.0
  0
LINE
  5
8FCDB
330
1E
100
AcDbEntity
  8
NOTE
  6
Continuous
 62
     4
100
AcDbLine
 10
-345.0702599999988
 20
0.0
 30
0.0
 11
-439.8972558964146
 21
111.90556372046
 31
0.0
  0
LINE
  5
8FCDF
330
1E
100
AcDbEntity
  8
DETAIL
100
AcDbLine
 10
-399.5702599999988
 20
-72.47643749999951
 30
0.0
 11
-399.5702599999988
 21
-290.7856458275519
 31
0.0
  0
ARC
  5
8FCE3
330
1E
100
AcDbEntity
  8
DETAIL
100
AcDbCircle
 10
-345.516421006002
 20
-288.4838849155756
 30
0.0
 40
53.99517545405792
100
AcDbArc
 50
182.9687109255842
 51
199.6565029486027
  0
ARC
  5
8FCE7
330
1E
100
AcDbEntity
  8
DETAIL
100
AcDbCircle
 10
-374.3513632250097
 20
-277.3714519457153
 30
0.0
 40
36.62854818751611
100
AcDbArc
 50
233.0585059424624
 51
269.9951131433433
  0
ARC
  5
8FCFF
330
1E
100
AcDbEntity
  8
DETAIL
100
AcDbCircle
 10
-398.5681403776315
 20
-290.7847305909019
 30
0.0
 40
1.002120040310368
100
AcDbArc
 50
180.0523282665515
 51
209.6399737111197
  0
SPLINE
  5
8FD23
330
1E
100
AcDbEntity
  8
DETAIL
100
AcDbSpline
210
0.0
220
0.0
230
1.0
 70
     8
 71
     3
 72
    10
 73
     6
 74
     4
 42
0.0000000001
 43
0.0000000001
 44
0.0000000001
 12
-0.0000000000000001
 22
-1.0
 32
0.0
 13
0.9360653312168595
 23
-0.3518262294000705
 33
0.0
 40
0.0
 40
0.0
 40
0.0
 40
0.0
 40
0.1038093340122188
 40
0.1851862362632007
 40
0.2348932859631208
 40
0.2348932859631208
 40
0.2348932859631208
 40
0.2348932859631208
 10
-399.5700975000003
 20
-178.3426886106243
 30
0.0
 10
-399.5700975000003
 20
-178.3772917219617
 30
0.0
 10
-399.5189001643329
 20
-178.4304901029292
 30
0.0
 10
-399.4514705035994
 20
-178.4650247755405
 30
0.0
 10
-399.4106530005747
 20
-178.4816491039802
 30
0.0
 10
-399.3951433185943
 20
-178.4874785186038
 30
0.0
 11
-399.5700975000003
 21
-178.3426886106243
 31
0.0
 11
-399.5120815066588
 21
-178.4287730014548
 31
0.0
 11
-399.4411506106958
 21
-178.4686604458183
 31
0.0
 11
-399.3951433185943
 21
-178.4874785186038
 31
0.0
  0
LINE
  5
8FE3E
330
1E
100
AcDbEntity
  8
NOTE
  6
Continuous
 62
     4
100
AcDbLine
 10
-362.2742700000001
 20
36.11124999999992
 30
0.0
 11
-345.0702599999988
 21
0.0
 31
0.0
  0
LINE
  5
8FE3F
330
1E
100
AcDbEntity
  8
NOTE
  6
Continuous
 62
     4
100
AcDbLine
 10
-345.0702599999988
 20
0.0
 30
0.0
 11
-378.0249900000001
 21
22.6712499999994
 31
0.0
  0
LINE
  5
8FE40
330
1E
100
AcDbEntity
  8
NOTE
  6
DASHDOT
 62
     4
100
AcDbLine
 10
-345.0702599999988
 20
20.0
 30
0.0
 11
-345.0702599999988
 21
-20.0
 31
0.0
  0
LINE
  5
8FE41
330
1E
100
AcDbEntity
  8
DETAIL
100
AcDbLine
 10
-334.2913200000018
 20
0.0
 30
0.0
 11
-201.4345124999993
 21
0.0
 31
0.0
  0
LINE
  5
8FE42
330
1E
100
AcDbEntity
  8
DETAIL
100
AcDbLine
 10
-399.3701625000012
 20
-57.23962227751964
 30
0.0
 11
-399.3701625000012
 21
-70.97692499999721
 31
0.0
  0
LINE
  5
8FE43
330
1E
100
AcDbEntity
  8
DETAIL
100
AcDbLine
 10
-297.1034099999992
 20
-3.004259818133505
 30
0.0
 11
-297.1034099999992
 21
-70.97169018320165
 31
0.0
  0
LINE
  5
8FE44
330
1E
100
AcDbEntity
  8
DETAIL
100
AcDbLine
 10
-296.9034750000013
 20
-69.54028139563161
 30
0.0
 11
-296.9034750000013
 21
-2.999024999991888
 31
0.0
  0
LINE
  5
8FE46
330
1E
100
AcDbEntity
  8
DETAIL
100
AcDbLine
 10
-382.3756874999998
 20
-70.97169018320165
 30
0.0
 11
-297.1034099999992
 21
-70.97169018320165
 31
0.0
  0
LINE
  5
8FE47
330
1E
100
AcDbEntity
  8
DETAIL
100
AcDbLine
 10
-399.5702599999988
 20
-72.47643749999951
 30
0.0
 11
-297.1034099999992
 21
-72.47643749999951
 31
0.0
  0
LINE
  5
8FE48
330
1E
100
AcDbEntity
  8
DETAIL
100
AcDbLine
 10
-398.185492072394
 20
-71.56388991704353
 30
0.0
 11
-398.1350822822363
 21
-70.98770338255144
 31
0.0
  0
ARC
  5
8FE49
330
1E
100
AcDbEntity
  8
DETAIL
100
AcDbCircle
 10
-399.1813630064505
 20
-71.47676250000131
 30
0.0
 40
0.999675
100
AcDbArc
 50
270.0
 51
355.0000000000263
  0
LINE
  5
8FE4A
330
1E
100
AcDbEntity
  8
DETAIL
100
AcDbLine
 10
-399.3701624853388
 20
-70.97692499999721
 30
0.0
 11
-382.3756888902138
 21
-71.12523352406062
 31
0.0
  0
LINE
  5
8FE4B
330
1E
100
AcDbEntity
  8
DETAIL
100
AcDbLine
 10
-382.3756888902138
 20
-71.12523352406062
 30
0.0
 11
-382.3756888902138
 21
-70.97169018320165
 31
0.0
  0
LINE
  5
8FE7A
330
1E
100
AcDbEntity
  8
DETAIL
100
AcDbLine
 10
-297.1034099999992
 20
-72.47643749999951
 30
0.0
 11
-297.1034099999991
 21
-106.61711268468
 31
0.0
  0
LINE
  5
8FE7B
330
1E
100
AcDbEntity
  8
DETAIL
100
AcDbLine
 10
-296.9034750000013
 20
-72.47643749999951
 30
0.0
 11
-296.9034750000013
 21
-106.6171101686752
 31
0.0
  0
LINE
  5
8FE80
330
1E
100
AcDbEntity
  8
DETAIL
100
AcDbLine
 10
-296.9034750453186
 20
-72.47643880623946
 30
0.0
 11
-296.8511593774396
 21
-70.97831408572893
 31
0.0
  0
LINE
  5
8FE81
330
1E
100
AcDbEntity
  8
DETAIL
100
AcDbLine
 10
-296.8909376013125
 20
-70.97692499999721
 30
0.0
 11
-296.9034750000013
 21
-69.54028139563161
 31
0.0
  0
LINE
  5
8FE82
330
1E
100
AcDbEntity
  8
DETAIL
100
AcDbLine
 10
-297.1295761159158
 20
-70.97738173150538
 30
0.0
 11
-297.1034099999992
 21
-72.47643749999951
 31
0.0
  0
LINE
  5
8FE8B
330
1E
100
AcDbEntity
  8
NOTE
  6
DASHDOT
 62
     4
100
AcDbLine
 10
-325.070259999999
 20
0.0
 30
0.0
 11
-365.070259999999
 21
0.0
 31
0.0
  0
LINE
  5
8FE8C
330
1E
100
AcDbEntity
  8
DETAIL
100
AcDbLine
 10
-334.2913200000023
 20
0.0
 30
0.0
 11
-392.3214507134271
 21
0.0
 31
0.0
  0
LINE
  5
8FE8D
330
1E
100
AcDbEntity
  8
DETAIL
100
AcDbLine
 10
-359.3831625000011
 20
-44.3962985054286
 30
0.0
 11
-330.3925875000018
 21
-44.3962985054286
 31
0.0
  0
LINE
  5
8FE90
330
1E
100
AcDbEntity
  8
DETAIL
100
AcDbLine
 10
-359.3831625000011
 20
-46.07392349871225
 30
0.0
 11
-330.3925875000018
 21
-46.07392349871225
 31
0.0
  0
LINE
  5
8FE95
330
1E
100
AcDbEntity
  8
DETAIL
100
AcDbLine
 10
-392.3724374999997
 20
-29.26895238326688
 30
0.0
 11
-392.3724374999997
 21
-42.8330868330604
 31
0.0
  0
SPLINE
  5
8FE96
330
1E
100
AcDbEntity
  8
DETAIL
100
AcDbSpline
210
0.0
220
0.0
230
1.0
 70
     8
 71
     3
 72
    11
 73
     7
 74
     5
 42
0.0000000001
 43
0.0000000001
 44
0.0000000001
 12
0.0000000000000001
 22
1.0
 32
0.0
 13
0.0000000000000001
 23
1.0
 33
0.0
 40
0.0
 40
0.0
 40
0.0
 40
0.0
 40
1.521296774543271
 40
3.086525365334642
 40
4.677823459143773
 40
6.276667013913057
 40
6.276667013913057
 40
6.276667013913057
 40
6.276667013913057
 10
-392.3724375000022
 20
-29.2689523832596
 30
0.0
 10
-392.3724375000022
 20
-28.76185345841184
 30
0.0
 10
-392.3640930230016
 20
-27.73302052348242
 30
0.0
 10
-392.3433072719834
 20
-26.17389124432458
 30
0.0
 10
-392.325873822672
 20
-24.58885711373321
 30
0.0
 10
-392.3214507134293
 20
-23.52547285157667
 30
0.0
 10
-392.3214507134293
 20
-22.99252499998691
 30
0.0
 11
-392.3724375000022
 21
-29.2689523832596
 31
0.0
 11
-392.3629071423752
 21
-27.74768546107952
 31
0.0
 11
-392.3440264992462
 21
-26.18257074875145
 31
0.0
 11
-392.3277109261985
 21
-24.59135629889351
 31
0.0
 11
-392.3214507134293
 21
-22.99252499998691
 31
0.0
  0
LINE
  5
8FE99
330
1E
100
AcDbEntity
  8
DETAIL
100
AcDbLine
 10
-392.3214507134271
 20
-4.498744386071846
 30
0.0
 11
-392.3214507134271
 21
-22.99252499999238
 31
0.0
  0
LINE
  5
8FE9A
330
1E
100
AcDbEntity
  8
DETAIL
100
AcDbLine
 10
-392.3214507134271
 20
-4.498744386071846
 30
0.0
 11
-392.3214507134271
 21
0.0
 31
0.0
  0
ARC
  5
8FE9B
330
1E
100
AcDbEntity
  8
DETAIL
100
AcDbCircle
 10
-359.3831625000014
 20
-45.23529375000088
 30
0.0
 40
0.8285224186728001
100
AcDbArc
 50
319.4246860210748
 51
40.57531397878668
  0
ARC
  5
8FE9C
330
1E
100
AcDbEntity
  8
DETAIL
100
AcDbCircle
 10
-359.3831625000014
 20
-45.23529375000088
 30
0.0
 40
0.74975625
100
AcDbArc
 50
270.0
 51
90.0
  0
ARC
  5
8FE9F
330
1E
100
AcDbEntity
  8
DETAIL
100
AcDbCircle
 10
-378.6269062500001
 20
-25.99154999999608
 30
0.0
 40
0.8285224186728001
100
AcDbArc
 50
49.42468602107485
 51
130.5753139787682
  0
ARC
  5
8FEA0
330
1E
100
AcDbEntity
  8
DETAIL
100
AcDbCircle
 10
-378.6269062500001
 20
-25.99154999999608
 30
0.0
 40
0.74975625
100
AcDbArc
 50
0.0
 51
180.0
  0
ARC
  5
8FEA1
330
1E
100
AcDbEntity
  8
DETAIL
100
AcDbCircle
 10
-359.3831625000014
 20
-25.99154999999608
 30
0.0
 40
20.0827389945645
100
AcDbArc
 50
180.0
 51
270.0
  0
ARC
  5
8FEA2
330
1E
100
AcDbEntity
  8
DETAIL
100
AcDbCircle
 10
-359.3831625000014
 20
-25.99154999999608
 30
0.0
 40
19.9935
100
AcDbArc
 50
180.0
 51
270.0
  0
ARC
  5
8FEA3
330
1E
100
AcDbEntity
  8
DETAIL
100
AcDbCircle
 10
-359.3831625000014
 20
-25.99154999999608
 30
0.0
 40
18.49398749999998
100
AcDbArc
 50
180.0
 51
270.0
  0
ARC
  5
8FEA4
330
1E
100
AcDbEntity
  8
DETAIL
100
AcDbCircle
 10
-359.3831625000014
 20
-25.99154999999608
 30
0.0
 40
18.40474850543548
100
AcDbArc
 50
180.0
 51
270.0
  0
LINE
  5
8FEA7
330
1E
100
AcDbEntity
  8
DETAIL
100
AcDbLine
 10
-379.4659014945641
 20
-3.004259818133505
 30
0.0
 11
-379.4659014945641
 21
-25.991549999997
 31
0.0
  0
LINE
  5
8FEAA
330
1E
100
AcDbEntity
  8
DETAIL
100
AcDbLine
 10
-377.7882765026106
 20
-3.004077125517141
 30
0.0
 11
-377.7879110054357
 21
-25.991549999997
 31
0.0
  0
ARC
  5
8FEAB
330
1E
100
AcDbEntity
  8
DETAIL
100
AcDbCircle
 10
-359.4041180102921
 20
-45.25014155416738
 30
0.0
 40
0.8541001611585887
100
AcDbArc
 50
40.41748198197082
 51
88.59409604865055
  0
ARC
  5
8FEAC
330
1E
100
AcDbEntity
  8
DETAIL
100
AcDbCircle
 10
-359.404117998908
 20
-45.22044596967908
 30
0.0
 40
0.8541001370294859
100
AcDbArc
 50
271.4059032271511
 51
319.5825186743906
  0
ARC
  5
8FEAD
330
1E
100
AcDbEntity
  8
DETAIL
100
AcDbCircle
 10
-378.6137557309498
 20
-26.01120134370921
 30
0.0
 40
0.8520069247820465
100
AcDbArc
 50
130.3874455420211
 51
178.678368827971
  0
ARC
  5
8FEAE
330
1E
100
AcDbEntity
  8
DETAIL
100
AcDbCircle
 10
-378.6400567617396
 20
-26.01120133842641
 30
0.0
 40
0.8520069160212353
100
AcDbArc
 50
1.321630830146999
 51
49.61255460209542
  0
LINE
  5
8FEAF
330
1E
100
AcDbEntity
  8
DETAIL
100
AcDbLine
 10
-398.6470057796768
 20
-54.94606218155514
 30
0.0
 11
-394.1803293014773
 21
-48.56698707230771
 31
0.0
  0
ARC
  5
8FEB0
330
1E
100
AcDbEntity
  8
DETAIL
100
AcDbCircle
 10
-402.3691875000001
 20
-42.83308683305949
 30
0.0
 40
9.99675
100
AcDbArc
 50
325.0000000000208
 51
0.0
  0
ARC
  5
8FEB1
330
1E
100
AcDbEntity
  8
DETAIL
100
AcDbCircle
 10
-395.3714625000018
 20
-57.23962227751964
 30
0.0
 40
3.998699999999998
100
AcDbArc
 50
145.0000000000206
 51
180.0
  0
LINE
  5
8FEB4
330
1E
100
AcDbEntity
  8
DETAIL
100
AcDbLine
 10
-297.0514639466212
 20
-45.1222125093427
 30
0.0
 11
-297.1016651499267
 21
-45.42368763141531
 31
0.0
  0
ARC
  5
8FEC3
330
1E
100
AcDbEntity
  8
DETAIL
100
AcDbCircle
 10
-330.3925875000018
 20
-25.99154999999608
 30
0.0
 40
20.0827389945645
100
AcDbArc
 50
270.0
 51
0.0
  0
ARC
  5
8FEC4
330
1E
100
AcDbEntity
  8
DETAIL
100
AcDbCircle
 10
-330.3925875000018
 20
-25.99154999999608
 30
0.0
 40
19.9935
100
AcDbArc
 50
270.0
 51
0.0
  0
ARC
  5
8FEC5
330
1E
100
AcDbEntity
  8
DETAIL
100
AcDbCircle
 10
-330.3925875000018
 20
-25.99154999999608
 30
0.0
 40
18.49398749999998
100
AcDbArc
 50
270.0
 51
0.0
  0
ARC
  5
8FEC6
330
1E
100
AcDbEntity
  8
DETAIL
100
AcDbCircle
 10
-330.3925875000018
 20
-25.99154999999608
 30
0.0
 40
18.40474850543548
100
AcDbArc
 50
270.0
 51
0.0
  0
LINE
  5
8FEC9
330
1E
100
AcDbEntity
  8
DETAIL
100
AcDbLine
 10
-311.9878389945638
 20
-3.004259818133505
 30
0.0
 11
-311.9878389945638
 21
-25.991549999997
 31
0.0
  0
LINE
  5
8FECC
330
1E
100
AcDbEntity
  8
DETAIL
100
AcDbLine
 10
-310.3102140026106
 20
-3.004077125517141
 30
0.0
 11
-310.3098485054356
 21
-25.991549999997
 31
0.0
  0
ARC
  5
8FECF
330
1E
100
AcDbEntity
  8
DETAIL
100
AcDbCircle
 10
-330.3925875000018
 20
-45.23529375000088
 30
0.0
 40
0.8285224186728001
100
AcDbArc
 50
139.4246860210747
 51
220.5753139787865
  0
ARC
  5
8FED0
330
1E
100
AcDbEntity
  8
DETAIL
100
AcDbCircle
 10
-330.3925875000018
 20
-45.23529375000088
 30
0.0
 40
0.74975625
100
AcDbArc
 50
90.0
 51
270.0
  0
ARC
  5
8FED1
330
1E
100
AcDbEntity
  8
DETAIL
100
AcDbCircle
 10
-311.1488437499999
 20
-25.99154999999608
 30
0.0
 40
0.8285224186728001
100
AcDbArc
 50
49.42468602107485
 51
130.5753139787682
  0
ARC
  5
8FED2
330
1E
100
AcDbEntity
  8
DETAIL
100
AcDbCircle
 10
-311.1488437499999
 20
-25.99154999999608
 30
0.0
 40
0.74975625
100
AcDbArc
 50
0.0
 51
180.0
  0
ARC
  5
8FED3
330
1E
100
AcDbEntity
  8
DETAIL
100
AcDbCircle
 10
-311.1339959490194
 20
-26.01250550876329
 30
0.0
 40
0.8541001579303198
100
AcDbArc
 50
130.4174819516815
 51
178.5940961455981
  0
ARC
  5
8FED4
330
1E
100
AcDbEntity
  8
DETAIL
100
AcDbCircle
 10
-311.2452465154933
 20
-26.05139512839969
 30
0.0
 40
0.9373104559397328
100
AcDbArc
 50
3.660701754114858
 51
47.32772860973271
  0
ARC
  5
8FED5
330
1E
100
AcDbEntity
  8
DETAIL
100
AcDbCircle
 10
-330.3729361646196
 20
-45.24844425437549
 30
0.0
 40
0.8520069085968742
100
AcDbArc
 50
91.3216306367992
 51
139.6125548939975
  0
ARC
  5
8FED6
330
1E
100
AcDbEntity
  8
DETAIL
100
AcDbCircle
 10
-330.3716319942846
 20
-45.22044595539682
 30
0.0
 40
0.8541001514746668
100
AcDbArc
 50
220.4174817586984
 51
268.5940963396108
  0
LINE
  5
8FEE0
330
1E
100
AcDbEntity
  8
DETAIL
100
AcDbLine
 10
-221.4280125000005
 20
-4.318494490325972
 30
0.0
 11
-221.4280124999976
 21
-5.082685674153594
 31
0.0
  0
LINE
  5
8FEE3
330
1E
100
AcDbEntity
  8
DETAIL
100
AcDbLine
 10
-219.7345664062618
 20
-6.701905271302621
 30
0.0
 11
-219.5758912483144
 21
-6.767631509908367
 31
0.0
  0
LINE
  5
8FEE4
330
1E
100
AcDbEntity
  8
DETAIL
100
AcDbLine
 10
-223.1214585950738
 20
-6.701905271311261
 30
0.0
 11
-219.7345664062618
 21
-6.701905271302621
 31
0.0
  0
LINE
  5
8FEE5
330
1E
100
AcDbEntity
  8
DETAIL
100
AcDbLine
 10
-222.9280407976403
 20
-8.613530867027293
 30
0.0
 11
-222.9280407976411
 21
-7.617659931643172
 31
0.0
  0
LINE
  5
8FEE6
330
1E
100
AcDbEntity
  8
DETAIL
100
AcDbLine
 10
-219.9279842023534
 20
-7.61766084845112
 30
0.0
 11
-219.9279842023534
 21
-8.613530867027293
 31
0.0
  0
LINE
  5
8FEE7
330
1E
100
AcDbEntity
  8
DETAIL
100
AcDbLine
 10
-220.086659951968
 20
-7.55193428475377
 30
0.0
 11
-219.9279842023534
 21
-7.61766084845112
 31
0.0
  0
LINE
  5
8FEE8
330
1E
100
AcDbEntity
  8
DETAIL
100
AcDbLine
 10
-222.769365049357
 20
-7.55193428475377
 30
0.0
 11
-220.086659951968
 21
-7.55193428475377
 31
0.0
  0
LINE
  5
8FEE9
330
1E
100
AcDbEntity
  8
DETAIL
100
AcDbLine
 10
-222.9280407976411
 20
-7.617659931643172
 30
0.0
 11
-222.769365049357
 21
-7.55193428475377
 31
0.0
  0
LINE
  5
8FEEA
330
1E
100
AcDbEntity
  8
DETAIL
100
AcDbLine
 10
-219.9279827388309
 20
-7.617659976960567
 30
0.0
 11
-222.9280407976411
 21
-7.617659931643172
 31
0.0
  0
LINE
  5
8FEEB
330
1E
100
AcDbEntity
  8
DETAIL
100
AcDbLine
 10
-219.4348265466279
 20
-7.323997880394473
 30
0.0
 11
-219.9279827388309
 21
-7.617659976960567
 31
0.0
  0
LINE
  5
8FEEC
330
1E
100
AcDbEntity
  8
DETAIL
100
AcDbLine
 10
-219.575889069143
 20
-6.767632412411328
 30
0.0
 11
-219.4348265466279
 21
-7.323997880394473
 31
0.0
  0
LINE
  5
8FEED
330
1E
100
AcDbEntity
  8
DETAIL
100
AcDbLine
 10
-220.39286388867
 20
-5.950657686172235
 30
0.0
 11
-219.575889069143
 21
-6.767632412411328
 31
0.0
  0
LINE
  5
8FEEE
330
1E
100
AcDbEntity
  8
DETAIL
100
AcDbLine
 10
-221.4280124506795
 20
-5.082685632800346
 30
0.0
 11
-220.39286388867
 21
-5.950657686172235
 31
0.0
  0
LINE
  5
8FEEF
330
1E
100
AcDbEntity
  8
DETAIL
100
AcDbLine
 10
-222.4631611113254
 20
-5.950657686182237
 30
0.0
 11
-221.4280124506795
 21
-5.082685632800346
 31
0.0
  0
LINE
  5
8FEF0
330
1E
100
AcDbEntity
  8
DETAIL
100
AcDbLine
 10
-219.9279842023534
 20
-8.613530867027293
 30
0.0
 11
-222.9280407976403
 21
-8.613530867027293
 31
0.0
  0
LINE
  5
8FEF1
330
1E
100
AcDbEntity
  8
DETAIL
100
AcDbLine
 10
-218.5344822238389
 20
-7.696932651183031
 30
0.0
 11
-219.9279842023534
 21
-8.613530867027293
 31
0.0
  0
LINE
  5
8FEF2
330
1E
100
AcDbEntity
  8
DETAIL
100
AcDbLine
 10
-218.8717035651674
 20
-6.06344382809857
 30
0.0
 11
-218.5344822238389
 21
-7.696932651183031
 31
0.0
  0
LINE
  5
8FEF3
330
1E
100
AcDbEntity
  8
DETAIL
100
AcDbLine
 10
-219.6886767985414
 20
-5.246470594713173
 30
0.0
 11
-218.8717035651674
 21
-6.06344382809857
 31
0.0
  0
LINE
  5
8FEF4
330
1E
100
AcDbEntity
  8
DETAIL
100
AcDbLine
 10
-221.4280124999973
 20
-4.318494490325972
 30
0.0
 11
-219.6886767985414
 21
-5.246470594713173
 31
0.0
  0
LINE
  5
8FEF5
330
1E
100
AcDbEntity
  8
DETAIL
100
AcDbLine
 10
-223.1673482027799
 20
-5.246470594713173
 30
0.0
 11
-221.4280124999973
 21
-4.318494490325972
 31
0.0
  0
LINE
  5
8FEF7
330
1E
100
AcDbEntity
  8
DETAIL
100
AcDbLine
 10
-223.4211990501143
 20
-7.323996442728002
 30
0.0
 11
-223.2801353670365
 21
-6.767631881906707
 31
0.0
  0
LINE
  5
8FEF8
330
1E
100
AcDbEntity
  8
DETAIL
100
AcDbLine
 10
-224.32154332006
 20
-7.696931340984065
 30
0.0
 11
-223.9843214348275
 21
-6.06344382809857
 31
0.0
  0
LINE
  5
8FEF9
330
1E
100
AcDbEntity
  8
DETAIL
100
AcDbLine
 10
-223.2801349650689
 20
-6.767630296519653
 30
0.0
 11
-223.1214585950738
 21
-6.701905271311261
 31
0.0
  0
LINE
  5
8FEFA
330
1E
100
AcDbEntity
  8
DETAIL
100
AcDbLine
 10
-223.2801353670365
 20
-6.767631881906707
 30
0.0
 11
-222.4631611113254
 21
-5.950657686182237
 31
0.0
  0
LINE
  5
8FEFB
330
1E
100
AcDbEntity
  8
DETAIL
100
AcDbLine
 10
-222.9280407976411
 20
-7.617659931643172
 30
0.0
 11
-223.4211990501143
 21
-7.323996442728002
 31
0.0
  0
LINE
  5
8FEFC
330
1E
100
AcDbEntity
  8
DETAIL
100
AcDbLine
 10
-223.9843214348275
 20
-6.06344382809857
 30
0.0
 11
-223.1673482027813
 21
-5.246470594718629
 31
0.0
  0
LINE
  5
8FEFD
330
1E
100
AcDbEntity
  8
DETAIL
100
AcDbLine
 10
-222.9280407976403
 20
-8.613530867027293
 30
0.0
 11
-224.32154332006
 21
-7.696931340984065
 31
0.0
  0
LINE
  5
8FEFE
330
1E
100
AcDbEntity
  8
NOTE
  6
Continuous
 62
     4
100
AcDbLine
 10
419.8832974108702
 20
110.5573037204611
 30
0.0
 11
945.9923950000016
 21
110.5573037204611
 31
0.0
  0
LINE
  5
8FF09
330
1E
100
AcDbEntity
  8
DETAIL
100
AcDbLine
 10
399.4297400000011
 20
-72.47643749999951
 30
0.0
 11
399.4297400000011
 21
-290.7856458555433
 31
0.0
  0
ARC
  5
8FF0F
330
1E
100
AcDbEntity
  8
DETAIL
100
AcDbCircle
 10
374.4164206110795
 20
-277.6865546821069
 30
0.0
 40
36.31349813204556
100
AcDbArc
 50
269.9022810501201
 51
307.2977318877526
  0
ARC
  5
8FF62
330
1E
100
AcDbEntity
  8
DETAIL
100
AcDbCircle
 10
350.072654069243
 20
-289.9344896807584
 30
0.0
 40
49.24451516064867
100
AcDbArc
 50
340.2514637831428
 51
358.433949681624
  0
ARC
  5
8FF64
330
1E
100
AcDbEntity
  8
DETAIL
100
AcDbCircle
 10
398.4300650000002
 20
-290.7856458555433
 30
0.0
 40
0.999675
100
AcDbArc
 50
330.3418344966706
 51
0.0000313288133208
  0
LINE
  5
8FF80
330
1E
100
AcDbEntity
  8
DETAIL
100
AcDbLine
 10
382.3756875000004
 20
-71.12261632691844
 30
0.0
 11
399.2297400000011
 21
-70.97553323945385
 31
0.0
  0
LINE
  5
8FF81
330
1E
100
AcDbEntity
  8
DETAIL
100
AcDbLine
 10
334.2913199999983
 20
-0.0000000000009095
 30
0.0
 11
392.3214507134248
 21
-0.0000000000009095
 31
0.0
  0
LINE
  5
8FF82
330
1E
100
AcDbEntity
  8
DETAIL
100
AcDbLine
 10
-392.3214507134271
 20
-3.004259818114045
 30
0.0
 11
392.3214507134248
 21
-3.00425981575654
 31
0.0
  0
LINE
  5
8FF83
330
1E
100
AcDbEntity
  8
DETAIL
100
AcDbLine
 10
399.4297400000011
 20
-72.47643749999951
 30
0.0
 11
281.2585612499992
 21
-72.47643749999951
 31
0.0
  0
LINE
  5
8FF84
330
1E
100
AcDbEntity
  8
NOTE
  6
Continuous
 62
     4
100
AcDbLine
 10
329.9297400000011
 20
-0.0000000000004547
 30
0.0
 11
419.7431024108715
 21
110.5573037204606
 31
0.0
  0
LINE
  5
8FF86
330
1E
100
AcDbEntity
  8
NOTE
  6
DASHDOT
 62
     4
100
AcDbLine
 10
329.9297400000011
 20
19.99999999999954
 30
0.0
 11
329.9297400000011
 21
-19.99999999999954
 31
0.0
  0
LINE
  5
8FF87
330
1E
100
AcDbEntity
  8
NOTE
  6
Continuous
 62
     4
100
AcDbLine
 10
362.5001700000009
 20
23.21997999999939
 30
0.0
 11
329.9297400000011
 21
-0.0000000000004547
 31
0.0
  0
LINE
  5
8FF88
330
1E
100
AcDbEntity
  8
NOTE
  6
Continuous
 62
     4
100
AcDbLine
 10
329.9297400000011
 20
-0.0000000000004547
 30
0.0
 11
346.5265699999999
 21
36.39429999999947
 31
0.0
  0
LINE
  5
8FF89
330
1E
100
AcDbEntity
  8
DETAIL
100
AcDbLine
 10
201.4345124999993
 20
0.0
 30
0.0
 11
334.2913199999989
 21
0.0
 31
0.0
  0
LINE
  5
8FF8A
330
1E
100
AcDbEntity
  8
DETAIL
100
AcDbLine
 10
219.6886767972169
 20
-5.246470594713173
 30
0.0
 11
221.4280124999995
 21
-4.318494490325972
 31
0.0
  0
LINE
  5
8FF8B
330
1E
100
AcDbEntity
  8
DETAIL
100
AcDbLine
 10
221.4280124999995
 20
-4.318494490325972
 30
0.0
 11
223.1673482014552
 21
-5.246470594713173
 31
0.0
  0
LINE
  5
8FF8C
330
1E
100
AcDbEntity
  8
DETAIL
100
AcDbLine
 10
223.1673482014552
 20
-5.246470594713173
 30
0.0
 11
223.9843214348293
 21
-6.06344382809857
 31
0.0
  0
LINE
  5
8FF8D
330
1E
100
AcDbEntity
  8
DETAIL
100
AcDbLine
 10
223.9843214348293
 20
-6.06344382809857
 30
0.0
 11
224.3215427761579
 21
-7.696932651183487
 31
0.0
  0
LINE
  5
8FF8E
330
1E
100
AcDbEntity
  8
DETAIL
100
AcDbLine
 10
224.3215427761579
 20
-7.696932651183487
 30
0.0
 11
222.9280407976434
 21
-8.613530867027293
 31
0.0
  0
LINE
  5
8FF8F
330
1E
100
AcDbEntity
  8
DETAIL
100
AcDbLine
 10
222.9280407976434
 20
-8.613530867027293
 30
0.0
 11
219.9279842023563
 21
-8.613530867027293
 31
0.0
  0
LINE
  5
8FF90
330
1E
100
AcDbEntity
  8
DETAIL
100
AcDbLine
 10
219.9279842023563
 20
-8.613530867027293
 30
0.0
 11
218.5344816799364
 21
-7.696931340984517
 31
0.0
  0
LINE
  5
8FF91
330
1E
100
AcDbEntity
  8
DETAIL
100
AcDbLine
 10
218.5344816799364
 20
-7.696931340984517
 30
0.0
 11
218.8717035651693
 21
-6.06344382809857
 31
0.0
  0
LINE
  5
8FF92
330
1E
100
AcDbEntity
  8
DETAIL
100
AcDbLine
 10
218.8717035651693
 20
-6.06344382809857
 30
0.0
 11
219.6886767972154
 21
-5.246470594718629
 31
0.0
  0
LINE
  5
8FF93
330
1E
100
AcDbEntity
  8
DETAIL
100
AcDbLine
 10
219.9279842023555
 20
-7.617659931643172
 30
0.0
 11
219.4348259498827
 21
-7.323996442728457
 31
0.0
  0
LINE
  5
8FF94
330
1E
100
AcDbEntity
  8
DETAIL
100
AcDbLine
 10
219.4348259498827
 20
-7.323996442728457
 30
0.0
 11
219.5758896329603
 21
-6.767631881906707
 31
0.0
  0
LINE
  5
8FF95
330
1E
100
AcDbEntity
  8
DETAIL
100
AcDbLine
 10
219.5758896329603
 20
-6.767631881906707
 30
0.0
 11
220.3928638886714
 21
-5.950657686182237
 31
0.0
  0
LINE
  5
8FF96
330
1E
100
AcDbEntity
  8
DETAIL
100
AcDbLine
 10
220.3928638886714
 20
-5.950657686182237
 30
0.0
 11
221.4280125493173
 21
-5.082685632800346
 31
0.0
  0
LINE
  5
8FF97
330
1E
100
AcDbEntity
  8
DETAIL
100
AcDbLine
 10
221.4280125493173
 20
-5.082685632800346
 30
0.0
 11
222.4631611113268
 21
-5.950657686172235
 31
0.0
  0
LINE
  5
8FF98
330
1E
100
AcDbEntity
  8
DETAIL
100
AcDbLine
 10
222.4631611113268
 20
-5.950657686172235
 30
0.0
 11
223.2801359308536
 21
-6.767632412411328
 31
0.0
  0
LINE
  5
8FF99
330
1E
100
AcDbEntity
  8
DETAIL
100
AcDbLine
 10
223.2801359308536
 20
-6.767632412411328
 30
0.0
 11
223.4211984533688
 21
-7.323997880394927
 31
0.0
  0
LINE
  5
8FF9A
330
1E
100
AcDbEntity
  8
DETAIL
100
AcDbLine
 10
223.4211984533688
 20
-7.323997880394927
 30
0.0
 11
222.9280422611659
 21
-7.617659976960567
 31
0.0
  0
LINE
  5
8FF9B
330
1E
100
AcDbEntity
  8
DETAIL
100
AcDbLine
 10
222.9280422611659
 20
-7.617659976960567
 30
0.0
 11
219.9279842023555
 21
-7.617659931643172
 31
0.0
  0
LINE
  5
8FF9C
330
1E
100
AcDbEntity
  8
DETAIL
100
AcDbLine
 10
219.9279842023555
 20
-7.617659931643172
 30
0.0
 11
220.0866599506398
 21
-7.55193428475377
 31
0.0
  0
LINE
  5
8FF9D
330
1E
100
AcDbEntity
  8
DETAIL
100
AcDbLine
 10
220.0866599506398
 20
-7.55193428475377
 30
0.0
 11
222.7693650480286
 21
-7.55193428475377
 31
0.0
  0
LINE
  5
8FF9E
330
1E
100
AcDbEntity
  8
DETAIL
100
AcDbLine
 10
222.7693650480286
 20
-7.55193428475377
 30
0.0
 11
222.9280407976434
 21
-7.617660848451577
 31
0.0
  0
LINE
  5
8FF9F
330
1E
100
AcDbEntity
  8
DETAIL
100
AcDbLine
 10
222.9280407976434
 20
-7.617660848451577
 30
0.0
 11
222.9280407976434
 21
-8.613530867027293
 31
0.0
  0
LINE
  5
8FFA0
330
1E
100
AcDbEntity
  8
DETAIL
100
AcDbLine
 10
219.9279842023563
 20
-8.613530867027293
 30
0.0
 11
219.9279842023555
 21
-7.617659931643172
 31
0.0
  0
LINE
  5
8FFA2
330
1E
100
AcDbEntity
  8
DETAIL
100
AcDbLine
 10
219.5758900349278
 20
-6.76763029652011
 30
0.0
 11
219.7345664049229
 21
-6.701905271311716
 31
0.0
  0
LINE
  5
8FFA3
330
1E
100
AcDbEntity
  8
DETAIL
100
AcDbLine
 10
219.7345664049229
 20
-6.701905271311716
 30
0.0
 11
223.121458593735
 21
-6.701905271303076
 31
0.0
  0
LINE
  5
8FFA4
330
1E
100
AcDbEntity
  8
DETAIL
100
AcDbLine
 10
223.121458593735
 20
-6.701905271303076
 30
0.0
 11
223.2801337516823
 21
-6.767631509908824
 31
0.0
  0
LINE
  5
8FFA7
330
1E
100
AcDbEntity
  8
DETAIL
100
AcDbLine
 10
221.4280124999961
 20
-4.318494490325972
 30
0.0
 11
221.4280124999991
 21
-5.082685674153607
 31
0.0
  0
LINE
  5
8FFB1
330
1E
100
AcDbEntity
  8
DETAIL
100
AcDbLine
 10
281.0586262500009
 20
-69.54028139563161
 30
0.0
 11
281.0586262500009
 21
-2.999024999991888
 31
0.0
  0
LINE
  5
8FFB2
330
1E
100
AcDbEntity
  8
DETAIL
100
AcDbLine
 10
281.2585612499992
 20
-70.97169018320165
 30
0.0
 11
281.2585612499992
 21
-3.004259818133505
 31
0.0
  0
LINE
  5
8FFB3
330
1E
100
AcDbEntity
  8
DETAIL
100
AcDbLine
 10
281.2585612499992
 20
-70.97169018320165
 30
0.0
 11
382.3756875000004
 21
-70.97169018320165
 31
0.0
  0
LINE
  5
8FFB5
330
1E
100
AcDbEntity
  8
DETAIL
100
AcDbLine
 10
281.2568163985929
 20
-70.9751801499242
 30
0.0
 11
281.2585612499992
 21
-70.97169018320165
 31
0.0
  0
LINE
  5
8FFB6
330
1E
100
AcDbEntity
  8
DETAIL
100
AcDbLine
 10
281.284727365912
 20
-70.97738173150538
 30
0.0
 11
281.2585612499992
 21
-72.47643749999951
 31
0.0
  0
LINE
  5
8FFB7
330
1E
100
AcDbEntity
  8
DETAIL
100
AcDbLine
 10
281.0460888513125
 20
-70.97692499999721
 30
0.0
 11
281.0586262500009
 21
-69.54028139563161
 31
0.0
  0
LINE
  5
8FFB9
330
1E
100
AcDbEntity
  8
DETAIL
100
AcDbLine
 10
281.0063106274359
 20
-70.97831408572893
 30
0.0
 11
281.0586262953183
 21
-72.47643880757369
 31
0.0
  0
LINE
  5
8FFBA
330
1E
100
AcDbEntity
  8
DETAIL
100
AcDbLine
 10
281.2585612499992
 20
-70.97692499999721
 30
0.0
 11
281.2568163985929
 21
-70.9751801499242
 31
0.0
  0
LINE
  5
8FFC9
330
1E
100
AcDbEntity
  8
DETAIL
100
AcDbLine
 10
305.1008100000011
 20
-99.06779249999821
 30
0.0
 11
305.1008100000011
 21
-99.01780874999985
 31
0.0
  0
LINE
  5
8FFCA
330
1E
100
AcDbEntity
  8
DETAIL
100
AcDbLine
 10
305.1008100000011
 20
-99.01780874999985
 30
0.0
 11
305.1034295377071
 21
-99.06779249999821
 31
0.0
  0
LINE
  5
8FFDE
330
1E
100
AcDbEntity
  8
DETAIL
100
AcDbLine
 10
382.3756875000004
 20
-70.97169018320165
 30
0.0
 11
382.3756875000004
 21
-71.12261632691844
 31
0.0
  0
LINE
  5
8FFDF
330
1E
100
AcDbEntity
  8
NOTE
  6
DASHDOT
 62
     4
100
AcDbLine
 10
349.9297400000012
 20
-0.0000000000004547
 30
0.0
 11
309.9297400000011
 21
-0.0000000000004547
 31
0.0
  0
ARC
  5
8FFE1
330
1E
100
AcDbEntity
  8
DETAIL
100
AcDbCircle
 10
328.3932375000004
 20
-25.991549999997
 30
0.0
 40
20.082648777228
100
AcDbArc
 50
180.0
 51
270.0
  0
ARC
  5
8FFE2
330
1E
100
AcDbEntity
  8
DETAIL
100
AcDbCircle
 10
328.3932375000004
 20
-25.991549999997
 30
0.0
 40
19.9935
100
AcDbArc
 50
180.0
 51
270.0
  0
ARC
  5
8FFE3
330
1E
100
AcDbEntity
  8
DETAIL
100
AcDbCircle
 10
328.3932375000004
 20
-25.991549999997
 30
0.0
 40
18.49398749999998
100
AcDbArc
 50
180.0
 51
270.0
  0
ARC
  5
8FFE4
330
1E
100
AcDbEntity
  8
DETAIL
100
AcDbCircle
 10
328.3932375000004
 20
-25.991549999997
 30
0.0
 40
18.40483872277198
100
AcDbArc
 50
180.0
 51
270.0
  0
LINE
  5
8FFE5
330
1E
100
AcDbEntity
  8
DETAIL
100
AcDbLine
 10
281.2570182417928
 20
-3.001173568328497
 30
0.0
 11
281.2585612499992
 21
-3.004259818133505
 31
0.0
  0
ARC
  5
8FFE7
330
1E
100
AcDbEntity
  8
DETAIL
100
AcDbCircle
 10
281.125966324028
 20
-6.996854918869914
 30
0.0
 40
3.997829918870273
100
AcDbArc
 50
88.12146405093539
 51
89.99940693930017
  0
ARC
  5
8FFED
330
1E
100
AcDbEntity
  8
DETAIL
100
AcDbCircle
 10
309.1626421186517
 20
-26.01120016725463
 30
0.0
 40
0.851914554485978
100
AcDbArc
 50
130.3845745260014
 51
178.6783046464508
  0
ARC
  5
8FFEE
330
1E
100
AcDbEntity
  8
DETAIL
100
AcDbCircle
 10
309.1363453974468
 20
-26.01120015895685
 30
0.0
 40
0.8519145368683441
100
AcDbArc
 50
1.321694822795616
 51
49.61542600566788
  0
LINE
  5
8FFEF
330
1E
100
AcDbEntity
  8
DETAIL
100
AcDbLine
 10
308.3105887227716
 20
-3.004259818133505
 30
0.0
 11
308.3105887227716
 21
-25.991549999997
 31
0.0
  0
LINE
  5
8FFF2
330
1E
100
AcDbEntity
  8
DETAIL
100
AcDbLine
 10
309.9880332800543
 20
-3.004077125517141
 30
0.0
 11
309.9883987772258
 21
-25.991549999997
 31
0.0
  0
ARC
  5
8FFF5
330
1E
100
AcDbEntity
  8
DETAIL
100
AcDbCircle
 10
309.1494937499983
 20
-25.991549999997
 30
0.0
 40
0.8284322013363
100
AcDbArc
 50
49.42755747097148
 51
130.5724425291119
  0
ARC
  5
8FFF6
330
1E
100
AcDbEntity
  8
DETAIL
100
AcDbCircle
 10
309.1494937499983
 20
-25.991549999997
 30
0.0
 40
0.74975625
100
AcDbArc
 50
0.0
 51
180.0
  0
ARC
  5
8FFFA
330
1E
100
AcDbEntity
  8
DETAIL
100
AcDbCircle
 10
328.216383627363
 20
-45.57705295211372
 30
0.0
 40
1.193836385239265
100
AcDbArc
 50
47.52774180503714
 51
81.48089873842879
  0
ARC
  5
8FFFB
330
1E
100
AcDbEntity
  8
DETAIL
100
AcDbCircle
 10
328.3722832249816
 20
-45.22044828700745
 30
0.0
 40
0.8540076001933554
100
AcDbArc
 50
271.4059734598103
 51
319.5853859236141
  0
ARC
  5
8FFFE
330
1E
100
AcDbEntity
  8
DETAIL
100
AcDbCircle
 10
328.3932375000004
 20
-45.23529375000179
 30
0.0
 40
0.8284322013363
100
AcDbArc
 50
319.4275574709063
 51
40.57244252696831
  0
ARC
  5
8FFFF
330
1E
100
AcDbEntity
  8
DETAIL
100
AcDbCircle
 10
328.3932375000004
 20
-45.23529375000179
 30
0.0
 40
0.74975625
100
AcDbArc
 50
270.0
 51
90.0
  0
ARC
  5
90000
330
1E
100
AcDbEntity
  8
DETAIL
100
AcDbCircle
 10
344.4780396149198
 20
-45.39492911559228
 30
0.0
 40
1.002588298750054
100
AcDbArc
 50
95.15036192278721
 51
135.8409974621257
  0
ARC
  5
90001
330
1E
100
AcDbEntity
  8
DETAIL
100
AcDbCircle
 10
344.4089917717206
 20
-45.22044829391961
 30
0.0
 40
0.85400759320245
100
AcDbArc
 50
220.4146138666787
 51
268.5940267498853
  0
LINE
  5
90002
330
1E
100
AcDbEntity
  8
DETAIL
100
AcDbLine
 10
328.3932375000008
 20
-44.39638872277192
 30
0.0
 11
344.3880374999984
 21
-44.39638872277192
 31
0.0
  0
LINE
  5
90005
330
1E
100
AcDbEntity
  8
DETAIL
100
AcDbLine
 10
328.3932375000008
 20
-46.07383328138165
 30
0.0
 11
344.3880374999984
 21
-46.07383328138165
 31
0.0
  0
ARC
  5
90008
330
1E
100
AcDbEntity
  8
DETAIL
100
AcDbCircle
 10
344.388037499998
 20
-45.23529375000179
 30
0.0
 40
0.8284322013363
100
AcDbArc
 50
139.4275574709714
 51
220.5724425290935
  0
ARC
  5
90009
330
1E
100
AcDbEntity
  8
DETAIL
100
AcDbCircle
 10
344.388037499998
 20
-45.23529375000179
 30
0.0
 40
0.74975625
100
AcDbArc
 50
90.0
 51
270.0
  0
ARC
  5
9000A
330
1E
100
AcDbEntity
  8
DETAIL
100
AcDbCircle
 10
363.6449296753102
 20
-26.01120019424296
 30
0.0
 40
0.8519146117491377
100
AcDbArc
 50
130.384576252335
 51
178.6783029197104
  0
ARC
  5
9000B
330
1E
100
AcDbEntity
  8
DETAIL
100
AcDbCircle
 10
363.6186328347187
 20
-26.01120018883193
 30
0.0
 40
0.8519146002662186
100
AcDbArc
 50
1.321696734081218
 51
49.61542409399402
  0
LINE
  5
9000C
330
1E
100
AcDbEntity
  8
DETAIL
100
AcDbLine
 10
362.7928762227729
 20
-3.004259818133505
 30
0.0
 11
362.7928762227729
 21
-25.991549999997
 31
0.0
  0
LINE
  5
9000F
330
1E
100
AcDbEntity
  8
DETAIL
100
AcDbLine
 10
364.4703207800525
 20
-3.004077125517141
 30
0.0
 11
364.4706862772271
 21
-25.991549999997
 31
0.0
  0
ARC
  5
90012
330
1E
100
AcDbEntity
  8
DETAIL
100
AcDbCircle
 10
363.6317812499996
 20
-25.991549999997
 30
0.0
 40
0.8284322013363
100
AcDbArc
 50
49.42755747097148
 51
130.5724425291119
  0
ARC
  5
90013
330
1E
100
AcDbEntity
  8
DETAIL
100
AcDbCircle
 10
363.6317812499996
 20
-25.991549999997
 30
0.0
 40
0.74975625
100
AcDbArc
 50
0.0
 51
180.0
  0
ARC
  5
90014
330
1E
100
AcDbEntity
  8
DETAIL
100
AcDbCircle
 10
344.388037499998
 20
-25.991549999997
 30
0.0
 40
20.082648777228
100
AcDbArc
 50
270.0
 51
0.0
  0
ARC
  5
90015
330
1E
100
AcDbEntity
  8
DETAIL
100
AcDbCircle
 10
344.388037499998
 20
-25.991549999997
 30
0.0
 40
19.9935
100
AcDbArc
 50
270.0
 51
0.0
  0
ARC
  5
90016
330
1E
100
AcDbEntity
  8
DETAIL
100
AcDbCircle
 10
344.388037499998
 20
-25.991549999997
 30
0.0
 40
18.49398749999998
100
AcDbArc
 50
270.0
 51
0.0
  0
ARC
  5
90017
330
1E
100
AcDbEntity
  8
DETAIL
100
AcDbCircle
 10
344.388037499998
 20
-25.991549999997
 30
0.0
 40
18.40483872277198
100
AcDbArc
 50
270.0
 51
0.0
  0
LINE
  5
90018
330
1E
100
AcDbEntity
  8
DETAIL
100
AcDbLine
 10
399.2297400000007
 20
-57.23962227752053
 30
0.0
 11
399.2297400000007
 21
-70.97430779086517
 31
0.0
  0
LINE
  5
90019
330
1E
100
AcDbEntity
  8
DETAIL
100
AcDbLine
 10
398.1854920710607
 20
-71.56388991704353
 30
0.0
 11
398.1348534802397
 21
-70.98508816932898
 31
0.0
  0
ARC
  5
9001A
330
1E
100
AcDbEntity
  8
DETAIL
100
AcDbCircle
 10
399.1813630064498
 20
-71.47676250000222
 30
0.0
 40
0.999675
100
AcDbArc
 50
185.0000000000258
 51
270.0
  0
LINE
  5
9001B
330
1E
100
AcDbEntity
  8
DETAIL
100
AcDbLine
 10
398.6470057796741
 20
-54.94606218155514
 30
0.0
 11
394.1803293014777
 21
-48.56698707230771
 31
0.0
  0
ARC
  5
9001C
330
1E
100
AcDbEntity
  8
DETAIL
100
AcDbCircle
 10
402.3691874999993
 20
-42.8330868330604
 30
0.0
 40
9.99675
100
AcDbArc
 50
180.0
 51
214.999999999979
  0
ARC
  5
9001D
330
1E
100
AcDbEntity
  8
DETAIL
100
AcDbCircle
 10
393.1858718403424
 20
-57.55440376433455
 30
0.0
 40
6.052059956393062
100
AcDbArc
 50
2.981429896167659
 51
25.53002950057803
  0
LINE
  5
9001E
330
1E
100
AcDbEntity
  8
DETAIL
100
AcDbLine
 10
392.3214507134238
 20
-5.000547255121091
 30
0.0
 11
392.3724375000001
 21
-5.000992209131252
 31
0.0
  0
LINE
  5
90021
330
1E
100
AcDbEntity
  8
DETAIL
100
AcDbLine
 10
392.3724375000001
 20
-5.000992209131252
 30
0.0
 11
392.3724375000001
 21
-42.8330868330604
 31
0.0
  0
LINE
  5
90022
330
1E
100
AcDbEntity
  8
DETAIL
100
AcDbLine
 10
392.3214507134238
 20
-5.000547255121091
 30
0.0
 11
392.3214507134248
 21
-0.0000000000009095
 31
0.0
  0
TEXT
  5
90023
330
1E
100
AcDbEntity
  8
ETC
100
AcDbText
 10
525.1186310199408
 20
348.8759347073881
 30
0.0
 40
64.0
  1
SMSZ6346
 41
0.8917197521894953
 72
     5
 11
951.7853010199432
 21
348.8759347073881
 31
0.0
100
AcDbText
  0
TEXT
  5
90024
330
1E
100
AcDbEntity
  8
ETC
100
AcDbText
 10
524.6216031229637
 20
439.5125358909764
 30
0.0
 40
64.0
  1
室内機
 41
0.75
 72
     5
 11
684.6216031229637
 21
439.5125358909764
 31
0.0
100
AcDbText
  0
LINE
  5
929ED
330
1E
100
AcDbEntity
  8
DETAIL
100
AcDbLine
 10
6.98570447916188
 20
-253.4022064897694
 30
0.0
 11
377.300269207839
 21
-253.3975464090638
 31
0.0
  0
LINE
  5
929EE
330
1E
100
AcDbEntity
  8
DETAIL
100
AcDbLine
 10
3.986526631821732
 20
-200.0588425599989
 30
0.0
 11
377.2995898629266
 21
-200.0541447458462
 31
0.0
  0
LINE
  5
929F0
330
1E
100
AcDbEntity
  8
DETAIL
100
AcDbLine
 10
354.4296735548812
 20
-140.9881432480947
 30
0.0
 11
339.8245776945656
 21
-140.9883270402863
 31
0.0
  0
LINE
  5
929F5
330
1E
100
AcDbEntity
  8
DETAIL
100
AcDbLine
 10
-377.6384080137844
 20
-253.3909177126914
 30
0.0
 11
-7.00728851972633
 21
-253.4023825791889
 31
0.0
  0
LINE
  5
929F6
330
1E
100
AcDbEntity
  8
DETAIL
100
AcDbLine
 10
-377.3230692392094
 20
-200.0540692789582
 30
0.0
 11
-4.010006008104994
 21
-200.0493714648055
 31
0.0
  0
LINE
  5
929F7
330
1E
100
AcDbEntity
  8
DETAIL
100
AcDbLine
 10
-377.3230693011965
 20
-200.0482958806585
 30
0.0
 11
-4.010006080758159
 21
-200.0435980665061
 31
0.0
  0
LINE
  5
929F9
330
1E
100
AcDbEntity
  8
DETAIL
100
AcDbLine
 10
-380.3248057393537
 20
-255.9662136553038
 30
0.0
 11
-380.3215543803243
 21
-201.1148083641155
 31
0.0
  0
LINE
  5
929FA
330
1E
100
AcDbEntity
  8
DETAIL
100
AcDbLine
 10
-384.2196110506737
 20
-175.2828861102837
 30
0.0
 11
-384.2185931115297
 21
-238.0447707600958
 31
0.0
  0
LINE
  5
92A01
330
1E
100
AcDbEntity
  8
DETAIL
100
AcDbLine
 10
-322.2513730617103
 20
-99.06358547152857
 30
0.0
 11
-321.8567982703112
 21
-106.5907086193044
 31
0.0
  0
LINE
  5
92A04
330
1E
100
AcDbEntity
  8
DETAIL
100
AcDbLine
 10
-337.4437654605053
 20
-99.06377665432659
 30
0.0
 11
-337.8386146317117
 21
-106.5997621674469
 31
0.0
  0
LINE
  5
92A11
330
1E
100
AcDbEntity
  8
DETAIL
100
AcDbLine
 10
-337.4437654605053
 20
-99.06377665432659
 30
0.0
 11
-322.2513730617103
 21
-99.06358547152857
 31
0.0
  0
LINE
  5
92A14
330
1E
100
AcDbEntity
  8
DETAIL
100
AcDbLine
 10
370.6555952075235
 20
-106.6087095292207
 30
0.0
 11
-370.680873665112
 21
-106.6180385918721
 31
0.0
  0
LINE
  5
92B52
330
1E
100
AcDbEntity
  8
DETAIL
100
AcDbLine
 10
-384.2185931115297
 20
-238.0447707600958
 30
0.0
 11
-380.3205448419536
 21
-238.044721706612
 31
0.0
  0
LINE
  5
92D8F
330
1E
100
AcDbEntity
  8
DETAIL
100
AcDbLine
 10
-3.448387428566164
 20
-269.6761681382641
 30
0.0
 11
3.448159120887041
 21
-269.6760813473391
 31
0.0
  0
LINE
  5
92D90
330
1E
100
AcDbEntity
  8
DETAIL
100
AcDbLine
 10
3.44811335790375
 20
-266.039407646257
 30
0.0
 11
-3.448433194216093
 21
-266.0394944331848
 31
0.0
  0
LINE
  5
92E75
330
1E
100
AcDbEntity
  8
DETAIL
100
AcDbLine
 10
5.447149212653513
 20
-268.9681735177888
 30
0.0
 11
5.447121264489553
 21
-266.7472651672113
 31
0.0
  0
LINE
  5
92E76
330
1E
100
AcDbEntity
  8
DETAIL
100
AcDbLine
 10
-5.447423284649474
 20
-266.7474022654021
 30
0.0
 11
-5.447395336485513
 21
-268.9683106159796
 31
0.0
  0
LINE
  5
92EAD
330
1E
100
AcDbEntity
  8
DETAIL
100
AcDbLine
 10
384.1960607613378
 20
-175.2732162798554
 30
0.0
 11
384.1966224276242
 21
-238.035100935409
 31
0.0
  0
LINE
  5
92EAE
330
1E
100
AcDbEntity
  8
DETAIL
100
AcDbLine
 10
380.2987334479384
 20
-255.9500132412074
 30
0.0
 11
380.2980985692574
 21
-200.8430612227468
 31
0.0
  0
LINE
  5
92EB1
330
1E
100
AcDbEntity
  8
DETAIL
100
AcDbLine
 10
377.2961988631101
 20
-168.9408984049515
 30
0.0
 11
363.2978501456302
 21
-168.9410745617679
 31
0.0
  0
LINE
  5
92EB5
330
1E
100
AcDbEntity
  8
DETAIL
100
AcDbLine
 10
306.4338123885129
 20
-99.05567402547241
 30
0.0
 11
306.8279466267032
 21
-106.5743929445536
 31
0.0
  0
LINE
  5
92EB7
330
1E
100
AcDbEntity
  8
DETAIL
100
AcDbLine
 10
281.1960980334246
 20
-2.999640188141601
 30
0.0
 11
281.1965438638441
 21
-106.609835292123
 31
0.0
  0
LINE
  5
92EB8
330
1E
100
AcDbEntity
  8
DETAIL
100
AcDbLine
 10
280.996642638694
 20
-106.6098378077028
 30
0.0
 11
280.9962426049588
 21
-72.47643749999951
 31
0.0
  0
LINE
  5
92EBA
330
1E
100
AcDbEntity
  8
DETAIL
100
AcDbLine
 10
291.2414199897176
 20
-99.05586520827069
 30
0.0
 11
290.847950043107
 21
-106.5655271975445
 31
0.0
  0
LINE
  5
92EBB
330
1E
100
AcDbEntity
  8
DETAIL
100
AcDbLine
 10
291.2414199897176
 20
-99.05586520827069
 30
0.0
 11
306.4338123885129
 21
-99.05567402547241
 31
0.0
  0
LINE
  5
92F10
330
1E
100
AcDbEntity
  8
DETAIL
100
AcDbLine
 10
357.3453066512692
 20
-143.3228227376969
 30
0.0
 11
363.2978501456302
 21
-168.9410745617678
 31
0.0
  0
LINE
  5
92FB9
330
1E
100
AcDbEntity
  8
DETAIL
100
AcDbLine
 10
380.2977428731407
 20
-171.9428777194823
 30
0.0
 11
380.2980448410823
 21
-197.0297379380818
 31
0.0
  0
LINE
  5
92FF2
330
1E
100
AcDbEntity
  8
DETAIL
100
AcDbLine
 10
380.2985741580422
 20
-238.035149988893
 30
0.0
 11
384.1966224276242
 21
-238.035100935409
 31
0.0
  0
LINE
  5
930A7
330
1E
100
AcDbEntity
  8
DETAIL
100
AcDbLine
 10
384.5659935431833
 20
-258.8006892544481
 30
0.0
 11
383.4150650609463
 21
-238.035110770616
 31
0.0
  0
ARC
  5
93972
330
1E
100
AcDbEntity
  8
DETAIL
100
AcDbCircle
 10
-370.6838693367257
 20
-116.6084285057852
 30
0.0
 40
9.990390363047104
100
AcDbArc
 50
89.98281955593229
 51
175.245339930354
  0
ARC
  5
93973
330
1E
100
AcDbEntity
  8
DETAIL
100
AcDbCircle
 10
370.6582365904778
 20
-116.599757797004
 30
0.0
 40
9.991048616941043
100
AcDbArc
 50
4.759577003710653
 51
90.01514756888113
  0
ARC
  5
93974
330
1E
100
AcDbEntity
  8
DETAIL
100
AcDbCircle
 10
-329.9443044955675
 20
-188.3956215612934
 30
0.0
 40
714.2609178791992
100
AcDbArc
 50
1.052697583136958
 51
5.835825314933567
  0
ARC
  5
93975
330
1E
100
AcDbEntity
  8
DETAIL
100
AcDbCircle
 10
446.8133704029083
 20
-195.4196696571498
 30
0.0
 40
831.2769131373991
100
AcDbArc
 50
174.5024251944469
 51
178.6119359765184
  0
ARC
  5
93976
330
1E
100
AcDbEntity
  8
DETAIL
100
AcDbCircle
 10
377.2888991139466
 20
-171.9500638780754
 30
0.0
 40
3.008849846565353
100
AcDbArc
 50
0.115120560016404
 51
89.86099490364496
  0
ARC
  5
93977
330
1E
100
AcDbEntity
  8
DETAIL
100
AcDbCircle
 10
354.4062884738012
 20
-144.0052617363888
 30
0.0
 40
3.017209113472723
100
AcDbArc
 50
13.0724055779781
 51
89.55592078175206
  0
ARC
  5
9397A
330
1E
100
AcDbEntity
  8
DETAIL
100
AcDbCircle
 10
-377.4220317879484
 20
-200.9605842730529
 30
0.0
 40
2.903621244921962
100
AcDbArc
 50
137.991542646587
 51
183.044663486008
  0
ARC
  5
9397B
330
1E
100
AcDbEntity
  8
DETAIL
100
AcDbCircle
 10
-377.3017668527324
 20
-197.034355150532
 30
0.0
 40
3.019789265675033
100
AcDbArc
 50
180.5181136878244
 51
269.5958171731916
  0
ARC
  5
9398C
330
1E
100
AcDbEntity
  8
DETAIL
100
AcDbCircle
 10
377.4564592709533
 20
-250.5570898758999
 30
0.0
 40
2.844747555163562
100
AcDbArc
 50
266.8526086974845
 51
357.6105799817268
  0
ARC
  5
9398D
330
1E
100
AcDbEntity
  8
DETAIL
100
AcDbCircle
 10
386.1426948569193
 20
-258.5219380210304
 30
0.0
 40
1.601152485826618
100
AcDbArc
 50
190.025945824705
 51
253.9718685608545
  0
ARC
  5
9398F
330
1E
100
AcDbEntity
  8
DETAIL
100
AcDbCircle
 10
394.3017745254256
 20
-256.0818412240329
 30
0.0
 40
3.715368368378304
100
AcDbArc
 50
278.6754942401926
 51
325.0895442661901
  0
ARC
  5
93990
330
1E
100
AcDbEntity
  8
DETAIL
100
AcDbCircle
 10
390.8762136092566
 20
-252.615858011249
 30
0.0
 40
8.553635548539775
100
AcDbArc
 50
319.172118836703
 51
0.2894610271063082
  0
ARC
  5
93994
330
1E
100
AcDbEntity
  8
DETAIL
100
AcDbCircle
 10
-6.647439299600303
 20
-247.762876785139
 30
0.0
 40
5.650974877164807
100
AcDbArc
 50
266.3489836977272
 51
355.9801730609069
  0
ARC
  5
93995
330
1E
100
AcDbEntity
  8
DETAIL
100
AcDbCircle
 10
6.609552043197663
 20
-247.78119461712
 30
0.0
 40
5.633583684258593
100
AcDbArc
 50
183.8452596482683
 51
273.8284676722086
  0
ARC
  5
93996
330
1E
100
AcDbEntity
  8
DETAIL
100
AcDbCircle
 10
-4.018972388086865
 20
-197.0469555924396
 30
0.0
 40
3.002429260882677
100
AcDbArc
 50
270.1711069435629
 51
354.3472510524974
  0
ARC
  5
93997
330
1E
100
AcDbEntity
  8
DETAIL
100
AcDbCircle
 10
3.994936690347685
 20
-197.0481538436451
 30
0.0
 40
3.004927087132772
100
AcDbArc
 50
188.2335753715353
 51
269.8396414831926
  0
ARC
  5
93998
330
1E
100
AcDbEntity
  8
DETAIL
100
AcDbCircle
 10
-3.662758775689823
 20
-268.6106098331488
 30
0.0
 40
2.58003291738799
100
AcDbArc
 50
85.23489846360133
 51
133.7665437872159
  0
ARC
  5
93999
330
1E
100
AcDbEntity
  8
DETAIL
100
AcDbCircle
 10
-3.633264306357403
 20
-267.0217114940372
 30
0.0
 40
2.660886982947731
100
AcDbArc
 50
227.0173545062379
 51
273.9840872417163
  0
ARC
  5
9399A
330
1E
100
AcDbEntity
  8
DETAIL
100
AcDbCircle
 10
3.294461911787735
 20
-269.6498770834011
 30
0.0
 40
3.61373743163257
100
AcDbArc
 50
53.43831962198402
 51
87.56312795918956
  0
ARC
  5
9399B
330
1E
100
AcDbEntity
  8
DETAIL
100
AcDbCircle
 10
3.619438042914993
 20
-266.9834107856813
 30
0.0
 40
2.69811252966753
100
AcDbArc
 50
266.3603584346637
 51
312.6410836803042
  0
ARC
  5
9399C
330
1E
100
AcDbEntity
  8
DETAIL
100
AcDbCircle
 10
-0.1915617393049871
 20
-260.2897422734657
 30
0.0
 40
14.31284183174794
100
AcDbArc
 50
185.9813883658874
 51
270.7212005822186
  0
ARC
  5
9399D
330
1E
100
AcDbEntity
  8
DETAIL
100
AcDbCircle
 10
0.0637510708612865
 20
-260.1715935666351
 30
0.0
 40
14.43005240975638
100
AcDbArc
 50
269.7015805248989
 51
353.59551854859
  0
LINE
  5
939A2
330
1E
100
AcDbEntity
  8
DETAIL
100
AcDbLine
 10
385.7006017827387
 20
-260.0608476988964
 30
0.0
 11
394.8621933391306
 21
-259.7547001739508
 31
0.0
  0
ARC
  5
939A3
330
1E
100
AcDbEntity
  8
DETAIL
100
AcDbCircle
 10
377.344505750054
 20
-200.9789688213357
 30
0.0
 40
2.956718014455227
100
AcDbArc
 50
357.3667515679097
 51
41.08150734273254
  0
ARC
  5
939A4
330
1E
100
AcDbEntity
  8
DETAIL
100
AcDbCircle
 10
377.339165584928
 20
-197.0948145546124
 30
0.0
 40
2.959594806475893
100
AcDbArc
 50
269.233817609597
 51
1.259941389962242
  0
ARC
  5
939A5
330
1E
100
AcDbEntity
  8
DETAIL
100
AcDbCircle
 10
4.003092739090936
 20
-124.8440239233264
 30
0.0
 40
3.015838653086248
100
AcDbArc
 50
90.32869751456901
 51
179.5887760724968
  0
ARC
  5
939AB
330
1E
100
AcDbEntity
  8
DETAIL
100
AcDbCircle
 10
-377.5332541556835
 20
-250.6046024822465
 30
0.0
 40
2.78829874606056
100
AcDbArc
 50
181.6576841653284
 51
267.8387174888645
  0
LINE
  5
93AAA
330
1E
100
AcDbEntity
  8
SIZE
  6
Continuous
100
AcDbLine
 10
-345.0702599999988
 20
40.0
 30
0.0
 11
-345.0702599999988
 21
263.845890836239
 31
0.0
  0
LINE
  5
93AAB
330
1E
100
AcDbEntity
  8
SIZE
  6
Continuous
100
AcDbLine
 10
-399.5702599999988
 20
-72.32249434437292
 30
0.0
 11
-399.5702599999988
 21
263.845890836239
 31
0.0
  0
LINE
  5
93AB2
330
1E
100
AcDbEntity
  8
SIZE
  6
Continuous
100
AcDbLine
 10
329.9297400000011
 20
25.02757451269417
 30
0.0
 11
329.9297400000011
 21
263.8458908362385
 31
0.0
  0
LINE
  5
93AB7
330
1E
100
AcDbEntity
  8
SIZE
  6
Continuous
100
AcDbLine
 10
329.9297400000011
 20
39.99999999999954
 30
0.0
 11
329.9297400000011
 21
263.8458908362385
 31
0.0
  0
LINE
  5
93AB8
330
1E
100
AcDbEntity
  8
SIZE
  6
Continuous
100
AcDbLine
 10
399.4297400000011
 20
-72.36558091088728
 30
0.0
 11
399.4297400000011
 21
263.845890836239
 31
0.0
  0
LINE
  5
93ABA
330
1E
100
AcDbEntity
  8
SIZE
  6
Continuous
100
AcDbLine
 10
-566.7129546428566
 20
243.845890836239
 30
0.0
 11
566.7129546428566
 21
243.845890836239
 31
0.0
  0
LINE
  5
93ABF
330
1E
100
AcDbEntity
  8
SIZE
  6
Continuous
100
AcDbLine
 10
-345.0702599999988
 20
23.03446076260706
 30
0.0
 11
-345.0702599999988
 21
263.845890836239
 31
0.0
  0
LINE
  5
93AC4
330
1E
100
AcDbEntity
  8
SIZE
  6
Continuous
100
AcDbLine
 10
-399.5702599999988
 20
-92.47643749999951
 30
0.0
 11
-399.5702599999988
 21
-448.9639481947592
 31
0.0
  0
LINE
  5
93AC5
330
1E
100
AcDbEntity
  8
SIZE
  6
Continuous
100
AcDbLine
 10
399.4297400000011
 20
-92.47643749999951
 30
0.0
 11
399.4297400000011
 21
-448.9639481947592
 31
0.0
  0
LINE
  5
93ACA
330
1E
100
AcDbEntity
  8
SIZE
  6
Continuous
100
AcDbLine
 10
-380.0523045735534
 20
-314.0000000000009
 30
0.0
 11
-478.850061146265
 21
-314.0000000000009
 31
0.0
  0
LINE
  5
93ACB
330
1E
100
AcDbEntity
  8
SIZE
  6
Continuous
100
AcDbLine
 10
-393.3427519290344
 20
0.0
 30
0.0
 11
-478.850061146265
 21
0.0000000000000409
 31
0.0
  0
CIRCLE
  5
93AD0
330
1E
100
AcDbEntity
  8
SIZE
  6
ByBlock
100
AcDbCircle
 10
-399.5702599999988
 20
-421.7300227322948
 30
0.0
 40
5.0
  0
TEXT
  5
93AD2
330
1E
100
AcDbEntity
  8
SIZE
  6
Continuous
100
AcDbText
 10
-473.3377409225432
 20
-212.0198406679429
 30
0.0
 40
50.0
  1
314
 50
90.0
 41
0.8
100
AcDbText
  0
CIRCLE
  5
93AD3
330
1E
100
AcDbEntity
  8
SIZE
  6
ByBlock
100
AcDbCircle
 10
-463.337740922543
 20
-314.0000000000009
 30
0.0
 40
5.0
  0
CIRCLE
  5
93AD5
330
1E
100
AcDbEntity
  8
SIZE
  6
ByBlock
100
AcDbCircle
 10
-463.3377409225431
 20
0.0000000000000391
 30
0.0
 40
5.0
  0
LINE
  5
93AD6
330
1E
100
AcDbEntity
  8
SIZE
  6
ByBlock
100
AcDbLine
 10
-463.3377409225431
 20
0.0000000000000391
 30
0.0
 11
-463.3377409225431
 21
-314.0000000000009
 31
0.0
  0
TEXT
  5
93AD7
330
1E
100
AcDbEntity
  8
SIZE
  6
Continuous
100
AcDbText
 10
-556.7129546428566
 20
253.845890836239
 30
0.0
 40
50.0
  1
54.5
 41
0.8
100
AcDbText
  0
CIRCLE
  5
93AD8
330
1E
100
AcDbEntity
  8
SIZE
  6
ByBlock
100
AcDbCircle
 10
-399.5702599999988
 20
243.845890836239
 30
0.0
 40
5.0
  0
CIRCLE
  5
93ADA
330
1E
100
AcDbEntity
  8
SIZE
  6
ByBlock
100
AcDbCircle
 10
399.4297400000011
 20
-421.7300227322948
 30
0.0
 40
5.0
  0
TEXT
  5
93ADC
330
1E
100
AcDbEntity
  8
SIZE
  6
Continuous
100
AcDbText
 10
-56.78571428571434
 20
-411.7300227322948
 30
0.0
 40
50.0
  1
799
 41
0.8
100
AcDbText
  0
CIRCLE
  5
93ADD
330
1E
100
AcDbEntity
  8
SIZE
  6
ByBlock
100
AcDbCircle
 10
399.4297400000011
 20
243.845890836239
 30
0.0
 40
5.0
  0
TEXT
  5
93ADF
330
1E
100
AcDbEntity
  8
SIZE
  6
Continuous
100
AcDbText
 10
-230.3923541071421
 20
253.845890836239
 30
0.0
 40
50.0
  1
345
 41
0.8
100
AcDbText
  0
CIRCLE
  5
93AE0
330
1E
100
AcDbEntity
  8
SIZE
  6
ByBlock
100
AcDbCircle
 10
-345.0702599999988
 20
243.845890836239
 30
0.0
 40
5.0
  0
CIRCLE
  5
93AE2
330
1E
100
AcDbEntity
  8
SIZE
  6
ByBlock
100
AcDbCircle
 10
-345.0702599999988
 20
243.845890836239
 30
0.0
 40
5.0
  0
CIRCLE
  5
93AE4
330
1E
100
AcDbEntity
  8
SIZE
  6
ByBlock
100
AcDbCircle
 10
-0.070259999998882
 20
243.845890836239
 30
0.0
 40
5.0
  0
LINE
  5
93AE5
330
1E
100
AcDbEntity
  8
SIZE
  6
ByBlock
100
AcDbLine
 10
-0.0001624999995196
 20
243.845890836239
 30
0.0
 11
-10.00016249999952
 21
243.845890836239
 31
0.0
  0
CIRCLE
  5
93AE6
330
1E
100
AcDbEntity
  8
SIZE
  6
ByBlock
100
AcDbCircle
 10
-0.070259999998882
 20
243.845890836239
 30
0.0
 40
5.0
  0
LINE
  5
93AE7
330
1E
100
AcDbEntity
  8
SIZE
  6
ByBlock
100
AcDbLine
 10
-0.0001624999995196
 20
243.845890836239
 30
0.0
 11
9.999837500000479
 21
243.845890836239
 31
0.0
  0
TEXT
  5
93AE8
330
1E
100
AcDbEntity
  8
SIZE
  6
Continuous
100
AcDbText
 10
107.1777433928573
 20
253.845890836239
 30
0.0
 40
50.0
  1
330
 41
0.8
100
AcDbText
  0
CIRCLE
  5
93AE9
330
1E
100
AcDbEntity
  8
SIZE
  6
ByBlock
100
AcDbCircle
 10
329.9297400000011
 20
243.8458908362385
 30
0.0
 40
5.0
  0
CIRCLE
  5
93AEB
330
1E
100
AcDbEntity
  8
SIZE
  6
ByBlock
100
AcDbCircle
 10
329.9297400000011
 20
243.8458908362385
 30
0.0
 40
5.0
  0
TEXT
  5
93AED
330
1E
100
AcDbEntity
  8
SIZE
  6
Continuous
100
AcDbText
 10
419.5700974999994
 20
253.845890836239
 30
0.0
 40
50.0
  1
69.5
 41
0.8
100
AcDbText
  0
LINE
  5
93D13
330
1E
100
AcDbEntity
  8
DETAIL
100
AcDbLine
 10
377.3002692078386
 20
-258.6718689503839
 30
0.0
 11
382.8301662285912
 21
-258.671868950384
 31
0.0
  0
ARC
  5
93D14
330
1E
100
AcDbEntity
  8
DETAIL
100
AcDbCircle
 10
-377.5376739031985
 20
-255.8855537199391
 30
0.0
 40
2.78829874606056
100
AcDbArc
 50
181.6576841653284
 51
267.8387174888645
  0
ARC
  5
93D17
330
1E
100
AcDbEntity
  8
DETAIL
100
AcDbCircle
 10
377.4564592709529
 20
-255.83141241722
 30
0.0
 40
2.844747555163562
100
AcDbArc
 50
266.8526086974845
 51
357.6105799817268
  0
LINE
  5
93D1C
330
1E
100
AcDbEntity
  8
DETAIL
100
AcDbLine
 10
107.9934605231302
 20
-283.6076664372251
 30
0.0
 11
107.9998400818438
 21
-261.7812177237647
 31
0.0
  0
LINE
  5
93D1D
330
1E
100
AcDbEntity
  8
DETAIL
100
AcDbLine
 10
-108.0000413141086
 20
-283.6047105923244
 30
0.0
 11
-107.998918902297
 21
-261.7812177237647
 31
0.0
  0
LINE
  5
93D6B
330
1E
100
AcDbEntity
  8
DETAIL
100
AcDbLine
 10
332.9985042282042
 20
-121.8240945644875
 30
0.0
 11
3.985791408337963
 21
-121.8282348979795
 31
0.0
  0
LINE
  5
93D6C
330
1E
100
AcDbEntity
  8
DETAIL
100
AcDbLine
 10
335.9141373245924
 20
-124.1587740540895
 30
0.0
 11
339.8245776945656
 21
-140.9883270402863
 31
0.0
  0
ARC
  5
93D6D
330
1E
100
AcDbEntity
  8
DETAIL
100
AcDbCircle
 10
332.9751191471244
 20
-124.8412130527813
 30
0.0
 40
3.017209113472723
100
AcDbArc
 50
13.07240557797876
 51
89.55592078175147
  0
LINE
  5
93D8F
330
1E
100
AcDbEntity
  8
DETAIL
100
AcDbLine
 10
-108.0052984610105
 20
-283.6047105203809
 30
0.0
 11
107.9934605231302
 21
-283.6076664372251
 31
0.0
  0
ARC
  5
93DD5
330
1E
100
AcDbEntity
  8
DETAIL
100
AcDbCircle
 10
-103.8743102350946
 20
-39.33864840604436
 30
0.0
 40
245.1159139610431
100
AcDbArc
 50
274.7715913271993
 51
291.7943446534052
  0
ARC
  5
93DD6
330
1E
100
AcDbEntity
  8
DETAIL
100
AcDbCircle
 10
-120.681270949387
 20
-42.2868779162172
 30
0.0
 40
241.6508016799371
100
AcDbArc
 50
273.0081209460442
 51
294.7268755974982
  0
LINE
  5
93DD9
330
1E
100
AcDbEntity
  8
DETAIL
100
AcDbLine
 10
0.9873967517379469
 20
-106.6133614759796
 30
0.0
 11
0.9886506529268208
 21
-248.1589944164793
 31
0.0
  0
ARC
  5
93DDA
330
1E
100
AcDbEntity
  8
DETAIL
100
AcDbCircle
 10
-377.3119251257869
 20
-171.9915597555087
 30
0.0
 40
3.008849846565353
100
AcDbArc
 50
90.13900509635503
 51
179.8848794399835
  0
LINE
  5
93DDB
330
1E
100
AcDbEntity
  8
DETAIL
100
AcDbLine
 10
-380.3207688849809
 20
-171.9843735969156
 30
0.0
 11
-380.3214326520746
 21
-197.0616620977964
 31
0.0
  0
LINE
  5
93DDC
330
1E
100
AcDbEntity
  8
DETAIL
100
AcDbLine
 10
-377.3192248749504
 20
-168.9823942823848
 30
0.0
 11
-363.3208761574706
 21
-168.9825704392012
 31
0.0
  0
LINE
  5
93DDD
330
1E
100
AcDbEntity
  8
DETAIL
100
AcDbLine
 10
-357.3683326631095
 20
-143.3643186151302
 30
0.0
 11
-363.3208761574706
 21
-168.9825704392011
 31
0.0
  0
LINE
  5
93DDE
330
1E
100
AcDbEntity
  8
DETAIL
100
AcDbLine
 10
-333.0215302400448
 20
-121.8655904419207
 30
0.0
 11
-4.00750741449187
 21
-121.8282600538414
 31
0.0
  0
LINE
  5
93DDF
330
1E
100
AcDbEntity
  8
DETAIL
100
AcDbLine
 10
-354.4526995667216
 20
-141.0296391255281
 30
0.0
 11
-339.847603706406
 21
-141.0298229177197
 31
0.0
  0
ARC
  5
93DE0
330
1E
100
AcDbEntity
  8
DETAIL
100
AcDbCircle
 10
-332.9981451589647
 20
-124.8827089302147
 30
0.0
 40
3.017209113472723
100
AcDbArc
 50
90.44407921824854
 51
166.9275944220212
  0
LINE
  5
93DE1
330
1E
100
AcDbEntity
  8
DETAIL
100
AcDbLine
 10
-335.9371633364327
 20
-124.2002699315228
 30
0.0
 11
-339.847603706406
 21
-141.0298229177197
 31
0.0
  0
ARC
  5
93DE2
330
1E
100
AcDbEntity
  8
DETAIL
100
AcDbCircle
 10
-354.4293144856416
 20
-144.0467576138221
 30
0.0
 40
3.017209113472723
100
AcDbArc
 50
90.44407921824792
 51
166.9275944220219
  0
LINE
  5
93DE3
330
1E
100
AcDbEntity
  8
DETAIL
100
AcDbLine
 10
-1.009132104127957
 20
-106.6133866005264
 30
0.0
 11
-1.010366659080632
 21
-248.1590195723412
 31
0.0
  0
ARC
  5
93DE4
330
1E
100
AcDbEntity
  8
DETAIL
100
AcDbCircle
 10
-4.024808745244747
 20
-124.8440490791884
 30
0.0
 40
3.015838653086248
100
AcDbArc
 50
0.4112239275031104
 51
89.67130248543099
  0
LINE
  5
93DEB
330
1E
100
AcDbEntity
  8
DETAIL
100
AcDbLine
 10
-107.998918902297
 20
-261.7812177237647
 30
0.0
 11
107.9998400818438
 21
-261.7812177237647
 31
0.0
  0
ARC
  5
93DF4
330
1E
100
AcDbEntity
  8
DETAIL
100
AcDbCircle
 10
103.8167050073057
 20
-39.33864840604431
 30
0.0
 40
245.1159139610431
100
AcDbArc
 50
248.2056553465948
 51
265.2284086728006
  0
ARC
  5
93DF5
330
1E
100
AcDbEntity
  8
DETAIL
100
AcDbCircle
 10
120.623665721598
 20
-42.28687791621715
 30
0.0
 40
241.6508016799371
100
AcDbArc
 50
245.2731244025016
 51
266.9918790539556
  0
ARC
  5
93E20
330
1E
100
AcDbEntity
  8
DETAIL
100
AcDbCircle
 10
385.7289122333462
 20
-257.9887025296373
 30
0.0
 40
2.97816130498645
100
AcDbArc
 50
193.2612797420906
 51
224.0894083436465
  0
LINE
  5
93E21
330
1E
100
AcDbEntity
  8
DETAIL
100
AcDbLine
 10
383.5898331894505
 20
-260.0608476988965
 30
0.0
 11
394.0266739261669
 21
-260.0608476988964
 31
0.0
  0
ARC
  5
93E2D
330
1E
100
AcDbEntity
  8
DETAIL
100
AcDbCircle
 10
394.1929969668081
 20
-256.0772751931914
 30
0.0
 40
3.987043172835879
100
AcDbArc
 50
267.6091619914574
 51
322.3214728333875
  0
ARC
  5
93E2E
330
1E
100
AcDbEntity
  8
DETAIL
100
AcDbCircle
 10
390.8516288919965
 20
-252.9075228802163
 30
0.0
 40
8.581708362347201
100
AcDbArc
 50
319.2062659499316
 51
1.65901953133934
  0
LINE
  5
93E42
330
1E
100
AcDbEntity
  8
DETAIL
100
AcDbLine
 10
-383.9324947221586
 20
-260.0608476988965
 30
0.0
 11
-394.369335458875
 21
-260.0608476988964
 31
0.0
  0
LINE
  5
93E43
330
1E
100
AcDbEntity
  8
DETAIL
100
AcDbLine
 10
-386.0432633154469
 20
-260.0608476988964
 30
0.0
 11
-395.2048548718387
 21
-259.7547001739508
 31
0.0
  0
ARC
  5
93E44
330
1E
100
AcDbEntity
  8
DETAIL
100
AcDbCircle
 10
-390.1167802889023
 20
-252.2727704669776
 30
0.0
 40
9.814706417570512
100
AcDbArc
 50
195.5965396620242
 51
219.4893031995984
  0
ARC
  5
93E45
330
1E
100
AcDbEntity
  8
DETAIL
100
AcDbCircle
 10
-390.1167802889028
 20
-251.9666229420324
 30
0.0
 40
9.814706417569588
100
AcDbArc
 50
195.5965396620184
 51
219.4893031995991
  0
ARC
  5
93E46
330
1E
100
AcDbEntity
  8
DETAIL
100
AcDbCircle
 10
-394.5356584995162
 20
-256.0772751931914
 30
0.0
 40
3.987043172835879
100
AcDbArc
 50
217.6785271666111
 51
272.390838008545
  0
ARC
  5
93E47
330
1E
100
AcDbEntity
  8
DETAIL
100
AcDbCircle
 10
-394.6444360581338
 20
-256.0818412240329
 30
0.0
 40
3.715368368378304
100
AcDbArc
 50
214.9104557338079
 51
261.3245057598084
  0
LINE
  5
93E48
330
1E
100
AcDbEntity
  8
DETAIL
100
AcDbLine
 10
-377.6428277612993
 20
-258.671868950384
 30
0.0
 11
-383.1728277612993
 21
-258.671868950384
 31
0.0
  0
LINE
  5
93E49
330
1E
100
AcDbEntity
  8
DETAIL
100
AcDbLine
 10
-384.9086550758915
 20
-258.8006892544481
 30
0.0
 11
-383.7577265936544
 21
-238.035110770616
 31
0.0
  0
ARC
  5
93E4A
330
1E
100
AcDbEntity
  8
DETAIL
100
AcDbCircle
 10
-386.0715737660543
 20
-257.9887025296373
 30
0.0
 40
2.97816130498645
100
AcDbArc
 50
315.9105916563556
 51
346.738720257909
  0
ARC
  5
93E4B
330
1E
100
AcDbEntity
  8
DETAIL
100
AcDbCircle
 10
-386.4853563896275
 20
-258.5219380210304
 30
0.0
 40
1.601152485826618
100
AcDbArc
 50
286.0281314391483
 51
349.974054175294
  0
LINE
  5
93E5F
330
1E
100
AcDbEntity
  8
DETAIL
100
AcDbLine
 10
377.3002692078386
 20
-258.6718689503839
 30
0.0
 11
-377.6428277612993
 21
-258.671868950384
 31
0.0
  0
LINE
  5
93E85
330
1E
100
AcDbEntity
  8
SIZE
100
AcDbLine
 10
399.4297400000011
 20
-421.7300227322948
 30
0.0
 11
-399.5702599999988
 21
-421.7300227322948
 31
0.0
  0
LINE
  5
93EAE
330
1E
100
AcDbEntity
  8
SIZE
  6
Continuous
100
AcDbLine
 10
-0.070259999998882
 20
40.0
 30
0.0
 11
-0.070259999998882
 21
263.845890836239
 31
0.0
  0
LINE
  5
93EBC
330
1E
100
AcDbEntity
  8
SIZE
  6
Continuous
100
AcDbLine
 10
-0.070259999998882
 20
40.0
 30
0.0
 11
-0.070259999998882
 21
263.845890836239
 31
0.0
  0
LINE
  5
941A8
330
1E
100
AcDbEntity
  8
OUTLINE
100
AcDbLine
 10
374.3566028178115
 20
-314.0001508069663
 30
0.0
 11
-374.3566028191447
 21
-314.0001508069663
 31
0.0
  0
LINE
  5
941A9
330
1E
100
AcDbEntity
  8
OUTLINE
100
AcDbLine
 10
-201.4345124999993
 20
0.0
 30
0.0
 11
201.4345124999993
 21
0.0
 31
0.0
  0
LINE
  5
941B0
330
1E
100
AcDbEntity
  8
OUTLINE
100
AcDbLine
 10
-334.2913200000018
 20
0.0
 30
0.0
 11
-201.4345124999993
 21
0.0
 31
0.0
  0
LINE
  5
941B3
330
1E
100
AcDbEntity
  8
OUTLINE
100
AcDbLine
 10
-399.5702599999988
 20
-72.47643749999951
 30
0.0
 11
-399.5702599999988
 21
-290.7856458275519
 31
0.0
  0
ARC
  5
941B4
330
1E
100
AcDbEntity
  8
OUTLINE
100
AcDbCircle
 10
-374.3513632250097
 20
-277.3714519457153
 30
0.0
 40
36.62854818751611
100
AcDbArc
 50
233.0585059424624
 51
269.9951131433433
  0
ARC
  5
941B5
330
1E
100
AcDbEntity
  8
OUTLINE
100
AcDbCircle
 10
-398.5681403776315
 20
-290.7847305909019
 30
0.0
 40
1.002120040310368
100
AcDbArc
 50
180.0523282665515
 51
209.6399737111197
  0
ARC
  5
941B6
330
1E
100
AcDbEntity
  8
OUTLINE
100
AcDbCircle
 10
-345.516421006002
 20
-288.4838849155756
 30
0.0
 40
53.99517545405792
100
AcDbArc
 50
182.9687109255842
 51
199.6565029486027
  0
LINE
  5
941D6
330
1E
100
AcDbEntity
  8
OUTLINE
100
AcDbLine
 10
-334.2913200000023
 20
0.0
 30
0.0
 11
-392.3214507134271
 21
0.0
 31
0.0
  0
ARC
  5
941D9
330
1E
100
AcDbEntity
  8
OUTLINE
100
AcDbCircle
 10
-395.3714625000018
 20
-57.23962227751963
 30
0.0
 40
3.998699999999998
100
AcDbArc
 50
145.0000000000206
 51
180.0
  0
LINE
  5
941DA
330
1E
100
AcDbEntity
  8
OUTLINE
100
AcDbLine
 10
-399.3701624853388
 20
-70.97692499999721
 30
0.0
 11
-398.1350822822363
 21
-70.98770338255144
 31
0.0
  0
ARC
  5
941DB
330
1E
100
AcDbEntity
  8
OUTLINE
100
AcDbCircle
 10
-399.1813630064505
 20
-71.47676250000131
 30
0.0
 40
0.999675
100
AcDbArc
 50
270.0
 51
355.0000000000263
  0
LINE
  5
941DC
330
1E
100
AcDbEntity
  8
OUTLINE
100
AcDbLine
 10
-398.185492072394
 20
-71.56388991704353
 30
0.0
 11
-398.1350822822363
 21
-70.98770338255144
 31
0.0
  0
LINE
  5
941DD
330
1E
100
AcDbEntity
  8
OUTLINE
100
AcDbLine
 10
-399.3701625000012
 20
-57.23962227751963
 30
0.0
 11
-399.3701625000012
 21
-70.97692499999721
 31
0.0
  0
LINE
  5
941DE
330
1E
100
AcDbEntity
  8
OUTLINE
100
AcDbLine
 10
-399.5702599999988
 20
-72.47643749999951
 30
0.0
 11
-399.1813630064505
 21
-72.47643750000131
 31
0.0
  0
SPLINE
  5
941E3
330
1E
100
AcDbEntity
  8
OUTLINE
100
AcDbSpline
210
0.0
220
0.0
230
1.0
 70
     8
 71
     3
 72
    11
 73
     7
 74
     5
 42
0.0000000001
 43
0.0000000001
 44
0.0000000001
 12
0.0000000000000001
 22
1.0
 32
0.0
 13
0.0000000000000001
 23
1.0
 33
0.0
 40
0.0
 40
0.0
 40
0.0
 40
0.0
 40
1.52129677454327
 40
3.086525365334642
 40
4.677823459143773
 40
6.276667013913057
 40
6.276667013913057
 40
6.276667013913057
 40
6.276667013913057
 10
-392.3724375000022
 20
-29.2689523832596
 30
0.0
 10
-392.3724375000022
 20
-28.76185345841184
 30
0.0
 10
-392.3640930230016
 20
-27.73302052348242
 30
0.0
 10
-392.3433072719834
 20
-26.17389124432458
 30
0.0
 10
-392.325873822672
 20
-24.58885711373321
 30
0.0
 10
-392.3214507134293
 20
-23.52547285157667
 30
0.0
 10
-392.3214507134293
 20
-22.99252499998691
 30
0.0
 11
-392.3724375000022
 21
-29.2689523832596
 31
0.0
 11
-392.3629071423752
 21
-27.74768546107952
 31
0.0
 11
-392.3440264992462
 21
-26.18257074875145
 31
0.0
 11
-392.3277109261985
 21
-24.59135629889351
 31
0.0
 11
-392.3214507134293
 21
-22.99252499998691
 31
0.0
  0
ARC
  5
941E4
330
1E
100
AcDbEntity
  8
OUTLINE
100
AcDbCircle
 10
-402.3691875000001
 20
-42.83308683305949
 30
0.0
 40
9.99675
100
AcDbArc
 50
325.0000000000208
 51
0.0
  0
LINE
  5
941E5
330
1E
100
AcDbEntity
  8
OUTLINE
100
AcDbLine
 10
-398.6470057796768
 20
-54.94606218155514
 30
0.0
 11
-394.1803293014773
 21
-48.56698707230771
 31
0.0
  0
LINE
  5
941E6
330
1E
100
AcDbEntity
  8
OUTLINE
100
AcDbLine
 10
-392.3724374999997
 20
-29.26895238326688
 30
0.0
 11
-392.3724374999997
 21
-42.8330868330604
 31
0.0
  0
LINE
  5
941E7
330
1E
100
AcDbEntity
  8
OUTLINE
100
AcDbLine
 10
-392.3214507134271
 20
-4.498744386071848
 30
0.0
 11
-392.3214507134271
 21
0.0
 31
0.0
  0
LINE
  5
941E8
330
1E
100
AcDbEntity
  8
OUTLINE
100
AcDbLine
 10
-392.3214507134271
 20
-4.498744386071848
 30
0.0
 11
-392.3214507134271
 21
-22.99252499999238
 31
0.0
  0
LINE
  5
94240
330
1E
100
AcDbEntity
  8
OUTLINE
100
AcDbLine
 10
399.4297400000011
 20
-72.47643749999951
 30
0.0
 11
399.4297400000011
 21
-290.7856458555433
 31
0.0
  0
ARC
  5
94241
330
1E
100
AcDbEntity
  8
OUTLINE
100
AcDbCircle
 10
374.4164206110795
 20
-277.6865546821069
 30
0.0
 40
36.31349813204556
100
AcDbArc
 50
269.9022810501201
 51
307.2977318877526
  0
ARC
  5
94242
330
1E
100
AcDbEntity
  8
OUTLINE
100
AcDbCircle
 10
398.4300650000002
 20
-290.7856458555433
 30
0.0
 40
0.999675
100
AcDbArc
 50
330.3418344966706
 51
0.0000313288133208
  0
ARC
  5
94243
330
1E
100
AcDbEntity
  8
OUTLINE
100
AcDbCircle
 10
350.072654069243
 20
-289.9344896807584
 30
0.0
 40
49.24451516064867
100
AcDbArc
 50
340.2514637831428
 51
358.433949681624
  0
LINE
  5
94257
330
1E
100
AcDbEntity
  8
OUTLINE
100
AcDbLine
 10
399.4297400000011
 20
-72.47643749999951
 30
0.0
 11
399.1813630064498
 21
-72.47643749999951
 31
0.0
  0
LINE
  5
94258
330
1E
100
AcDbEntity
  8
OUTLINE
100
AcDbLine
 10
334.2913199999984
 20
-0.0000000000009095
 30
0.0
 11
392.3214507134248
 21
-0.0000000000009095
 31
0.0
  0
LINE
  5
9425D
330
1E
100
AcDbEntity
  8
OUTLINE
100
AcDbLine
 10
201.4345124999993
 20
0.0
 30
0.0
 11
334.2913199999989
 21
0.0
 31
0.0
  0
ARC
  5
942A4
330
1E
100
AcDbEntity
  8
OUTLINE
100
AcDbCircle
 10
393.1858718403425
 20
-57.55440376433455
 30
0.0
 40
6.052059956393062
100
AcDbArc
 50
2.981429896167659
 51
25.53002950057803
  0
LINE
  5
942A5
330
1E
100
AcDbEntity
  8
OUTLINE
100
AcDbLine
 10
398.1348534802398
 20
-70.98508816932902
 30
0.0
 11
399.2297400000011
 21
-70.97553323945385
 31
0.0
  0
ARC
  5
942A7
330
1E
100
AcDbEntity
  8
OUTLINE
100
AcDbCircle
 10
399.1813630064498
 20
-71.47676250000222
 30
0.0
 40
0.999675
100
AcDbArc
 50
185.0000000000258
 51
270.0
  0
LINE
  5
942A8
330
1E
100
AcDbEntity
  8
OUTLINE
100
AcDbLine
 10
398.1854920710607
 20
-71.56388991704353
 30
0.0
 11
398.1348534802398
 21
-70.98508816932898
 31
0.0
  0
LINE
  5
942A9
330
1E
100
AcDbEntity
  8
OUTLINE
100
AcDbLine
 10
399.2297400000006
 20
-57.23962227752053
 30
0.0
 11
399.2297400000006
 21
-70.97430779086517
 31
0.0
  0
LINE
  5
942AA
330
1E
100
AcDbEntity
  8
OUTLINE
100
AcDbLine
 10
392.3724375000001
 20
-5.000992209131254
 30
0.0
 11
392.3724375000001
 21
-42.8330868330604
 31
0.0
  0
ARC
  5
942AB
330
1E
100
AcDbEntity
  8
OUTLINE
100
AcDbCircle
 10
402.3691874999995
 20
-42.8330868330604
 30
0.0
 40
9.99675
100
AcDbArc
 50
180.0
 51
214.999999999979
  0
LINE
  5
942AC
330
1E
100
AcDbEntity
  8
OUTLINE
100
AcDbLine
 10
398.6470057796741
 20
-54.94606218155514
 30
0.0
 11
394.1803293014777
 21
-48.56698707230771
 31
0.0
  0
LINE
  5
942B3
330
1E
100
AcDbEntity
  8
OUTLINE
100
AcDbLine
 10
392.3214507134239
 20
-5.000547255121091
 30
0.0
 11
392.3214507134248
 21
-0.0000000000009095
 31
0.0
  0
LINE
  5
942B4
330
1E
100
AcDbEntity
  8
OUTLINE
100
AcDbLine
 10
392.3214507134239
 20
-5.000547255121091
 30
0.0
 11
392.3724375000001
 21
-5.000992209131254
 31
0.0
  0
ENDSEC
  0
SECTION
  2
OBJECTS
  0
DICTIONARY
  5
C
330
0
100
AcDbDictionary
281
     1
  3
ACAD_GROUP
350
D
  3
ACAD_LAYOUT
350
19
  3
ACAD_MLINESTYLE
350
16
  3
ACAD_PLOTSETTINGS
350
18
  3
ACAD_PLOTSTYLENAME
350
E
  3
DWGPROPS
350
942BA
  0
DICTIONARY
  5
66E76
330
1E
100
AcDbDictionary
280
     1
281
     1
  3
ACAD_LAYOUTSELFREF
360
93D4A
  0
DICTIONARY
  5
66E74
330
1A
100
AcDbDictionary
280
     1
281
     1
  3
ACAD_LAYOUTSELFREF
360
93D49
  0
DICTIONARY
  5
D
102
{ACAD_REACTORS
330
C
102
}
330
C
100
AcDbDictionary
281
     1
  3
*A1
350
677EB
  0
DICTIONARY
  5
19
102
{ACAD_REACTORS
330
C
102
}
330
C
100
AcDbDictionary
281
     1
  3
Model
350
93D4F
  3
ﾚｲｱｳﾄ1
350
93D50
  0
DICTIONARY
  5
16
102
{ACAD_REACTORS
330
C
102
}
330
C
100
AcDbDictionary
281
     1
  3
STANDARD
350
17
  0
DICTIONARY
  5
18
102
{ACAD_REACTORS
330
C
102
}
330
C
100
AcDbDictionary
281
     1
  0
ACDBDICTIONARYWDFLT
  5
E
102
{ACAD_REACTORS
330
C
102
}
330
C
100
AcDbDictionary
281
     1
  3
Normal
350
F
100
AcDbDictionaryWithDefault
340
F
  0
XRECORD
  5
942BA
102
{ACAD_REACTORS
330
C
102
}
330
C
100
AcDbXrecord
280
     1
  1
DWGPROPS COOKIE
  2

  3

  4

  6

  7

  8

  9

300
=
301
=
302
=
303
=
304
=
305
=
306
=
307
=
308
=
309
=
 40
2.912356597222222
 41
2450330.393205995
 42
2456524.796448564
  1

 90
        0
  0
XRECORD
  5
93D4A
102
{ACAD_REACTORS
330
66E76
102
}
330
66E76
100
AcDbXrecord
280
     1
340
1E
  0
XRECORD
  5
93D49
102
{ACAD_REACTORS
330
66E74
102
}
330
66E74
100
AcDbXrecord
280
     1
340
1A
  0
GROUP
  5
677EB
102
{ACAD_REACTORS
330
D
102
}
330
D
100
AcDbGroup
300

 70
     1
 71
     1
  0
LAYOUT
  5
93D4F
102
{ACAD_REACTORS
330
19
102
}
330
19
100
AcDbPlotSettings
  1

  2
\\PC07\EPSON LP-8900
  4
A4
  6
ALL
 40
5.873749732971191
 41
5.873747825622558
 42
5.873748779296875
 43
5.873748779296875
 44
209.9733276367187
 45
297.0106506347656
 46
0.0
 47
0.0
 48
0.0
 49
0.0
140
0.0
141
0.0
142
1.0
143
180.4597407203862
 70
 11952
 72
     0
 73
     1
 74
     0
  7
monochrome.ctb
 75
     0
147
0.0055414021765079
148
26420.88598590659
149
18045.69596687192
100
AcDbLayout
  1
Model
 70
     1
 71
     0
 10
0.0
 20
0.0
 11
12.0
 21
9.0
 12
0.0
 22
0.0
 32
0.0
 14
0.0
 24
0.0
 34
0.0
 15
0.0
 25
0.0
 35
0.0
146
0.0
 13
0.0
 23
0.0
 33
0.0
 16
1.0
 26
0.0
 36
0.0
 17
0.0
 27
1.0
 37
0.0
 76
     0
330
1E
  0
LAYOUT
  5
93D50
102
{ACAD_REACTORS
330
19
102
}
330
19
100
AcDbPlotSettings
  1

  2
\\PC07\EPSON LP-8900
  4

  6

 40
0.0
 41
0.0
 42
0.0
 43
0.0
 44
0.0
 45
0.0
 46
0.0
 47
0.0
 48
0.0
 49
0.0
140
0.0
141
0.0
142
1.0
143
1.0
 70
   688
 72
     0
 73
     0
 74
     5
  7
monochrome.ctb
 75
    16
147
1.0
148
0.0
149
0.0
100
AcDbLayout
  1
ﾚｲｱｳﾄ1
 70
     1
 71
     1
 10
0.0
 20
0.0
 11
12.0
 21
9.0
 12
0.0
 22
0.0
 32
0.0
 14
1.000000000000000E+20
 24
1.000000000000000E+20
 34
1.000000000000000E+20
 15
-1.000000000000000E+20
 25
-1.000000000000000E+20
 35
-1.000000000000000E+20
146
0.0
 13
0.0
 23
0.0
 33
0.0
 16
1.0
 26
0.0
 36
0.0
 17
0.0
 27
1.0
 37
0.0
 76
     0
330
1A
  0
MLINESTYLE
  5
17
102
{ACAD_REACTORS
330
16
102
}
330
16
100
AcDbMlineStyle
  2
STANDARD
 70
     0
  3

 62
   256
 51
90.0
 52
90.0
 71
     2
 49
0.5
 62
   256
  6
BYLAYER
 49
-0.5
 62
   256
  6
BYLAYER
  0
ACDBPLACEHOLDER
  5
F
102
{ACAD_REACTORS
330
E
102
}
330
E
  0
ENDSEC
  0
EOF
