  0
SECTION
  2
HEADER
  9
$ACADVER
  1
AC1014
  9
$ACADMAINTVER
 70
     9
  9
$DWGCODEPAGE
  3
ANSI_932
  9
$INSBASE
 10
0.0
 20
0.0
 30
0.0
  9
$EXTMIN
 10
-1188.659847369403
 20
-414.710472093031
 30
-0.0015258207003583
  9
$EXTMAX
 10
1509.168549679983
 20
1302.795115164266
 30
0.0000000349246037
  9
$LIMMIN
 10
-1467.219851562338
 20
-713.4779586505064
  9
$LIMMAX
 10
1822.054267530817
 20
1556.289763890235
  9
$ORTHOMODE
 70
     0
  9
$REGENMODE
 70
     1
  9
$FILLMODE
 70
     1
  9
$QTEXTMODE
 70
     0
  9
$MIRRTEXT
 70
     0
  9
$DRAGMODE
 70
     2
  9
$LTSCALE
 40
20.0
  9
$OSMODE
 70
    37
  9
$ATTMODE
 70
     1
  9
$TEXTSIZE
 40
64.0
  9
$TRACEWID
 40
0.05
  9
$TEXTSTYLE
  7
STANDARD
  9
$CLAYER
  8
SIZE
  9
$CELTYPE
  6
BYLAYER
  9
$CECOLOR
 62
   256
  9
$CELTSCALE
 40
1.0
  9
$DELOBJ
 70
     1
  9
$DISPSILH
 70
     0
  9
$DIMSCALE
 40
1.0
  9
$DIMASZ
 40
10.0
  9
$DIMEXO
 40
20.0
  9
$DIMDLI
 40
200.0
  9
$DIMRND
 40
0.0
  9
$DIMDLE
 40
0.0
  9
$DIMEXE
 40
30.0
  9
$DIMTP
 40
0.0
  9
$DIMTM
 40
0.0
  9
$DIMTXT
 40
64.0
  9
$DIMCEN
 40
0.09
  9
$DIMTSZ
 40
0.0
  9
$DIMTOL
 70
     0
  9
$DIMLIM
 70
     0
  9
$DIMTIH
 70
     0
  9
$DIMTOH
 70
     0
  9
$DIMSE1
 70
     0
  9
$DIMSE2
 70
     0
  9
$DIMTAD
 70
     1
  9
$DIMZIN
 70
     8
  9
$DIMBLK
  1
ORIGIN
  9
$DIMASO
 70
     1
  9
$DIMSHO
 70
     0
  9
$DIMPOST
  1

  9
$DIMAPOST
  1

  9
$DIMALT
 70
     0
  9
$DIMALTD
 70
     2
  9
$DIMALTF
 40
25.4
  9
$DIMLFAC
 40
1.0
  9
$DIMTOFL
 70
     1
  9
$DIMTVP
 40
0.0
  9
$DIMTIX
 70
     0
  9
$DIMSOXD
 70
     0
  9
$DIMSAH
 70
     0
  9
$DIMBLK1
  1

  9
$DIMBLK2
  1

  9
$DIMSTYLE
  2
STANDARD
  9
$DIMCLRD
 70
     0
  9
$DIMCLRE
 70
     0
  9
$DIMCLRT
 70
     0
  9
$DIMTFAC
 40
1.0
  9
$DIMGAP
 40
20.0
  9
$DIMJUST
 70
     0
  9
$DIMSD1
 70
     0
  9
$DIMSD2
 70
     0
  9
$DIMTOLJ
 70
     1
  9
$DIMTZIN
 70
     0
  9
$DIMALTZ
 70
     0
  9
$DIMALTTZ
 70
     0
  9
$DIMFIT
 70
     0
  9
$DIMUPT
 70
     0
  9
$DIMUNIT
 70
     2
  9
$DIMDEC
 70
     0
  9
$DIMTDEC
 70
     0
  9
$DIMALTU
 70
     2
  9
$DIMALTTD
 70
     2
  9
$DIMTXSTY
  7
STANDARD
  9
$DIMAUNIT
 70
     0
  9
$LUNITS
 70
     2
  9
$LUPREC
 70
     4
  9
$SKETCHINC
 40
0.1
  9
$FILLETRAD
 40
10.0
  9
$AUNITS
 70
     1
  9
$AUPREC
 70
     3
  9
$MENU
  1
ACAD
  9
$ELEVATION
 40
0.0
  9
$PELEVATION
 40
0.0
  9
$THICKNESS
 40
0.0
  9
$LIMCHECK
 70
     0
  9
$BLIPMODE
 70
     0
  9
$CHAMFERA
 40
0.0
  9
$CHAMFERB
 40
0.0
  9
$CHAMFERC
 40
0.0
  9
$CHAMFERD
 40
0.0
  9
$SKPOLY
 70
     0
  9
$TDCREATE
 40
2450330.393205995
  9
$TDUPDATE
 40
2454298.450300382
  9
$TDINDWG
 40
1.1217702894
  9
$TDUSRTIMER
 40
1.1217702894
  9
$USRTIMER
 70
     1
  9
$ANGBASE
 50
0.0
  9
$ANGDIR
 70
     0
  9
$PDMODE
 70
     3
  9
$PDSIZE
 40
-2.0
  9
$PLINEWID
 40
0.0
  9
$COORDS
 70
     1
  9
$SPLFRAME
 70
     0
  9
$SPLINETYPE
 70
     6
  9
$SPLINESEGS
 70
     8
  9
$ATTDIA
 70
     0
  9
$ATTREQ
 70
     1
  9
$HANDLING
 70
-16383
  9
$HANDSEED
  5
32DF6
  9
$SURFTAB1
 70
     6
  9
$SURFTAB2
 70
     6
  9
$SURFTYPE
 70
     6
  9
$SURFU
 70
     6
  9
$SURFV
 70
     6
  9
$UCSNAME
  2

  9
$UCSORG
 10
0.0
 20
0.0
 30
0.0
  9
$UCSXDIR
 10
1.0
 20
0.0
 30
0.0
  9
$UCSYDIR
 10
0.0
 20
1.0
 30
0.0
  9
$PUCSNAME
  2

  9
$PUCSORG
 10
0.0
 20
0.0
 30
0.0
  9
$PUCSXDIR
 10
1.0
 20
0.0
 30
0.0
  9
$PUCSYDIR
 10
0.0
 20
1.0
 30
0.0
  9
$USERI1
 70
     0
  9
$USERI2
 70
     0
  9
$USERI3
 70
     0
  9
$USERI4
 70
     0
  9
$USERI5
 70
     0
  9
$USERR1
 40
20.0
  9
$USERR2
 40
0.0
  9
$USERR3
 40
0.0
  9
$USERR4
 40
0.0
  9
$USERR5
 40
0.0
  9
$WORLDVIEW
 70
     1
  9
$SHADEDGE
 70
     3
  9
$SHADEDIF
 70
    70
  9
$TILEMODE
 70
     1
  9
$MAXACTVP
 70
    64
  9
$PINSBASE
 10
0.0
 20
0.0
 30
0.0
  9
$PLIMCHECK
 70
     0
  9
$PEXTMIN
 10
1.000000000000000E+20
 20
1.000000000000000E+20
 30
1.000000000000000E+20
  9
$PEXTMAX
 10
-1.000000000000000E+20
 20
-1.000000000000000E+20
 30
-1.000000000000000E+20
  9
$PLIMMIN
 10
0.0
 20
0.0
  9
$PLIMMAX
 10
12.0
 20
9.0
  9
$UNITMODE
 70
     0
  9
$VISRETAIN
 70
     1
  9
$PLINEGEN
 70
     0
  9
$PSLTSCALE
 70
     1
  9
$TREEDEPTH
 70
  3020
  9
$PICKSTYLE
 70
     1
  9
$CMLSTYLE
  2
STANDARD
  9
$CMLJUST
 70
     0
  9
$CMLSCALE
 40
1.0
  9
$PROXYGRAPHICS
 70
     1
  9
$MEASUREMENT
 70
     0
  0
ENDSEC
  0
SECTION
  2
CLASSES
  0
CLASS
  1
ACDBDICTIONARYWDFLT
  2
AcDbDictionaryWithDefault
  3
AutoCAD 2000
 90
        0
280
     0
281
     0
  0
CLASS
  1
ACDBPLACEHOLDER
  2
AcDbPlaceHolder
  3
AutoCAD 2000
 90
        0
280
     0
281
     0
  0
CLASS
  1
LAYOUT
  2
AcDbLayout
  3
AutoCAD 2000
 90
        0
280
     0
281
     0
  0
CLASS
  1
TABLESTYLE
  2
AcDbTableStyle
  3
ObjectDBX Classes
 90
     2047
280
     0
281
     0
  0
CLASS
  1
DICTIONARYVAR
  2
AcDbDictionaryVar
  3
AutoCAD 2000
 90
        0
280
     0
281
     0
  0
CLASS
  1
SORTENTSTABLE
  2
AcDbSortentsTable
  3
AutoCAD 2000
 90
        0
280
     0
281
     0
  0
CLASS
  1
ACAD_PROXY_OBJECT_WRAPPER
  2
AcDbProxyObjectWrapper
  3
AutoCAD 2000
 90
        0
280
     0
281
     0
  0
CLASS
  1
LONG_TRANSACTION
  2
AcDbLongTransaction
  3
AutoCAD 2000
 90
        0
280
     0
281
     0
  0
CLASS
  1
LWPOLYLINE
  2
AcDbPolyline
  3
AutoCAD 2000
 90
        0
280
     0
281
     1
  0
CLASS
  1
HATCH
  2
AcDbHatch
  3
AutoCAD 2000
 90
        0
280
     0
281
     1
  0
CLASS
  1
XRECORD
  2
AcDbXrecord
  3
AutoCAD 2000
 90
        0
280
     0
281
     0
  0
ENDSEC
  0
SECTION
  2
TABLES
  0
TABLE
  2
VPORT
  5
8
330
0
100
AcDbSymbolTable
 70
     4
  0
VPORT
  5
32DD1
330
8
100
AcDbSymbolTableRecord
100
AcDbViewportTableRecord
  2
*ACTIVE
 70
     0
 10
0.0
 20
0.0
 11
1.0
 21
1.0
 12
133.0246917121312
 22
385.478489079577
 13
0.0
 23
0.0
 14
50.0
 24
50.0
 15
100.0
 25
100.0
 16
0.0
 26
0.0
 36
1.0
 17
0.0
 27
0.0
 37
0.0
 40
3410.991680340388
 41
1.266749379652605
 42
50.0
 43
0.0
 44
0.0
 50
0.0
 51
0.0
 71
     0
 72
   500
 73
     1
 74
     0
 75
     0
 76
     0
 77
     0
 78
     0
  0
ENDTAB
  0
TABLE
  2
LTYPE
  5
5
330
0
100
AcDbSymbolTable
 70
     2
  0
LTYPE
  5
13
330
5
100
AcDbSymbolTableRecord
100
AcDbLinetypeTableRecord
  2
BYBLOCK
 70
     0
  3

 72
    65
 73
     0
 40
0.0
  0
LTYPE
  5
14
330
5
100
AcDbSymbolTableRecord
100
AcDbLinetypeTableRecord
  2
BYLAYER
 70
     0
  3

 72
    65
 73
     0
 40
0.0
  0
LTYPE
  5
15
330
5
100
AcDbSymbolTableRecord
100
AcDbLinetypeTableRecord
  2
CONTINUOUS
 70
     0
  3
実線
 72
    65
 73
     0
 40
0.0
  0
LTYPE
  5
23
330
5
100
AcDbSymbolTableRecord
100
AcDbLinetypeTableRecord
  2
DASHDOT
 70
     0
  3
____ _ ____ _ ____ _ ____ _ ____ _ ____ _ ____
 72
    65
 73
     4
 40
5.5
 49
4.0
 74
     0
 49
-0.6
 74
     0
 49
0.3
 74
     0
 49
-0.6
 74
     0
  0
ENDTAB
  0
TABLE
  2
LAYER
  5
2
102
{ACAD_XDICTIONARY
360
259B5
102
}
330
0
100
AcDbSymbolTable
 70
    10
  0
LAYER
  5
10
330
2
100
AcDbSymbolTableRecord
100
AcDbLayerTableRecord
  2
0
 70
     0
 62
     7
  6
CONTINUOUS
  0
LAYER
  5
22
330
2
100
AcDbSymbolTableRecord
100
AcDbLayerTableRecord
  2
DETAIL
 70
     0
 62
     5
  6
CONTINUOUS
  0
LAYER
  5
31
330
2
100
AcDbSymbolTableRecord
100
AcDbLayerTableRecord
  2
OUTLINE
 70
     0
 62
     3
  6
CONTINUOUS
  0
LAYER
  5
32
330
2
100
AcDbSymbolTableRecord
100
AcDbLayerTableRecord
  2
BASIS
 70
     0
 62
     6
  6
CONTINUOUS
  0
LAYER
  5
33
330
2
100
AcDbSymbolTableRecord
100
AcDbLayerTableRecord
  2
SIZE
 70
     0
 62
    32
  6
CONTINUOUS
  0
LAYER
  5
34
330
2
100
AcDbSymbolTableRecord
100
AcDbLayerTableRecord
  2
NOTE
 70
     0
 62
     4
  6
CONTINUOUS
  0
LAYER
  5
35
330
2
100
AcDbSymbolTableRecord
100
AcDbLayerTableRecord
  2
ARRANGE
 70
     0
 62
     1
  6
CONTINUOUS
  0
LAYER
  5
37
330
2
100
AcDbSymbolTableRecord
100
AcDbLayerTableRecord
  2
ETC
 70
     0
 62
    83
  6
CONTINUOUS
  0
LAYER
  5
3A
330
2
100
AcDbSymbolTableRecord
100
AcDbLayerTableRecord
  2
DEFPOINTS
 70
     0
 62
     7
  6
CONTINUOUS
  0
LAYER
  5
260C4
330
2
100
AcDbSymbolTableRecord
100
AcDbLayerTableRecord
  2
FIX
 70
     0
 62
   241
  6
CONTINUOUS
  0
ENDTAB
  0
TABLE
  2
STYLE
  5
3
330
0
100
AcDbSymbolTable
 70
     3
  0
STYLE
  5
11
330
3
100
AcDbSymbolTableRecord
100
AcDbTextStyleTableRecord
  2
STANDARD
 70
     0
 40
0.0
 41
0.9
 50
0.0
 71
     0
 42
64.0
  3
SIMPLEX
  4
BIGFONT
  0
ENDTAB
  0
TABLE
  2
VIEW
  5
6
330
0
100
AcDbSymbolTable
 70
     1
  0
VIEW
  5
3C
330
6
100
AcDbSymbolTableRecord
100
AcDbViewTableRecord
  2
ALL
 70
     0
 40
4282.62
 10
0.0
 20
41.30990399999999
 41
5940.0
 11
0.0
 21
0.0
 31
1.0
 12
0.0
 22
0.0
 32
0.0
 42
50.0
 43
0.0
 44
0.0
 50
0.0
 71
     0
  0
ENDTAB
  0
TABLE
  2
UCS
  5
7
330
0
100
AcDbSymbolTable
 70
     0
  0
ENDTAB
  0
TABLE
  2
APPID
  5
9
330
0
100
AcDbSymbolTable
 70
     2
  0
APPID
  5
12
330
9
100
AcDbSymbolTableRecord
100
AcDbRegAppTableRecord
  2
ACAD
 70
     0
  0
APPID
  5
25484
330
9
100
AcDbSymbolTableRecord
100
AcDbRegAppTableRecord
  2
ACAD_DSTYLE_DIMTEXT_FILL
 70
     0
  0
ENDTAB
  0
TABLE
  2
DIMSTYLE
  5
A
330
0
100
AcDbSymbolTable
 70
     1
  0
DIMSTYLE
105
B8
330
A
100
AcDbSymbolTableRecord
100
AcDbDimStyleTableRecord
  2
STANDARD
 70
     0
  3

  4

  5

  6

  7

 40
1.0
 41
0.18
 42
0.0625
 43
0.38
 44
0.18
 45
0.0
 46
0.0
 47
0.0
 48
0.0
140
0.18
141
0.09
142
0.0
143
25.4
144
1.0
145
0.0
146
1.0
147
0.09
 71
     0
 72
     0
 73
     1
 74
     1
 75
     0
 76
     0
 77
     0
 78
     0
170
     0
171
     2
172
     0
173
     0
174
     0
175
     0
176
     0
177
     0
178
     0
270
     2
271
     4
272
     4
273
     2
274
     2
340
11
275
     0
280
     0
281
     0
282
     0
283
     1
284
     0
285
     0
286
     0
287
     3
288
     0
  0
ENDTAB
  0
TABLE
  2
BLOCK_RECORD
  5
1
330
0
100
AcDbSymbolTable
 70
    72
  0
BLOCK_RECORD
  5
1E
102
{ACAD_XDICTIONARY
360
25971
102
}
330
1
100
AcDbSymbolTableRecord
100
AcDbBlockTableRecord
  2
*MODEL_SPACE
  0
BLOCK_RECORD
  5
1A
102
{ACAD_XDICTIONARY
360
32DF3
102
}
330
1
100
AcDbSymbolTableRecord
100
AcDbBlockTableRecord
  2
*PAPER_SPACE
  0
BLOCK_RECORD
  5
530
330
1
100
AcDbSymbolTableRecord
100
AcDbBlockTableRecord
  2
_ORIGIN
  0
ENDTAB
  0
ENDSEC
  0
SECTION
  2
BLOCKS
  0
BLOCK
  5
1F
330
1E
100
AcDbEntity
  8
0
100
AcDbBlockBegin
  2
*MODEL_SPACE
 70
     0
 10
0.0
 20
0.0
 30
0.0
  3
*MODEL_SPACE
  1

  0
ENDBLK
  5
20
330
1E
100
AcDbEntity
  8
0
100
AcDbBlockEnd
  0
BLOCK
  5
1B
330
1A
100
AcDbEntity
 67
     1
  8
0
100
AcDbBlockBegin
  2
*PAPER_SPACE
 70
     0
 10
0.0
 20
0.0
 30
0.0
  3
*PAPER_SPACE
  1

  0
ENDBLK
  5
1C
330
1A
100
AcDbEntity
 67
     1
  8
0
100
AcDbBlockEnd
  0
BLOCK
  5
533
330
530
100
AcDbEntity
  8
0
100
AcDbBlockBegin
  2
_ORIGIN
 70
     0
 10
0.0
 20
0.0
 30
0.0
  3
_ORIGIN
  1

  0
CIRCLE
  5
531
330
530
100
AcDbEntity
  8
0
  6
BYBLOCK
 62
     0
100
AcDbCircle
 10
0.0
 20
0.0
 30
0.0
 40
0.5
  0
LINE
  5
532
330
530
100
AcDbEntity
  8
0
  6
BYBLOCK
 62
     0
100
AcDbLine
 10
0.0
 20
0.0
 30
0.0
 11
-1.0
 21
0.0
 31
0.0
  0
ENDBLK
  5
534
330
530
100
AcDbEntity
  8
0
100
AcDbBlockEnd
  0
ENDSEC
  0
SECTION
  2
ENTITIES
  0
LINE
  5
2B37F
330
1E
100
AcDbEntity
  8
BASIS
100
AcDbLine
 10
-422.1268586790756
 20
280.0
 30
0.0
 11
174.8502008095783
 21
280.0
 31
0.0
  0
LINE
  5
2B380
330
1E
100
AcDbEntity
  8
BASIS
100
AcDbLine
 10
-97.5
 20
42.70575797107085
 30
0.0
 11
-97.5
 21
542.6069424161233
 31
0.0
  0
LINE
  5
2B381
330
1E
100
AcDbEntity
  8
BASIS
100
AcDbLine
 10
-250.0000000115869
 20
-1.415858987847968
 30
0.0
 11
-250.0000000115869
 21
38.64701464009158
 31
0.0
  0
LINE
  5
2B382
330
1E
100
AcDbEntity
  8
BASIS
100
AcDbLine
 10
249.999999988413
 20
-8.989478519963995
 30
0.0
 11
249.999999988413
 21
38.64701464009158
 31
0.0
  0
SPLINE
  5
2B3E3
330
1E
100
AcDbEntity
  8
DETAIL
100
AcDbSpline
210
0.0
220
0.0
230
1.0
 70
     8
 71
     3
 72
    16
 73
    12
 74
    10
 42
0.0000000001
 43
0.0000000001
 44
0.00000000001
 40
0.0
 40
0.0
 40
0.0
 40
0.0
 40
0.312319115392158
 40
0.7138530047641993
 40
0.9365530956369696
 40
1.241647479909342
 40
1.58161381588996
 40
1.837208052930849
 40
2.124948216044778
 40
2.218408812674419
 40
2.315833675699652
 40
2.315833675699652
 40
2.315833675699652
 40
2.315833675699652
 10
428.8740099269126
 20
310.9739887195164
 30
0.0
 10
428.8750665337674
 20
311.0780985510143
 30
0.0
 10
428.8774815699944
 20
311.3160574602764
 30
0.0
 10
428.896543591544
 20
311.6278504735605
 30
0.0
 10
428.9273999227361
 20
311.9361169901399
 30
0.0
 10
428.9681024273646
 20
312.2226219058291
 30
0.0
 10
429.0284408982284
 20
312.5170067454698
 30
0.0
 10
429.1151671617846
 20
312.7991786420107
 30
0.0
 10
429.2043559014801
 20
312.9919553939742
 30
0.0
 10
429.3223273541761
 20
313.1122061946057
 30
0.0
 10
429.3885206892878
 20
313.1136522150224
 30
0.0
 10
429.4223047010091
 20
313.1143902405447
 30
0.0
 11
428.8740099269126
 21
310.9739887195164
 31
0.0
 11
428.8794986225766
 21
311.2862596020195
 31
0.0
 11
428.9035022671523
 21
311.6870753818502
 31
0.0
 11
428.9259517725659
 21
311.9086410610098
 31
0.0
 11
428.9693655720547
 21
312.2106308378706
 31
0.0
 11
429.0401462504014
 21
312.5431473114067
 31
0.0
 11
429.117045762985
 21
312.7868989862172
 31
0.0
 11
429.2546803915975
 21
313.039586758924
 31
0.0
 11
429.3259395095883
 21
313.1000600689503
 31
0.0
 11
429.4223047010091
 21
313.1143902405447
 31
0.0
  0
SPLINE
  5
2B3EE
330
1E
100
AcDbEntity
  8
DETAIL
100
AcDbSpline
210
0.0
220
0.0
230
1.0
 70
     8
 71
     3
 72
    16
 73
    12
 74
    10
 42
0.0000000001
 43
0.0000000001
 44
0.00000000001
 40
0.0
 40
0.0
 40
0.0
 40
0.0
 40
0.3633182315539569
 40
0.7138571013873686
 40
1.181261158624737
 40
1.581506077454326
 40
1.865353225399142
 40
2.038090948962617
 40
2.125831034491307
 40
2.21929154051001
 40
2.316716314534536
 40
2.316716314534536
 40
2.316716314534536
 40
2.316716314534536
 10
428.8740099269126
 20
301.4739887195164
 30
0.0
 10
428.8754120681913
 20
301.5951038074713
 30
0.0
 10
428.8781670318075
 20
301.8330738791955
 30
0.0
 10
428.9034340655791
 20
302.2261964596139
 30
0.0
 10
428.9503143917783
 20
302.6297577079285
 30
0.0
 10
429.0247442116192
 20
303.0071499394296
 30
0.0
 10
429.1089545871876
 20
303.2800993420973
 30
0.0
 10
429.185760232365
 20
303.4465494446335
 30
0.0
 10
429.2533588314729
 20
303.5418113205555
 30
0.0
 10
429.3224063685281
 20
303.6123119293356
 30
0.0
 10
429.3885473889414
 20
303.6136879445371
 30
0.0
 10
429.4223047010091
 20
303.6143902405447
 30
0.0
 11
428.8740099269126
 21
301.4739887195164
 31
0.0
 11
428.8814579568497
 21
301.8372306006777
 31
0.0
 11
428.9035022886891
 21
302.1870756330818
 31
0.0
 11
428.9594842310107
 21
302.6511150439682
 31
0.0
 11
429.0401463564848
 21
303.043147716794
 31
0.0
 11
429.1274308254287
 21
303.313241450297
 31
0.0
 11
429.2034683097663
 21
303.4683434235839
 31
0.0
 11
429.2546805129895
 21
303.5395868994228
 31
0.0
 11
429.3259395928108
 21
303.6000601143887
 31
0.0
 11
429.4223047010091
 21
303.6143902405447
 31
0.0
  0
SPLINE
  5
2B3F5
330
1E
100
AcDbEntity
  8
DETAIL
100
AcDbSpline
210
0.0
220
0.0
230
1.0
 70
     8
 71
     3
 72
    16
 73
    12
 74
    10
 42
0.0000000001
 43
0.0000000001
 44
0.00000000001
 40
0.0
 40
0.0
 40
0.0
 40
0.0
 40
0.4122811819531725
 40
0.7138551746544551
 40
1.181259455992805
 40
1.581504483901462
 40
1.865351417303165
 40
2.03808898799243
 40
2.125828995617093
 40
2.232058469801213
 40
2.31711677855993
 40
2.31711677855993
 40
2.31711677855993
 40
2.31711677855993
 10
428.8740099269126
 20
272.973988719531
 30
0.0
 10
428.8757761962108
 20
273.1114317657366
 30
0.0
 10
428.8788344499793
 20
273.3494111692334
 30
0.0
 10
428.9053232948313
 20
273.7424155550493
 30
0.0
 10
428.9503025617022
 20
274.1297565708655
 30
0.0
 10
429.0247748768425
 20
274.5071575362421
 30
0.0
 10
429.1088895715751
 20
274.7800847745147
 30
0.0
 10
429.1858739180395
 20
274.9465762212148
 30
0.0
 10
429.2555791320944
 20
275.045197525615
 30
0.0
 10
429.3270108626786
 20
275.11575423727
 30
0.0
 10
429.3929736087052
 20
275.1148100737159
 30
0.0
 10
429.4223047010091
 20
275.1143902405519
 30
0.0
 11
428.8740099269126
 21
272.973988719531
 31
0.0
 11
428.8836280672767
 21
273.3861576950357
 31
0.0
 11
428.9035023287069
 21
273.6870761005984
 31
0.0
 11
428.9594843406594
 21
274.1511157288105
 31
0.0
 11
429.0401465596587
 21
274.5431484937571
 31
0.0
 11
429.1274310462977
 21
274.8132419960739
 31
0.0
 11
429.2034685372709
 21
274.968343795851
 31
0.0
 11
429.2546807473335
 21
275.0395871708306
 31
0.0
 11
429.3376712762038
 21
275.1058991102027
 31
0.0
 11
429.4223047010091
 21
275.1143902405519
 31
0.0
  0
SPLINE
  5
2B400
330
1E
100
AcDbEntity
  8
DETAIL
100
AcDbSpline
210
0.0
220
0.0
230
1.0
 70
     8
 71
     3
 72
    16
 73
    12
 74
    10
 42
0.0000000001
 43
0.0000000001
 44
0.00000000001
 40
0.0
 40
0.0
 40
0.0
 40
0.0
 40
0.3633181907316314
 40
0.7138570239343425
 40
0.936557137947663
 40
1.241651590427443
 40
1.581617994510075
 40
1.837212160286609
 40
2.124952212832438
 40
2.21841273425678
 40
2.315837523688979
 40
2.315837523688979
 40
2.315837523688979
 40
2.315837523688979
 10
428.8740099269126
 20
282.4739887195237
 30
0.0
 10
428.875407630569
 20
282.5951031963679
 30
0.0
 10
428.8781538750401
 20
282.8330720682852
 30
0.0
 10
428.8982427022224
 20
283.1447649240876
 30
0.0
 10
428.9273981304335
 20
283.4361175846122
 30
0.0
 10
428.9681030957642
 20
283.7226220364131
 30
0.0
 10
429.0284408384128
 20
284.017007053726
 30
0.0
 10
429.1151672885637
 20
284.2991788650945
 30
0.0
 10
429.2043559871907
 20
284.491955545154
 30
0.0
 10
429.3223274335348
 20
284.6122062210788
 30
0.0
 10
429.3885207155645
 20
284.613652223961
 30
0.0
 10
429.4223047010091
 20
284.6143902405519
 30
0.0
 11
428.8740099269126
 21
282.4739887195237
 31
0.0
 11
428.8814579551617
 21
282.8372305598886
 31
0.0
 11
428.9035022820971
 21
283.1870755558984
 31
0.0
 11
428.9259517957471
 21
283.4086412574825
 31
0.0
 11
428.9693656172385
 21
283.7106311000889
 31
0.0
 11
429.0401463350499
 21
284.0431476348521
 31
0.0
 11
429.117045857427
 21
284.2868992318463
 31
0.0
 11
429.2546804921657
 21
284.5395868753103
 31
0.0
 11
429.3259395784043
 21
284.6000601065234
 31
0.0
 11
429.4223047010091
 21
284.6143902405519
 31
0.0
  0
SPLINE
  5
2B40C
330
1E
100
AcDbEntity
  8
DETAIL
100
AcDbSpline
210
0.0
220
0.0
230
1.0
 70
     8
 71
     3
 72
    16
 73
    12
 74
    10
 42
0.0000000001
 43
0.0000000001
 44
0.00000000001
 40
0.0
 40
0.0
 40
0.0
 40
0.0
 40
0.4122808155517416
 40
0.7138546281151546
 40
0.936554742128475
 40
1.241649194601053
 40
1.581615598683685
 40
1.899130788367697
 40
2.125281766725124
 40
2.245331380526747
 40
2.316655291671248
 40
2.316655291671248
 40
2.316655291671248
 40
2.316655291671248
 10
428.8740099269126
 20
291.9739887195237
 30
0.0
 10
428.8757710735484
 20
292.1114301625011
 30
0.0
 10
428.8788204579228
 20
292.3494068193413
 30
0.0
 10
428.8998707483209
 20
292.6610121912631
 30
0.0
 10
428.9273985370625
 20
292.9360990125362
 30
0.0
 10
428.968095244584
 20
293.2227286012839
 30
0.0
 10
429.0326222720544
 20
293.5368144121978
 30
0.0
 10
429.1221131376355
 20
293.8201519663784
 30
0.0
 10
429.22187753586
 20
294.0149066969522
 30
0.0
 10
429.3322721669158
 20
294.1191827238642
 30
0.0
 10
429.3978603342983
 20
294.1156914281809
 30
0.0
 10
429.4223047010091
 20
294.1143902405519
 30
0.0
 11
428.8740099269126
 21
291.9739887195237
 31
0.0
 11
428.8836280499599
 21
292.3861573289314
 31
0.0
 11
428.9035022820971
 21
292.6870755558984
 31
0.0
 11
428.9259517957471
 21
292.9086412574824
 31
0.0
 11
428.9693656172385
 21
293.2106311000816
 31
0.0
 11
429.0401463350499
 21
293.5431476348449
 31
0.0
 11
429.1404592113321
 21
293.8444003900722
 31
0.0
 11
429.2546804921657
 21
294.039586875303
 31
0.0
 11
429.3510535214518
 21
294.1111700367319
 31
0.0
 11
429.4223047010091
 21
294.1143902405519
 31
0.0
  0
SPLINE
  5
2B41D
330
1E
100
AcDbEntity
  8
DETAIL
100
AcDbSpline
210
0.0
220
0.0
230
1.0
 70
     8
 71
     3
 72
    11
 73
     7
 74
     5
 42
0.0000000001
 43
0.0000000001
 44
0.00000000001
 40
0.0
 40
0.0
 40
0.0
 40
0.0
 40
1.033708151748629
 40
2.376531154664242
 40
2.81151848318424
 40
3.172004641809857
 40
3.172004641809857
 40
3.172004641809857
 40
3.172004641809857
 10
429.4223047010091
 20
313.1143902405447
 30
0.0
 10
429.756646227031
 20
313.0310607450396
 30
0.0
 10
430.5253090759647
 20
312.8394833236611
 30
0.0
 10
431.4346110385696
 20
312.612629035231
 30
0.0
 10
432.1261603414261
 20
312.4400190239562
 30
0.0
 10
432.3834176845266
 20
312.3757746945705
 30
0.0
 10
432.4999994598983
 20
312.3466609756496
 30
0.0
 11
429.4223047010091
 21
313.1143902405447
 31
0.0
 11
430.4253208429945
 21
312.8643679177248
 31
0.0
 11
431.7282144296695
 21
312.5393418895973
 31
0.0
 11
432.1502525335745
 21
312.4339957229594
 31
0.0
 11
432.4999994598983
 21
312.3466609756496
 31
0.0
  0
SPLINE
  5
2B41E
330
1E
100
AcDbEntity
  8
DETAIL
100
AcDbSpline
210
0.0
220
0.0
230
1.0
 70
     8
 71
     3
 72
    11
 73
     7
 74
     5
 42
0.0000000001
 43
0.0000000001
 44
0.00000000001
 40
0.0
 40
0.0
 40
0.0
 40
0.0
 40
1.03370823619912
 40
2.376531154625407
 40
2.81151859402728
 40
3.172005193581416
 40
3.172005193581416
 40
3.172005193581416
 40
3.172005193581416
 10
429.4223047010091
 20
275.1143902405519
 30
0.0
 10
429.7566462543717
 20
275.0310607383435
 30
0.0
 10
430.5253091033526
 20
274.839483317208
 30
0.0
 10
431.4346111013854
 20
274.6126290181468
 30
0.0
 10
432.1261605560331
 20
274.4400189717707
 30
0.0
 10
432.3834180806513
 20
274.3757746100795
 30
0.0
 10
432.5000000000073
 20
274.3466608611043
 30
0.0
 11
429.4223047010091
 21
275.1143902405519
 31
0.0
 11
430.4253209249363
 21
274.8643678973012
 31
0.0
 11
431.7282144296259
 21
274.5393418895901
 31
0.0
 11
432.1502526423064
 21
274.4339957008842
 31
0.0
 11
432.5000000000073
 21
274.3466608611043
 31
0.0
  0
SPLINE
  5
2B41F
330
1E
100
AcDbEntity
  8
DETAIL
100
AcDbSpline
210
0.0
220
0.0
230
1.0
 70
     8
 71
     3
 72
    11
 73
     7
 74
     5
 42
0.0000000001
 43
0.0000000001
 44
0.00000000001
 40
0.0
 40
0.0
 40
0.0
 40
0.0
 40
0.4688714171190835
 40
0.9377428342192704
 40
2.52847699608304
 40
3.736841940818581
 40
3.736841940818581
 40
3.736841940818581
 40
3.736841940818581
 10
432.5000000000073
 20
269.7095346334381
 30
0.0
 10
432.3483344465057
 20
269.7472741576386
 30
0.0
 10
432.0450033395091
 20
269.8227532060384
 30
0.0
 10
431.2271430140421
 20
270.0263694907907
 30
0.0
 10
430.1701265632271
 20
270.2896981195731
 30
0.0
 10
429.2648261357538
 20
270.5154895845862
 30
0.0
 10
428.8740099269126
 20
270.612963264778
 30
0.0
 11
432.5000000000073
 21
269.7095346334381
 31
0.0
 11
432.045005620188
 21
269.8227623691045
 31
0.0
 11
431.5900216762893
 21
269.9360320321566
 31
0.0
 11
430.0464698842188
 21
270.320587670415
 31
0.0
 11
428.8740099269126
 21
270.612963264778
 31
0.0
  0
SPLINE
  5
2B420
330
1E
100
AcDbEntity
  8
DETAIL
100
AcDbSpline
210
0.0
220
0.0
230
1.0
 70
     8
 71
     3
 72
    11
 73
     7
 74
     5
 42
0.0000000001
 43
0.0000000001
 44
0.00000000001
 40
0.0
 40
0.0
 40
0.0
 40
0.0
 40
0.4688714171225977
 40
0.9377428342227844
 40
2.621114067008194
 40
3.736841940466163
 40
3.736841940466163
 40
3.736841940466163
 40
3.736841940466163
 10
432.5000000000073
 20
298.2095346334308
 30
0.0
 10
432.3483344468443
 20
298.2472741589999
 30
0.0
 10
432.0450033405255
 20
298.3227532101366
 30
0.0
 10
431.1971786495528
 20
298.5338294480286
 30
0.0
 10
430.1401641252271
 20
298.7971658165731
 30
0.0
 10
429.2348645798717
 20
299.0229608158483
 30
0.0
 10
428.8740099269126
 20
299.1129632647853
 30
0.0
 11
432.5000000000073
 21
298.2095346334308
 31
0.0
 11
432.045005620188
 21
298.3227623691118
 31
0.0
 11
431.5900216762893
 21
298.4360320321639
 31
0.0
 11
429.9565834238383
 21
298.8429941714339
 31
0.0
 11
428.8740099269126
 21
299.1129632647853
 31
0.0
  0
SPLINE
  5
2B421
330
1E
100
AcDbEntity
  8
DETAIL
100
AcDbSpline
210
0.0
220
0.0
230
1.0
 70
     8
 71
     3
 72
    11
 73
     7
 74
     5
 42
0.0000000001
 43
0.0000000001
 44
0.00000000001
 40
0.0
 40
0.0
 40
0.0
 40
0.0
 40
0.468871417092598
 40
0.9377428342033903
 40
2.620543979719424
 40
3.736841940466903
 40
3.736841940466903
 40
3.736841940466903
 40
3.736841940466903
 10
432.5000000000073
 20
288.7095346334381
 30
0.0
 10
432.3483344468529
 20
288.7472741590004
 30
0.0
 10
432.0450033405384
 20
288.8227532101268
 30
0.0
 10
431.1973630498407
 20
289.0337835394605
 30
0.0
 10
430.1403485138428
 20
289.2971198611467
 30
0.0
 10
429.2350489628041
 20
289.5229148376745
 30
0.0
 10
428.8740099269126
 20
289.6129632647853
 30
0.0
 11
432.5000000000073
 21
288.7095346334381
 31
0.0
 11
432.0450056202171
 21
288.8227623691118
 31
0.0
 11
431.5900216763038
 21
288.9360320321493
 31
0.0
 11
429.9571365830707
 21
289.3428562787803
 31
0.0
 11
428.8740099269126
 21
289.6129632647853
 31
0.0
  0
SPLINE
  5
2B422
330
1E
100
AcDbEntity
  8
DETAIL
100
AcDbSpline
210
0.0
220
0.0
230
1.0
 70
     8
 71
     3
 72
    11
 73
     7
 74
     5
 42
0.0000000001
 43
0.0000000001
 44
0.00000000001
 40
0.0
 40
0.0
 40
0.0
 40
0.0
 40
1.033708198376746
 40
2.376531154653644
 40
2.811518645681201
 40
3.172005193579653
 40
3.172005193579653
 40
3.172005193579653
 40
3.172005193579653
 10
429.4223047010091
 20
284.6143902405519
 30
0.0
 10
429.7566462421376
 20
284.5310607413894
 30
0.0
 10
430.5253090911262
 20
284.3394833202446
 30
0.0
 10
431.434611105871
 20
284.1126290170418
 30
0.0
 10
432.1261605727479
 20
283.9400189676016
 30
0.0
 10
432.3834180973566
 20
283.8757746059145
 30
0.0
 10
432.5000000000073
 20
283.8466608611115
 30
0.0
 11
429.4223047010091
 21
284.6143902405519
 31
0.0
 11
430.4253208882364
 21
284.364367906447
 31
0.0
 11
431.728214429655
 21
284.0393418895901
 31
0.0
 11
432.1502526924232
 21
283.9339956883768
 31
0.0
 11
432.5000000000073
 21
283.8466608611115
 31
0.0
  0
SPLINE
  5
2B42C
330
1E
100
AcDbEntity
  8
DETAIL
100
AcDbSpline
210
0.0
220
0.0
230
1.0
 70
     8
 71
     3
 72
    11
 73
     7
 74
     5
 42
0.0000000001
 43
0.0000000001
 44
0.00000000001
 40
0.0
 40
0.0
 40
0.0
 40
0.0
 40
1.033708189256888
 40
2.376531154623646
 40
2.811518446635966
 40
3.172004641813379
 40
3.172004641813379
 40
3.172004641813379
 40
3.172004641813379
 10
429.4223047010091
 20
303.6143902405447
 30
0.0
 10
429.7566462391633
 20
303.5310607420183
 30
0.0
 10
430.5253090880852
 20
303.3394833206482
 30
0.0
 10
431.4346110388602
 20
303.1126290351312
 30
0.0
 10
432.1261603295916
 20
302.9400190268979
 30
0.0
 10
432.383417672706
 20
302.8757746975084
 30
0.0
 10
432.4999994598983
 20
302.8466609756351
 30
0.0
 11
429.4223047010091
 21
303.6143902405447
 31
0.0
 11
430.4253208793888
 21
303.3643679086517
 31
0.0
 11
431.7282144296259
 21
303.0393418895901
 31
0.0
 11
432.1502524981115
 21
302.9339957317997
 31
0.0
 11
432.4999994598983
 21
302.8466609756351
 31
0.0
  0
SPLINE
  5
2B42D
330
1E
100
AcDbEntity
  8
DETAIL
100
AcDbSpline
210
0.0
220
0.0
230
1.0
 70
     8
 71
     3
 72
    11
 73
     7
 74
     5
 42
0.0000000001
 43
0.0000000001
 44
0.00000000001
 40
0.0
 40
0.0
 40
0.0
 40
0.0
 40
1.033708130586597
 40
2.376531154653645
 40
2.811518440953696
 40
3.17200464181514
 40
3.17200464181514
 40
3.17200464181514
 40
3.17200464181514
 10
429.4223047010091
 20
294.1143902405519
 30
0.0
 10
429.7566462201871
 20
294.0310607467552
 30
0.0
 10
430.525309069119
 20
293.8394833253826
 30
0.0
 10
431.4346110180598
 20
293.612629040341
 30
0.0
 10
432.1261603277614
 20
293.4400190273504
 30
0.0
 10
432.3834176708674
 20
293.3757746979661
 30
0.0
 10
432.4999994598983
 20
293.3466609756351
 30
0.0
 11
429.4223047010091
 21
294.1143902405519
 31
0.0
 11
430.4253208224618
 21
293.8643679228544
 31
0.0
 11
431.728214429655
 21
293.53934188959
 31
0.0
 11
432.1502524925963
 21
293.4339957331749
 31
0.0
 11
432.4999994598983
 21
293.3466609756351
 31
0.0
  0
SPLINE
  5
2B42E
330
1E
100
AcDbEntity
  8
DETAIL
100
AcDbSpline
210
0.0
220
0.0
230
1.0
 70
     8
 71
     3
 72
    11
 73
     7
 74
     5
 42
0.0000000001
 43
0.0000000001
 44
0.00000000001
 40
0.0
 40
0.0
 40
0.0
 40
0.0
 40
0.468871417092598
 40
0.9377428341910272
 40
2.528477088571643
 40
3.736841940820338
 40
3.736841940820338
 40
3.736841940820338
 40
3.736841940820338
 10
432.5000000000073
 20
307.7095346334308
 30
0.0
 10
432.3483344465159
 20
307.7472741576357
 30
0.0
 10
432.0450033395315
 20
307.8227532060459
 30
0.0
 10
431.2271429841417
 20
308.0263694982222
 30
0.0
 10
430.1701265333223
 20
308.2896981270246
 30
0.0
 10
429.2648261058407
 20
308.5154895920445
 30
0.0
 10
428.8740099269126
 20
308.612963264778
 30
0.0
 11
432.5000000000073
 21
307.7095346334308
 31
0.0
 11
432.0450056202171
 21
307.8227623691045
 31
0.0
 11
431.5900216763184
 21
307.9360320321493
 31
0.0
 11
430.0464697944772
 21
308.3205876927813
 31
0.0
 11
428.8740099269126
 21
308.612963264778
 31
0.0
  0
SPLINE
  5
2B430
330
1E
100
AcDbEntity
  8
DETAIL
100
AcDbSpline
210
0.0
220
0.0
230
1.0
 70
     8
 71
     3
 72
    11
 73
     7
 74
     5
 42
0.0000000001
 43
0.0000000001
 44
0.00000000001
 40
0.0
 40
0.0
 40
0.0
 40
0.0
 40
1.033708142508772
 40
2.376531154621885
 40
2.81151846103046
 40
3.172004641809857
 40
3.172004641809857
 40
3.172004641809857
 40
3.172004641809857
 10
429.4223047010091
 20
265.6143902405446
 30
0.0
 10
429.7566462240438
 20
265.5310607457895
 30
0.0
 10
430.5253090729668
 20
265.339483324426
 30
0.0
 10
431.4346110283948
 20
265.1126290377383
 30
0.0
 10
432.12616033425
 20
264.9400190257551
 30
0.0
 10
432.3834176773628
 20
264.875774696362
 30
0.0
 10
432.4999994598983
 20
264.8466609756496
 30
0.0
 11
429.4223047010091
 21
265.6143902405446
 31
0.0
 11
430.4253208340306
 21
265.3643679199658
 31
0.0
 11
431.7282144296259
 21
265.0393418895973
 31
0.0
 11
432.1502525120813
 21
264.9339957283291
 31
0.0
 11
432.4999994598983
 21
264.8466609756496
 31
0.0
  0
SPLINE
  5
2B432
330
1E
100
AcDbEntity
  8
DETAIL
100
AcDbSpline
210
0.0
220
0.0
230
1.0
 70
     8
 71
     3
 72
    15
 73
    11
 74
     9
 42
0.0000000001
 43
0.0000000001
 44
0.00000000001
 40
0.0
 40
0.0
 40
0.0
 40
0.0
 40
0.0974247796577573
 40
0.1908852912428704
 40
0.4786253249096794
 40
0.7342194778483789
 40
1.134464398587847
 40
1.601868454729602
 40
1.952407308736268
 40
2.315725522489331
 40
2.315725522489331
 40
2.315725522489331
 40
2.315725522489331
 10
429.4223047010091
 20
265.6143902405446
 30
0.0
 10
429.3885206634289
 20
265.6136522314937
 30
0.0
 10
429.3223272794099
 20
265.612206243388
 30
0.0
 10
429.2043571679499
 20
265.4919554327791
 30
0.0
 10
429.1151528152487
 20
265.2991805529254
 30
0.0
 10
429.0225793476647
 20
264.9977445339027
 30
0.0
 10
428.9504423912175
 20
264.6298127517855
 30
0.0
 10
428.9034077011636
 20
264.2261850880375
 30
0.0
 10
428.8781730674771
 20
263.8330764592169
 30
0.0
 10
428.8754141039482
 20
263.5951046775294
 30
0.0
 10
428.8740099269126
 20
263.4739887195164
 30
0.0
 11
429.4223047010091
 21
265.6143902405446
 31
0.0
 11
429.325939587543
 21
265.6000601115147
 31
0.0
 11
429.2546805054225
 21
265.5395868906552
 31
0.0
 11
429.1170458714405
 21
265.2868992682769
 31
0.0
 11
429.0401463481903
 21
265.0431476850199
 31
0.0
 11
428.9594842255101
 21
264.6511150096694
 31
0.0
 11
428.9035022858224
 21
264.1870755995687
 31
0.0
 11
428.8814579561221
 21
263.8372305828879
 31
0.0
 11
428.8740099269126
 21
263.4739887195164
 31
0.0
  0
SPLINE
  5
2B459
330
1E
100
AcDbEntity
  8
DETAIL
100
AcDbSpline
210
0.0
220
0.0
230
1.0
 70
     8
 71
     3
 72
    11
 73
     7
 74
     5
 42
0.0000000001
 43
0.0000000001
 44
0.00000000001
 40
0.0
 40
0.0
 40
0.0
 40
0.0
 40
4.659530531025204
 40
9.319061249466836
 40
13.97859188579743
 40
18.63812252212076
 40
18.63812252212076
 40
18.63812252212076
 40
18.63812252212076
 10
411.4048599318993
 20
460.2005825180158
 30
0.0
 10
411.4049806611802
 20
458.6474056768647
 30
0.0
 10
411.4052221197469
 20
455.5410519320903
 30
0.0
 10
411.4048949635221
 20
450.8815213050074
 30
0.0
 10
411.4049810294679
 20
446.2219906409099
 30
0.0
 10
411.4049695372913
 20
443.1156368834117
 30
0.0
 10
411.404963791203
 20
441.562460004664
 30
0.0
 11
411.4048599318993
 21
460.2005825180158
 31
0.0
 11
411.4051072290676
 21
455.5410519935531
 31
0.0
 11
411.4049638338838
 21
450.8815212773178
 31
0.0
 11
411.4049638120995
 21
446.2219906409873
 31
0.0
 11
411.404963791203
 21
441.562460004664
 31
0.0
  0
SPLINE
  5
2B463
330
1E
100
AcDbEntity
  8
DETAIL
100
AcDbSpline
210
0.0
220
0.0
230
1.0
 70
     8
 71
     3
 72
    11
 73
     7
 74
     5
 42
0.0000000001
 43
0.0000000001
 44
0.00000000001
 40
0.0
 40
0.0
 40
0.0
 40
0.0
 40
0.4688714171208405
 40
0.9377428342210274
 40
2.619973957026682
 40
3.73684194047115
 40
3.73684194047115
 40
3.73684194047115
 40
3.73684194047115
 10
432.5000000000073
 20
279.2095346334308
 30
0.0
 10
432.3483344468413
 20
279.2472741589849
 30
0.0
 10
432.0450033405162
 20
279.3227532100913
 30
0.0
 10
431.1975474292228
 20
279.5337376361647
 30
0.0
 10
430.1405328815563
 20
279.7970739109316
 30
0.0
 10
429.235233324847
 20
280.0228688647178
 30
0.0
 10
428.8740099269126
 20
280.1129632647853
 30
0.0
 11
432.5000000000073
 21
279.2095346334308
 31
0.0
 11
432.045005620188
 21
279.3227623691045
 31
0.0
 11
431.5900216762893
 21
279.4360320321566
 31
0.0
 11
429.9576896796424
 21
279.8427184018064
 31
0.0
 11
428.8740099269126
 21
280.1129632647853
 31
0.0
  0
SPLINE
  5
2B464
330
1E
100
AcDbEntity
  8
DETAIL
100
AcDbSpline
210
0.0
220
0.0
230
1.0
 70
     8
 71
     3
 72
    11
 73
     7
 74
     5
 42
0.0000000001
 43
0.0000000001
 44
0.00000000001
 40
0.0
 40
0.0
 40
0.0
 40
0.0
 40
0.4688714171173264
 40
0.9377428342175132
 40
2.528477057283895
 40
3.736841940816824
 40
3.736841940816824
 40
3.736841940816824
 40
3.736841940816824
 10
432.5000000000073
 20
260.2095346334454
 30
0.0
 10
432.3483344465055
 20
260.2472741576432
 30
0.0
 10
432.0450033395079
 20
260.3227532060368
 30
0.0
 10
431.2271429942462
 20
260.5263694957216
 30
0.0
 10
430.1701265434301
 20
260.7896981245007
 30
0.0
 10
429.2648261159589
 20
261.01548958952
 30
0.0
 10
428.8740099269126
 20
261.112963264778
 30
0.0
 11
432.5000000000073
 21
260.2095346334454
 31
0.0
 11
432.045005620188
 21
260.3227623691045
 31
0.0
 11
431.5900216762893
 21
260.4360320321566
 31
0.0
 11
430.0464698248324
 21
260.8205876852143
 31
0.0
 11
428.8740099269126
 21
261.112963264778
 31
0.0
  0
ARC
  5
2B474
330
1E
100
AcDbEntity
  8
DETAIL
100
AcDbCircle
 10
431.5000000724831
 20
343.0999999275172
 30
0.0
 40
0.99999992751799
100
AcDbArc
 50
270.00000387825
 51
0.0000041529230187
  0
ARC
  5
2B475
330
1E
100
AcDbEntity
  8
DETAIL
100
AcDbCircle
 10
431.5000008761308
 20
318.8246847024402
 30
0.0
 40
0.9999983612338802
100
AcDbArc
 50
359.9999291350156
 51
74.00006803360337
  0
ARC
  5
2B47B
330
1E
100
AcDbEntity
  8
DETAIL
100
AcDbCircle
 10
427.5000343503052
 20
472.3529843414598
 30
0.0
 40
4.999965649713419
100
AcDbArc
 50
359.9998139527485
 51
66.00038721315083
  0
ARC
  5
2B47C
330
1E
100
AcDbEntity
  8
DETAIL
100
AcDbCircle
 10
429.4999912976709
 20
461.4715278370931
 30
0.0
 40
3.00000870234969
100
AcDbArc
 50
257.0001423303121
 51
359.9998086146831
  0
LINE
  5
2B48C
330
1E
100
AcDbEntity
  8
DETAIL
100
AcDbLine
 10
428.8740099269126
 20
301.4739887195173
 30
0.0
 11
428.8740099269126
 21
299.112963264788
 31
0.0
  0
LINE
  5
2B48D
330
1E
100
AcDbEntity
  8
DETAIL
100
AcDbLine
 10
428.8740099269126
 20
291.9739887195191
 30
0.0
 11
428.8740099269126
 21
289.6129632647807
 31
0.0
  0
LINE
  5
2B48E
330
1E
100
AcDbEntity
  8
DETAIL
100
AcDbLine
 10
428.8740099269126
 20
282.473988719521
 30
0.0
 11
428.8740099269126
 21
280.1129632647826
 31
0.0
  0
LINE
  5
2B48F
330
1E
100
AcDbEntity
  8
DETAIL
100
AcDbLine
 10
428.8740099269126
 20
272.9739887195319
 30
0.0
 11
428.8740099269126
 21
270.6129632647753
 31
0.0
  0
LINE
  5
2B490
330
1E
100
AcDbEntity
  8
DETAIL
100
AcDbLine
 10
428.8740099269126
 20
310.9739887195155
 30
0.0
 11
428.8740099269126
 21
308.6129632647771
 31
0.0
  0
LINE
  5
2B491
330
1E
100
AcDbEntity
  8
DETAIL
100
AcDbLine
 10
431.5000001401677
 20
342.1000000000003
 30
0.0
 11
429.5236121552989
 21
342.1000000000003
 31
0.0
  0
LINE
  5
2B492
330
1E
100
AcDbEntity
  8
DETAIL
100
AcDbLine
 10
432.4999992373522
 20
318.8246834656183
 30
0.0
 11
432.4999994598875
 21
312.3466609756451
 31
0.0
  0
LINE
  5
2B493
330
1E
100
AcDbEntity
  8
DETAIL
100
AcDbLine
 10
432.5
 20
307.7095346334317
 30
0.0
 11
432.4999994598875
 21
302.8466609756378
 31
0.0
  0
LINE
  5
2B494
330
1E
100
AcDbEntity
  8
DETAIL
100
AcDbLine
 10
432.5
 20
298.2095346334336
 30
0.0
 11
432.4999994598875
 21
293.3466609756306
 31
0.0
  0
LINE
  5
2B495
330
1E
100
AcDbEntity
  8
DETAIL
100
AcDbLine
 10
432.5
 20
288.7095346334353
 30
0.0
 11
432.5
 21
283.8466608611088
 31
0.0
  0
LINE
  5
2B496
330
1E
100
AcDbEntity
  8
DETAIL
100
AcDbLine
 10
432.5
 20
279.2095346334281
 30
0.0
 11
432.5
 21
274.3466608611015
 31
0.0
  0
LINE
  5
2B497
330
1E
100
AcDbEntity
  8
DETAIL
100
AcDbLine
 10
429.6708608313929
 20
320.3894799012232
 30
0.0
 11
431.7756366388311
 21
319.7859451503882
 31
0.0
  0
LINE
  5
2B49C
330
1E
100
AcDbEntity
  8
DETAIL
100
AcDbLine
 10
432.4994133966356
 20
429.3261282002186
 30
0.0
 11
432.5
 21
343.100000000004
 31
0.0
  0
LINE
  5
2B49D
330
1E
100
AcDbEntity
  8
DETAIL
100
AcDbLine
 10
412.3808265488114
 20
439.9817251286212
 30
0.0
 11
431.3449985010629
 21
431.138586044135
 31
0.0
  0
LINE
  5
2B4A2
330
1E
100
AcDbEntity
  8
DETAIL
100
AcDbLine
 10
432.5
 20
269.709534633439
 30
0.0
 11
432.4999994598875
 21
264.8466609756451
 31
0.0
  0
LINE
  5
2B4A3
330
1E
100
AcDbEntity
  8
DETAIL
100
AcDbLine
 10
432.5
 20
260.2095346334408
 30
0.0
 11
432.4996286275927
 21
231.9384480904318
 31
0.0
  0
LINE
  5
2B4A4
330
1E
100
AcDbEntity
  8
DETAIL
100
AcDbLine
 10
428.8740099269126
 20
263.4739887195155
 30
0.0
 11
428.8740099269126
 21
261.1129632647771
 31
0.0
  0
LINE
  5
2B4B6
330
1E
100
AcDbEntity
  8
DETAIL
100
AcDbLine
 10
413.0646978973527
 20
462.1869930404137
 30
0.0
 11
428.8251434384437
 21
458.5484074870146
 31
0.0
  0
LINE
  5
2B4BC
330
1E
100
AcDbEntity
  8
DETAIL
100
AcDbLine
 10
432.5
 20
472.352968105888
 30
0.0
 11
432.5
 21
461.4715178161532
 31
0.0
  0
LINE
  5
2B4BD
330
1E
100
AcDbEntity
  8
DETAIL
100
AcDbLine
 10
403.9302010065876
 20
488.3200940453662
 30
0.0
 11
429.5336727249705
 21
476.9206939928506
 31
0.0
  0
LINE
  5
2B4C4
330
1E
100
AcDbEntity
  8
DETAIL
100
AcDbLine
 10
400.4999999999927
 20
31.7842801739971
 30
0.0
 11
400.4999999999927
 21
74.56350832689031
 31
0.0
  0
LINE
  5
2B4CF
330
1E
100
AcDbEntity
  8
DETAIL
100
AcDbLine
 10
469.4999999999891
 20
62.93366701082959
 30
0.0
 11
469.4999999999891
 21
202.3492533421995
 31
0.0
  0
LINE
  5
2B4D0
330
1E
100
AcDbEntity
  8
DETAIL
100
AcDbLine
 10
438.6558580946075
 20
223.6186298121174
 30
0.0
 11
458.2488648415164
 21
217.6284465075605
 31
0.0
  0
LINE
  5
2B4D1
330
1E
100
AcDbEntity
  8
DETAIL
100
AcDbLine
 10
457.331487491374
 20
47.01223135197324
 30
0.0
 11
400.4999999999927
 21
31.7842801739971
 31
0.0
  0
LINE
  5
2B4E7
330
1E
100
AcDbEntity
  8
DETAIL
100
AcDbLine
 10
403.9302010065876
 20
521.2332349389543
 30
0.0
 11
425.5932914439472
 21
521.6113655892786
 31
0.0
  0
LINE
  5
2B4EE
330
1E
100
AcDbEntity
  8
DETAIL
100
AcDbLine
 10
403.9302010065876
 20
507.1667650610652
 30
0.0
 11
425.5932914439472
 21
506.7886344107228
 31
0.0
  0
LINE
  5
2B4F8
330
1E
100
AcDbEntity
  8
DETAIL
100
AcDbLine
 10
403.9302010065876
 20
488.3200940453662
 30
0.0
 11
403.9302010065876
 21
507.1667650610652
 31
0.0
  0
LINE
  5
2B4F9
330
1E
100
AcDbEntity
  8
DETAIL
100
AcDbLine
 10
425.5932914439472
 20
433.8206510923373
 30
0.0
 11
425.5932914439472
 21
459.2945393109675
 31
0.0
  0
LINE
  5
2B4FA
330
1E
100
AcDbEntity
  8
DETAIL
100
AcDbLine
 10
425.5932914439472
 20
478.6750647702229
 30
0.0
 11
425.5932914439472
 21
506.7886344107228
 31
0.0
  0
LINE
  5
2B4FB
330
1E
100
AcDbEntity
  8
DETAIL
100
AcDbLine
 10
441.999999999989
 20
222.5962230284949
 30
0.0
 11
441.999999999989
 21
548.2130499247523
 31
0.0
  0
LINE
  5
2B4FC
330
1E
100
AcDbEntity
  8
DETAIL
100
AcDbLine
 10
403.9302010065876
 20
521.2332349389543
 30
0.0
 11
403.9302010065876
 21
543.5386663716871
 31
0.0
  0
LINE
  5
2B501
330
1E
100
AcDbEntity
  8
DETAIL
100
AcDbLine
 10
425.5932914439472
 20
521.6113655892786
 30
0.0
 11
425.593291443929
 21
546.1985594188354
 31
0.0
  0
ARC
  5
2B556
330
1E
100
AcDbEntity
  8
DETAIL
100
AcDbCircle
 10
400.6999999999971
 20
740.6006387646175
 30
0.0
 40
0.5
100
AcDbArc
 50
180.0
 51
259.9999999999448
  0
ARC
  5
2B557
330
1E
100
AcDbEntity
  8
DETAIL
100
AcDbCircle
 10
399.2000000000007
 20
761.6609003688245
 30
0.0
 40
1.0
100
AcDbArc
 50
0.0
 51
80.00000000004742
  0
ARC
  5
2B55B
330
1E
100
AcDbEntity
  8
DETAIL
100
AcDbCircle
 10
445.4999999999927
 20
553.191534173302
 30
0.0
 40
0.4999999999985901
100
AcDbArc
 50
96.99999999992801
 51
180.0000000001563
  0
ARC
  5
2B55C
330
1E
100
AcDbEntity
  8
DETAIL
100
AcDbCircle
 10
443.9999999999963
 20
549.466128872018
 30
0.0
 40
0.9999999999999099
100
AcDbArc
 50
277.0000000000314
 51
0.0
  0
ARC
  5
2B562
330
1E
100
AcDbEntity
  8
DETAIL
100
AcDbCircle
 10
466.8999887561767
 20
559.3454181134165
 30
0.0
 40
3.000011243861409
100
AcDbArc
 50
276.9996866400357
 51
359.999686641518
  0
ARC
  5
2B568
330
1E
100
AcDbEntity
  8
DETAIL
100
AcDbCircle
 10
399.2000000000007
 20
543.9653805435682
 30
0.0
 40
0.9999999999999399
100
AcDbArc
 50
323.1301023884861
 51
0.0
  0
LINE
  5
2B569
330
1E
100
AcDbEntity
  8
DETAIL
100
AcDbLine
 10
467.2655818714156
 20
556.3677664989084
 30
0.0
 11
445.4390653283008
 21
553.6878072491163
 31
0.0
  0
LINE
  5
2B576
330
1E
100
AcDbEntity
  8
DETAIL
100
AcDbLine
 10
400.1999999999862
 20
761.6609003688245
 30
0.0
 11
400.2000000000043
 21
543.9653805435798
 31
0.0
  0
LINE
  5
2B57C
330
1E
100
AcDbEntity
  8
DETAIL
100
AcDbLine
 10
394.7943717843409
 20
763.5000000000036
 30
0.0
 11
399.3736481776686
 21
762.6457081218368
 31
0.0
  0
LINE
  5
2B58E
330
1E
100
AcDbEntity
  8
DETAIL
100
AcDbLine
 10
445.0
 20
549.466128872018
 30
0.0
 11
445.0
 21
553.1915341732928
 31
0.0
  0
LINE
  5
2B58F
330
1E
100
AcDbEntity
  8
DETAIL
100
AcDbLine
 10
441.999999999989
 20
548.2130499247523
 30
0.0
 11
444.1218693433984
 21
548.4735827203713
 31
0.0
  0
LINE
  5
2B592
330
1E
100
AcDbEntity
  8
DETAIL
100
AcDbLine
 10
469.8999999999978
 20
715.3046039259879
 30
0.0
 11
469.8999999999978
 21
559.3454017059412
 31
0.0
  0
LINE
  5
2B5B9
330
1E
100
AcDbEntity
  8
DETAIL
100
AcDbLine
 10
400.0000000007021
 20
543.0560983669095
 30
0.0
 11
441.999999999989
 21
548.2130499247523
 31
0.0
  0
ARC
  5
2B5C5
330
1E
100
AcDbEntity
  8
DETAIL
100
AcDbCircle
 10
-399.5000000000072
 20
763.2999999999992
 30
0.0
 40
0.7999999999999802
100
AcDbArc
 50
270.0
 51
0.0
  0
ARC
  5
2B5C8
330
1E
100
AcDbEntity
  8
DETAIL
100
AcDbCircle
 10
-401.0000000000036
 20
760.9000000000015
 30
0.0
 40
1.59999999999999
100
AcDbArc
 50
90.0
 51
180.0
  0
LINE
  5
2B5D1
330
1E
100
AcDbEntity
  8
DETAIL
100
AcDbLine
 10
-401.0000000000036
 20
762.5
 30
0.0
 11
-380.7000000000152
 21
762.5
 31
0.0
  0
LINE
  5
2B5E6
330
1E
100
AcDbEntity
  8
DETAIL
100
AcDbLine
 10
-398.700000000008
 20
763.5000000000036
 30
0.0
 11
-398.700000000008
 21
763.2999999999992
 31
0.0
  0
LINE
  5
2B5F1
330
1E
100
AcDbEntity
  8
DETAIL
100
AcDbLine
 10
381.0999999999876
 20
524.4999999999982
 30
0.0
 11
381.0999999999876
 21
763.5000000000036
 31
0.0
  0
LINE
  5
2B5F4
330
1E
100
AcDbEntity
  8
DETAIL
100
AcDbLine
 10
-401.0000000000036
 20
762.5
 30
0.0
 11
-399.5000000000072
 21
762.5
 31
0.0
  0
LINE
  5
2B5F7
330
1E
100
AcDbEntity
  8
DETAIL
100
AcDbLine
 10
-402.6000000000022
 20
524.4999999999982
 30
0.0
 11
-402.6000000000022
 21
760.9000000000015
 31
0.0
  0
LINE
  5
2B5F8
330
1E
100
AcDbEntity
  8
DETAIL
100
AcDbLine
 10
398.199999999997
 20
524.4999999999982
 30
0.0
 11
-402.6000000000022
 21
524.4999999999982
 31
0.0
  0
LINE
  5
2B5FE
330
1E
100
AcDbEntity
  8
DETAIL
100
AcDbLine
 10
-380.7000000000152
 20
524.4999999999982
 30
0.0
 11
-380.7000000000152
 21
760.9000000000015
 31
0.0
  0
LINE
  5
2B600
330
1E
100
AcDbEntity
  8
DETAIL
100
AcDbLine
 10
398.199999999997
 20
524.4999999999982
 30
0.0
 11
398.199999999997
 21
762.8526539614177
 31
0.0
  0
ARC
  5
2B62B
330
1E
100
AcDbEntity
  8
DETAIL
100
AcDbCircle
 10
-158.4233309840055
 20
791.7007462786841
 30
0.0
 40
1.59925377931477
100
AcDbArc
 50
29.98456361371874
 51
90.01543095926454
  0
ARC
  5
2B62C
330
1E
100
AcDbEntity
  8
DETAIL
100
AcDbCircle
 10
-285.5766690160089
 20
791.7007462786841
 30
0.0
 40
1.5992537793142
100
AcDbArc
 50
89.98456904073547
 51
150.0154363863524
  0
LINE
  5
2B62F
330
1E
100
AcDbEntity
  8
DETAIL
100
AcDbLine
 10
-155.8834192462745
 20
790.5000000000018
 30
0.0
 11
-159.1410917279063
 21
790.5000000000018
 31
0.0
  0
LINE
  5
2B631
330
1E
100
AcDbEntity
  8
DETAIL
100
AcDbLine
 10
-284.8589082721082
 20
790.5000000000018
 30
0.0
 11
-288.1165807537399
 21
790.5000000000018
 31
0.0
  0
LINE
  5
2B632
330
1E
100
AcDbEntity
  8
DETAIL
100
AcDbLine
 10
-182.32596956208
 20
793.2999999999992
 30
0.0
 11
-261.6740304379163
 21
793.2999999999992
 31
0.0
  0
LINE
  5
2B633
330
1E
100
AcDbEntity
  8
DETAIL
100
AcDbLine
 10
-282.9047996686858
 20
793.2999999999992
 30
0.0
 11
-261.6740304379163
 21
793.2999999999992
 31
0.0
  0
LINE
  5
2B634
330
1E
100
AcDbEntity
  8
DETAIL
100
AcDbLine
 10
-182.32596956208
 20
793.2999999999992
 30
0.0
 11
-161.0951986621512
 21
793.2999999999992
 31
0.0
  0
LINE
  5
2B635
330
1E
100
AcDbEntity
  8
DETAIL
100
AcDbLine
 10
-161.0951986621512
 20
793.2999999999992
 30
0.0
 11
-158.4237616967038
 21
793.2999999999992
 31
0.0
  0
LINE
  5
2B638
330
1E
100
AcDbEntity
  8
DETAIL
100
AcDbLine
 10
-286.9618787978106
 20
792.4999999999999
 30
0.0
 11
-288.1165807537399
 21
790.5000000000018
 31
0.0
  0
LINE
  5
2B63B
330
1E
100
AcDbEntity
  8
DETAIL
100
AcDbLine
 10
-285.5762383033106
 20
793.2999999999992
 30
0.0
 11
-282.9047996686858
 21
793.2999999999992
 31
0.0
  0
LINE
  5
2B63C
330
1E
100
AcDbEntity
  8
DETAIL
100
AcDbLine
 10
-157.0381212022039
 20
792.4999999999999
 30
0.0
 11
-155.8834192462745
 21
790.5000000000018
 31
0.0
  0
SPLINE
  5
2B661
330
1E
100
AcDbEntity
  8
DETAIL
100
AcDbSpline
210
0.0
220
0.0
230
1.0
 70
     8
 71
     3
 72
    11
 73
     7
 74
     5
 42
0.0000000001
 43
0.0000000001
 44
0.00000000001
 40
0.0
 40
0.0
 40
0.0
 40
0.0
 40
0.4211710772100566
 40
0.7904041505859898
 40
1.383796795299548
 40
2.82439863376214
 40
2.82439863376214
 40
2.82439863376214
 40
2.82439863376214
 10
-363.2564613517534
 20
788.4389999669574
 30
0.0
 10
-363.1161105238942
 20
788.4425083456092
 30
0.0
 10
-362.8527166612082
 20
788.4490924564333
 30
0.0
 10
-362.391429769189
 20
788.4506076773138
 30
0.0
 10
-361.5903736938331
 20
788.4445520430135
 30
0.0
 10
-360.9124504856194
 20
788.4342103011883
 30
0.0
 10
-360.4323029590814
 20
788.4268856341798
 30
0.0
 11
-363.2564613517534
 21
788.4389999669574
 31
0.0
 11
-362.8353843503791
 21
788.4479013821247
 31
0.0
 11
-362.4661564204216
 21
788.4498502828128
 31
0.0
 11
-361.872774741183
 21
788.4462428537799
 31
0.0
 11
-360.4323029590814
 21
788.4268856341798
 31
0.0
  0
SPLINE
  5
2B662
330
1E
100
AcDbEntity
  8
DETAIL
100
AcDbSpline
210
0.0
220
0.0
230
1.0
 70
     8
 71
     3
 72
    11
 73
     7
 74
     5
 42
0.0000000001
 43
0.0000000001
 44
0.00000000001
 40
0.0
 40
0.0
 40
0.0
 40
0.0
 40
390.4291594198548
 40
501.3501553945935
 40
612.2711562296281
 40
727.1921378661789
 40
727.1921378661789
 40
727.1921378661789
 40
727.1921378661789
 10
-363.6921376299615
 20
788.4228245210431
 30
0.0
 10
-233.5490844829902
 20
788.4226054454416
 30
0.0
 10
-66.43236600911194
 20
788.4223241304212
 30
0.0
 10
137.6580193693656
 20
788.4233035468271
 30
0.0
 10
249.9123455941684
 20
788.4209320242821
 30
0.0
 10
325.1930062212788
 20
788.4270694452309
 30
0.0
 10
363.5000000000109
 20
788.4301925069064
 30
0.0
 11
-363.6921376299615
 21
788.4228245210431
 31
0.0
 11
26.73702178989333
 21
788.4228242707022
 31
0.0
 11
137.6580177646319
 21
788.4228242707022
 31
0.0
 11
248.5790185996666
 21
788.4228243196403
 31
0.0
 11
363.5000000000109
 21
788.4301925069064
 31
0.0
  0
ARC
  5
2B68D
330
1E
100
AcDbEntity
  8
DETAIL
100
AcDbCircle
 10
397.0010000000002
 20
764.998999999998
 30
0.0
 40
1.499000000000429
100
AcDbArc
 50
270.000043676796
 51
0.0
  0
ARC
  5
2B68E
330
1E
100
AcDbEntity
  8
DETAIL
100
AcDbCircle
 10
393.4998899268066
 20
777.7081061587523
 30
0.0
 40
4.999636652370469
100
AcDbArc
 50
0.689244937429029
 51
74.35412105987619
  0
ARC
  5
2B693
330
1E
100
AcDbEntity
  8
DETAIL
100
AcDbCircle
 10
-359.7641432440104
 20
688.5000000007585
 30
0.0
 40
100.0000000000445
100
AcDbArc
 50
92.00135784246905
 51
92.25115414547049
  0
ARC
  5
2B698
330
1E
100
AcDbEntity
  8
DETAIL
100
AcDbCircle
 10
-401.8009999999958
 20
764.998999999998
 30
0.0
 40
1.49900000000025
100
AcDbArc
 50
180.0
 51
270.0000597594653
  0
ARC
  5
2B699
330
1E
100
AcDbEntity
  8
DETAIL
100
AcDbCircle
 10
-392.6000000000061
 20
715.0480323435931
 30
0.0
 40
60.00000000000032
100
AcDbArc
 50
112.1487160964866
 51
118.5278444349031
  0
ARC
  5
2B69A
330
1E
100
AcDbEntity
  8
DETAIL
100
AcDbCircle
 10
-398.3000025982073
 20
776.3636999763366
 30
0.0
 40
4.999997401800289
100
AcDbArc
 50
105.6422499870002
 51
180.0000035297891
  0
ARC
  5
2B69B
330
1E
100
AcDbEntity
  8
DETAIL
100
AcDbCircle
 10
-420.3000744679632
 20
766.0060004424486
 30
0.0
 40
1.99992553333323
100
AcDbArc
 50
118.5257852611411
 51
179.9979408701369
  0
ARC
  5
2B69D
330
1E
100
AcDbEntity
  8
DETAIL
100
AcDbCircle
 10
-392.5999992365035
 20
715.048032587174
 30
0.0
 40
60.00000006224211
100
AcDbArc
 50
102.6533053927362
 51
112.1487168594057
  0
ARC
  5
2B69E
330
1E
100
AcDbEntity
  8
DETAIL
100
AcDbCircle
 10
-363.7000176310903
 20
788.6226868708582
 30
0.0
 40
0.20001763245121
100
AcDbArc
 50
272.2578393494752
 51
0.0066859658992969
  0
ARC
  5
2B69F
330
1E
100
AcDbEntity
  8
DETAIL
100
AcDbCircle
 10
-362.5
 20
788.9999999999964
 30
0.0
 40
1.0
100
AcDbArc
 50
90.0
 51
180.0
  0
ARC
  5
2B6A0
330
1E
100
AcDbEntity
  8
DETAIL
100
AcDbCircle
 10
362.5
 20
788.9999999999964
 30
0.0
 40
1.0
100
AcDbArc
 50
0.0
 51
90.0
  0
ARC
  5
2B6A1
330
1E
100
AcDbEntity
  8
DETAIL
100
AcDbCircle
 10
-420.6000002621152
 20
765.1999997378971
 30
0.0
 40
1.69999973789529
100
AcDbArc
 50
179.9999905349102
 51
269.9999905349102
  0
LINE
  5
2B6A2
330
1E
100
AcDbEntity
  8
DETAIL
100
AcDbLine
 10
-420.6000002621152
 20
763.5000000000018
 30
0.0
 11
397.0010083344726
 21
763.5000000000031
 31
0.0
  0
LINE
  5
2B6AC
330
1E
100
AcDbEntity
  8
DETAIL
100
AcDbLine
 10
398.5000000000036
 20
764.998999999998
 30
0.0
 11
398.5000873128047
 21
777.6722492782755
 31
0.0
  0
LINE
  5
2B6BA
330
1E
100
AcDbEntity
  8
DETAIL
100
AcDbLine
 10
-422.2999999999996
 20
766.006072316959
 30
0.0
 11
-422.2999999999996
 21
765.2000000187308
 31
0.0
  0
LINE
  5
2B6BF
330
1E
100
AcDbEntity
  8
DETAIL
100
AcDbLine
 10
-403.299999999992
 20
764.9990000000025
 30
0.0
 11
-403.2999999999992
 21
776.3636996682999
 31
0.0
  0
LINE
  5
2B6C5
330
1E
100
AcDbEntity
  8
DETAIL
100
AcDbLine
 10
363.5000000000036
 20
788.4301925069067
 30
0.0
 11
363.5000000000036
 21
788.9999999999964
 31
0.0
  0
LINE
  5
2B6CA
330
1E
100
AcDbEntity
  8
DETAIL
100
AcDbLine
 10
-363.5000000000036
 20
788.9999999999964
 30
0.0
 11
-363.5000000000036
 21
788.622710211348
 31
0.0
  0
LINE
  5
2B6D1
330
1E
100
AcDbEntity
  8
DETAIL
100
AcDbLine
 10
-158.0000000000109
 20
790.0
 30
0.0
 11
-362.5
 21
789.9999999999963
 31
0.0
  0
LINE
  5
2B6D3
330
1E
100
AcDbEntity
  8
DETAIL
100
AcDbLine
 10
362.5
 20
789.9999999999963
 30
0.0
 11
-158.0000000000109
 21
790.0
 31
0.0
  0
LINE
  5
2B6D9
330
1E
100
AcDbEntity
  8
DETAIL
100
AcDbLine
 10
-158.0000000000109
 20
790.0
 30
0.0
 11
-158.0000000000109
 21
790.5000000000018
 31
0.0
  0
LINE
  5
2B6DA
330
1E
100
AcDbEntity
  8
DETAIL
100
AcDbLine
 10
-286.0000000000036
 20
790.0
 30
0.0
 11
-286.0000000000036
 21
790.5000000000018
 31
0.0
  0
SPLINE
  5
2B78A
330
1E
100
AcDbEntity
  8
DETAIL
100
AcDbSpline
210
0.0
220
0.0
230
1.0
 70
     8
 71
     3
 72
    17
 73
    13
 74
    11
 42
0.0000000001
 43
0.0000000001
 44
0.00000000001
 40
0.0
 40
0.0
 40
0.0
 40
0.0
 40
2.125173010022288
 40
5.117699253488947
 40
8.528569512007297
 40
11.9095370597327
 40
14.2156008263645
 40
15.65962683125251
 40
17.09726052004358
 40
18.39330493018711
 40
19.04916166891052
 40
19.77837349375668
 40
19.77837349375668
 40
19.77837349375668
 40
19.77837349375668
 10
-374.3748697035407
 20
19.51186549645262
 30
0.0
 10
-375.0820629621673
 20
19.55307199315166
 30
0.0
 10
-376.7850783847599
 20
19.65230271761538
 30
0.0
 10
-379.6217007575055
 20
19.84106940420088
 30
0.0
 10
-382.8737066914706
 20
20.09052881301977
 30
0.0
 10
-385.8933018445262
 20
20.37308768062348
 30
0.0
 10
-388.2539695763487
 20
20.65660719259176
 30
0.0
 10
-389.9614047510301
 20
20.93162682912407
 30
0.0
 10
-391.3219176330076
 20
21.24067881048904
 30
0.0
 10
-392.3802403921966
 20
21.65223861342565
 30
0.0
 10
-393.158536880318
 20
22.09722570950771
 30
0.0
 10
-393.5197916947902
 20
22.38577664631429
 30
0.0
 10
-393.7099853714244
 20
22.53769313674911
 30
0.0
 11
-374.3748697035407
 21
19.51186549645262
 31
0.0
 11
-376.4963017742484
 21
19.63790633070948
 31
0.0
 11
-379.482230279369
 21
19.83651217187343
 31
0.0
 11
-382.8828446584011
 21
20.10081836848166
 31
0.0
 11
-386.2483343509738
 21
20.42396026913684
 31
0.0
 11
-388.5366297587825
 21
20.70967730113534
 31
0.0
 11
-389.9609980509922
 21
20.94713481510461
 31
0.0
 11
-391.3578754701811
 21
21.28702317752231
 31
0.0
 11
-392.5612437098825
 21
21.76830894787326
 31
0.0
 11
-393.1280912241854
 21
22.09820583669988
 31
0.0
 11
-393.7099853714244
 21
22.53769313674911
 31
0.0
  0
ARC
  5
2B7B1
330
1E
100
AcDbEntity
  8
DETAIL
100
AcDbCircle
 10
378.2439598870951
 20
24.50027002648312
 30
0.0
 40
4.99961531575362
100
AcDbArc
 50
269.9938557067397
 51
314.9911460211746
  0
ARC
  5
2B7C8
330
1E
100
AcDbEntity
  8
DETAIL
100
AcDbCircle
 10
69.88905412254098
 20
18.00000000000181
 30
0.0
 40
8.0
100
AcDbArc
 50
270.0
 51
273.400000000001
  0
LINE
  5
2B7D4
330
1E
100
AcDbEntity
  8
DETAIL
100
AcDbLine
 10
381.7786754301341
 20
20.96446186775574
 30
0.0
 11
388.5142135623755
 21
27.70000000000436
 31
0.0
  0
LINE
  5
2B7DD
330
1E
100
AcDbEntity
  8
DETAIL
100
AcDbLine
 10
-69.88905412254098
 20
10.0
 30
0.0
 11
-58.97293385862212
 21
10.0
 31
0.0
  0
LINE
  5
2B7DE
330
1E
100
AcDbEntity
  8
DETAIL
100
AcDbLine
 10
-72.08438465302606
 20
10.11632045998339
 30
0.0
 11
-70.36350511114505
 21
10.01408137661201
 31
0.0
  0
LINE
  5
2B7DF
330
1E
100
AcDbEntity
  8
DETAIL
100
AcDbLine
 10
-176.9584077188483
 20
16.34698549294625
 30
0.0
 11
-80.14477601302132
 21
10.59519594439734
 31
0.0
  0
LINE
  5
2B7E3
330
1E
100
AcDbEntity
  8
DETAIL
100
AcDbLine
 10
113.6011849621354
 20
12.58287288549581
 30
0.0
 11
72.08438465302606
 21
10.11632045998339
 31
0.0
  0
LINE
  5
2B7E4
330
1E
100
AcDbEntity
  8
DETAIL
100
AcDbLine
 10
-80.14477601302132
 20
10.59519594439734
 30
0.0
 11
-72.08438465302606
 21
10.11632045998339
 31
0.0
  0
LINE
  5
2B7EE
330
1E
100
AcDbEntity
  8
DETAIL
100
AcDbLine
 10
-210.3311211369691
 20
18.32969000327466
 30
0.0
 11
-228.3190175502386
 21
19.39836796491363
 31
0.0
  0
LINE
  5
2B7F0
330
1E
100
AcDbEntity
  8
DETAIL
100
AcDbLine
 10
-229.8222898420317
 20
19.48767879546721
 30
0.0
 11
-228.3190175502386
 21
19.39836796491363
 31
0.0
  0
LINE
  5
2B7F2
330
1E
100
AcDbEntity
  8
DETAIL
100
AcDbLine
 10
-210.3311211369691
 20
18.32969000327466
 30
0.0
 11
-184.2724003142029
 21
16.78151671986597
 31
0.0
  0
LINE
  5
2B7F3
330
1E
100
AcDbEntity
  8
DETAIL
100
AcDbLine
 10
-184.2724003142029
 20
16.78151671986597
 30
0.0
 11
-176.9584077188483
 21
16.34698549294625
 31
0.0
  0
LINE
  5
2B7F8
330
1E
100
AcDbEntity
  8
DETAIL
100
AcDbLine
 10
-233.7551131526015
 20
19.49999999999818
 30
0.0
 11
-230.2374344570489
 21
19.49999999999818
 31
0.0
  0
LINE
  5
2B80C
330
1E
100
AcDbEntity
  8
DETAIL
100
AcDbLine
 10
-395.5000000000109
 20
26.43826172521585
 30
0.0
 11
-395.5000000000109
 21
27.70000000000436
 31
0.0
  0
LINE
  5
2B80F
330
1E
100
AcDbEntity
  8
DETAIL
100
AcDbLine
 10
230.2374344570489
 20
19.49999999999818
 30
0.0
 11
113.6011849621354
 21
12.58287288549581
 31
0.0
  0
LINE
  5
2B813
330
1E
100
AcDbEntity
  8
DETAIL
100
AcDbLine
 10
70.36350511114505
 20
10.01408137661201
 30
0.0
 11
72.08438465302606
 21
10.11632045998339
 31
0.0
  0
LINE
  5
2B81F
330
1E
100
AcDbEntity
  8
DETAIL
100
AcDbLine
 10
58.97293525333225
 20
9.999990984433679
 30
0.0
 11
69.88905412254098
 21
10.0
 31
0.0
  0
LINE
  5
2B820
330
1E
100
AcDbEntity
  8
DETAIL
100
AcDbLine
 10
-58.97293385862212
 20
10.0
 30
0.0
 11
58.97293525333225
 21
9.999990984433679
 31
0.0
  0
LINE
  5
2B821
330
1E
100
AcDbEntity
  8
DETAIL
100
AcDbLine
 10
324.0734672299004
 20
19.49999999999818
 30
0.0
 11
330.4389338544024
 21
19.49999999999818
 31
0.0
  0
LINE
  5
2B822
330
1E
100
AcDbEntity
  8
DETAIL
100
AcDbLine
 10
324.0734672299004
 20
19.49999999999818
 30
0.0
 11
233.7551131526051
 21
19.49999999999636
 31
0.0
  0
LINE
  5
2B825
330
1E
100
AcDbEntity
  8
DETAIL
100
AcDbLine
 10
330.4389338544024
 20
19.49999999999818
 30
0.0
 11
378.2434237376037
 21
19.50065473947688
 31
0.0
  0
ARC
  5
2B846
330
1E
100
AcDbEntity
  8
DETAIL
100
AcDbCircle
 10
266.2448868473984
 20
16.49999999999636
 30
0.0
 40
2.99999999999997
100
AcDbArc
 50
4.999999999972366
 51
90.0
  0
ARC
  5
2B849
330
1E
100
AcDbEntity
  8
DETAIL
100
AcDbCircle
 10
266.9999999999891
 20
5.0
 30
0.0
 40
3.0
100
AcDbArc
 50
0.0
 51
90.0
  0
ARC
  5
2B84A
330
1E
100
AcDbEntity
  8
DETAIL
100
AcDbCircle
 10
232.9999999999927
 20
5.0
 30
0.0
 40
3.0
100
AcDbArc
 50
90.0
 51
180.0
  0
ARC
  5
2B84B
330
1E
100
AcDbEntity
  8
DETAIL
100
AcDbCircle
 10
233.7551131526015
 20
16.49999999999636
 30
0.0
 40
3.0
100
AcDbArc
 50
90.0
 51
174.9999999999757
  0
LINE
  5
2B84F
330
1E
100
AcDbEntity
  8
DETAIL
100
AcDbLine
 10
230.0
 20
0.0
 30
0.0
 11
230.0190265095443
 21
8.217473999193316
 31
0.0
  0
LINE
  5
2B852
330
1E
100
AcDbEntity
  8
DETAIL
100
AcDbLine
 10
230.0
 20
0.0
 30
0.0
 11
270.0
 21
0.0
 31
0.0
  0
LINE
  5
2B853
330
1E
100
AcDbEntity
  8
DETAIL
100
AcDbLine
 10
270.0
 20
0.0
 30
0.0
 11
269.9809734904556
 21
8.217473999193316
 31
0.0
  0
LINE
  5
2B858
330
1E
100
AcDbEntity
  8
DETAIL
100
AcDbLine
 10
269.9809734904556
 20
8.217473999193316
 30
0.0
 11
269.2334709416754
 21
16.76146722823796
 31
0.0
  0
LINE
  5
2B85C
330
1E
100
AcDbEntity
  8
DETAIL
100
AcDbLine
 10
230.2374344570489
 20
19.49999999999818
 30
0.0
 11
266.2448868473984
 21
19.49999999999636
 31
0.0
  0
LINE
  5
2B869
330
1E
100
AcDbEntity
  8
DETAIL
100
AcDbLine
 10
232.9999999999927
 20
8.0
 30
0.0
 11
266.9999999999927
 21
8.000000000006366
 31
0.0
  0
LINE
  5
2B86F
330
1E
100
AcDbEntity
  8
DETAIL
100
AcDbLine
 10
230.7665290583281
 20
16.76146722824069
 30
0.0
 11
230.0190265095443
 21
8.217473999193316
 31
0.0
  0
ARC
  5
2B88E
330
1E
100
AcDbEntity
  8
DETAIL
100
AcDbCircle
 10
-233.0000000000109
 20
5.0
 30
0.0
 40
3.0
100
AcDbArc
 50
0.0
 51
90.0
  0
ARC
  5
2B891
330
1E
100
AcDbEntity
  8
DETAIL
100
AcDbCircle
 10
-233.7551131526015
 20
16.49999999999636
 30
0.0
 40
3.000000000000879
100
AcDbArc
 50
4.999999999972366
 51
90.0
  0
ARC
  5
2B892
330
1E
100
AcDbEntity
  8
DETAIL
100
AcDbCircle
 10
-266.2448868473984
 20
16.49999999999636
 30
0.0
 40
3.0
100
AcDbArc
 50
90.0
 51
174.9999999999757
  0
ARC
  5
2B894
330
1E
100
AcDbEntity
  8
DETAIL
100
AcDbCircle
 10
-267.0000000000072
 20
5.0
 30
0.0
 40
3.0
100
AcDbArc
 50
90.0
 51
180.0
  0
LINE
  5
2B89A
330
1E
100
AcDbEntity
  8
DETAIL
100
AcDbLine
 10
-267.0000000000036
 20
8.000000000001818
 30
0.0
 11
-233.0000000000109
 21
8.0
 31
0.0
  0
LINE
  5
2B89E
330
1E
100
AcDbEntity
  8
DETAIL
100
AcDbLine
 10
-230.0190265095443
 20
8.217473999193316
 30
0.0
 11
-230.7665290583245
 21
16.76146722823796
 31
0.0
  0
LINE
  5
2B89F
330
1E
100
AcDbEntity
  8
DETAIL
100
AcDbLine
 10
-230.019026509537
 20
8.217473999196499
 30
0.0
 11
-230.0
 21
5.0
 31
0.0
  0
LINE
  5
2B8A1
330
1E
100
AcDbEntity
  8
DETAIL
100
AcDbLine
 10
-230.0
 20
0.0
 30
0.0
 11
-230.0
 21
5.0
 31
0.0
  0
LINE
  5
2B8A7
330
1E
100
AcDbEntity
  8
DETAIL
100
AcDbLine
 10
-270.0
 20
0.0
 30
0.0
 11
-230.0
 21
0.0
 31
0.0
  0
LINE
  5
2B8AA
330
1E
100
AcDbEntity
  8
DETAIL
100
AcDbLine
 10
-270.0
 20
0.0
 30
0.0
 11
-270.0
 21
5.0
 31
0.0
  0
LINE
  5
2B8B1
330
1E
100
AcDbEntity
  8
DETAIL
100
AcDbLine
 10
-269.9809734904556
 20
8.217473999193316
 30
0.0
 11
-270.0
 21
5.0
 31
0.0
  0
LINE
  5
2B8B2
330
1E
100
AcDbEntity
  8
DETAIL
100
AcDbLine
 10
-269.2334709416718
 20
16.76146722824069
 30
0.0
 11
-269.9809734904556
 21
8.217473999193316
 31
0.0
  0
LINE
  5
2B8B5
330
1E
100
AcDbEntity
  8
DETAIL
100
AcDbLine
 10
-233.7551131525906
 20
19.49999999999727
 30
0.0
 11
-374.2960987278093
 21
19.50773047071334
 31
0.0
  0
SPLINE
  5
2B96B
330
1E
100
AcDbEntity
  8
DETAIL
100
AcDbSpline
210
0.0
220
0.0
230
1.0
 70
    24
 71
     3
 72
    11
 73
     7
 74
     5
 42
0.0000000001
 43
0.0000000001
 44
0.00000000001
 40
0.0
 40
0.0
 40
0.0
 40
0.0
 40
210.1222843599535
 40
400.2445687199215
 40
590.3668530798604
 40
800.0000005705114
 40
800.0000005705114
 40
800.0000005705114
 40
800.0000005705114
 10
-399.9999999999927
 20
30.20000000000345
 30
0.0
 10
-329.9592385466748
 20
30.20000000000345
 30
0.0
 10
-196.544382306701
 20
30.20000000000345
 30
0.0
 10
0.2445687199190729
 20
30.200000000003
 30
0.0
 10
196.8704741234384
 20
30.20000000000345
 30
0.0
 10
330.1222847403018
 20
30.20000000000345
 30
0.0
 10
400.0000005705187
 20
30.20000000000345
 30
0.0
 11
-399.9999999999927
 21
30.20000000000345
 31
0.0
 11
-189.8777156400392
 21
30.20000000000345
 31
0.0
 11
0.2445687199287931
 21
30.20000000000345
 31
0.0
 11
190.3668530798677
 21
30.20000000000345
 31
0.0
 11
400.0000005705187
 21
30.20000000000345
 31
0.0
  0
ARC
  5
2B983
330
1E
100
AcDbEntity
  8
DETAIL
100
AcDbCircle
 10
151.4999999999963
 20
65.0
 30
0.0
 40
3.10000000000014
100
AcDbArc
 50
270.0
 51
0.0
  0
ARC
  5
2B9C6
330
1E
100
AcDbEntity
  8
DETAIL
100
AcDbCircle
 10
151.4999999999963
 20
65.0
 30
0.0
 40
5.0
100
AcDbArc
 50
270.0
 51
0.0
  0
ARC
  5
2B9D8
330
1E
100
AcDbEntity
  8
DETAIL
100
AcDbCircle
 10
151.4999999999963
 20
495.0
 30
0.0
 40
5.0
100
AcDbArc
 50
0.0
 51
90.0
  0
ARC
  5
2B9D9
330
1E
100
AcDbEntity
  8
DETAIL
100
AcDbCircle
 10
151.4999999999963
 20
495.0
 30
0.0
 40
3.100000000000819
100
AcDbArc
 50
0.0
 51
90.0
  0
ARC
  5
2BA32
330
1E
100
AcDbEntity
  8
DETAIL
100
AcDbCircle
 10
-346.4999999999963
 20
495.0
 30
0.0
 40
3.10000000000002
100
AcDbArc
 50
90.0
 51
180.0
  0
ARC
  5
2BA33
330
1E
100
AcDbEntity
  8
DETAIL
100
AcDbCircle
 10
-346.4999999999963
 20
495.0
 30
0.0
 40
5.0
100
AcDbArc
 50
90.0
 51
180.0
  0
ARC
  5
2BA34
330
1E
100
AcDbEntity
  8
DETAIL
100
AcDbCircle
 10
-346.4999999999963
 20
65.0
 30
0.0
 40
5.0
100
AcDbArc
 50
180.0
 51
270.0
  0
ARC
  5
2BA35
330
1E
100
AcDbEntity
  8
DETAIL
100
AcDbCircle
 10
-346.4999999999963
 20
65.0
 30
0.0
 40
3.099999999999909
100
AcDbArc
 50
180.0
 51
270.0
  0
ARC
  5
2BA4F
330
1E
100
AcDbEntity
  8
DETAIL
100
AcDbCircle
 10
-398.0999999999949
 20
29.60000000000036
 30
0.0
 40
1.900000000000999
100
AcDbArc
 50
180.0
 51
270.0
  0
LINE
  5
2BA6E
330
1E
100
AcDbEntity
  8
DETAIL
100
AcDbLine
 10
-346.4999999999963
 20
498.0999999999998
 30
0.0
 11
151.4999999999963
 21
498.1000000000007
 31
0.0
  0
LINE
  5
2BA6F
330
1E
100
AcDbEntity
  8
DETAIL
100
AcDbLine
 10
151.4999999999963
 20
500.0
 30
0.0
 11
-346.4999999999963
 21
500.0
 31
0.0
  0
LINE
  5
2BA74
330
1E
100
AcDbEntity
  8
DETAIL
100
AcDbLine
 10
119.2928932188078
 20
453.750001400258
 30
0.0
 11
119.2928932188078
 21
490.8221453506576
 31
0.0
  0
LINE
  5
2BA79
330
1E
100
AcDbEntity
  8
DETAIL
100
AcDbLine
 10
154.5999999999912
 20
495.0
 30
0.0
 11
154.5999999999912
 21
65.0
 31
0.0
  0
LINE
  5
2BA7A
330
1E
100
AcDbEntity
  8
DETAIL
100
AcDbLine
 10
156.4999999999963
 20
65.0
 30
0.0
 11
156.4999999999963
 21
495.0
 31
0.0
  0
LINE
  5
2BAA3
330
1E
100
AcDbEntity
  8
DETAIL
100
AcDbLine
 10
380.4891374398357
 20
27.70000000000436
 30
0.0
 11
380.4891374398174
 21
524.4999999999984
 31
0.0
  0
LINE
  5
2BAB2
330
1E
100
AcDbEntity
  8
DETAIL
100
AcDbLine
 10
-314.2928932188078
 20
453.7500014183751
 30
0.0
 11
-314.2928932188042
 21
498.1000000000001
 31
0.0
  0
LINE
  5
2BAC8
330
1E
100
AcDbEntity
  8
DETAIL
100
AcDbLine
 10
-346.4999999999963
 20
61.90000000000509
 30
0.0
 11
151.4999999999963
 21
61.90000000000509
 31
0.0
  0
LINE
  5
2BACE
330
1E
100
AcDbEntity
  8
DETAIL
100
AcDbLine
 10
151.4999999999963
 20
60.0
 30
0.0
 11
-346.4999999999963
 21
60.0
 31
0.0
  0
LINE
  5
2BAD2
330
1E
100
AcDbEntity
  8
DETAIL
100
AcDbLine
 10
-351.4999999999963
 20
495.0
 30
0.0
 11
-351.4999999999963
 21
65.0
 31
0.0
  0
LINE
  5
2BAD3
330
1E
100
AcDbEntity
  8
DETAIL
100
AcDbLine
 10
-379.9999999999854
 20
27.70000099835943
 30
0.0
 11
-380.0000000000001
 21
524.4999999999984
 31
0.0
  0
LINE
  5
2BAD6
330
1E
100
AcDbEntity
  8
DETAIL
100
AcDbLine
 10
-349.6000000000094
 20
65.0
 30
0.0
 11
-349.6000000000094
 21
495.0
 31
0.0
  0
LINE
  5
2BADE
330
1E
100
AcDbEntity
  8
DETAIL
100
AcDbLine
 10
-399.9999999999963
 20
29.60000000000036
 30
0.0
 11
-400.0
 21
524.4999999999984
 31
0.0
  0
LINE
  5
2BAE2
330
1E
100
AcDbEntity
  8
DETAIL
100
AcDbLine
 10
-398.0999999999949
 20
27.69999999999936
 30
0.0
 11
397.5000503382143
 21
27.70004388372262
 31
0.0
  0
SPLINE
  5
2C664
330
1E
100
AcDbEntity
  8
DETAIL
100
AcDbSpline
210
0.0
220
0.0
230
1.0
 70
     8
 71
     3
 72
    11
 73
     7
 74
     5
 42
0.0000000001
 43
0.0000000001
 44
0.00000000001
 40
0.0
 40
0.0
 40
0.0
 40
0.0
 40
7.320984667125348
 40
16.60202930039875
 40
24.96420621413834
 40
33.35188939651834
 40
33.35188939651834
 40
33.35188939651834
 40
33.35188939651834
 10
-99.00000068758528
 20
487.1018893965147
 30
0.0
 10
-99.00000294045492
 20
484.6615611741404
 30
0.0
 10
-99.00000804935894
 20
479.1275514073425
 30
0.0
 10
-99.00000464595763
 20
470.8061493359625
 30
0.0
 10
-99.00000045154223
 20
462.1291810928323
 30
0.0
 10
-99.00000050852533
 20
456.5458943941258
 30
0.0
 10
-99.00000053706026
 20
453.749999999999
 30
0.0
 11
-99.00000068758528
 21
487.1018893965147
 31
0.0
 11
-99.00000601262583
 21
479.7809047293912
 31
0.0
 11
-99.00000439960422
 21
470.499860096118
 31
0.0
 11
-99.00000114253636
 21
462.137683182379
 31
0.0
 11
-99.00000053706026
 21
453.749999999999
 31
0.0
  0
SPLINE
  5
2C66D
330
1E
100
AcDbEntity
  8
DETAIL
100
AcDbSpline
210
0.0
220
0.0
230
1.0
 70
     8
 71
     3
 72
    11
 73
     7
 74
     5
 42
0.0000000001
 43
0.0000000001
 44
0.00000000001
 40
0.0
 40
0.0
 40
0.0
 40
0.0
 40
7.321126252371075
 40
16.60236228227066
 40
24.96471358622782
 40
33.3525743368109
 40
33.3525743368109
 40
33.3525743368109
 40
33.3525743368109
 10
-110.5001296062182
 20
487.1025743458367
 30
0.0
 10
-110.5001318587002
 20
484.6621989283805
 30
0.0
 10
-110.5001369667286
 20
479.1280781676255
 30
0.0
 10
-110.500133563449
 20
470.8065069722149
 30
0.0
 10
-110.5001293699436
 20
462.1293576107368
 30
0.0
 10
-110.500129426984
 20
456.5459535925561
 30
0.0
 10
-110.5001294555477
 20
453.7500000090285
 30
0.0
 11
-110.5001296062182
 21
487.1025743458367
 31
0.0
 11
-110.5001349302838
 21
479.7814480934675
 31
0.0
 11
-110.5001333172476
 21
470.5002120635681
 31
0.0
 11
-110.5001300608055
 21
462.1378607596116
 31
0.0
 11
-110.5001294555477
 21
453.7500000090285
 31
0.0
  0
SPLINE
  5
2C66E
330
1E
100
AcDbEntity
  8
DETAIL
100
AcDbSpline
210
0.0
220
0.0
230
1.0
 70
     8
 71
     3
 72
    13
 73
     9
 74
     7
 42
0.0000000001
 43
0.0000000001
 44
0.00000000001
 40
0.0
 40
0.0
 40
0.0
 40
0.0
 40
8.357281118133665
 40
16.60210014978312
 40
21.49075355891626
 40
25.07132903253904
 40
28.60473737987287
 40
33.35188940774333
 40
33.35188940774333
 40
33.35188940774333
 40
33.35188940774333
 10
-107.4997560869014
 20
487.1018893965147
 30
0.0
 10
-107.4996322517363
 20
484.3161290248276
 30
0.0
 10
-107.4993862478286
 20
478.7820956436012
 30
0.0
 10
-107.4997644720985
 20
471.6185111277971
 30
0.0
 10
-107.4999636329384
 20
466.0471618270769
 30
0.0
 10
-107.500008098469
 20
462.0462827499939
 30
0.0
 10
-107.4999469314481
 20
458.092570800733
 30
0.0
 10
-107.4999152001618
 20
455.332384009197
 30
0.0
 10
-107.4998970089727
 20
453.7500000000209
 30
0.0
 11
-107.4997560869014
 21
487.1018893965147
 31
0.0
 11
-107.499520958132
 21
478.7446082816886
 31
0.0
 11
-107.4997941209512
 21
470.4997892545643
 31
0.0
 11
-107.4999560490905
 21
465.611135848113
 31
0.0
 11
-107.4999923032519
 21
462.0305603746738
 31
0.0
 11
-107.4999551882574
 21
458.4971520275348
 31
0.0
 11
-107.4998970089727
 21
453.7500000000209
 31
0.0
  0
SPLINE
  5
2C678
330
1E
100
AcDbEntity
  8
DETAIL
100
AcDbSpline
210
0.0
220
0.0
230
1.0
 70
     8
 71
     3
 72
    11
 73
     7
 74
     5
 42
0.0000000001
 43
0.0000000001
 44
0.00000000001
 40
0.0
 40
0.0
 40
0.0
 40
0.0
 40
7.320984667430938
 40
16.60202930039875
 40
24.96420621413834
 40
33.35188939649651
 40
33.35188939649651
 40
33.35188939649651
 40
33.35188939649651
 10
-95.99999931241473
 20
487.1018893965147
 30
0.0
 10
-95.99999705953905
 20
484.6615611740382
 30
0.0
 10
-95.99999195062139
 20
479.1275514072402
 30
0.0
 10
-95.99999535402913
 20
470.8061493358605
 30
0.0
 10
-95.99999954844292
 20
462.1291810928396
 30
0.0
 10
-95.99999949146004
 20
456.5458943941401
 30
0.0
 10
-95.99999946292518
 20
453.7500000000209
 30
0.0
 11
-95.99999931241473
 21
487.1018893965147
 31
0.0
 11
-95.99999398735963
 21
479.7809047290857
 31
0.0
 11
-95.99999560038122
 21
470.499860096118
 31
0.0
 11
-95.9999988574491
 21
462.137683182379
 31
0.0
 11
-95.99999946292518
 21
453.7500000000209
 31
0.0
  0
SPLINE
  5
2C679
330
1E
100
AcDbEntity
  8
DETAIL
100
AcDbSpline
210
0.0
220
0.0
230
1.0
 70
     8
 71
     3
 72
    11
 73
     7
 74
     5
 42
0.0000000001
 43
0.0000000001
 44
0.00000000001
 40
0.0
 40
0.0
 40
0.0
 40
0.0
 40
8.3942381032248
 40
16.76285319581141
 40
26.05108921554428
 40
33.37717731693834
 40
33.37717731693834
 40
33.37717731693834
 40
33.37717731693834
 10
-61.4999994595637
 20
453.7500015107862
 30
0.0
 10
-61.49999948983356
 20
456.548080878528
 30
0.0
 10
-61.49999955028096
 20
462.1356986104656
 30
0.0
 10
-61.49999532146825
 20
470.819395015645
 30
0.0
 10
-61.49999186725853
 20
479.1470414202176
 30
0.0
 10
-61.49999702863329
 20
484.6851494605912
 30
0.0
 10
-61.49999930454214
 20
487.1271788277217
 30
0.0
 11
-61.4999994595637
 21
453.7500015107862
 31
0.0
 11
-61.49999885286525
 21
462.144239614011
 31
0.0
 11
-61.49999556619878
 21
470.5128547065969
 31
0.0
 11
-61.49999392702738
 21
479.8010907263297
 31
0.0
 11
-61.49999930454214
 21
487.1271788277217
 31
0.0
  0
SPLINE
  5
2C67A
330
1E
100
AcDbEntity
  8
DETAIL
100
AcDbSpline
210
0.0
220
0.0
230
1.0
 70
     8
 71
     3
 72
    11
 73
     7
 74
     5
 42
0.0000000001
 43
0.0000000001
 44
0.00000000001
 40
0.0
 40
0.0
 40
0.0
 40
0.0
 40
8.39832969816782
 40
16.77096326721286
 40
26.06370656893056
 40
33.39295989625223
 40
33.39295989625223
 40
33.39295989625223
 40
33.39295989625223
 10
-53.00000053298572
 20
453.7500015415417
 30
0.0
 10
-53.00000050216624
 20
456.5494447742642
 30
0.0
 10
-53.00000044062176
 20
462.1397658633354
 30
0.0
 10
-53.00000461659272
 20
470.8276680529777
 30
0.0
 10
-53.00000804139677
 20
479.1592114523405
 30
0.0
 10
-53.00000294008544
 20
484.6998769953513
 30
0.0
 10
-53.00000069072848
 20
487.1429614377912
 30
0.0
 11
-53.00000053298572
 21
453.7500015415417
 31
0.0
 11
-53.00000112978887
 21
462.1483312397095
 31
0.0
 11
-53.00000437710696
 21
470.5209648087539
 31
0.0
 11
-53.00000600415661
 21
479.8137081104714
 31
0.0
 11
-53.00000069072848
 21
487.1429614377912
 31
0.0
  0
SPLINE
  5
2C67B
330
1E
100
AcDbEntity
  8
DETAIL
100
AcDbSpline
210
0.0
220
0.0
230
1.0
 70
     8
 71
     3
 72
    13
 73
     9
 74
     7
 42
0.0000000001
 43
0.0000000001
 44
0.00000000001
 40
0.0
 40
0.0
 40
0.0
 40
0.0
 40
8.373477757606959
 40
16.60209154887086
 40
21.48914418525002
 40
25.06123689040133
 40
28.59120639014722
 40
33.35188940791256
 40
33.35188940791256
 40
33.35188940791256
 40
33.35188940791256
 10
-87.50024409959587
 20
487.1018893965147
 30
0.0
 10
-87.50036919458365
 20
484.3107301450286
 30
0.0
 10
-87.50061722037401
 20
478.7766996308196
 30
0.0
 10
-87.50023802336022
 20
471.6136515729026
 30
0.0
 10
-87.50003663870353
 20
466.0510651994822
 30
0.0
 10
-87.49999152654252
 20
462.0546935853314
 30
0.0
 10
-87.50005328455983
 20
458.1004451781304
 30
0.0
 10
-87.50008514655377
 20
455.3368943391608
 30
0.0
 10
-87.5001034424422
 20
453.7500000000209
 30
0.0
 11
-87.50024409959587
 21
487.1018893965147
 31
0.0
 11
-87.50048176754352
 21
478.7284116422807
 31
0.0
 11
-87.50020785575179
 21
470.4997978555756
 31
0.0
 11
-87.50004421822813
 21
465.6127452219362
 31
0.0
 11
-87.50000748175807
 21
462.0406525169737
 31
0.0
 11
-87.50004482895747
 21
458.5106830174254
 31
0.0
 11
-87.5001034424422
 21
453.7500000000209
 31
0.0
  0
SPLINE
  5
2C67F
330
1E
100
AcDbEntity
  8
DETAIL
100
AcDbSpline
210
0.0
220
0.0
230
1.0
 70
     8
 71
     3
 72
    11
 73
     7
 74
     5
 42
0.0000000001
 43
0.0000000001
 44
0.00000000001
 40
0.0
 40
0.0
 40
0.0
 40
0.0
 40
8.405357937474057
 40
16.78489362025058
 40
26.08534810203207
 40
33.42006593155656
 40
33.42006593155656
 40
33.42006593155656
 40
33.42006593155656
 10
-41.50000053173426
 20
453.7500008256674
 30
0.0
 10
-41.50000049931918
 20
456.5517868048255
 30
0.0
 10
-41.50000043458857
 20
462.146751344909
 30
0.0
 10
-41.50000460978867
 20
470.8418673789189
 30
0.0
 10
-41.5000080587045
 20
479.180103376947
 30
0.0
 10
-41.50000294565143
 20
484.725160814047
 30
0.0
 10
-41.50000069122325
 20
487.1700667572213
 30
0.0
 11
-41.50000053173426
 21
453.7500008256674
 31
0.0
 11
-41.50000112443376
 21
462.1553587631415
 31
0.0
 11
-41.50000437428388
 21
470.5348944459173
 31
0.0
 11
-41.50000601460487
 21
479.8353489276987
 31
0.0
 11
-41.50000069122325
 21
487.1700667572213
 31
0.0
  0
SPLINE
  5
2C681
330
1E
100
AcDbEntity
  8
DETAIL
100
AcDbSpline
210
0.0
220
0.0
230
1.0
 70
     8
 71
     3
 72
    11
 73
     7
 74
     5
 42
0.0000000001
 43
0.0000000001
 44
0.00000000001
 40
0.0
 40
0.0
 40
0.0
 40
0.0
 40
7.330568222752948
 40
16.62512382561023
 40
24.9993953962066
 40
33.39939298518128
 40
33.39939298518128
 40
33.39939298518128
 40
33.39939298518128
 10
-49.99999931334605
 20
487.1493944097228
 30
0.0
 10
-49.99999706562675
 20
484.7058716688061
 30
0.0
 10
-49.99999196798478
 20
479.1641637269378
 30
0.0
 10
-49.99999539303814
 20
470.8310319282007
 30
0.0
 10
-49.9999995614969
 20
462.1414236740597
 30
0.0
 10
-49.99999949932607
 20
456.550000620869
 30
0.0
 10
-49.99999946819298
 20
453.7500014245442
 30
0.0
 11
-49.99999931334605
 21
487.1493944097228
 31
0.0
 11
-49.99999400412344
 21
479.8188261869718
 31
0.0
 11
-49.99999563107121
 21
470.5242705841146
 31
0.0
 11
-49.99999887338344
 21
462.1499990135189
 31
0.0
 11
-49.99999946819298
 21
453.7500014245442
 31
0.0
  0
SPLINE
  5
2C686
330
1E
100
AcDbEntity
  8
DETAIL
100
AcDbSpline
210
0.0
220
0.0
230
1.0
 70
     8
 71
     3
 72
    11
 73
     7
 74
     5
 42
0.0000000001
 43
0.0000000001
 44
0.00000000001
 40
0.0
 40
0.0
 40
0.0
 40
0.0
 40
8.424574763499569
 40
16.82297909101973
 40
26.14447914540586
 40
33.49415306387804
 40
33.49415306387804
 40
33.49415306387804
 40
33.49415306387804
 10
-18.50000052934774
 20
453.7500004716921
 30
0.0
 10
-18.50000049247034
 20
456.5581920595255
 30
0.0
 10
-18.50000041883015
 20
462.165851756532
 30
0.0
 10
-18.50000460058288
 20
470.8806781383327
 30
0.0
 10
-18.5000081252175
 20
479.23720423846
 30
0.0
 10
-18.50000296081799
 20
484.7942622294111
 30
0.0
 10
-18.5000006840346
 20
487.2441535355674
 30
0.0
 11
-18.50000052934774
 21
453.7500004716921
 31
0.0
 11
-18.50000111197732
 21
462.1745752351917
 31
0.0
 11
-18.50000437589915
 21
470.5729795627112
 31
0.0
 11
-18.5000060550883
 21
479.8944796170972
 31
0.0
 11
-18.5000006840346
 21
487.2441535355674
 31
0.0
  0
SPLINE
  5
2C68B
330
1E
100
AcDbEntity
  8
DETAIL
100
AcDbSpline
210
0.0
220
0.0
230
1.0
 70
     8
 71
     3
 72
    11
 73
     7
 74
     5
 42
0.0000000001
 43
0.0000000001
 44
0.00000000001
 40
0.0
 40
0.0
 40
0.0
 40
0.0
 40
8.416670147482383
 40
16.8073136478567
 40
26.12013565164022
 40
33.46368302501923
 40
33.46368302501923
 40
33.46368302501923
 40
33.46368302501923
 10
-26.99999947130709
 20
453.7500000066274
 30
0.0
 10
-26.99999950623396
 20
456.555556722455
 30
0.0
 10
-26.99999957597964
 20
462.1579946050742
 30
0.0
 10
-26.99999540994736
 20
470.8647064889528
 30
0.0
 10
-26.99999192860639
 20
479.2137107814662
 30
0.0
 10
-26.99999705216157
 20
484.7658339071852
 30
0.0
 10
-26.9999993110614
 20
487.2136830316439
 30
0.0
 11
-26.99999947130709
 21
453.7500000066274
 31
0.0
 11
-26.9999988863492
 21
462.1666701541098
 31
0.0
 11
-26.99999563856545
 21
470.5573136544835
 31
0.0
 11
-26.9999939802874
 21
479.8701356582669
 31
0.0
 11
-26.9999993110614
 21
487.2136830316439
 31
0.0
  0
SPLINE
  5
2C68E
330
1E
100
AcDbEntity
  8
DETAIL
100
AcDbSpline
210
0.0
220
0.0
230
1.0
 70
     8
 71
     3
 72
    11
 73
     7
 74
     5
 42
0.0000000001
 43
0.0000000001
 44
0.00000000001
 40
0.0
 40
0.0
 40
0.0
 40
0.0
 40
8.427589781073059
 40
16.82895402322239
 40
26.15371806480915
 40
33.50577333223466
 40
33.50577333223466
 40
33.50577333223466
 40
33.50577333223466
 10
-15.49999947282049
 20
453.7500007198677
 30
0.0
 10
-15.49999951030082
 20
456.5591973135588
 30
0.0
 10
-15.4999995851449
 20
462.1688486546336
 30
0.0
 10
-15.49999541599788
 20
470.8867546762348
 30
0.0
 10
-15.49999189362529
 20
479.2461491932897
 30
0.0
 10
-15.49999704009229
 20
484.8050889629584
 30
0.0
 10
-15.49999930893682
 20
487.2557740520996
 30
0.0
 11
-15.49999947282049
 21
453.7500007198677
 31
0.0
 11
-15.49999889372702
 21
462.1775905009408
 31
0.0
 11
-15.49999563866731
 21
470.5789547430895
 31
0.0
 11
-15.49999395787745
 21
479.9037187846761
 31
0.0
 11
-15.49999930893682
 21
487.2557740520996
 31
0.0
  0
SPLINE
  5
2C690
330
1E
100
AcDbEntity
  8
DETAIL
100
AcDbSpline
210
0.0
220
0.0
230
1.0
 70
     8
 71
     3
 72
    11
 73
     7
 74
     5
 42
0.0000000001
 43
0.0000000001
 44
0.00000000001
 40
0.0
 40
0.0
 40
0.0
 40
0.0
 40
8.4367714307373
 40
16.84714888930532
 40
26.18197676317586
 40
33.54115446684871
 40
33.54115446684871
 40
33.54115446684871
 40
33.54115446684871
 10
-7.000000529900717
 20
453.7500013432208
 30
0.0
 10
-7.000000489922399
 20
456.5622584868001
 30
0.0
 10
-7.000000410090706
 20
462.1779747832351
 30
0.0
 10
-7.000004614335807
 20
470.9053003709593
 30
0.0
 10
-7.000008199120372
 20
479.2734280496643
 30
0.0
 10
-7.000002993559519
 20
484.8380965755102
 30
0.0
 10
-7.000000698804797
 20
487.2911558100668
 30
0.0
 11
-7.000000529900717
 21
453.7500013432208
 31
0.0
 11
-7.000001108426658
 21
462.1867727739582
 31
0.0
 11
-7.000004395005817
 21
470.5971502325255
 31
0.0
 11
-7.0000061082319
 21
479.9319781063959
 31
0.0
 11
-7.000000698804797
 21
487.2911558100668
 31
0.0
  0
SPLINE
  5
2C697
330
1E
100
AcDbEntity
  8
DETAIL
100
AcDbSpline
210
0.0
220
0.0
230
1.0
 70
     8
 71
     3
 72
    11
 73
     7
 74
     5
 42
0.0000000001
 43
0.0000000001
 44
0.00000000001
 40
0.0
 40
0.0
 40
0.0
 40
0.0
 40
8.466368861554673
 40
16.90579296266581
 40
26.27286793544128
 40
33.65514411046312
 40
33.65514411046312
 40
33.65514411046312
 40
33.65514411046312
 10
15.99999947270407
 20
453.7500008177731
 30
0.0
 10
15.9999995201033
 20
456.5721237716245
 30
0.0
 10
15.99999961475089
 20
462.2073880925131
 30
0.0
 10
15.99999538557426
 20
470.9650107376594
 30
0.0
 10
15.99999166986657
 20
479.3612691539633
 30
0.0
 10
15.99999697134842
 20
484.9443862032269
 30
0.0
 10
15.99999930797639
 20
487.4051449282332
 30
0.0
 11
15.99999947270407
 21
453.7500008177731
 31
0.0
 11
15.99999890865729
 21
462.2163696793277
 31
0.0
 11
15.99999558872514
 21
470.6557937804382
 31
0.0
 11
15.99999380793451
 21
480.0228687532134
 31
0.0
 11
15.99999930797639
 21
487.4051449282332
 31
0.0
  0
SPLINE
  5
2C699
330
1E
100
AcDbEntity
  8
DETAIL
100
AcDbSpline
210
0.0
220
0.0
230
1.0
 70
     8
 71
     3
 72
    11
 73
     7
 74
     5
 42
0.0000000001
 43
0.0000000001
 44
0.00000000001
 40
0.0
 40
0.0
 40
0.0
 40
0.0
 40
7.373143317878382
 40
16.72739196634427
 40
25.1552874009313
 40
33.6099075754929
 40
33.6099075754929
 40
33.6099075754929
 40
33.6099075754929
 10
7.500000699677912
 20
487.3599089795962
 30
0.0
 10
7.500003005035637
 20
484.9021945403042
 30
0.0
 10
7.500008235182576
 20
479.3263972181912
 30
0.0
 10
7.5000045919179
 20
470.9413014178803
 30
0.0
 10
7.500000393297227
 20
462.1957133320097
 30
0.0
 10
7.500000481574147
 20
456.5682081289598
 30
0.0
 10
7.500000525782525
 20
453.7500014041061
 30
0.0
 11
7.500000699677912
 21
487.3599089795962
 31
0.0
 11
7.50000612889562
 21
479.9867656617197
 31
0.0
 11
7.500004382971383
 21
470.632517013254
 31
0.0
 11
7.500001092856109
 21
462.2046215786676
 31
0.0
 11
7.500000525782525
 21
453.7500014041061
 31
0.0
  0
SPLINE
  5
2C69E
330
1E
100
AcDbEntity
  8
DETAIL
100
AcDbSpline
210
0.0
220
0.0
230
1.0
 70
     8
 71
     3
 72
    11
 73
     7
 74
     5
 42
0.0000000001
 43
0.0000000001
 44
0.00000000001
 40
0.0
 40
0.0
 40
0.0
 40
0.0
 40
7.395892252252705
 40
16.78187384685814
 40
25.23838200461177
 40
33.72216458855402
 40
33.72216458855402
 40
33.72216458855402
 40
33.72216458855402
 10
27.49999929001933
 20
487.4721646194293
 30
0.0
 10
27.49999693478469
 20
485.0068672020129
 30
0.0
 10
27.49999159056807
 20
479.4129092530617
 30
0.0
 10
27.49999538251449
 20
471.0001152515237
 30
0.0
 10
27.49999963004393
 20
462.2246911394245
 30
0.0
 10
27.499999526196
 20
456.5779275588588
 30
0.0
 10
27.49999947418837
 20
453.7500000308782
 30
0.0
 11
27.49999929001933
 21
487.4721646194293
 31
0.0
 11
27.49999375199695
 21
480.0762723671787
 31
0.0
 11
27.49999557695264
 21
470.6902907725734
 31
0.0
 11
27.49999891866901
 21
462.2337826148204
 31
0.0
 11
27.49999947418837
 21
453.7500000308782
 31
0.0
  0
SPLINE
  5
2C69F
330
1E
100
AcDbEntity
  8
DETAIL
100
AcDbSpline
210
0.0
220
0.0
230
1.0
 70
     8
 71
     3
 72
    11
 73
     7
 74
     5
 42
0.0000000001
 43
0.0000000001
 44
0.00000000001
 40
0.0
 40
0.0
 40
0.0
 40
0.0
 40
7.385741702159272
 40
16.75752335176586
 40
25.20123912156407
 40
33.67198210986966
 40
33.67198210986966
 40
33.67198210986966
 40
33.67198210986966
 10
19.00000070404348
 20
487.4219826768085
 30
0.0
 10
19.00000302848775
 20
484.9600687760896
 30
0.0
 10
19.00000830242396
 20
479.3742276588363
 30
0.0
 10
19.00000459054609
 20
470.9738146183138
 30
0.0
 10
19.00000037933841
 20
462.2117344824118
 30
0.0
 10
19.00000047579112
 20
456.5735815630437
 30
0.0
 10
19.0000005240945
 20
453.7500005669417
 30
0.0
 11
19.00000070404348
 21
487.4219826768085
 31
0.0
 11
19.00000617343903
 21
480.0362409746512
 31
0.0
 11
19.00000439017458
 21
470.6644593250448
 31
0.0
 11
19.00000108298991
 21
462.2207435552472
 31
0.0
 11
19.0000005240945
 21
453.7500005669417
 31
0.0
  0
SPLINE
  5
2C6A5
330
1E
100
AcDbEntity
  8
DETAIL
100
AcDbSpline
210
0.0
220
0.0
230
1.0
 70
     8
 71
     3
 72
    11
 73
     7
 74
     5
 42
0.0000000001
 43
0.0000000001
 44
0.00000000001
 40
0.0
 40
0.0
 40
0.0
 40
0.0
 40
7.410899556404124
 40
16.8176359468221
 40
25.29294325096568
 40
33.79589273088213
 40
33.79589273088213
 40
33.79589273088213
 40
33.79589273088213
 10
38.9999993015881
 20
487.5458931863459
 30
0.0
 10
38.99999691376212
 20
485.0755933342123
 30
0.0
 10
38.99999149504242
 20
479.4697146852736
 30
0.0
 10
38.99999537920018
 20
471.0387336016174
 30
0.0
 10
38.99999964715727
 20
462.2437358767919
 30
0.0
 10
38.99999953301255
 20
456.584316948772
 30
0.0
 10
38.99999947584729
 20
453.7500004554667
 30
0.0
 11
38.9999993015881
 21
487.5458931863459
 31
0.0
 11
38.99999369183933
 21
480.1349936299438
 31
0.0
 11
38.99999556276452
 21
470.7282572395261
 31
0.0
 11
38.99999892988853
 21
462.2529499353832
 31
0.0
 11
38.99999947584729
 21
453.7500004554667
 31
0.0
  0
SPLINE
  5
2C6A7
330
1E
100
AcDbEntity
  8
DETAIL
100
AcDbSpline
210
0.0
220
0.0
230
1.0
 70
     8
 71
     3
 72
    11
 73
     7
 74
     5
 42
0.0000000001
 43
0.0000000001
 44
0.00000000001
 40
0.0
 40
0.0
 40
0.0
 40
0.0
 40
8.488613283545436
 40
16.94985989221526
 40
26.3410270027752
 40
33.74075052208645
 40
33.74075052208645
 40
33.74075052208645
 40
33.74075052208645
 10
30.50000052226096
 20
453.7500000058925
 30
0.0
 10
30.50000046928073
 20
456.5795377670743
 30
0.0
 10
30.50000036349092
 20
462.2294910644793
 30
0.0
 10
30.50000459067973
 20
471.0098333987371
 30
0.0
 10
30.50000838092876
 20
479.4272124782515
 30
0.0
 10
30.50000305585888
 20
485.0241760215396
 30
0.0
 10
30.50000070910755
 20
487.4907505279761
 30
0.0
 11
30.50000052226096
 21
453.7500000058925
 31
0.0
 11
30.50000107207597
 21
462.238613289438
 31
0.0
 11
30.50000439980795
 21
470.6998598981072
 31
0.0
 11
30.5000062256804
 21
480.0910270086669
 31
0.0
 11
30.50000070910755
 21
487.4907505279761
 31
0.0
  0
SPLINE
  5
2C6AC
330
1E
100
AcDbEntity
  8
DETAIL
100
AcDbSpline
210
0.0
220
0.0
230
1.0
 70
     8
 71
     3
 72
    11
 73
     7
 74
     5
 42
0.0000000001
 43
0.0000000001
 44
0.00000000001
 40
0.0
 40
0.0
 40
0.0
 40
0.0
 40
7.415101916313054
 40
16.82749876047683
 40
25.30799308760764
 40
33.81623204573702
 40
33.81623204573702
 40
33.81623204573702
 40
33.81623204573702
 10
42.00000071220711
 20
487.5662327423188
 30
0.0
 10
42.00000308556321
 20
485.0945321035485
 30
0.0
 10
42.00000847155087
 20
479.4853658500583
 30
0.0
 10
42.00000459211293
 20
471.0493681541886
 30
0.0
 10
42.00000034557911
 20
462.2489914443812
 30
0.0
 10
42.00000046194555
 20
456.5860803492946
 30
0.0
 10
42.00000052022369
 20
453.7500006965847
 30
0.0
 11
42.00000071220711
 21
487.5662327423188
 31
0.0
 11
42.00000628557609
 21
480.1511308260078
 31
0.0
 11
42.00000441184238
 21
470.7387339818442
 31
0.0
 11
42.00000105995423
 21
462.2582396547141
 31
0.0
 11
42.00000052022369
 21
453.7500006965847
 31
0.0
  0
SPLINE
  5
2C6AD
330
1E
100
AcDbEntity
  8
DETAIL
100
AcDbSpline
210
0.0
220
0.0
230
1.0
 70
     8
 71
     3
 72
    11
 73
     7
 74
     5
 42
0.0000000001
 43
0.0000000001
 44
0.00000000001
 40
0.0
 40
0.0
 40
0.0
 40
0.0
 40
7.42731450606733
 40
16.85664367334048
 40
25.35247260036281
 40
33.87635120423817
 40
33.87635120423817
 40
33.87635120423817
 40
33.87635120423817
 10
50.49999927661701
 20
487.6263525068052
 30
0.0
 10
50.49999685622958
 20
485.1505810047838
 30
0.0
 10
50.49999136304513
 20
479.5316997803388
 30
0.0
 10
50.49999535743189
 20
471.0808755802172
 30
0.0
 10
50.49999966575535
 20
462.2645300141612
 30
0.0
 10
50.4999995392971
 20
456.5912941705282
 30
0.0
 10
50.4999994759637
 20
453.7500013025701
 30
0.0
 11
50.49999927661701
 21
487.6263525068052
 31
0.0
 11
50.49999359752837
 21
480.19903800074
 31
0.0
 11
50.49999553098314
 21
470.7697088334671
 31
0.0
 11
50.49999893886706
 21
462.2738799064454
 31
0.0
 11
50.4999994759637
 21
453.7500013025701
 31
0.0
  0
SPLINE
  5
2C6B2
330
1E
100
AcDbEntity
  8
DETAIL
100
AcDbSpline
210
0.0
220
0.0
230
1.0
 70
     8
 71
     3
 72
    11
 73
     7
 74
     5
 42
0.0000000001
 43
0.0000000001
 44
0.00000000001
 40
0.0
 40
0.0
 40
0.0
 40
0.0
 40
8.546580102323803
 40
17.06466139665351
 40
26.51841273541596
 40
33.96356532654632
 40
33.96356532654632
 40
33.96356532654632
 40
33.96356532654632
 10
61.99999947814649
 20
453.7500014695751
 30
0.0
 10
61.99999954817997
 20
456.5988615036831
 30
0.0
 10
61.9999996880133
 20
462.2870819692344
 30
0.0
 10
61.99999535060022
 20
471.1265528810385
 30
0.0
 10
61.99999124454734
 20
479.5988812891135
 30
0.0
 10
61.99999681556983
 20
485.2318492657423
 30
0.0
 10
61.9999992699959
 20
487.7135667961183
 30
0.0
 11
61.99999947814649
 21
453.7500014695751
 31
0.0
 11
61.99999895305518
 21
462.2965815718989
 31
0.0
 11
61.99999551177461
 21
470.8146628662279
 31
0.0
 11
61.9999935179585
 21
480.2684142049902
 31
0.0
 11
61.9999992699959
 21
487.7135667961183
 31
0.0
  0
SPLINE
  5
2C6B3
330
1E
100
AcDbEntity
  8
DETAIL
100
AcDbSpline
210
0.0
220
0.0
230
1.0
 70
     8
 71
     3
 72
    11
 73
     7
 74
     5
 42
0.0000000001
 43
0.0000000001
 44
0.00000000001
 40
0.0
 40
0.0
 40
0.0
 40
0.0
 40
7.431891102622432
 40
16.86735431142968
 40
25.36882093268952
 40
33.89845036216442
 40
33.89845036216442
 40
33.89845036216442
 40
33.89845036216442
 10
53.50000072415423
 20
487.6484517973358
 30
0.0
 10
53.50000313368628
 20
485.1711547631293
 30
0.0
 10
53.50000860233894
 20
479.5487033259878
 30
0.0
 10
53.50000461067418
 20
471.092429681757
 30
0.0
 10
53.50000032635285
 20
462.2702432619112
 30
0.0
 10
53.50000045518948
 20
456.5932112449993
 30
0.0
 10
53.50000051971438
 20
453.7500014351744
 30
0.0
 11
53.50000072415423
 21
487.6484517973358
 31
0.0
 11
53.50000637585617
 21
480.2165606947155
 31
0.0
 11
53.5000044412227
 21
470.7810974859085
 31
0.0
 11
53.50000104997161
 21
462.2796308646493
 31
0.0
 11
53.50000051971438
 21
453.7500014351744
 31
0.0
  0
SPLINE
  5
2C6B9
330
1E
100
AcDbEntity
  8
DETAIL
100
AcDbSpline
210
0.0
220
0.0
230
1.0
 70
     8
 71
     3
 72
    11
 73
     7
 74
     5
 42
0.0000000001
 43
0.0000000001
 44
0.00000000001
 40
0.0
 40
0.0
 40
0.0
 40
0.0
 40
8.552795058320059
 40
17.07696697409189
 40
26.53732381214741
 40
33.98743117765427
 40
33.98743117765427
 40
33.98743117765427
 40
33.98743117765427
 10
65.00000051713868
 20
453.7500013585586
 30
0.0
 10
65.0000004457869
 20
456.6009330446652
 30
0.0
 10
65.00000030332194
 20
462.2932553693626
 30
0.0
 10
65.00000461508125
 20
471.1390299734104
 30
0.0
 10
65.00000871776467
 20
479.6172420131894
 30
0.0
 10
65.00000317416561
 20
485.2540634143749
 30
0.0
 10
65.00000073186675
 20
487.7374325362097
 30
0.0
 11
65.00000051713868
 21
453.7500013585586
 31
0.0
 11
65.00000103480852
 21
462.3027964168787
 31
0.0
 11
65.00000445821934
 21
470.8269683326498
 31
0.0
 11
65.00000645334512
 21
480.2873251707051
 31
0.0
 11
65.00000073186675
 21
487.7374325362097
 31
0.0
  0
SPLINE
  5
2C6BB
330
1E
100
AcDbEntity
  8
DETAIL
100
AcDbSpline
210
0.0
220
0.0
230
1.0
 70
     8
 71
     3
 72
    11
 73
     7
 74
     5
 42
0.0000000001
 43
0.0000000001
 44
0.00000000001
 40
0.0
 40
0.0
 40
0.0
 40
0.0
 40
8.414105164090889
 40
16.80223019389879
 40
26.11227158009649
 40
33.4537942795023
 40
33.4537942795023
 40
33.4537942795023
 40
33.4537942795023
 10
-164.9999994694444
 20
453.7500000296486
 30
0.0
 10
-164.9999995038821
 20
456.5547017510123
 30
0.0
 10
-164.9999995726513
 20
462.1554451489784
 30
0.0
 10
-164.9999953954119
 20
470.859535675677
 30
0.0
 10
-164.9999919138806
 20
479.2060987141476
 30
0.0
 10
-164.9999970452825
 20
484.7566200760136
 30
0.0
 10
-164.9999993076708
 20
487.2037943091481
 30
0.0
 11
-164.9999994694444
 21
453.7500000296486
 31
0.0
 11
-164.9999988814597
 21
462.1641051937395
 31
0.0
 11
-164.999995626109
 21
470.5522302235467
 31
0.0
 11
-164.9999939680201
 21
479.8622716097443
 31
0.0
 11
-164.9999993076708
 21
487.2037943091481
 31
0.0
  0
SPLINE
  5
2C6BE
330
1E
100
AcDbEntity
  8
DETAIL
100
AcDbSpline
210
0.0
220
0.0
230
1.0
 70
     8
 71
     3
 72
    11
 73
     7
 74
     5
 42
0.0000000001
 43
0.0000000001
 44
0.00000000001
 40
0.0
 40
0.0
 40
0.0
 40
0.0
 40
7.334717565145296
 40
16.63517231113135
 40
25.01470799381329
 40
33.42006593117821
 40
33.42006593117821
 40
33.42006593117821
 40
33.42006593117821
 10
-153.4999993087767
 20
487.1700667572213
 30
0.0
 10
-153.4999970543497
 20
484.7251609021737
 30
0.0
 10
-153.4999919412991
 20
479.1801034651314
 30
0.0
 10
-153.499995390192
 20
470.8418674671929
 30
0.0
 10
-153.4999995653979
 20
462.1467513451832
 30
0.0
 10
-153.4999995006666
 20
456.5517868051674
 30
0.0
 10
-153.4999994682511
 20
453.7500008260458
 30
0.0
 11
-153.4999993087767
 21
487.1700667572213
 31
0.0
 11
-153.4999939853951
 21
479.8353491920779
 31
0.0
 11
-153.4999956257015
 21
470.534894446092
 31
0.0
 11
-153.4999988755516
 21
462.1553587634107
 31
0.0
 11
-153.4999994682511
 21
453.7500008260458
 31
0.0
  0
SPLINE
  5
2C6C1
330
1E
100
AcDbEntity
  8
DETAIL
100
AcDbSpline
210
0.0
220
0.0
230
1.0
 70
     8
 71
     3
 72
    11
 73
     7
 74
     5
 42
0.0000000001
 43
0.0000000001
 44
0.00000000001
 40
0.0
 40
0.0
 40
0.0
 40
0.0
 40
8.398329697636675
 40
16.77096326617239
 40
26.06370662680353
 40
33.39295989413494
 40
33.39295989413494
 40
33.39295989413494
 40
33.39295989413494
 10
-141.9999994669997
 20
453.7500015436298
 30
0.0
 10
-141.9999994978019
 20
456.5494447761754
 30
0.0
 10
-141.9999995593122
 20
462.1397658648993
 30
0.0
 10
-141.9999953836973
 20
470.8276680738335
 30
0.0
 10
-141.9999919574868
 20
479.1592114726666
 30
0.0
 10
-141.9999970648142
 20
484.6998770153191
 30
0.0
 10
-141.9999993168239
 20
487.142961437762
 30
0.0
 11
-141.9999994669997
 21
453.7500015436298
 31
0.0
 11
-141.9999988702111
 21
462.1483312412665
 31
0.0
 11
-141.999995622893
 21
470.5209648098016
 31
0.0
 11
-141.9999939967892
 21
479.8137081704326
 31
0.0
 11
-141.9999993168239
 21
487.142961437762
 31
0.0
  0
SPLINE
  5
2C6D2
330
1E
100
AcDbEntity
  8
DETAIL
100
AcDbSpline
210
0.0
220
0.0
230
1.0
 70
     8
 71
     3
 72
    11
 73
     7
 74
     5
 42
0.0000000001
 43
0.0000000001
 44
0.00000000001
 40
0.0
 40
0.0
 40
0.0
 40
0.0
 40
7.326087852308929
 40
16.61432410026675
 40
24.98293919222764
 40
33.37717729481215
 40
33.37717729481215
 40
33.37717729481215
 40
33.37717729481215
 10
-133.500000693697
 20
487.127178808113
 30
0.0
 10
-133.5000029702327
 20
484.6851495240112
 30
0.0
 10
-133.5000081330291
 20
479.1470414905904
 30
0.0
 10
-133.5000046784556
 20
470.8193950931809
 30
0.0
 10
-133.5000004497409
 20
462.1356986123469
 30
0.0
 10
-133.500000510164
 20
456.5480808808318
 30
0.0
 10
-133.5000005404217
 20
453.7500015133036
 30
0.0
 11
-133.500000693697
 21
487.127178808113
 31
0.0
 11
-133.5000060727688
 21
479.8010909558061
 31
0.0
 11
-133.5000044338012
 21
470.5128547078484
 31
0.0
 11
-133.5000011471347
 21
462.1442396158881
 31
0.0
 11
-133.5000005404217
 21
453.7500015133036
 31
0.0
  0
SPLINE
  5
2C6D5
330
1E
100
AcDbEntity
  8
DETAIL
100
AcDbSpline
210
0.0
220
0.0
230
1.0
 70
     8
 71
     3
 72
    11
 73
     7
 74
     5
 42
0.0000000001
 43
0.0000000001
 44
0.00000000001
 40
0.0
 40
0.0
 40
0.0
 40
0.0
 40
7.322331411802323
 40
16.605286575121
 40
24.96916905173835
 40
33.35858868016928
 40
33.35858868016928
 40
33.35858868016928
 40
33.35858868016928
 10
-118.9999993168821
 20
487.1085891728571
 30
0.0
 10
-118.9999970743012
 20
484.6678120355904
 30
0.0
 10
-118.9999919886669
 20
479.132716510552
 30
0.0
 10
-118.9999953802896
 20
470.8096601599713
 30
0.0
 10
-118.9999995522741
 20
462.1309077371836
 30
0.0
 10
-118.9999994948328
 20
456.5464737021677
 30
0.0
 10
-118.9999994660684
 20
453.7500004926905
 30
0.0
 11
-118.9999993168821
 21
487.1085891728571
 31
0.0
 11
-118.9999940166235
 21
479.7862577610567
 31
0.0
 11
-118.9999956243045
 21
470.5033025977382
 31
0.0
 11
-118.9999988647832
 21
462.1394201211215
 31
0.0
 11
-118.9999994660684
 21
453.7500004926905
 31
0.0
  0
SPLINE
  5
2C6DD
330
1E
100
AcDbEntity
  8
DETAIL
100
AcDbSpline
210
0.0
220
0.0
230
1.0
 70
     8
 71
     3
 72
    11
 73
     7
 74
     5
 42
0.0000000001
 43
0.0000000001
 44
0.00000000001
 40
0.0
 40
0.0
 40
0.0
 40
0.0
 40
8.399997588552672
 40
16.77426915871975
 40
26.0688243914418
 40
33.39939298350053
 40
33.39939298350053
 40
33.39939298350053
 40
33.39939298350053
 10
-145.0000005317924
 20
453.750001426225
 30
0.0
 10
-145.0000005006573
 20
456.5500006224095
 30
0.0
 10
-145.0000004384823
 20
462.1414236753162
 30
0.0
 10
-145.0000046069724
 20
470.8310318057952
 30
0.0
 10
-145.0000080319955
 20
479.1641636041126
 30
0.0
 10
-145.0000029343572
 20
484.7058715457042
 30
0.0
 10
-145.0000006866394
 20
487.1493944097228
 30
0.0
 11
-145.0000005317924
 21
453.750001426225
 31
0.0
 11
-145.000001126602
 21
462.1499990147777
 31
0.0
 11
-145.0000043689287
 21
470.5242705849441
 31
0.0
 11
-145.000005995862
 21
479.818825817666
 31
0.0
 11
-145.0000006866394
 21
487.1493944097228
 31
0.0
  0
SPLINE
  5
2C6E1
330
1E
100
AcDbEntity
  8
DETAIL
100
AcDbSpline
210
0.0
220
0.0
230
1.0
 70
     8
 71
     3
 72
    11
 73
     7
 74
     5
 42
0.0000000001
 43
0.0000000001
 44
0.00000000001
 40
0.0
 40
0.0
 40
0.0
 40
0.0
 40
8.407473972896717
 40
16.78908757049131
 40
26.09183874375673
 40
33.42822589395199
 40
33.42822589395199
 40
33.42822589395199
 40
33.42822589395199
 10
-156.5000005302208
 20
453.7500005709216
 30
0.0
 10
-156.5000004974083
 20
456.5524918952205
 30
0.0
 10
-156.5000004318843
 20
462.1488544187184
 30
0.0
 10
-156.5000045977079
 20
470.8461339999685
 30
0.0
 10
-156.5000080466182
 20
479.1863846403216
 30
0.0
 10
-156.5000029393204
 20
484.7327640814732
 30
0.0
 10
-156.5000006874543
 20
487.1782264648709
 30
0.0
 11
-156.5000005302208
 21
453.7500005709216
 31
0.0
 11
-156.5000011204174
 21
462.1574745438183
 31
0.0
 11
-156.5000043639665
 21
470.5390881414123
 31
0.0
 11
-156.5000060043021
 21
479.8418393146776
 31
0.0
 11
-156.5000006874543
 21
487.1782264648709
 31
0.0
  0
SPLINE
  5
2C6E7
330
1E
100
AcDbEntity
  8
DETAIL
100
AcDbSpline
210
0.0
220
0.0
230
1.0
 70
     8
 71
     3
 72
    11
 73
     7
 74
     5
 42
0.0000000001
 43
0.0000000001
 44
0.00000000001
 40
0.0
 40
0.0
 40
0.0
 40
0.0
 40
7.343547340491683
 40
16.65636937705338
 40
25.0470128773695
 40
33.46368302480096
 40
33.46368302480096
 40
33.46368302480096
 40
33.46368302480096
 10
-168.000000688924
 20
487.2136830316439
 30
0.0
 10
-168.0000029478231
 20
484.7658339181475
 30
0.0
 10
-168.0000080713765
 20
479.2137107924649
 30
0.0
 10
-168.0000045900504
 20
470.8647065000071
 30
0.0
 10
-168.0000004240425
 20
462.1579946052393
 30
0.0
 10
-168.0000004937734
 20
456.5555567226565
 30
0.0
 10
-168.0000005286929
 20
453.7500000068457
 30
0.0
 11
-168.000000688924
 21
487.2136830316439
 31
0.0
 11
-168.000006019698
 21
479.8701356911542
 31
0.0
 11
-168.0000043614345
 21
470.5573136545926
 31
0.0
 11
-168.0000011136653
 21
462.1666701542771
 31
0.0
 11
-168.0000005286929
 21
453.7500000068457
 31
0.0
  0
SPLINE
  5
2C6E9
330
1E
100
AcDbEntity
  8
DETAIL
100
AcDbSpline
210
0.0
220
0.0
230
1.0
 70
     8
 71
     3
 72
    11
 73
     7
 74
     5
 42
0.0000000001
 43
0.0000000001
 44
0.00000000001
 40
0.0
 40
0.0
 40
0.0
 40
0.0
 40
7.349673698716425
 40
16.67117397123576
 40
25.06957829791192
 40
33.4941530605602
 40
33.4941530605602
 40
33.4941530605602
 40
33.4941530605602
 10
-176.49999930591
 20
487.2441535356402
 30
0.0
 10
-176.4999970326567
 20
484.7942623027356
 30
0.0
 10
-176.4999918762645
 20
479.2372043123255
 30
0.0
 10
-176.4999953990054
 20
470.8806782130205
 30
0.0
 10
-176.4999995812721
 20
462.1658517590735
 30
0.0
 10
-176.4999995075541
 20
456.5581920626323
 30
0.0
 10
-176.4999994706377
 20
453.7500004750827
 30
0.0
 11
-176.49999930591
 21
487.2441535356402
 31
0.0
 11
-176.4999939436456
 21
479.8944798369257
 31
0.0
 11
-176.4999956240862
 21
470.5729795644065
 31
0.0
 11
-176.4999988880226
 21
462.174575237731
 31
0.0
 11
-176.4999994706377
 21
453.7500004750827
 31
0.0
  0
SPLINE
  5
2C6EE
330
1E
100
AcDbEntity
  8
DETAIL
100
AcDbSpline
210
0.0
220
0.0
230
1.0
 70
     8
 71
     3
 72
    11
 73
     7
 74
     5
 42
0.0000000001
 43
0.0000000001
 44
0.00000000001
 40
0.0
 40
0.0
 40
0.0
 40
0.0
 40
8.436771428867379
 40
16.84714888558731
 40
26.18197709763708
 40
33.54115445935448
 40
33.54115445935448
 40
33.54115445935448
 40
33.54115445935448
 10
-187.9999994700992
 20
453.7500013506132
 30
0.0
 10
-187.9999995100508
 20
456.5622584935693
 30
0.0
 10
-187.9999995898288
 20
462.1779747887654
 30
0.0
 10
-187.9999953860892
 20
470.9053004879765
 30
0.0
 10
-187.9999917992245
 20
479.2734281648058
 30
0.0
 10
-187.9999970136402
 20
484.8380966893933
 30
0.0
 10
-187.9999993122983
 20
487.2911558099649
 30
0.0
 11
-187.9999994700992
 21
453.7500013506132
 31
0.0
 11
-187.9999988915878
 21
462.1867727794806
 31
0.0
 11
-187.9999956049941
 21
470.5971502361999
 31
0.0
 11
-187.9999938931505
 21
479.9319784482495
 31
0.0
 11
-187.9999993122983
 21
487.2911558099649
 31
0.0
  0
SPLINE
  5
2C6F3
330
1E
100
AcDbEntity
  8
DETAIL
100
AcDbSpline
210
0.0
220
0.0
230
1.0
 70
     8
 71
     3
 72
    11
 73
     7
 74
     5
 42
0.0000000001
 43
0.0000000001
 44
0.00000000001
 40
0.0
 40
0.0
 40
0.0
 40
0.0
 40
7.352055351040818
 40
16.67681930668396
 40
25.07818354766914
 40
33.50577332757077
 40
33.50577332757077
 40
33.50577332757077
 40
33.50577332757077
 10
-179.5000006910777
 20
487.2557740520996
 30
0.0
 10
-179.5000029599086
 20
484.8050889350868
 30
0.0
 10
-179.5000081063447
 20
479.2461491661938
 30
0.0
 10
-179.5000045840166
 20
470.8867546503033
 30
0.0
 10
-179.5000004148301
 20
462.1688486581286
 30
0.0
 10
-179.5000004896908
 20
456.5591973178324
 30
0.0
 10
-179.5000005271795
 20
453.7500007245316
 30
0.0
 11
-179.5000006910777
 21
487.2557740520996
 31
0.0
 11
-179.500006042108
 21
479.9037187010608
 31
0.0
 11
-179.5000043613326
 21
470.5789547454178
 31
0.0
 11
-179.5000011062584
 21
462.1775905044333
 31
0.0
 11
-179.5000005271795
 21
453.7500007245316
 31
0.0
  0
SPLINE
  5
2C6F6
330
1E
100
AcDbEntity
  8
DETAIL
100
AcDbSpline
210
0.0
220
0.0
230
1.0
 70
     8
 71
     3
 72
    11
 73
     7
 74
     5
 42
0.0000000001
 43
0.0000000001
 44
0.00000000001
 40
0.0
 40
0.0
 40
0.0
 40
0.0
 40
7.361917942473313
 40
16.70049206671169
 40
25.11427204378837
 40
33.5545099227848
 40
33.5545099227848
 40
33.5545099227848
 40
33.5545099227848
 10
-191.0000006968694
 20
487.3045114104233
 30
0.0
 10
-191.0000029859676
 20
484.8505387629334
 30
0.0
 10
-191.0000081787811
 20
479.2837080740314
 30
0.0
 10
-191.0000045948353
 20
470.9122840594341
 30
0.0
 10
-191.0000004055202
 20
462.1814200659982
 30
0.0
 10
-191.00000048671
 20
456.5634141139735
 30
0.0
 10
-191.0000005273687
 20
453.7500014876413
 30
0.0
 11
-191.0000006968694
 21
487.3045114104233
 31
0.0
 11
-191.0000060919628
 21
479.942593467952
 31
0.0
 11
-191.0000043781838
 21
470.6040193437138
 31
0.0
 11
-191.0000011017909
 21
462.1902393666378
 31
0.0
 11
-191.0000005273687
 21
453.7500014876413
 31
0.0
  0
SPLINE
  5
2C799
330
1E
100
AcDbEntity
  8
DETAIL
100
AcDbSpline
210
0.0
220
0.0
230
1.0
 70
     8
 71
     3
 72
    11
 73
     7
 74
     5
 42
0.0000000001
 43
0.0000000001
 44
0.00000000001
 40
0.0
 40
0.0
 40
0.0
 40
0.0
 40
8.440237880953665
 40
16.8540178599803
 40
26.19259215696446
 40
33.55450993056281
 40
33.55450993056281
 40
33.55450993056281
 40
33.55450993056281
 10
-3.999999472616764
 20
453.7500014798633
 30
0.0
 10
-3.999999513275383
 20
456.563414106848
 30
0.0
 10
-3.99999959446518
 20
462.1814200601749
 30
0.0
 10
-3.999995405150116
 20
470.9122841124947
 30
0.0
 10
-3.999991821204389
 20
479.2837081290326
 30
0.0
 10
-3.999997014017822
 20
484.850538819225
 30
0.0
 10
-3.999999303116055
 20
487.3045114104233
 30
0.0
 11
-3.999999472616764
 21
453.7500014798633
 31
0.0
 11
-3.999998898194462
 21
462.190239360817
 31
0.0
 11
-3.999995621801645
 21
470.604019339843
 31
0.0
 11
-3.999993908022588
 21
479.942593636827
 31
0.0
 11
-3.999999303116055
 21
487.3045114104233
 31
0.0
  0
SPLINE
  5
2C79A
330
1E
100
AcDbEntity
  8
DETAIL
100
AcDbSpline
210
0.0
220
0.0
230
1.0
 70
     8
 71
     3
 72
    11
 73
     7
 74
     5
 42
0.0000000001
 43
0.0000000001
 44
0.00000000001
 40
0.0
 40
0.0
 40
0.0
 40
0.0
 40
8.450700741101192
 40
16.87474977599116
 40
26.22477112688003
 40
33.59481296441947
 40
33.59481296441947
 40
33.59481296441947
 40
33.59481296441947
 10
4.499999471365299
 20
453.7500015172035
 30
0.0
 10
4.499999514795604
 20
456.5669017642376
 30
0.0
 10
4.499999601519334
 20
462.1918183562347
 30
0.0
 10
4.499995386139573
 20
470.9334087318596
 30
0.0
 10
4.499991741858025
 20
479.3147794729675
 30
0.0
 10
4.499996986407325
 20
484.8881338691078
 30
0.0
 10
4.499999298153852
 20
487.3448144816202
 30
0.0
 11
4.499999471365299
 21
453.7500015172035
 31
0.0
 11
4.499998899649654
 21
462.2007022583047
 31
0.0
 11
4.499995598082023
 21
470.624751293194
 31
0.0
 11
4.499993852754414
 21
479.9747726440828
 31
0.0
 11
4.499999298153852
 21
487.3448144816202
 31
0.0
  0
SPLINE
  5
2C7B3
330
1E
100
AcDbEntity
  8
DETAIL
100
AcDbSpline
210
0.0
220
0.0
230
1.0
 70
     8
 71
     3
 72
    11
 73
     7
 74
     5
 42
0.0000000001
 43
0.0000000001
 44
0.00000000001
 40
0.0
 40
0.0
 40
0.0
 40
0.0
 40
8.571064964344273
 40
17.11313825252072
 40
26.59313071785531
 40
34.05756192955919
 40
34.05756192955919
 40
34.05756192955919
 40
34.05756192955919
 10
73.49999948066397
 20
453.750000785897
 30
0.0
 10
73.4999995581947
 20
456.6070224406785
 30
0.0
 10
73.49999971299382
 20
462.3114018581855
 30
0.0
 10
73.49999534329964
 20
471.1757787641361
 30
0.0
 10
73.49999110925421
 20
479.6712777525417
 30
0.0
 10
73.49999678529321
 20
485.3194189782193
 30
0.0
 10
73.49999928572652
 20
487.807562715453
 30
0.0
 11
73.49999948066397
 21
453.750000785897
 31
0.0
 11
73.49999896904773
 21
462.3210657502413
 31
0.0
 11
73.49999549007771
 21
470.863139038417
 31
0.0
 11
73.49999343220407
 21
480.3431315037514
 31
0.0
 11
73.49999928572652
 21
487.807562715453
 31
0.0
  0
SPLINE
  5
2C7BE
330
1E
100
AcDbEntity
  8
DETAIL
100
AcDbSpline
210
0.0
220
0.0
230
1.0
 70
     8
 71
     3
 72
    11
 73
     7
 74
     5
 42
0.0000000001
 43
0.0000000001
 44
0.00000000001
 40
0.0
 40
0.0
 40
0.0
 40
0.0
 40
8.729779340501417
 40
17.42714734435948
 40
27.07443403156617
 40
34.66503192543695
 40
34.66503192543695
 40
34.66503192543695
 40
34.66503192543695
 10
134.000000494263
 20
453.7500004902385
 30
0.0
 10
134.0000003587519
 20
456.6599269370724
 30
0.0
 10
134.0000000882324
 20
462.4689760518588
 30
0.0
 10
134.0000046820717
 20
471.4937873957133
 30
0.0
 10
134.0000097543278
 20
480.1388715906928
 30
0.0
 10
134.0000035177972
 20
485.8848331177159
 30
0.0
 10
134.0000007715789
 20
488.4150324156717
 30
0.0
 11
134.000000494263
 21
453.7500004902385
 31
0.0
 11
134.0000008975985
 21
462.4797798307399
 31
0.0
 11
134.0000046276909
 21
471.1771478345972
 31
0.0
 11
134.0000071472531
 21
480.8244345218035
 31
0.0
 11
134.0000007715789
 21
488.4150324156717
 31
0.0
  0
SPLINE
  5
2C7E3
330
1E
100
AcDbEntity
  8
DETAIL
100
AcDbSpline
210
0.0
220
0.0
230
1.0
 70
     8
 71
     3
 72
    11
 73
     7
 74
     5
 42
0.0000000001
 43
0.0000000001
 44
0.00000000001
 40
0.0
 40
0.0
 40
0.0
 40
0.0
 40
8.663449863815925
 40
17.29596629565715
 40
26.87390322252134
 40
34.41155712373789
 40
34.41155712373789
 40
34.41155712373789
 40
34.41155712373789
 10
111.0000005028487
 20
453.7500013768794
 30
0.0
 10
111.000000394386
 20
456.6378179981516
 30
0.0
 10
111.0000001778479
 20
462.4031400967039
 30
0.0
 10
111.0000046443989
 20
471.3611078375434
 30
0.0
 10
111.0000093232196
 20
479.9438102575177
 30
0.0
 10
111.0000033702747
 20
485.6490072002093
 30
0.0
 10
111.000000748616
 20
488.1615585006138
 30
0.0
 11
111.0000005028487
 21
453.7500013768794
 31
0.0
 11
111.0000009530267
 21
462.4134512406953
 31
0.0
 11
111.0000045507404
 21
471.0459676725358
 31
0.0
 11
111.0000068558074
 21
480.6239045993997
 31
0.0
 11
111.000000748616
 21
488.1615585006138
 31
0.0
  0
SPLINE
  5
2C7F6
330
1E
100
AcDbEntity
  8
DETAIL
100
AcDbSpline
210
0.0
220
0.0
230
1.0
 70
     8
 71
     3
 72
    11
 73
     7
 74
     5
 42
0.0000000001
 43
0.0000000001
 44
0.00000000001
 40
0.0
 40
0.0
 40
0.0
 40
0.0
 40
8.655345024664724
 40
17.27993239022985
 40
26.84941582030401
 40
34.38054493175506
 40
34.38054493175506
 40
34.38054493175506
 40
34.38054493175506
 10
107.9999994908794
 20
453.7500012540103
 30
0.0
 10
107.9999995973637
 20
456.6351162622318
 30
0.0
 10
107.999999809954
 20
462.395093725642
 30
0.0
 10
107.9999953116886
 20
471.3448989990752
 30
0.0
 10
107.9999906247198
 20
479.9199656347732
 30
0.0
 10
107.9999966253379
 20
485.6201698152792
 30
0.0
 10
107.9999992680168
 20
488.1305461857619
 30
0.0
 11
107.9999994908794
 21
453.7500012540103
 31
0.0
 11
107.9999990306605
 21
462.4053462786751
 31
0.0
 11
107.9999954100712
 21
471.0299336442394
 31
0.0
 11
107.9999931081038
 21
480.5994170743133
 31
0.0
 11
107.9999992680168
 21
488.1305461857619
 31
0.0
  0
SPLINE
  5
2C7F7
330
1E
100
AcDbEntity
  8
DETAIL
100
AcDbSpline
210
0.0
220
0.0
230
1.0
 70
     8
 71
     3
 72
    11
 73
     7
 74
     5
 42
0.0000000001
 43
0.0000000001
 44
0.00000000001
 40
0.0
 40
0.0
 40
0.0
 40
0.0
 40
8.633060093852705
 40
17.2358400952589
 40
26.78170908701694
 40
34.29523045559143
 40
34.29523045559143
 40
34.29523045559143
 40
34.29523045559143
 10
99.50000055025885
 20
453.7500006791951
 30
0.0
 10
99.50000044454515
 20
456.6276873771462
 30
0.0
 10
99.50000023348838
 20
462.3729674088999
 30
0.0
 10
99.50000502913617
 20
471.300203771236
 30
0.0
 10
99.50000992750359
 20
479.8542605584841
 30
0.0
 10
99.50000359267313
 20
485.5407240119254
 30
0.0
 10
99.50000080260361
 20
488.0452311347826
 30
0.0
 11
99.50000055025885
 21
453.7500006791951
 31
0.0
 11
99.50000106036169
 21
462.3830607730479
 31
0.0
 11
99.50000490844104
 21
470.9858407744532
 31
0.0
 11
99.50000731231558
 21
480.531709766211
 31
0.0
 11
99.50000080260361
 21
488.0452311347826
 31
0.0
  0
SPLINE
  5
2C7FD
330
1E
100
AcDbEntity
  8
DETAIL
100
AcDbSpline
210
0.0
220
0.0
230
1.0
 70
     8
 71
     3
 72
    11
 73
     7
 74
     5
 42
0.0000000001
 43
0.0000000001
 44
0.00000000001
 40
0.0
 40
0.0
 40
0.0
 40
0.0
 40
8.604497598942558
 40
17.17931598032082
 40
26.69489208093824
 40
34.18579093137996
 40
34.18579093137996
 40
34.18579093137996
 40
34.18579093137996
 10
88.00000051091046
 20
453.7500000074714
 30
0.0
 10
88.00000042320107
 20
456.6181658737857
 30
0.0
 10
88.00000024808497
 20
462.3446045338928
 30
0.0
 10
88.00000462776518
 20
471.2429018942045
 30
0.0
 10
88.00000898918062
 20
479.7699996716846
 30
0.0
 10
88.00000326958832
 20
485.4388246553687
 30
0.0
 10
88.00000075026037
 20
487.9357909388481
 30
0.0
 11
88.00000051091046
 21
453.7500000074714
 31
0.0
 11
88.00000099877797
 21
462.354497606414
 31
0.0
 11
88.00000449954678
 21
470.9293159877915
 31
0.0
 11
88.00000663600076
 21
480.4448920884087
 31
0.0
 11
88.00000075026037
 21
487.9357909388481
 31
0.0
  0
SPLINE
  5
2C805
330
1E
100
AcDbEntity
  8
DETAIL
100
AcDbSpline
210
0.0
220
0.0
230
1.0
 70
     8
 71
     3
 72
    11
 73
     7
 74
     5
 42
0.0000000001
 43
0.0000000001
 44
0.00000000001
 40
0.0
 40
0.0
 40
0.0
 40
0.0
 40
7.507392313188703
 40
17.04526990036854
 40
25.64058507504199
 40
34.26601856736347
 40
34.26601856736347
 40
34.26601856736347
 40
34.26601856736347
 10
96.49999919121183
 20
488.0160190150554
 30
0.0
 10
96.49999638509445
 20
485.5135549106603
 30
0.0
 10
96.49999001390376
 20
479.8317982772069
 30
0.0
 10
96.4999949205149
 20
471.2849365855249
 30
0.0
 10
96.49999975429341
 20
462.3653945008018
 30
0.0
 10
96.49999954681021
 20
456.6251449451367
 30
0.0
 10
96.49999944288721
 20
453.750000447696
 30
0.0
 11
96.49999919121183
 21
488.0160190150554
 31
0.0
 11
96.49999264152576
 21
480.5086267018696
 31
0.0
 11
96.49999504711741
 21
470.97074911469
 31
0.0
 11
96.49999892217602
 21
462.3754339400175
 31
0.0
 11
96.49999944288721
 21
453.750000447696
 31
0.0
  0
SPLINE
  5
2C82A
330
1E
100
AcDbEntity
  8
DETAIL
100
AcDbSpline
210
0.0
220
0.0
230
1.0
 70
     8
 71
     3
 72
    11
 73
     7
 74
     5
 42
0.0000000001
 43
0.0000000001
 44
0.00000000001
 40
0.0
 40
0.0
 40
0.0
 40
0.0
 40
7.325125711571832
 40
16.61203526651873
 40
24.97945172350141
 40
33.37246940762549
 40
33.37246940762549
 40
33.37246940762549
 40
33.37246940762549
 10
-130.4999993054443
 20
487.1224707843566
 30
0.0
 10
-130.4999970268564
 20
484.6807622138335
 30
0.0
 10
-130.4999918594389
 20
479.1434171249959
 30
0.0
 10
-130.4999953143517
 20
470.816933217161
 30
0.0
 10
-130.4999995486347
 20
462.1344853184782
 30
0.0
 10
-130.4999994886927
 20
456.5476739381089
 30
0.0
 10
-130.499999458676
 20
453.7500013767339
 30
0.0
 11
-130.4999993054443
 21
487.1224707843566
 31
0.0
 11
-130.4999939211775
 21
479.7973450727868
 31
0.0
 11
-130.4999955599996
 21
470.51043551784
 31
0.0
 11
-130.4999988504641
 21
462.143019060858
 31
0.0
 11
-130.499999458676
 21
453.7500013767339
 31
0.0
  0
SPLINE
  5
2C834
330
1E
100
AcDbEntity
  8
DETAIL
100
AcDbSpline
210
0.0
220
0.0
230
1.0
 70
     8
 71
     3
 72
    11
 73
     7
 74
     5
 42
0.0000000001
 43
0.0000000001
 44
0.00000000001
 40
0.0
 40
0.0
 40
0.0
 40
0.0
 40
8.390193119477793
 40
16.75483531873825
 40
26.03863168397298
 40
33.36157278769221
 40
33.36157278769221
 40
33.36157278769221
 40
33.36157278769221
 10
-122.0000005333786
 20
453.7500007459303
 30
0.0
 10
-122.0000005044667
 20
456.5467317857565
 30
0.0
 10
-122.0000004467311
 20
462.1316768920025
 30
0.0
 10
-122.00000461531
 20
470.811220786659
 30
0.0
 10
-122.0000080066005
 20
479.1350140093977
 30
0.0
 10
-122.000002924537
 20
484.670593165714
 30
0.0
 10
-122.0000006835398
 20
487.1115735336197
 30
0.0
 11
-122.0000005333786
 21
453.7500007459303
 31
0.0
 11
-122.000001133747
 21
462.140193865408
 31
0.0
 11
-122.0000043718828
 21
470.5048360646678
 31
0.0
 11
-122.0000059797966
 21
479.7886324299025
 31
0.0
 11
-122.0000006835398
 21
487.1115735336197
 31
0.0
  0
SPLINE
  5
2C93F
330
1E
100
AcDbEntity
  8
DETAIL
100
AcDbSpline
210
0.0
220
0.0
230
1.0
 70
     8
 71
     3
 72
    11
 73
     7
 74
     5
 42
0.0000000001
 43
0.0000000001
 44
0.00000000001
 40
0.0
 40
0.0
 40
0.0
 40
0.0
 40
7.370042035525527
 40
16.72006316187107
 40
25.14411219498571
 40
33.59481293432612
 40
33.59481293432612
 40
33.59481293432612
 40
33.59481293432612
 10
-199.4999993043384
 20
487.3448144585409
 30
0.0
 10
-199.4999969904196
 20
484.888133780033
 30
0.0
 10
-199.4999917409423
 20
479.3147793927442
 30
0.0
 10
-199.4999953863535
 20
470.9334086610822
 30
0.0
 10
-199.4999996014715
 20
462.1918183614829
 30
0.0
 10
-199.4999995147699
 20
456.5669017706641
 30
0.0
 10
-199.4999994713507
 20
453.7500015242176
 30
0.0
 11
-199.4999993043384
 21
487.3448144585409
 31
0.0
 11
-199.4999938535256
 21
479.9747724230173
 31
0.0
 11
-199.4999955980674
 21
470.624751296672
 31
0.0
 11
-199.4999988996496
 21
462.200702263558
 31
0.0
 11
-199.4999994713507
 21
453.7500015242176
 31
0.0
  0
SPLINE
  5
2C96E
330
1E
100
AcDbEntity
  8
DETAIL
100
AcDbSpline
210
0.0
220
0.0
230
1.0
 70
     8
 71
     3
 72
    11
 73
     7
 74
     5
 42
0.0000000001
 43
0.0000000001
 44
0.00000000001
 40
0.0
 40
0.0
 40
0.0
 40
0.0
 40
8.454620173011809
 40
16.88251560604906
 40
26.23676399525075
 40
33.60990756936653
 40
33.60990756936653
 40
33.60990756936653
 40
33.60990756936653
 10
-202.500000525797
 20
453.7500014102325
 30
0.0
 10
-202.5000004815821
 20
456.5682081345698
 30
0.0
 10
-202.5000003932921
 20
462.1957133365863
 30
0.0
 10
-202.5000045919244
 20
470.941301335002
 30
0.0
 10
-202.5000082351617
 20
479.3263971337878
 30
0.0
 10
-202.5000030050697
 20
484.9021944548915
 30
0.0
 10
-202.5000006997361
 20
487.3599089795962
 30
0.0
 11
-202.500000525797
 21
453.7500014102325
 31
0.0
 11
-202.5000010928561
 21
462.2046215832442
 31
0.0
 11
-202.5000043829713
 21
470.6325170162808
 31
0.0
 11
-202.5000061288956
 21
479.9867654054824
 31
0.0
 11
-202.5000006997361
 21
487.3599089795962
 31
0.0
  0
SPLINE
  5
2C987
330
1E
100
AcDbEntity
  8
DETAIL
100
AcDbSpline
210
0.0
220
0.0
230
1.0
 70
     8
 71
     3
 72
    11
 73
     7
 74
     5
 42
0.0000000001
 43
0.0000000001
 44
0.00000000001
 40
0.0
 40
0.0
 40
0.0
 40
0.0
 40
7.382276690348819
 40
16.74935114646581
 40
25.18877524690029
 40
33.6551441077783
 40
33.6551441077783
 40
33.6551441077783
 40
33.6551441077783
 10
-210.9999993079618
 20
487.4051449282332
 30
0.0
 10
-210.9999969713323
 20
484.9443860314513
 30
0.0
 10
-210.9999916698474
 20
479.3612689826311
 30
0.0
 10
-210.9999953855849
 20
470.9650105669966
 30
0.0
 10
-210.9999996147303
 20
462.207388094522
 30
0.0
 10
-210.9999995200867
 20
456.5721237740838
 30
0.0
 10
-210.9999994726895
 20
453.7500008204578
 30
0.0
 11
-210.9999993079618
 21
487.4051449282332
 31
0.0
 11
-210.9999938079199
 21
480.0228682378865
 31
0.0
 11
-210.9999955887251
 21
470.6557937817697
 31
0.0
 11
-210.9999989086427
 21
462.2163696813358
 31
0.0
 11
-210.9999994726895
 21
453.7500008204578
 31
0.0
  0
SPLINE
  5
2CB38
330
1E
100
AcDbEntity
  8
DETAIL
100
AcDbSpline
210
0.0
220
0.0
230
1.0
 70
     8
 71
     3
 72
    11
 73
     7
 74
     5
 42
0.0000000001
 43
0.0000000001
 44
0.00000000001
 40
0.0
 40
0.0
 40
0.0
 40
0.0
 40
7.563340162635866
 40
17.17508581181369
 40
25.8391268004241
 40
34.53481039742909
 40
34.53481039742909
 40
34.53481039742909
 40
34.53481039742909
 10
122.5000008584829
 20
488.2848116803061
 30
0.0
 10
122.5000037818626
 20
485.7636982927622
 30
0.0
 10
122.500010420371
 20
480.0386696888272
 30
0.0
 10
122.500005101647
 20
471.4256274220178
 30
0.0
 10
122.5000001484198
 20
462.4351373437548
 30
0.0
 10
122.5000004131151
 20
456.6485624818833
 30
0.0
 10
122.500000545704
 20
453.7500012828814
 30
0.0
 11
122.5000008584829
 21
488.2848116803061
 31
0.0
 11
122.5000076556825
 21
480.7214715176733
 31
0.0
 11
122.5000050187591
 21
471.1097258684958
 31
0.0
 11
122.5000010142757
 21
462.4456848798863
 31
0.0
 11
122.500000545704
 21
453.7500012828814
 31
0.0
  0
SPLINE
  5
2CB42
330
1E
100
AcDbEntity
  8
DETAIL
100
AcDbSpline
210
0.0
220
0.0
230
1.0
 70
     8
 71
     3
 72
    11
 73
     7
 74
     5
 42
0.0000000001
 43
0.0000000001
 44
0.00000000001
 40
0.0
 40
0.0
 40
0.0
 40
0.0
 40
7.583244022399417
 40
17.22118315427666
 40
25.90968265758079
 40
34.63038687753238
 40
34.63038687753238
 40
34.63038687753238
 40
34.63038687753238
 10
130.9999992502052
 20
488.3803876014853
 30
0.0
 10
130.999996478932
 20
485.8526395940202
 30
0.0
 10
130.9999901855036
 20
480.1122452092638
 30
0.0
 10
130.999995268635
 20
471.4756843234018
 30
0.0
 10
130.9999998974272
 20
462.45997003836
 30
0.0
 10
130.9999996317203
 20
456.6569021306077
 30
0.0
 10
130.999999498621
 20
453.7500007239568
 30
0.0
 11
130.9999992502052
 21
488.3803876014853
 31
0.0
 11
130.9999928118122
 21
480.7971435790887
 31
0.0
 11
130.9999953279402
 21
471.1592044472117
 31
0.0
 11
130.999999083644
 21
462.4707049439084
 31
0.0
 11
130.999999498621
 21
453.7500007239568
 31
0.0
  0
SPLINE
  5
2CB47
330
1E
100
AcDbEntity
  8
DETAIL
100
AcDbSpline
210
0.0
220
0.0
230
1.0
 70
     8
 71
     3
 72
    11
 73
     7
 74
     5
 42
0.0000000001
 43
0.0000000001
 44
0.00000000001
 40
0.0
 40
0.0
 40
0.0
 40
0.0
 40
8.577747064337032
 40
17.12636632474531
 40
26.61343239766668
 40
34.08320169884565
 40
34.08320169884565
 40
34.08320169884565
 40
34.08320169884565
 10
76.5000005142283
 20
453.7500005417959
 30
0.0
 10
76.50000043523618
 20
456.6092495632419
 30
0.0
 10
76.50000027752003
 20
462.3180383381573
 30
0.0
 10
76.5000046201593
 20
471.1891824707111
 30
0.0
 10
76.50000884893086
 20
479.6910006822149
 30
0.0
 10
76.50000320889012
 20
485.3432791402463
 30
0.0
 10
76.50000072435796
 20
487.8332022406384
 30
0.0
 11
76.5000005142283
 21
453.7500005417959
 31
0.0
 11
76.50000101784098
 21
462.327747606133
 31
0.0
 11
76.50000447766069
 21
470.8763668665405
 31
0.0
 11
76.5000065379063
 21
480.3634329394617
 31
0.0
 11
76.50000072435796
 21
487.8332022406384
 31
0.0
  0
SPLINE
  5
2CB49
330
1E
100
AcDbEntity
  8
DETAIL
100
AcDbSpline
210
0.0
220
0.0
230
1.0
 70
     8
 71
     3
 72
    11
 73
     7
 74
     5
 42
0.0000000001
 43
0.0000000001
 44
0.00000000001
 40
0.0
 40
0.0
 40
0.0
 40
0.0
 40
8.597345090463946
 40
17.16515954346033
 40
26.67319743234937
 40
34.15836946658569
 40
34.15836946658569
 40
34.15836946658569
 40
34.15836946658569
 10
84.99999948360345
 20
453.7500000264617
 30
0.0
 10
84.99999956972045
 20
456.6157817232833
 30
0.0
 10
84.99999974165859
 20
462.3375015711035
 30
0.0
 10
84.9999953329716
 20
471.2285673818849
 30
0.0
 10
84.99999096677447
 20
479.7489088405937
 30
0.0
 10
84.9999967200984
 20
485.4133121482996
 30
0.0
 10
84.99999925432348
 20
487.9083694930441
 30
0.0
 11
84.99999948360345
 21
453.7500000264617
 31
0.0
 11
84.9999989870921
 21
462.3473451169257
 31
0.0
 11
84.99999546592153
 21
470.9151595699213
 31
0.0
 11
84.9999933311119
 21
480.4231974588101
 31
0.0
 11
84.99999925432348
 21
487.9083694930441
 31
0.0
  0
SPLINE
  5
2CB64
330
1E
100
AcDbEntity
  8
DETAIL
100
AcDbSpline
210
0.0
220
0.0
230
1.0
 70
     8
 71
     3
 72
    11
 73
     7
 74
     5
 42
0.0000000001
 43
0.0000000001
 44
0.00000000001
 40
0.0
 40
0.0
 40
0.0
 40
0.0
 40
7.341522871918767
 40
16.6515640649689
 40
25.03968909470404
 40
33.45379425872944
 40
33.45379425872944
 40
33.45379425872944
 40
33.45379425872944
 10
-30.00000068674125
 20
487.203794288659
 30
0.0
 10
-30.0000029510868
 20
484.7566199980201
 30
0.0
 10
-30.00000808692806
 20
479.2060986430326
 30
0.0
 10
-30.00000460435979
 20
470.859535611463
 30
0.0
 10
-30.0000004273819
 20
462.1554451491947
 30
0.0
 10
-30.00000049612884
 20
456.5547017512742
 30
0.0
 10
-30.00000053055555
 20
453.7500000299323
 30
0.0
 11
-30.00000068674125
 21
487.203794288659
 31
0.0
 11
-30.00000603126682
 21
479.8622714167422
 31
0.0
 11
-30.00000437387643
 21
470.5522302236922
 31
0.0
 11
-30.00000111852568
 21
462.1641051939577
 31
0.0
 11
-30.00000053055555
 21
453.7500000299323
 31
0.0
  0
SPLINE
  5
2CB98
330
1E
100
AcDbEntity
  8
DETAIL
100
AcDbSpline
210
0.0
220
0.0
230
1.0
 70
     8
 71
     3
 72
    11
 73
     7
 74
     5
 42
0.0000000001
 43
0.0000000001
 44
0.00000000001
 40
0.0
 40
0.0
 40
0.0
 40
0.0
 40
7.3363868900725
 40
16.63913830273875
 40
25.02075190032607
 40
33.42822587323734
 40
33.42822587323734
 40
33.42822587323734
 40
33.42822587323734
 10
-38.4999993156307
 20
487.1782264441853
 30
0.0
 10
-38.49999706267652
 20
484.7327641474953
 30
0.0
 10
-38.49999195291121
 20
479.1863847132512
 30
0.0
 10
-38.49999540242134
 20
470.8461340798073
 30
0.0
 10
-38.49999956806311
 20
462.148854418755
 30
0.0
 10
-38.4999995025741
 20
456.5524918952548
 30
0.0
 10
-38.49999946977914
 20
453.7500005709508
 30
0.0
 11
-38.4999993156307
 21
487.1782264441853
 31
0.0
 11
-38.49999399607622
 21
479.8418395541148
 31
0.0
 11
-38.49999563603342
 21
470.5390881414486
 31
0.0
 11
-38.49999887956801
 21
462.157474543862
 31
0.0
 11
-38.49999946977914
 21
453.7500005709508
 31
0.0
  0
SPLINE
  5
2CBC9
330
1E
100
AcDbEntity
  8
DETAIL
100
AcDbSpline
210
0.0
220
0.0
230
1.0
 70
     8
 71
     3
 72
    11
 73
     7
 74
     5
 42
0.0000000001
 43
0.0000000001
 44
0.00000000001
 40
0.0
 40
0.0
 40
0.0
 40
0.0
 40
8.387860750583081
 40
16.75021205454752
 40
26.03144837059597
 40
33.35257433681817
 40
33.35257433681817
 40
33.35257433681817
 40
33.35257433681817
 10
-84.49987054443772
 20
453.7500000090212
 30
0.0
 10
-84.49987057299926
 20
456.5459535925493
 30
0.0
 10
-84.49987063003545
 20
462.1293576107318
 30
0.0
 10
-84.49986643656291
 20
470.8065070675955
 30
0.0
 10
-84.49986303324653
 20
479.1280782630081
 30
0.0
 10
-84.49986814129227
 20
484.6621990237633
 30
0.0
 10
-84.49987039378175
 20
487.1025743458367
 30
0.0
 11
-84.49987054443772
 21
453.7500000090212
 31
0.0
 11
-84.49986993917992
 21
462.1378607596043
 31
0.0
 11
-84.49986668275233
 21
470.5002120635681
 31
0.0
 11
-84.49986506970162
 21
479.7814483796164
 31
0.0
 11
-84.49987039378175
 21
487.1025743458367
 31
0.0
  0
SPLINE
  5
2CBCD
330
1E
100
AcDbEntity
  8
DETAIL
100
AcDbSpline
210
0.0
220
0.0
230
1.0
 70
     8
 71
     3
 72
    11
 73
     7
 74
     5
 42
0.0000000001
 43
0.0000000001
 44
0.00000000001
 40
0.0
 40
0.0
 40
0.0
 40
0.0
 40
8.389419628671042
 40
16.75330210552848
 40
26.03625654910944
 40
33.35858868114426
 40
33.35858868114426
 40
33.35858868114426
 40
33.35858868114426
 10
-76.00000053391704
 20
453.7500004917156
 30
0.0
 10
-76.00000050515245
 20
456.5464737012728
 30
0.0
 10
-76.00000044771087
 20
462.130907736449
 30
0.0
 10
-76.00000461969722
 20
470.8096599194844
 30
0.0
 10
-76.00000801131307
 20
479.1327162703096
 30
0.0
 10
-76.00000292569285
 20
484.6678117955129
 30
0.0
 10
-76.00000068311783
 20
487.1085891728571
 30
0.0
 11
-76.00000053391704
 21
453.7500004917156
 31
0.0
 11
-76.00000113520218
 21
462.1394201203866
 31
0.0
 11
-76.00000437568088
 21
470.5033025972434
 31
0.0
 11
-76.00000598336191
 21
479.7862570408242
 31
0.0
 11
-76.00000068311783
 21
487.1085891728571
 31
0.0
  0
SPLINE
  5
2CBF2
330
1E
100
AcDbEntity
  8
DETAIL
100
AcDbSpline
210
0.0
220
0.0
230
1.0
 70
     8
 71
     3
 72
    11
 73
     7
 74
     5
 42
0.0000000001
 43
0.0000000001
 44
0.00000000001
 40
0.0
 40
0.0
 40
0.0
 40
0.0
 40
8.393017684735262
 40
16.76043414230728
 40
26.04734319098578
 40
33.37246942916233
 40
33.37246942916233
 40
33.37246942916233
 40
33.37246942916233
 10
-64.50000054133852
 20
453.7500013743401
 30
0.0
 10
-64.50000051131286
 20
456.5476739359187
 30
0.0
 10
-64.50000045135306
 20
462.1344853166879
 30
0.0
 10
-64.50000468559387
 20
470.8169330470152
 30
0.0
 10
-64.50000814079874
 20
479.1434169618255
 30
0.0
 10
-64.50000297213581
 20
484.6807620574415
 30
0.0
 10
-64.50000069299858
 20
487.1224708034997
 30
0.0
 11
-64.50000054133852
 21
453.7500013743401
 31
0.0
 11
-64.50000114952127
 21
462.1430190590753
 31
0.0
 11
-64.50000444000034
 21
470.5104355166468
 31
0.0
 11
-64.5000060786333
 21
479.7973445653251
 31
0.0
 11
-64.50000069299858
 21
487.1224708034997
 31
0.0
  0
SPLINE
  5
2CC3C
330
1E
100
AcDbEntity
  8
DETAIL
100
AcDbSpline
210
0.0
220
0.0
230
1.0
 70
     8
 71
     3
 72
    11
 73
     7
 74
     5
 42
0.0000000001
 43
0.0000000001
 44
0.00000000001
 40
0.0
 40
0.0
 40
0.0
 40
0.0
 40
8.390193119827038
 40
16.75483531943674
 40
26.03863175931552
 40
33.36157278908919
 40
33.36157278908919
 40
33.36157278908919
 40
33.36157278908919
 10
-72.99999946662137
 20
453.7500007445332
 30
0.0
 10
-72.99999949554115
 20
456.5467317844756
 30
0.0
 10
-72.99999955329258
 20
462.131676890955
 30
0.0
 10
-72.99999538468171
 20
470.8112208107254
 30
0.0
 10
-72.99999199340584
 20
479.1350140338137
 30
0.0
 10
-72.99999707545487
 20
484.6705931903625
 30
0.0
 10
-72.99999931644561
 20
487.1115735336197
 30
0.0
 11
-72.99999946662137
 21
453.7500007445332
 31
0.0
 11
-72.99999886626756
 21
462.1401938643603
 31
0.0
 11
-72.99999562811717
 21
470.5048360639693
 31
0.0
 11
-72.9999940202033
 21
479.788632503848
 31
0.0
 11
-72.99999931644561
 21
487.1115735336197
 31
0.0
  0
SPLINE
  5
2CC62
330
1E
100
AcDbEntity
  8
DETAIL
100
AcDbSpline
210
0.0
220
0.0
230
1.0
 70
     8
 71
     3
 72
    11
 73
     7
 74
     5
 42
0.0000000001
 43
0.0000000001
 44
0.00000000001
 40
0.0
 40
0.0
 40
0.0
 40
0.0
 40
8.470742987919967
 40
16.91445875736165
 40
26.28624022905653
 40
33.67198208243204
 40
33.67198208243204
 40
33.67198208243204
 40
33.67198208243204
 10
-214.0000005240945
 20
453.7500005683969
 30
0.0
 10
-214.0000004758154
 20
456.5735815643702
 30
0.0
 10
-214.0000003794114
 20
462.211734483491
 30
0.0
 10
-214.0000045902425
 20
470.9738145598419
 30
0.0
 10
-214.0000083035874
 20
479.3742275913471
 30
0.0
 10
-214.0000030234199
 20
484.9600686997014
 30
0.0
 10
-214.0000006962291
 20
487.4219826508261
 30
0.0
 11
-214.0000005240945
 21
453.7500005683969
 31
0.0
 11
-214.0000010829899
 21
462.2207435563168
 31
0.0
 11
-214.0000043901745
 21
470.6644593257578
 31
0.0
 11
-214.000006172464
 21
480.0362407974525
 31
0.0
 11
-214.0000006962291
 21
487.4219826508261
 31
0.0
  0
SPLINE
  5
2CC6B
330
1E
100
AcDbEntity
  8
DETAIL
100
AcDbSpline
210
0.0
220
0.0
230
1.0
 70
     8
 71
     3
 72
    11
 73
     7
 74
     5
 42
0.0000000001
 43
0.0000000001
 44
0.00000000001
 40
0.0
 40
0.0
 40
0.0
 40
0.0
 40
8.48378258400773
 40
16.94029074182685
 40
26.32627267765287
 40
33.72216458885233
 40
33.72216458885233
 40
33.72216458885233
 40
33.72216458885233
 10
-222.4999994741738
 20
453.7500000305799
 30
0.0
 10
-222.4999995261948
 20
456.5779275585823
 30
0.0
 10
-222.4999996300697
 20
462.2246911391914
 30
0.0
 10
-222.4999953825124
 20
471.0001153650746
 30
0.0
 10
-222.499991590546
 20
479.4129093666902
 30
0.0
 10
-222.499996934778
 20
485.006867315697
 30
0.0
 10
-222.4999992900193
 20
487.4721646194293
 30
0.0
 11
-222.4999994741738
 21
453.7500000305799
 31
0.0
 11
-222.4999989186835
 21
462.2337826145876
 31
0.0
 11
-222.4999955769526
 21
470.6902907724061
 31
0.0
 11
-222.4999937519823
 21
480.0762727082319
 31
0.0
 11
-222.4999992900193
 21
487.4721646194293
 31
0.0
  0
SPLINE
  5
2CC7A
330
1E
100
AcDbEntity
  8
DETAIL
100
AcDbSpline
210
0.0
220
0.0
230
1.0
 70
     8
 71
     3
 72
    11
 73
     7
 74
     5
 42
0.0000000001
 43
0.0000000001
 44
0.00000000001
 40
0.0
 40
0.0
 40
0.0
 40
0.0
 40
7.410899853386879
 40
16.81763591713618
 40
25.29294321997737
 40
33.79589269855503
 40
33.79589269855503
 40
33.79589269855503
 40
33.79589269855503
 10
-233.9999992920857
 20
487.5458931592138
 30
0.0
 10
-233.9999969075967
 20
485.0755932080856
 30
0.0
 10
-233.9999914964498
 20
479.4697145690422
 30
0.0
 10
-233.9999953788157
 20
471.0387334957158
 30
0.0
 10
-233.9999996472279
 20
462.2437358806609
 30
0.0
 10
-233.9999995330361
 20
456.5843169535209
 30
0.0
 10
-233.9999994758473
 20
453.7500004606617
 30
0.0
 11
-233.9999992920857
 21
487.5458931592138
 31
0.0
 11
-233.9999936906461
 21
480.1349933058291
 31
0.0
 11
-233.9999955627499
 21
470.7282572420799
 31
0.0
 11
-233.9999989298739
 21
462.2529499392394
 31
0.0
 11
-233.9999994758473
 21
453.7500004606617
 31
0.0
  0
SPLINE
  5
2CCC4
330
1E
100
AcDbEntity
  8
DETAIL
100
AcDbSpline
210
0.0
220
0.0
230
1.0
 70
     8
 71
     3
 72
    11
 73
     7
 74
     5
 42
0.0000000001
 43
0.0000000001
 44
0.00000000001
 40
0.0
 40
0.0
 40
0.0
 40
0.0
 40
7.399723866192532
 40
16.79089060214979
 40
25.25213721076141
 40
33.74075049424137
 40
33.74075049424137
 40
33.74075049424137
 40
33.74075049424137
 10
-225.5000007000271
 20
487.4907505003712
 30
0.0
 10
-225.5000030499632
 20
485.0241758783076
 30
0.0
 10
-225.5000083822595
 20
479.4272123442596
 30
0.0
 10
-225.5000045903075
 20
471.0098332740056
 30
0.0
 10
-225.5000003635838
 20
462.2294910646562
 30
0.0
 10
-225.5000004693019
 20
456.5795377672928
 30
0.0
 10
-225.5000005222464
 20
453.7500000061327
 30
0.0
 11
-225.5000007000271
 21
487.4907505003712
 31
0.0
 11
-225.5000062245307
 21
480.0910266341807
 31
0.0
 11
-225.5000043997934
 21
470.6998598982236
 31
0.0
 11
-225.5000010720759
 21
462.2386132896126
 31
0.0
 11
-225.5000005222464
 21
453.7500000061327
 31
0.0
  0
SPLINE
  5
2CD8D
330
1E
100
AcDbEntity
  8
DETAIL
100
AcDbSpline
210
0.0
220
0.0
230
1.0
 70
     8
 71
     3
 72
    11
 73
     7
 74
     5
 42
0.0000000001
 43
0.0000000001
 44
0.00000000001
 40
0.0
 40
0.0
 40
0.0
 40
0.0
 40
8.508238956259464
 40
16.98873328154945
 40
26.40113019292853
 40
33.81623203835192
 40
33.81623203835192
 40
33.81623203835192
 40
33.81623203835192
 10
-237.0000005202382
 20
453.7500007039262
 30
0.0
 10
-237.0000004619389
 20
456.5860803560126
 30
0.0
 10
-237.0000003455305
 20
462.2489914498628
 30
0.0
 10
-237.0000045922104
 20
471.0493681808372
 30
0.0
 10
-237.0000084711154
 20
479.4853658748695
 30
0.0
 10
-237.0000030873693
 20
485.0945321271349
 30
0.0
 10
-237.000000715001
 20
487.5662327422751
 30
0.0
 11
-237.0000005202382
 21
453.7500007039262
 31
0.0
 11
-237.0000010599397
 21
462.2582396601855
 31
0.0
 11
-237.0000044118278
 21
470.7387339854749
 31
0.0
 11
-237.0000062859107
 21
480.1511308968538
 31
0.0
 11
-237.000000715001
 21
487.5662327422751
 31
0.0
  0
SPLINE
  5
2CE9D
330
1E
100
AcDbEntity
  8
DETAIL
100
AcDbSpline
210
0.0
220
0.0
230
1.0
 70
     8
 71
     3
 72
    11
 73
     7
 74
     5
 42
0.0000000001
 43
0.0000000001
 44
0.00000000001
 40
0.0
 40
0.0
 40
0.0
 40
0.0
 40
7.469769859463189
 40
16.95683540905403
 40
25.50545466855282
 40
34.0832017319949
 40
34.0832017319949
 40
34.0832017319949
 40
34.0832017319949
 10
-271.5000007405251
 20
487.8332022773966
 30
0.0
 10
-271.5000032193726
 20
485.3432789909097
 30
0.0
 10
-271.5000088465081
 20
479.6910005212271
 30
0.0
 10
-271.5000046207687
 20
471.1891822983757
 30
0.0
 10
-271.50000027737
 20
462.3180383408662
 30
0.0
 10
-271.5000004351958
 20
456.6092495665525
 30
0.0
 10
-271.5000005142428
 20
453.7500005454048
 30
0.0
 11
-271.5000007405251
 21
487.8332022773966
 31
0.0
 11
-271.5000065399144
 21
480.3634324179356
 31
0.0
 11
-271.5000044776461
 21
470.876366868345
 31
0.0
 11
-271.5000010178409
 21
462.3277476088469
 31
0.0
 11
-271.5000005142428
 21
453.7500005454048
 31
0.0
  0
SPLINE
  5
2CE9E
330
1E
100
AcDbEntity
  8
DETAIL
100
AcDbSpline
210
0.0
220
0.0
230
1.0
 70
     8
 71
     3
 72
    11
 73
     7
 74
     5
 42
0.0000000001
 43
0.0000000001
 44
0.00000000001
 40
0.0
 40
0.0
 40
0.0
 40
0.0
 40
8.597345090507602
 40
17.16515954351854
 40
26.67319790183053
 40
34.15836946620736
 40
34.15836946620736
 40
34.15836946620736
 40
34.15836946620736
 10
-279.9999994836034
 20
453.750000026338
 30
0.0
 10
-279.9999995696416
 20
456.6157817231739
 30
0.0
 10
-279.9999997414226
 20
462.3375015710132
 30
0.0
 10
-279.9999953339542
 20
471.2285675382897
 30
0.0
 10
-279.9999909629183
 20
479.7489089968562
 30
0.0
 10
-279.9999967369314
 20
485.4133123044175
 30
0.0
 10
-279.9999992802695
 20
487.908369492542
 30
0.0
 11
-279.9999994836034
 21
453.750000026338
 31
0.0
 11
-279.9999989870921
 21
462.3473451168456
 31
0.0
 11
-279.9999954659069
 21
470.9151595698558
 31
0.0
 11
-279.999993334357
 21
480.4231979281675
 31
0.0
 11
-279.9999992802695
 21
487.908369492542
 31
0.0
  0
SPLINE
  5
2CEB3
330
1E
100
AcDbEntity
  8
DETAIL
100
AcDbSpline
210
0.0
220
0.0
230
1.0
 70
     8
 71
     3
 72
    11
 73
     7
 74
     5
 42
0.0000000001
 43
0.0000000001
 44
0.00000000001
 40
0.0
 40
0.0
 40
0.0
 40
0.0
 40
7.490898870494258
 40
17.00647495097182
 40
25.58129333229189
 40
34.18579093111803
 40
34.18579093111803
 40
34.18579093111803
 40
34.18579093111803
 10
-283.0000007502458
 20
487.9357909388481
 30
0.0
 10
-283.0000032695792
 20
485.4388246486844
 30
0.0
 10
-283.0000089891841
 20
479.7699996650294
 30
0.0
 10
-283.0000046277721
 20
471.2429018875978
 30
0.0
 10
-283.000000248058
 20
462.3446045340574
 30
0.0
 10
-283.0000004232018
 20
456.618165874009
 30
0.0
 10
-283.000000510925
 20
453.7500000077334
 30
0.0
 11
-283.0000007502458
 21
487.9357909388481
 31
0.0
 11
-283.0000066360007
 21
480.4448920683562
 31
0.0
 11
-283.0000044995467
 21
470.9293159878789
 31
0.0
 11
-283.0000009987634
 21
462.3544976065595
 31
0.0
 11
-283.000000510925
 21
453.7500000077334
 31
0.0
  0
SPLINE
  5
2CEB6
330
1E
100
AcDbEntity
  8
DETAIL
100
AcDbSpline
210
0.0
220
0.0
230
1.0
 70
     8
 71
     3
 72
    11
 73
     7
 74
     5
 42
0.0000000001
 43
0.0000000001
 44
0.00000000001
 40
0.0
 40
0.0
 40
0.0
 40
0.0
 40
7.507392303649937
 40
17.0452699366392
 40
25.64058510968284
 40
34.26601860038178
 40
34.26601860038178
 40
34.26601860038178
 40
34.26601860038178
 10
-291.4999992103039
 20
488.0160190546803
 30
0.0
 10
-291.4999963974648
 20
485.5135549534647
 30
0.0
 10
-291.4999900110127
 20
479.8317983079207
 30
0.0
 10
-291.4999949212685
 20
471.2849366046925
 30
0.0
 10
-291.499999754116
 20
462.3653945057831
 30
0.0
 10
-291.4999995467413
 20
456.6251449512024
 30
0.0
 10
-291.4999994428726
 20
453.7500004543026
 30
0.0
 11
-291.4999992103039
 21
488.0160190546803
 31
0.0
 11
-291.4999926438831
 21
480.5086267510332
 31
0.0
 11
-291.4999950471174
 21
470.9707491180442
 31
0.0
 11
-291.499998922176
 21
462.3754339450015
 31
0.0
 11
-291.4999994428726
 21
453.7500004543026
 31
0.0
  0
SPLINE
  5
2CF76
330
1E
100
AcDbEntity
  8
DETAIL
100
AcDbSpline
210
0.0
220
0.0
230
1.0
 70
     8
 71
     3
 72
    11
 73
     7
 74
     5
 42
0.0000000001
 43
0.0000000001
 44
0.00000000001
 40
0.0
 40
0.0
 40
0.0
 40
0.0
 40
7.513521404503163
 40
17.05939039934621
 40
25.66217039838773
 40
34.29523048979571
 40
34.29523048979571
 40
34.29523048979571
 40
34.29523048979571
 10
-294.5000008144488
 20
488.0452311786566
 30
0.0
 10
-294.5000036003454
 20
485.5407240438235
 30
0.0
 10
-294.5000099257014
 20
479.8542605773773
 30
0.0
 10
-294.5000050295881
 20
471.3002037779135
 30
0.0
 10
-294.5000002333618
 20
462.3729674161507
 30
0.0
 10
-294.5000004444931
 20
456.6276873860008
 30
0.0
 10
-294.5000005502442
 20
453.7500006888649
 30
0.0
 11
-294.5000008144488
 21
488.0452311786566
 31
0.0
 11
-294.5000073137707
 21
480.5317097741562
 31
0.0
 11
-294.5000049084264
 21
470.9858407793135
 31
0.0
 11
-294.5000010603471
 21
462.3830607802728
 31
0.0
 11
-294.5000005502442
 21
453.7500006888649
 31
0.0
  0
SPLINE
  5
2CF8C
330
1E
100
AcDbEntity
  8
DETAIL
100
AcDbSpline
210
0.0
220
0.0
230
1.0
 70
     8
 71
     3
 72
    11
 73
     7
 74
     5
 42
0.0000000001
 43
0.0000000001
 44
0.00000000001
 40
0.0
 40
0.0
 40
0.0
 40
0.0
 40
7.531129142395702
 40
17.1006125332088
 40
25.72519989453931
 40
34.38054491494033
 40
34.38054491494033
 40
34.38054491494033
 40
34.38054491494033
 10
-302.9999992680168
 20
488.1305461857619
 30
0.0
 10
-302.9999966253307
 20
485.6201698049644
 30
0.0
 10
-302.9999906246966
 20
479.9199656272305
 30
0.0
 10
-302.9999953116935
 20
471.3448989957169
 30
0.0
 10
-302.9999998099564
 20
462.3950937382024
 30
0.0
 10
-302.9999995973548
 20
456.6351162776252
 30
0.0
 10
-302.9999994908648
 20
453.750001270825
 30
0.0
 11
-302.9999992680168
 21
488.1305461857619
 31
0.0
 11
-302.9999931080892
 21
480.5994170433686
 31
0.0
 11
-302.9999954100712
 21
471.0299336525558
 31
0.0
 11
-302.9999990306605
 21
462.4053462912261
 31
0.0
 11
-302.9999994908648
 21
453.750001270825
 31
0.0
  0
SPLINE
  5
2D005
330
1E
100
AcDbEntity
  8
DETAIL
100
AcDbSpline
210
0.0
220
0.0
230
1.0
 70
     8
 71
     3
 72
    11
 73
     7
 74
     5
 42
0.0000000001
 43
0.0000000001
 44
0.00000000001
 40
0.0
 40
0.0
 40
0.0
 40
0.0
 40
7.537653970716483
 40
17.11559086702892
 40
25.74810729428631
 40
34.411557153482
 40
34.411557153482
 40
34.411557153482
 40
34.411557153482
 10
-306.0000007604467
 20
488.1615585485987
 30
0.0
 10
-306.0000033779457
 20
485.6490072250275
 30
0.0
 10
-306.0000093214453
 20
479.9438102693541
 30
0.0
 10
-306.000004644844
 20
471.3611078379235
 30
0.0
 10
-306.000000177723
 20
462.403140110337
 30
0.0
 10
-306.0000003943347
 20
456.6378180148522
 30
0.0
 10
-306.0000005028341
 20
453.7500013951203
 30
0.0
 11
-306.0000007604467
 21
488.1615585485987
 31
0.0
 11
-306.0000068572771
 21
480.6239045778847
 31
0.0
 11
-306.0000045507258
 21
471.0459676815726
 31
0.0
 11
-306.0000009530122
 21
462.4134512543159
 31
0.0
 11
-306.0000005028341
 21
453.7500013951203
 31
0.0
  0
SPLINE
  5
2D027
330
1E
100
AcDbEntity
  8
DETAIL
100
AcDbSpline
210
0.0
220
0.0
230
1.0
 70
     8
 71
     3
 72
    11
 73
     7
 74
     5
 42
0.0000000001
 43
0.0000000001
 44
0.00000000001
 40
0.0
 40
0.0
 40
0.0
 40
0.0
 40
8.523878600790355
 40
17.01970752477861
 40
26.44903659183272
 40
33.87635119211643
 40
33.87635119211643
 40
33.87635119211643
 40
33.87635119211643
 10
-245.4999994759491
 20
453.7500013146918
 30
0.0
 10
-245.4999995392979
 20
456.5912941816223
 30
0.0
 10
-245.4999996657868
 20
462.2645300232156
 30
0.0
 10
-245.4999953574059
 20
471.0808755538241
 30
0.0
 10
-245.4999913630231
 20
479.5316997509344
 30
0.0
 10
-245.4999968562329
 20
485.1505809733782
 30
0.0
 10
-245.4999992766315
 20
487.6263525068052
 30
0.0
 11
-245.4999994759491
 21
453.7500013146918
 31
0.0
 11
-245.4999989388816
 21
462.2738799154822
 31
0.0
 11
-245.4999955309685
 21
470.7697088394698
 31
0.0
 11
-245.4999935975138
 21
480.1990379065236
 31
0.0
 11
-245.4999992766315
 21
487.6263525068052
 31
0.0
  0
SPLINE
  5
2D0A0
330
1E
100
AcDbEntity
  8
DETAIL
100
AcDbSpline
210
0.0
220
0.0
230
1.0
 70
     8
 71
     3
 72
    11
 73
     7
 74
     5
 42
0.0000000001
 43
0.0000000001
 44
0.00000000001
 40
0.0
 40
0.0
 40
0.0
 40
0.0
 40
7.450107378348935
 40
16.91046416406121
 40
25.4346360770609
 40
33.98743113257244
 40
33.98743113257244
 40
33.98743113257244
 40
33.98743113257244
 10
-260.000000717795
 20
487.7374325022019
 30
0.0
 10
-260.0000031650387
 20
485.2540633760863
 30
0.0
 10
-260.0000087198615
 20
479.6172419880677
 30
0.0
 10
-260.0000046145045
 20
471.1390299623803
 30
0.0
 10
-260.0000003034783
 20
462.2932553776406
 30
0.0
 10
-260.0000004458487
 20
456.6009330548031
 30
0.0
 10
-260.0000005171532
 20
453.7500013696326
 30
0.0
 11
-260.000000717795
 21
487.7374325022019
 31
0.0
 11
-260.0000064515843
 21
480.2873251238552
 31
0.0
 11
-260.0000044582047
 21
470.8269683381431
 31
0.0
 11
-260.000001034823
 21
462.3027964251441
 31
0.0
 11
-260.0000005171532
 21
453.7500013696326
 31
0.0
  0
SPLINE
  5
2D0A2
330
1E
100
AcDbEntity
  8
DETAIL
100
AcDbSpline
210
0.0
220
0.0
230
1.0
 70
     8
 71
     3
 72
    11
 73
     7
 74
     5
 42
0.0000000001
 43
0.0000000001
 44
0.00000000001
 40
0.0
 40
0.0
 40
0.0
 40
0.0
 40
7.46443143805892
 40
16.94442364073143
 40
25.4864969274818
 40
34.05756189041454
 40
34.05756189041454
 40
34.05756189041454
 40
34.05756189041454
 10
-268.4999992712473
 20
487.8075626819399
 30
0.0
 10
-268.4999967758959
 20
485.3194188692546
 30
0.0
 10
-268.4999911113933
 20
479.6712776556792
 30
0.0
 10
-268.499995342749
 20
471.1757786798512
 30
0.0
 10
-268.4999997131007
 20
462.311401862401
 30
0.0
 10
-268.49999955824
 20
456.6070224458396
 30
0.0
 10
-268.4999994806785
 20
453.7500007915286
 30
0.0
 11
-268.4999992712473
 21
487.8075626819399
 31
0.0
 11
-268.499993430385
 21
480.3431312438833
 31
0.0
 11
-268.4999954900777
 21
470.8631390412111
 31
0.0
 11
-268.4999989690331
 21
462.3210657544614
 31
0.0
 11
-268.4999994806785
 21
453.7500007915286
 31
0.0
  0
SPLINE
  5
2D0D7
330
1E
100
AcDbEntity
  8
DETAIL
100
AcDbSpline
210
0.0
220
0.0
230
1.0
 70
     8
 71
     3
 72
    11
 73
     7
 74
     5
 42
0.0000000001
 43
0.0000000001
 44
0.00000000001
 40
0.0
 40
0.0
 40
0.0
 40
0.0
 40
8.529629426171611
 40
17.03109604417182
 40
26.4665593914551
 40
33.89845031759191
 40
33.89845031759191
 40
33.89845031759191
 40
33.89845031759191
 10
-248.5000005196998
 20
453.7500014481548
 30
0.0
 10
-248.500000455211
 20
456.5932112568789
 30
0.0
 10
-248.5000003264462
 20
462.2702432716027
 30
0.0
 10
-248.5000046102096
 20
471.0924297354197
 30
0.0
 10
-248.5000086041404
 20
479.548703365894
 30
0.0
 10
-248.5000031257825
 20
485.1711547903655
 30
0.0
 10
-248.5000007119742
 20
487.6484517657436
 30
0.0
 11
-248.5000005196998
 21
453.7500014481548
 31
0.0
 11
-248.500001049957
 21
462.2796308743263
 31
0.0
 11
-248.5000044412227
 21
470.7810974923258
 31
0.0
 11
-248.5000063743282
 21
480.2165608396089
 31
0.0
 11
-248.5000007119742
 21
487.6484517657436
 31
0.0
  0
SPLINE
  5
2D0F5
330
1E
100
AcDbEntity
  8
DETAIL
100
AcDbSpline
210
0.0
220
0.0
230
1.0
 70
     8
 71
     3
 72
    11
 73
     7
 74
     5
 42
0.0000000001
 43
0.0000000001
 44
0.00000000001
 40
0.0
 40
0.0
 40
0.0
 40
0.0
 40
8.546580099238797
 40
17.06466139046168
 40
26.51841281614998
 40
33.96356531388616
 40
33.96356531388616
 40
33.96356531388616
 40
33.96356531388616
 10
-256.9999994781464
 20
453.7500014818934
 30
0.0
 10
-256.9999995481093
 20
456.5988615149726
 30
0.0
 10
-256.9999996878018
 20
462.2870819784602
 30
0.0
 10
-256.9999953513914
 20
471.126552917176
 30
0.0
 10
-256.9999912414493
 20
479.5988813220592
 30
0.0
 10
-256.9999968289967
 20
485.2318492965318
 30
0.0
 10
-256.9999992907032
 20
487.7135667957763
 30
0.0
 11
-256.9999994781464
 21
453.7500014818934
 31
0.0
 11
-256.9999989530406
 21
462.2965815811321
 31
0.0
 11
-256.99999551176
 21
470.8146628723543
 31
0.0
 11
-256.9999935205341
 21
480.2684142980424
 31
0.0
 11
-256.9999992907032
 21
487.7135667957763
 31
0.0
  0
SPLINE
  5
2D1FC
330
1E
100
AcDbEntity
  8
DETAIL
100
AcDbSpline
210
0.0
220
0.0
230
1.0
 70
     8
 71
     3
 72
    11
 73
     7
 74
     5
 42
0.0000000001
 43
0.0000000001
 44
0.00000000001
 40
0.0
 40
0.0
 40
0.0
 40
0.0
 40
8.720704217652391
 40
17.40920371866459
 40
27.04714292319228
 40
34.63038681836428
 40
34.63038681836428
 40
34.63038681836428
 40
34.63038681836428
 10
-325.9999994986356
 20
453.7500007330809
 30
0.0
 10
-325.9999996318102
 20
456.6569021389654
 30
0.0
 10
-325.9999998976677
 20
462.4599700451872
 30
0.0
 10
-325.9999952675288
 20
471.475684352915
 30
0.0
 10
-325.9999901896766
 20
480.1122452198215
 30
0.0
 10
-325.9999964608503
 20
485.8526395863853
 30
0.0
 10
-325.9999992223238
 20
488.3803875514413
 30
0.0
 11
-325.9999994986356
 21
453.7500007330809
 31
0.0
 11
-325.9999990836295
 21
462.4707049507333
 31
0.0
 11
-325.9999953279257
 21
471.1592044517447
 31
0.0
 11
-325.9999928083343
 21
480.797143656272
 31
0.0
 11
-325.9999992223238
 21
488.3803875514413
 31
0.0
  0
SPLINE
  5
2D203
330
1E
100
AcDbEntity
  8
DETAIL
100
AcDbSpline
210
0.0
220
0.0
230
1.0
 70
     8
 71
     3
 72
    11
 73
     7
 74
     5
 42
0.0000000001
 43
0.0000000001
 44
0.00000000001
 40
0.0
 40
0.0
 40
0.0
 40
0.0
 40
8.695683592799481
 40
17.35972457726987
 40
26.97147022361735
 40
34.53481038129102
 40
34.53481038129102
 40
34.53481038129102
 40
34.53481038129102
 10
-317.5000005456895
 20
453.7500012993614
 30
0.0
 10
-317.5000004131415
 20
456.6485624969613
 30
0.0
 10
-317.5000001485278
 20
462.4351373560516
 30
0.0
 10
-317.500005101122
 20
471.4256274305889
 30
0.0
 10
-317.5000104224017
 20
480.0386696934208
 30
0.0
 10
-317.5000037728857
 20
485.7636982947581
 30
0.0
 10
-317.5000008446586
 20
488.2848116806481
 30
0.0
 11
-317.5000005456895
 21
453.7500012993614
 31
0.0
 11
-317.5000010142612
 21
462.4456848921608
 31
0.0
 11
-317.5000050187591
 21
471.1097258766304
 31
0.0
 11
-317.5000076539363
 21
480.7214715229775
 31
0.0
 11
-317.5000008446586
 21
488.2848116806481
 31
0.0
  0
SPLINE
  5
2D26C
330
1E
100
AcDbEntity
  8
DETAIL
100
AcDbSpline
210
0.0
220
0.0
230
1.0
 70
     8
 71
     3
 72
    11
 73
     7
 74
     5
 42
0.0000000001
 43
0.0000000001
 44
0.00000000001
 40
0.0
 40
0.0
 40
0.0
 40
0.0
 40
9.874466863781067
 40
19.70399083907275
 40
29.47089823092515
 40
39.14127071197598
 40
39.14127071197598
 40
39.14127071197598
 40
39.14127071197598
 10
-337.4999996067272
 20
453.7500000164937
 30
0.0
 10
-337.5000002175225
 20
457.0414889710873
 30
0.0
 10
-337.5000014363332
 20
463.6094859174447
 30
0.0
 10
-337.5000001568234
 20
473.4331186610866
 30
0.0
 10
-337.4999927037365
 20
483.188719943817
 30
0.0
 10
-337.4999958926052
 20
489.6678132347846
 30
0.0
 10
-337.4999974791208
 20
492.891270728468
 30
0.0
 11
-337.4999996067272
 21
453.7500000164937
 31
0.0
 11
-337.5000009181749
 21
463.6244668802746
 31
0.0
 11
-337.4999991125732
 21
473.4539908555661
 31
0.0
 11
-337.4999947341057
 21
483.2208982474176
 31
0.0
 11
-337.4999974791208
 21
492.891270728468
 31
0.0
  0
SPLINE
  5
2D2A4
330
1E
100
AcDbEntity
  8
DETAIL
100
AcDbSpline
210
0.0
220
0.0
230
1.0
 70
     8
 71
     3
 72
    11
 73
     7
 74
     5
 42
0.0000000001
 43
0.0000000001
 44
0.00000000001
 40
0.0
 40
0.0
 40
0.0
 40
0.0
 40
7.590597841658513
 40
17.23788457803612
 40
25.93525258034441
 40
34.66503191930332
 40
34.66503191930332
 40
34.66503191930332
 40
34.66503191930332
 10
-329.0000007715643
 20
488.4150324156717
 30
0.0
 10
-329.0000035177827
 20
485.8848331351198
 30
0.0
 10
-329.0000097543134
 20
480.1388716091101
 30
0.0
 10
-329.0000046820572
 20
471.493787415661
 30
0.0
 10
-329.0000000882177
 20
462.4689760564483
 30
0.0
 10
-329.0000003587372
 20
456.6599269426924
 30
0.0
 10
-329.0000004942485
 20
453.7500004963722
 30
0.0
 11
-329.0000007715643
 21
488.4150324156717
 31
0.0
 11
-329.0000071472386
 21
480.8244345740158
 31
0.0
 11
-329.0000046276763
 21
471.1771478376386
 31
0.0
 11
-329.0000008975839
 21
462.4797798353311
 31
0.0
 11
-329.0000004942485
 21
453.7500004963722
 31
0.0
  0
LINE
  5
2D722
330
1E
100
AcDbEntity
  8
DETAIL
100
AcDbLine
 10
400.0000005705078
 20
30.20000000000436
 30
0.0
 11
400.0000000003601
 21
543.3653805440498
 31
0.0
  0
LINE
  5
309C3
330
1E
100
AcDbEntity
  8
BASIS
  6
DASHDOT
100
AcDbLine
 10
-0.0000000115869625
 20
0.0
 30
0.0
 11
0.0
 21
826.6546386273326
 31
0.0
  0
CIRCLE
  5
309C4
330
1E
100
AcDbEntity
  8
ARRANGE
  6
CONTINUOUS
100
AcDbCircle
 10
0.0
 20
0.0
 30
0.0
 40
40.0
  0
POINT
  5
309C5
330
1E
100
AcDbEntity
  8
ARRANGE
100
AcDbPoint
 10
0.0
 20
0.0
 30
0.0
  0
ARC
  5
309CA
330
1E
100
AcDbEntity
  8
DETAIL
  6
CONTINUOUS
100
AcDbCircle
 10
397.3811794891371
 20
30.31886468533457
 30
0.0
 40
2.621517245740674
100
AcDbArc
 50
272.5989278098763
 51
357.4012070434186
  0
ARC
  5
309CB
330
1E
100
AcDbEntity
  8
DETAIL
  6
CONTINUOUS
100
AcDbCircle
 10
357.4424971260377
 20
670.1610416486905
 30
0.0
 40
118.4241756812838
100
AcDbArc
 50
71.58711333936877
 51
87.06798994595175
  0
LINE
  5
309CC
330
1E
100
AcDbEntity
  8
DETAIL
  6
CONTINUOUS
100
AcDbLine
 10
-405.7430649812331
 20
773.5908359903146
 30
0.0
 11
-403.4420510152304
 21
775.5740627201437
 31
0.0
  0
LINE
  5
309CD
330
1E
100
AcDbEntity
  8
DETAIL
  6
CONTINUOUS
100
AcDbLine
 10
-403.4420510152304
 20
775.5740627201437
 30
0.0
 11
-403.2999999999992
 21
776.314350214263
 31
0.0
  0
ARC
  5
309CE
330
1E
100
AcDbEntity
  8
DETAIL
  6
CONTINUOUS
100
AcDbCircle
 10
-350.8016142458109
 20
631.6087826829048
 30
0.0
 40
157.3438584864344
100
AcDbArc
 50
94.70689524695293
 51
108.0860209630299
  0
LINE
  5
309CF
330
1E
100
AcDbEntity
  8
DETAIL
  6
CONTINUOUS
100
AcDbLine
 10
400.6131759111849
 20
740.1082348881073
 30
0.0
 11
457.5047316555756
 21
730.0767186358953
 31
0.0
  0
ARC
  5
309D0
330
1E
100
AcDbEntity
  8
DETAIL
  6
CONTINUOUS
100
AcDbCircle
 10
454.8999989394178
 20
715.3046030360513
 30
0.0
 40
15.00000106058097
100
AcDbArc
 50
0.000003399298043
 51
79.99999660072261
  0
ARC
  5
309D2
330
1E
100
AcDbEntity
  8
DETAIL
  6
CONTINUOUS
100
AcDbCircle
 10
453.538356754736
 20
202.3776768041571
 30
0.0
 40
15.96166855256278
100
AcDbArc
 50
359.8979714890678
 51
72.83564071572562
  0
ARC
  5
309D3
330
1E
100
AcDbEntity
  8
DETAIL
  6
CONTINUOUS
100
AcDbCircle
 10
453.0443057846277
 20
62.89024637512238
 30
0.0
 40
16.44661935055375
100
AcDbArc
 50
285.1099708169472
 51
0.0338863370739461
  0
ARC
  5
309D4
330
1E
100
AcDbEntity
  8
DETAIL
  6
CONTINUOUS
100
AcDbCircle
 10
-390.4181219391503
 20
26.40937932775114
 30
0.0
 40
5.081960135453572
100
AcDbArc
 50
179.6743680899591
 51
229.6274729250456
  0
ARC
  5
309D5
330
1E
100
AcDbEntity
  8
DETAIL
  6
CONTINUOUS
100
AcDbCircle
 10
441.1890487974051
 20
231.9306108739847
 30
0.0
 40
8.689423704109531
100
AcDbArc
 50
179.9483234444859
 51
253.0506778636553
  0
ARC
  5
309D7
330
1E
100
AcDbEntity
  8
DETAIL
  6
CONTINUOUS
100
AcDbCircle
 10
475.3207688047296
 20
331.5099602736343
 30
0.0
 40
46.98488248029664
100
AcDbArc
 50
166.913658756152
 51
193.6907972239488
  0
ARC
  5
309D8
330
1E
100
AcDbEntity
  8
DETAIL
  6
CONTINUOUS
100
AcDbCircle
 10
429.9255758798245
 20
428.9606367892627
 30
0.0
 40
2.599658349568775
100
AcDbArc
 50
8.082109611447947
 51
56.90673231171404
  0
ARC
  5
309DA
330
1E
100
AcDbEntity
  8
DETAIL
  6
CONTINUOUS
100
AcDbCircle
 10
413.0375982444457
 20
441.4787721723135
 30
0.0
 40
1.634777939414457
100
AcDbArc
 50
177.0656220288494
 51
246.3123879459859
  0
ARC
  5
309DB
330
1E
100
AcDbEntity
  8
DETAIL
  6
CONTINUOUS
100
AcDbCircle
 10
413.8409237732157
 20
459.7743924748512
 30
0.0
 40
2.473063887541438
100
AcDbArc
 50
105.3646246399224
 51
170.0765187943313
  0
LINE
  5
309DC
330
1E
100
AcDbEntity
  8
DETAIL
  6
CONTINUOUS
100
AcDbLine
 10
425.5932914439545
 20
521.6113655892759
 30
0.0
 11
433.7213735700824
 21
521.7448972662451
 31
0.0
  0
LINE
  5
309DD
330
1E
100
AcDbEntity
  8
DETAIL
  6
CONTINUOUS
100
AcDbLine
 10
425.5932914439545
 20
506.7886344107234
 30
0.0
 11
433.721514787634
 21
506.6549969204777
 31
0.0
  0
ARC
  5
309DE
330
1E
100
AcDbEntity
  8
DETAIL
  6
CONTINUOUS
100
AcDbCircle
 10
433.1617087426348
 20
514.1999418551247
 30
0.0
 40
7.565684164362257
100
AcDbArc
 50
274.2433523540824
 51
85.75772004124157
  0
LINE
  5
309E0
330
1E
100
AcDbEntity
  8
DETAIL
  6
CONTINUOUS
100
AcDbLine
 10
-341.0166462297202
 20
498.0999999999997
 30
0.0
 11
-341.0166462297165
 21
61.90000000000509
 31
0.0
  0
LINE
  5
30A0A
330
1E
100
AcDbEntity
  8
DETAIL
  6
CONTINUOUS
100
AcDbLine
 10
143.9803306209869
 20
498.100000000001
 30
0.0
 11
143.9803306209905
 21
61.90000000000509
 31
0.0
  0
LINE
  5
30A0B
330
1E
100
AcDbEntity
  8
DETAIL
  6
CONTINUOUS
100
AcDbLine
 10
-349.6000000000094
 20
108.7500000175334
 30
0.0
 11
154.5999999999876
 21
108.7500000148283
 31
0.0
  0
LINE
  5
30A0C
330
1E
100
AcDbEntity
  8
DETAIL
  6
CONTINUOUS
100
AcDbLine
 10
154.5999999999912
 20
106.2499999835067
 30
0.0
 11
-349.6000000000094
 21
106.2499999837132
 31
0.0
  0
LINE
  5
30A0E
330
1E
100
AcDbEntity
  8
DETAIL
  6
CONTINUOUS
100
AcDbLine
 10
-349.6000000000094
 20
166.2500000054194
 30
0.0
 11
154.5999999999912
 21
166.2500000054194
 31
0.0
  0
LINE
  5
30A0F
330
1E
100
AcDbEntity
  8
DETAIL
  6
CONTINUOUS
100
AcDbLine
 10
154.5999999999912
 20
163.7499999945782
 30
0.0
 11
-349.6000000000094
 21
163.7499999945785
 31
0.0
  0
LINE
  5
30A10
330
1E
100
AcDbEntity
  8
DETAIL
  6
CONTINUOUS
100
AcDbLine
 10
-349.6000000000094
 20
223.7500000054196
 30
0.0
 11
154.5999999999876
 21
223.7500000054196
 31
0.0
  0
LINE
  5
30A11
330
1E
100
AcDbEntity
  8
DETAIL
  6
CONTINUOUS
100
AcDbLine
 10
154.5999999999876
 20
221.2499999945785
 30
0.0
 11
-349.6000000000094
 21
221.2499999945782
 31
0.0
  0
LINE
  5
30A12
330
1E
100
AcDbEntity
  8
DETAIL
  6
CONTINUOUS
100
AcDbLine
 10
-349.6000000000094
 20
281.2500000054194
 30
0.0
 11
154.5999999999912
 21
281.2500000054192
 31
0.0
  0
LINE
  5
30A13
330
1E
100
AcDbEntity
  8
DETAIL
  6
CONTINUOUS
100
AcDbLine
 10
154.5999999999912
 20
278.749999994578
 30
0.0
 11
-349.6000000000094
 21
278.7499999945783
 31
0.0
  0
LINE
  5
30A14
330
1E
100
AcDbEntity
  8
DETAIL
  6
CONTINUOUS
100
AcDbLine
 10
-349.6000000000094
 20
338.7500000054196
 30
0.0
 11
154.5999999999912
 21
338.7500000054194
 31
0.0
  0
LINE
  5
30A15
330
1E
100
AcDbEntity
  8
DETAIL
  6
CONTINUOUS
100
AcDbLine
 10
154.5999999999912
 20
336.2499999945784
 30
0.0
 11
-349.6000000000094
 21
336.2499999945784
 31
0.0
  0
LINE
  5
30A16
330
1E
100
AcDbEntity
  8
DETAIL
  6
CONTINUOUS
100
AcDbLine
 10
-349.6000000000094
 20
396.2500000054192
 30
0.0
 11
154.5999999999912
 21
396.2500000054194
 31
0.0
  0
LINE
  5
30A17
330
1E
100
AcDbEntity
  8
DETAIL
  6
CONTINUOUS
100
AcDbLine
 10
154.5999999999912
 20
393.7499999945782
 30
0.0
 11
-349.6000000000094
 21
393.7499999945785
 31
0.0
  0
LINE
  5
30A18
330
1E
100
AcDbEntity
  8
DETAIL
  6
CONTINUOUS
100
AcDbLine
 10
-349.6000000000131
 20
453.7500000164938
 30
0.0
 11
154.5999999999876
 21
453.7500000164941
 31
0.0
  0
LINE
  5
30A19
330
1E
100
AcDbEntity
  8
DETAIL
  6
CONTINUOUS
100
AcDbLine
 10
154.5999999999912
 20
451.2500000056527
 30
0.0
 11
-349.6000000000131
 21
451.2500000056527
 31
0.0
  0
LINE
  5
30A1D
330
1E
100
AcDbEntity
  8
DETAIL
  6
CONTINUOUS
100
AcDbLine
 10
-337.4999996067272
 20
498.0999999999997
 30
0.0
 11
-337.4999996067235
 21
61.90000000000509
 31
0.0
  0
LINE
  5
30A1E
330
1E
100
AcDbEntity
  8
DETAIL
  6
CONTINUOUS
100
AcDbLine
 10
-329.0000004942485
 20
498.0999999999997
 30
0.0
 11
-329.0000004942449
 21
61.90000000000509
 31
0.0
  0
LINE
  5
30A1F
330
1E
100
AcDbEntity
  8
DETAIL
  6
CONTINUOUS
100
AcDbLine
 10
-325.9999994986356
 20
498.0999999999997
 30
0.0
 11
-325.9999994986392
 21
61.90000000000555
 31
0.0
  0
LINE
  5
30A20
330
1E
100
AcDbEntity
  8
DETAIL
  6
CONTINUOUS
100
AcDbLine
 10
-317.5000005456895
 20
498.0999999999997
 30
0.0
 11
-317.5000005456859
 21
61.90000000000509
 31
0.0
  0
LINE
  5
30A21
330
1E
100
AcDbEntity
  8
DETAIL
  6
CONTINUOUS
100
AcDbLine
 10
-314.2928932188078
 20
498.1000000000003
 30
0.0
 11
-314.2928932188078
 21
61.90000000000509
 31
0.0
  0
LINE
  5
30A22
330
1E
100
AcDbEntity
  8
DETAIL
  6
CONTINUOUS
100
AcDbLine
 10
-306.0000005028341
 20
498.1000000000003
 30
0.0
 11
-306.0000005028341
 21
61.90000000000509
 31
0.0
  0
LINE
  5
30A23
330
1E
100
AcDbEntity
  8
DETAIL
  6
CONTINUOUS
100
AcDbLine
 10
-302.9999994908685
 20
498.1000000000003
 30
0.0
 11
-302.9999994908612
 21
61.90000000000509
 31
0.0
  0
LINE
  5
30A24
330
1E
100
AcDbEntity
  8
DETAIL
  6
CONTINUOUS
100
AcDbLine
 10
-294.5000005502442
 20
498.1000000000003
 30
0.0
 11
-294.5000005502442
 21
61.90000000000509
 31
0.0
  0
LINE
  5
30A25
330
1E
100
AcDbEntity
  8
DETAIL
  6
CONTINUOUS
100
AcDbLine
 10
-291.4999994428726
 20
498.1000000000003
 30
0.0
 11
-291.4999994428726
 21
61.90000000000509
 31
0.0
  0
LINE
  5
30A26
330
1E
100
AcDbEntity
  8
DETAIL
  6
CONTINUOUS
100
AcDbLine
 10
-283.000000510925
 20
498.1000000000003
 30
0.0
 11
-283.000000510925
 21
61.90000000000509
 31
0.0
  0
LINE
  5
30A27
330
1E
100
AcDbEntity
  8
DETAIL
  6
CONTINUOUS
100
AcDbLine
 10
-279.9999994836034
 20
498.1000000000003
 30
0.0
 11
-279.9999994836034
 21
61.90000000000509
 31
0.0
  0
LINE
  5
30A28
330
1E
100
AcDbEntity
  8
DETAIL
  6
CONTINUOUS
100
AcDbLine
 10
-271.5000005142428
 20
498.1000000000003
 30
0.0
 11
-271.5000005142392
 21
61.90000000000509
 31
0.0
  0
LINE
  5
30A29
330
1E
100
AcDbEntity
  8
DETAIL
  6
CONTINUOUS
100
AcDbLine
 10
-268.4999994806785
 20
498.1000000000003
 30
0.0
 11
-268.4999994806748
 21
61.90000000000509
 31
0.0
  0
LINE
  5
30A2A
330
1E
100
AcDbEntity
  8
DETAIL
  6
CONTINUOUS
100
AcDbLine
 10
-260.0000005171496
 20
498.1000000000003
 30
0.0
 11
-260.0000005171496
 21
61.90000000000509
 31
0.0
  0
LINE
  5
30A2B
330
1E
100
AcDbEntity
  8
DETAIL
  6
CONTINUOUS
100
AcDbLine
 10
-256.9999994781464
 20
498.1000000000003
 30
0.0
 11
-256.9999994781464
 21
61.90000000000509
 31
0.0
  0
LINE
  5
30A2C
330
1E
100
AcDbEntity
  8
DETAIL
  6
CONTINUOUS
100
AcDbLine
 10
-248.5000005196998
 20
498.1000000000003
 30
0.0
 11
-248.5000005196998
 21
61.90000000000509
 31
0.0
  0
LINE
  5
30A2D
330
1E
100
AcDbEntity
  8
DETAIL
  6
CONTINUOUS
100
AcDbLine
 10
-245.4999994759491
 20
498.1000000000003
 30
0.0
 11
-245.4999994759491
 21
61.90000000000509
 31
0.0
  0
LINE
  5
30A2E
330
1E
100
AcDbEntity
  8
DETAIL
  6
CONTINUOUS
100
AcDbLine
 10
-237.0000005202382
 20
498.1000000000003
 30
0.0
 11
-237.0000005202382
 21
61.90000000000555
 31
0.0
  0
LINE
  5
30A2F
330
1E
100
AcDbEntity
  8
DETAIL
  6
CONTINUOUS
100
AcDbLine
 10
-233.9999994758473
 20
498.1000000000003
 30
0.0
 11
-233.9999994758473
 21
61.90000000000509
 31
0.0
  0
LINE
  5
30A30
330
1E
100
AcDbEntity
  8
DETAIL
  6
CONTINUOUS
100
AcDbLine
 10
-225.5000005222464
 20
498.1000000000003
 30
0.0
 11
-225.5000005222464
 21
61.90000000000509
 31
0.0
  0
LINE
  5
30A31
330
1E
100
AcDbEntity
  8
DETAIL
  6
CONTINUOUS
100
AcDbLine
 10
-222.4999994741738
 20
498.1000000000003
 30
0.0
 11
-222.4999994741701
 21
61.90000000000509
 31
0.0
  0
LINE
  5
30A32
330
1E
100
AcDbEntity
  8
DETAIL
  6
CONTINUOUS
100
AcDbLine
 10
-214.0000005240945
 20
498.1000000000003
 30
0.0
 11
-214.0000005240908
 21
61.90000000000509
 31
0.0
  0
LINE
  5
30A33
330
1E
100
AcDbEntity
  8
DETAIL
  6
CONTINUOUS
100
AcDbLine
 10
-210.9999994726895
 20
498.1000000000003
 30
0.0
 11
-210.9999994726931
 21
61.90000000000509
 31
0.0
  0
LINE
  5
30A34
330
1E
100
AcDbEntity
  8
DETAIL
  6
CONTINUOUS
100
AcDbLine
 10
-202.5000005258007
 20
498.1000000000003
 30
0.0
 11
-202.500000525797
 21
61.90000000000509
 31
0.0
  0
LINE
  5
30A35
330
1E
100
AcDbEntity
  8
DETAIL
  6
CONTINUOUS
100
AcDbLine
 10
-199.4999994713507
 20
498.1000000000003
 30
0.0
 11
-199.4999994713507
 21
61.90000000000509
 31
0.0
  0
LINE
  5
30A36
330
1E
100
AcDbEntity
  8
DETAIL
  6
CONTINUOUS
100
AcDbLine
 10
-191.0000005273687
 20
498.1000000000003
 30
0.0
 11
-191.0000005273687
 21
61.90000000000509
 31
0.0
  0
LINE
  5
30A37
330
1E
100
AcDbEntity
  8
DETAIL
  6
CONTINUOUS
100
AcDbLine
 10
-187.9999994700992
 20
498.1000000000003
 30
0.0
 11
-187.9999994700992
 21
61.90000000000509
 31
0.0
  0
LINE
  5
30A38
330
1E
100
AcDbEntity
  8
DETAIL
  6
CONTINUOUS
100
AcDbLine
 10
-179.5000005271795
 20
498.1000000000003
 30
0.0
 11
-179.5000005271795
 21
61.90000000000509
 31
0.0
  0
LINE
  5
30A39
330
1E
100
AcDbEntity
  8
DETAIL
  6
CONTINUOUS
100
AcDbLine
 10
-176.499999470634
 20
498.1000000000003
 30
0.0
 11
-176.4999994706377
 21
61.90000000000509
 31
0.0
  0
LINE
  5
30A3A
330
1E
100
AcDbEntity
  8
DETAIL
  6
CONTINUOUS
100
AcDbLine
 10
-168.0000005286929
 20
498.1000000000006
 30
0.0
 11
-168.0000005286929
 21
61.90000000000509
 31
0.0
  0
LINE
  5
30A3B
330
1E
100
AcDbEntity
  8
DETAIL
  6
CONTINUOUS
100
AcDbLine
 10
-164.9999994694444
 20
498.1000000000006
 30
0.0
 11
-164.9999994694444
 21
61.90000000000555
 31
0.0
  0
LINE
  5
30A3C
330
1E
100
AcDbEntity
  8
DETAIL
  6
CONTINUOUS
100
AcDbLine
 10
-156.5000005302245
 20
498.1000000000006
 30
0.0
 11
-156.5000005302208
 21
61.90000000000555
 31
0.0
  0
LINE
  5
30A3D
330
1E
100
AcDbEntity
  8
DETAIL
  6
CONTINUOUS
100
AcDbLine
 10
-153.4999994682548
 20
498.1000000000006
 30
0.0
 11
-153.4999994682475
 21
61.90000000000509
 31
0.0
  0
LINE
  5
30A3E
330
1E
100
AcDbEntity
  8
DETAIL
  6
CONTINUOUS
100
AcDbLine
 10
-145.0000005317961
 20
498.1000000000006
 30
0.0
 11
-145.0000005317924
 21
61.90000000000509
 31
0.0
  0
LINE
  5
30A3F
330
1E
100
AcDbEntity
  8
DETAIL
  6
CONTINUOUS
100
AcDbLine
 10
-141.9999994669997
 20
498.1000000000006
 30
0.0
 11
-141.999999466996
 21
61.90000000000509
 31
0.0
  0
LINE
  5
30A40
330
1E
100
AcDbEntity
  8
DETAIL
  6
CONTINUOUS
100
AcDbLine
 10
-133.5000005404217
 20
498.1000000000006
 30
0.0
 11
-133.5000005404253
 21
61.90000000000509
 31
0.0
  0
LINE
  5
30A41
330
1E
100
AcDbEntity
  8
DETAIL
  6
CONTINUOUS
100
AcDbLine
 10
-130.499999458676
 20
498.1000000000006
 30
0.0
 11
-130.499999458676
 21
61.90000000000509
 31
0.0
  0
LINE
  5
30A42
330
1E
100
AcDbEntity
  8
DETAIL
  6
CONTINUOUS
100
AcDbLine
 10
-122.0000005333749
 20
498.1000000000006
 30
0.0
 11
-122.0000005333749
 21
61.90000000000464
 31
0.0
  0
LINE
  5
30A43
330
1E
100
AcDbEntity
  8
DETAIL
  6
CONTINUOUS
100
AcDbLine
 10
-118.9999994660684
 20
498.1000000000006
 30
0.0
 11
-118.999999466072
 21
61.90000000000555
 31
0.0
  0
LINE
  5
30A44
330
1E
100
AcDbEntity
  8
DETAIL
  6
CONTINUOUS
100
AcDbLine
 10
-110.5001294555513
 20
498.1000000000006
 30
0.0
 11
-110.5001294555477
 21
61.90000000000509
 31
0.0
  0
LINE
  5
30A45
330
1E
100
AcDbEntity
  8
DETAIL
  6
CONTINUOUS
100
AcDbLine
 10
-107.4998970089691
 20
498.1000000000006
 30
0.0
 11
-107.4998970089727
 21
61.90000000000509
 31
0.0
  0
LINE
  5
30A46
330
1E
100
AcDbEntity
  8
DETAIL
  6
CONTINUOUS
100
AcDbLine
 10
-99.00000053706026
 20
498.1000000000006
 30
0.0
 11
-99.0000005370639
 21
61.90000000000509
 31
0.0
  0
LINE
  5
30A47
330
1E
100
AcDbEntity
  8
DETAIL
  6
CONTINUOUS
100
AcDbLine
 10
-95.99999946292882
 20
498.1000000000006
 30
0.0
 11
-95.99999946292518
 21
61.90000000000509
 31
0.0
  0
LINE
  5
30A48
330
1E
100
AcDbEntity
  8
DETAIL
  6
CONTINUOUS
100
AcDbLine
 10
-87.5001034424422
 20
498.1000000000006
 30
0.0
 11
-87.5001034424422
 21
61.90000000000509
 31
0.0
  0
LINE
  5
30A49
330
1E
100
AcDbEntity
  8
DETAIL
  6
CONTINUOUS
100
AcDbLine
 10
-84.49987054443772
 20
498.1000000000006
 30
0.0
 11
-84.49987054443772
 21
61.90000000000509
 31
0.0
  0
LINE
  5
30A4A
330
1E
100
AcDbEntity
  8
DETAIL
  6
CONTINUOUS
100
AcDbLine
 10
-76.00000053391704
 20
498.1000000000006
 30
0.0
 11
-76.00000053391704
 21
61.90000000000509
 31
0.0
  0
LINE
  5
30A4B
330
1E
100
AcDbEntity
  8
DETAIL
  6
CONTINUOUS
100
AcDbLine
 10
-72.99999946662137
 20
498.1000000000006
 30
0.0
 11
-72.99999946662137
 21
61.90000000000509
 31
0.0
  0
LINE
  5
30A4C
330
1E
100
AcDbEntity
  8
DETAIL
  6
CONTINUOUS
100
AcDbLine
 10
-64.50000054133852
 20
498.1000000000006
 30
0.0
 11
-64.50000054133488
 21
61.90000000000509
 31
0.0
  0
LINE
  5
30A4D
330
1E
100
AcDbEntity
  8
DETAIL
  6
CONTINUOUS
100
AcDbLine
 10
-61.49999945956006
 20
498.1000000000006
 30
0.0
 11
-61.49999945956733
 21
61.90000000000555
 31
0.0
  0
LINE
  5
30A4E
330
1E
100
AcDbEntity
  8
DETAIL
  6
CONTINUOUS
100
AcDbLine
 10
-53.00000053298936
 20
498.1000000000006
 30
0.0
 11
-53.00000053298209
 21
61.90000000000464
 31
0.0
  0
LINE
  5
30A4F
330
1E
100
AcDbEntity
  8
DETAIL
  6
CONTINUOUS
100
AcDbLine
 10
-49.99999946819298
 20
498.1000000000006
 30
0.0
 11
-49.99999946819298
 21
61.90000000000509
 31
0.0
  0
LINE
  5
30A50
330
1E
100
AcDbEntity
  8
DETAIL
  6
CONTINUOUS
100
AcDbLine
 10
-41.50000053173426
 20
498.1000000000006
 30
0.0
 11
-41.50000053173426
 21
61.90000000000509
 31
0.0
  0
LINE
  5
30A51
330
1E
100
AcDbEntity
  8
DETAIL
  6
CONTINUOUS
100
AcDbLine
 10
-38.49999946978277
 20
498.1000000000006
 30
0.0
 11
-38.4999994697755
 21
61.90000000000509
 31
0.0
  0
LINE
  5
30A52
330
1E
100
AcDbEntity
  8
DETAIL
  6
CONTINUOUS
100
AcDbLine
 10
-30.00000053055919
 20
498.1000000000006
 30
0.0
 11
-30.00000053055191
 21
61.90000000000509
 31
0.0
  0
LINE
  5
30A53
330
1E
100
AcDbEntity
  8
DETAIL
  6
CONTINUOUS
100
AcDbLine
 10
-26.99999947130709
 20
498.1000000000006
 30
0.0
 11
-26.99999947130345
 21
61.90000000000509
 31
0.0
  0
LINE
  5
30A54
330
1E
100
AcDbEntity
  8
DETAIL
  6
CONTINUOUS
100
AcDbLine
 10
-18.50000052934774
 20
498.1000000000006
 30
0.0
 11
-18.5000005293441
 21
61.90000000000509
 31
0.0
  0
LINE
  5
30A55
330
1E
100
AcDbEntity
  8
DETAIL
  6
CONTINUOUS
100
AcDbLine
 10
-15.49999947282049
 20
498.1000000000006
 30
0.0
 11
-15.49999947282049
 21
61.90000000000509
 31
0.0
  0
LINE
  5
30A56
330
1E
100
AcDbEntity
  8
DETAIL
  6
CONTINUOUS
100
AcDbLine
 10
-7.000000529900717
 20
498.1000000000006
 30
0.0
 11
-7.000000529900717
 21
61.90000000000555
 31
0.0
  0
LINE
  5
30A57
330
1E
100
AcDbEntity
  8
DETAIL
  6
CONTINUOUS
100
AcDbLine
 10
-3.999999472616764
 20
498.1000000000006
 30
0.0
 11
-3.999999472616764
 21
61.90000000000509
 31
0.0
  0
LINE
  5
30A58
330
1E
100
AcDbEntity
  8
DETAIL
  6
CONTINUOUS
100
AcDbLine
 10
4.499999471365299
 20
498.1000000000006
 30
0.0
 11
4.499999471368937
 21
61.90000000000509
 31
0.0
  0
LINE
  5
30A59
330
1E
100
AcDbEntity
  8
DETAIL
  6
CONTINUOUS
100
AcDbLine
 10
7.500000525782525
 20
498.1000000000006
 30
0.0
 11
7.500000525786163
 21
61.90000000000509
 31
0.0
  0
LINE
  5
30A5A
330
1E
100
AcDbEntity
  8
DETAIL
  6
CONTINUOUS
100
AcDbLine
 10
15.99999947270043
 20
498.1000000000006
 30
0.0
 11
15.99999947270043
 21
61.90000000000509
 31
0.0
  0
LINE
  5
30A5B
330
1E
100
AcDbEntity
  8
DETAIL
  6
CONTINUOUS
100
AcDbLine
 10
19.0000005240945
 20
498.1000000000006
 30
0.0
 11
19.00000052410177
 21
61.90000000000509
 31
0.0
  0
LINE
  5
30A5C
330
1E
100
AcDbEntity
  8
DETAIL
  6
CONTINUOUS
100
AcDbLine
 10
27.49999947418837
 20
498.100000000001
 30
0.0
 11
27.49999947418837
 21
61.90000000000509
 31
0.0
  0
LINE
  5
30A5D
330
1E
100
AcDbEntity
  8
DETAIL
  6
CONTINUOUS
100
AcDbLine
 10
30.50000052226096
 20
498.100000000001
 30
0.0
 11
30.5000005222646
 21
61.90000000000509
 31
0.0
  0
LINE
  5
30A5E
330
1E
100
AcDbEntity
  8
DETAIL
  6
CONTINUOUS
100
AcDbLine
 10
38.99999947584729
 20
498.100000000001
 30
0.0
 11
38.99999947584365
 21
61.90000000000509
 31
0.0
  0
LINE
  5
30A5F
330
1E
100
AcDbEntity
  8
DETAIL
  6
CONTINUOUS
100
AcDbLine
 10
42.00000052022369
 20
498.100000000001
 30
0.0
 11
42.00000052022369
 21
61.90000000000509
 31
0.0
  0
LINE
  5
30A60
330
1E
100
AcDbEntity
  8
DETAIL
  6
CONTINUOUS
100
AcDbLine
 10
50.4999994759637
 20
498.100000000001
 30
0.0
 11
50.49999947596734
 21
61.90000000000509
 31
0.0
  0
LINE
  5
30A61
330
1E
100
AcDbEntity
  8
DETAIL
  6
CONTINUOUS
100
AcDbLine
 10
53.50000051971074
 20
498.100000000001
 30
0.0
 11
53.5000005197071
 21
61.90000000000509
 31
0.0
  0
LINE
  5
30A62
330
1E
100
AcDbEntity
  8
DETAIL
  6
CONTINUOUS
100
AcDbLine
 10
61.99999947814649
 20
498.100000000001
 30
0.0
 11
61.99999947814285
 21
61.90000000000555
 31
0.0
  0
LINE
  5
30A63
330
1E
100
AcDbEntity
  8
DETAIL
  6
CONTINUOUS
100
AcDbLine
 10
65.00000051713868
 20
498.100000000001
 30
0.0
 11
65.00000051714232
 21
61.90000000000509
 31
0.0
  0
LINE
  5
30A64
330
1E
100
AcDbEntity
  8
DETAIL
  6
CONTINUOUS
100
AcDbLine
 10
73.49999948066397
 20
498.100000000001
 30
0.0
 11
73.49999948066034
 21
61.90000000000509
 31
0.0
  0
LINE
  5
30A65
330
1E
100
AcDbEntity
  8
DETAIL
  6
CONTINUOUS
100
AcDbLine
 10
76.50000051423194
 20
498.100000000001
 30
0.0
 11
76.5000005142283
 21
61.90000000000509
 31
0.0
  0
LINE
  5
30A66
330
1E
100
AcDbEntity
  8
DETAIL
  6
CONTINUOUS
100
AcDbLine
 10
84.99999948360345
 20
498.100000000001
 30
0.0
 11
84.99999948360345
 21
61.90000000000509
 31
0.0
  0
LINE
  5
30A67
330
1E
100
AcDbEntity
  8
DETAIL
  6
CONTINUOUS
100
AcDbLine
 10
88.00000051091046
 20
498.100000000001
 30
0.0
 11
88.00000051091046
 21
61.90000000000555
 31
0.0
  0
LINE
  5
30A68
330
1E
100
AcDbEntity
  8
DETAIL
  6
CONTINUOUS
100
AcDbLine
 10
96.49999944288721
 20
498.100000000001
 30
0.0
 11
96.49999944288721
 21
61.90000000000509
 31
0.0
  0
LINE
  5
30A69
330
1E
100
AcDbEntity
  8
DETAIL
  6
CONTINUOUS
100
AcDbLine
 10
99.50000055025885
 20
498.100000000001
 30
0.0
 11
99.50000055026249
 21
61.90000000000509
 31
0.0
  0
LINE
  5
30A6A
330
1E
100
AcDbEntity
  8
DETAIL
  6
CONTINUOUS
100
AcDbLine
 10
107.9999994908794
 20
498.100000000001
 30
0.0
 11
107.999999490883
 21
61.90000000000464
 31
0.0
  0
LINE
  5
30A6B
330
1E
100
AcDbEntity
  8
DETAIL
  6
CONTINUOUS
100
AcDbLine
 10
111.000000502845
 20
498.100000000001
 30
0.0
 11
111.0000005028487
 21
61.90000000000509
 31
0.0
  0
LINE
  5
30A6C
330
1E
100
AcDbEntity
  8
DETAIL
  6
CONTINUOUS
100
AcDbLine
 10
119.2928932188078
 20
498.100000000001
 30
0.0
 11
119.2928932188078
 21
61.90000000000509
 31
0.0
  0
LINE
  5
30A6D
330
1E
100
AcDbEntity
  8
DETAIL
  6
CONTINUOUS
100
AcDbLine
 10
122.500000545704
 20
498.100000000001
 30
0.0
 11
122.500000545704
 21
61.90000000000509
 31
0.0
  0
LINE
  5
30A6E
330
1E
100
AcDbEntity
  8
DETAIL
  6
CONTINUOUS
100
AcDbLine
 10
130.999999498621
 20
498.100000000001
 30
0.0
 11
130.999999498621
 21
61.90000000000509
 31
0.0
  0
LINE
  5
30A6F
330
1E
100
AcDbEntity
  8
DETAIL
  6
CONTINUOUS
100
AcDbLine
 10
134.000000494263
 20
498.100000000001
 30
0.0
 11
134.0000004942594
 21
61.90000000000555
 31
0.0
  0
LINE
  5
30A70
330
1E
100
AcDbEntity
  8
DETAIL
  6
CONTINUOUS
100
AcDbLine
 10
146.0463405056434
 20
498.100000000001
 30
0.0
 11
146.046340505647
 21
61.90000000000509
 31
0.0
  0
LINE
  5
30E98
330
1E
100
AcDbEntity
  8
BASIS
  6
DASHDOT
100
AcDbLine
 10
279.6965546087412
 20
713.0
 30
0.0
 11
129.8131841424001
 21
713.0
 31
0.0
  0
LINE
  5
30EA7
330
1E
100
AcDbEntity
  8
BASIS
  6
DASHDOT
100
AcDbLine
 10
173.0000005705114
 20
681.3586934132554
 30
0.0
 11
173.0000005705114
 21
736.9883167129382
 31
0.0
  0
LINE
  5
30EA8
330
1E
100
AcDbEntity
  8
BASIS
  6
DASHDOT
100
AcDbLine
 10
238.0000005705114
 20
680.3464012604608
 30
0.0
 11
238.0000005705114
 21
737.3916200590838
 31
0.0
  0
LINE
  5
30EA9
330
1E
100
AcDbEntity
  8
NOTE
100
AcDbLine
 10
238.0000005705114
 20
693.0
 30
0.0
 11
238.0000005705114
 21
733.0
 31
0.0
  0
LINE
  5
30EAA
330
1E
100
AcDbEntity
  8
NOTE
100
AcDbLine
 10
218.0000005705114
 20
713.0
 30
0.0
 11
258.0000005705114
 21
713.0
 31
0.0
  0
LINE
  5
30EAB
330
1E
100
AcDbEntity
  8
NOTE
100
AcDbLine
 10
173.0000005705114
 20
693.0
 30
0.0
 11
173.0000005705114
 21
733.0
 31
0.0
  0
LINE
  5
30EAC
330
1E
100
AcDbEntity
  8
NOTE
100
AcDbLine
 10
153.0000005705114
 20
713.0
 30
0.0
 11
193.0000005705114
 21
713.0
 31
0.0
  0
LINE
  5
30EB5
330
1E
100
AcDbEntity
  8
NOTE
100
AcDbLine
 10
249.999999988413
 20
-20.0
 30
0.0
 11
249.999999988413
 21
20.0
 31
0.0
  0
LINE
  5
30EB6
330
1E
100
AcDbEntity
  8
NOTE
100
AcDbLine
 10
229.999999988413
 20
0.0
 30
0.0
 11
269.999999988413
 21
0.0
 31
0.0
  0
CIRCLE
  5
30EB7
330
1E
100
AcDbEntity
  8
FIX
  6
CONTINUOUS
100
AcDbCircle
 10
249.999999988413
 20
0.0
 30
0.0
 40
5.0
  0
LINE
  5
30EB8
330
1E
100
AcDbEntity
  8
NOTE
100
AcDbLine
 10
-250.0000000115869
 20
-20.0
 30
0.0
 11
-250.0000000115869
 21
20.0
 31
0.0
  0
LINE
  5
30EB9
330
1E
100
AcDbEntity
  8
NOTE
100
AcDbLine
 10
-270.0000000115869
 20
0.0
 30
0.0
 11
-230.0000000115869
 21
0.0
 31
0.0
  0
CIRCLE
  5
30EBA
330
1E
100
AcDbEntity
  8
FIX
  6
CONTINUOUS
100
AcDbCircle
 10
-250.0000000115869
 20
0.0
 30
0.0
 40
5.0
  0
TEXT
  5
30EBB
330
1E
100
AcDbEntity
  8
ETC
100
AcDbText
 10
480.480665504896
 20
1149.473918521264
 30
0.0
 40
64.0
  1
SMUS4492
 41
0.8750000068359348
 72
     5
 11
907.1473355048947
 21
1149.473918521264
 31
0.0
100
AcDbText
  0
TEXT
  5
30EBC
330
1E
100
AcDbEntity
  8
ETC
100
AcDbText
 10
482.6706055048962
 20
1238.410188521265
 30
0.0
 40
64.0
  1
室外機
100
AcDbText
  0
TEXT
  5
32402
330
1E
100
AcDbEntity
  8
NOTE
100
AcDbText
 10
-1184.94640528602
 20
-111.0289375824609
 30
0.0
 40
64.0
  1
AH 2-%%c10×21
 41
0.9
100
AcDbText
  0
LINE
  5
32403
330
1E
100
AcDbEntity
  8
NOTE
  6
CONTINUOUS
100
AcDbLine
 10
-548.5019833711674
 20
-134.446647582461
 30
0.0
 11
-1188.098995286021
 21
-134.446647582461
 31
0.0
  0
LINE
  5
32404
330
1E
100
AcDbEntity
  8
NOTE
  6
CONTINUOUS
100
AcDbLine
 10
-250.0
 20
0.0
 30
0.0
 11
-548.5019833711674
 21
-134.446647582461
 31
0.0
  0
LINE
  5
32405
330
1E
100
AcDbEntity
  8
NOTE
  6
CONTINUOUS
100
AcDbLine
 10
-281.9962145730305
 20
-24.00505127638552
 30
0.0
 11
-250.0
 21
0.0
 31
0.0
  0
LINE
  5
32406
330
1E
100
AcDbEntity
  8
NOTE
  6
CONTINUOUS
100
AcDbLine
 10
-250.0
 20
0.0
 30
0.0
 11
-289.7120597785583
 21
-4.790879082777792
 31
0.0
  0
LINE
  5
3247C
330
1E
100
AcDbEntity
  8
NOTE
  6
CONTINUOUS
100
AcDbLine
 10
471.8854484379348
 20
1014.045692017683
 30
0.0
 11
1440.922208550135
 21
1014.045692017683
 31
0.0
  0
LINE
  5
3247E
330
1E
100
AcDbEntity
  8
NOTE
  6
CONTINUOUS
100
AcDbLine
 10
469.709286204567
 20
869.2281413972468
 30
0.0
 11
1508.727832632921
 21
869.2281413972468
 31
0.0
  0
LINE
  5
32480
330
1E
100
AcDbEntity
  8
NOTE
  6
CONTINUOUS
100
AcDbLine
 10
469.709286204567
 20
869.2281413972468
 30
0.0
 11
238.0000005705114
 21
713.0
 31
0.0
  0
LINE
  5
32481
330
1E
100
AcDbEntity
  8
NOTE
  6
CONTINUOUS
100
AcDbLine
 10
471.8854484379348
 20
1014.045692017683
 30
0.0
 11
173.0000005705115
 21
713.0
 31
0.0
  0
LINE
  5
32482
330
1E
100
AcDbEntity
  8
NOTE
  6
CONTINUOUS
100
AcDbLine
 10
238.0000005705114
 20
713.0
 30
0.0
 11
276.0339314300173
 21
725.3863058456788
 31
0.0
  0
LINE
  5
32483
330
1E
100
AcDbEntity
  8
NOTE
  6
CONTINUOUS
100
AcDbLine
 10
238.0000005705114
 20
713.0
 30
0.0
 11
264.7451929960536
 21
742.7438163454594
 31
0.0
  0
LINE
  5
32484
330
1E
100
AcDbEntity
  8
NOTE
  6
CONTINUOUS
100
AcDbLine
 10
173.0000005705115
 20
713.0
 30
0.0
 11
207.8980026999145
 21
732.5481435564752
 31
0.0
  0
LINE
  5
32485
330
1E
100
AcDbEntity
  8
NOTE
  6
CONTINUOUS
100
AcDbLine
 10
173.0000005705115
 20
713.0
 30
0.0
 11
193.4484811869985
 21
747.3781844946595
 31
0.0
  0
TEXT
  5
32749
330
1E
100
AcDbEntity
  8
NOTE
100
AcDbText
 10
499.9109797430992
 20
1032.539621017684
 30
0.0
 40
64.0
  1
H R3/4(管用テ－パおねじ）
 41
0.9
100
AcDbText
  0
TEXT
  5
3274A
330
1E
100
AcDbEntity
  8
NOTE
100
AcDbText
 10
497.7348175097314
 20
887.7220703972479
 30
0.0
 40
64.0
  1
HR R3/4(管用テ－パおねじ）
 41
0.9
100
AcDbText
  0
LINE
  5
32BBB
330
1E
100
AcDbEntity
  8
SIZE
100
AcDbLine
 10
400.0000005705078
 20
10.19999999972969
 30
0.0
 11
400.0000005705078
 21
-414.3851390542176
 31
0.0
  0
LINE
  5
32BBC
330
1E
100
AcDbEntity
  8
SIZE
100
AcDbLine
 10
469.4999999999891
 20
42.93366701082959
 30
0.0
 11
469.499999999989
 21
-414.3851390542176
 31
0.0
  0
LINE
  5
32BBD
330
1E
100
AcDbEntity
  8
SIZE
100
AcDbLine
 10
390.0000005705078
 20
-384.3851390542177
 30
0.0
 11
380.0000005705078
 21
-384.3851390542177
 31
0.0
  0
LINE
  5
32BBE
330
1E
100
AcDbEntity
  8
SIZE
100
AcDbLine
 10
479.499999999989
 20
-384.3851390542177
 30
0.0
 11
620.0142857142748
 21
-384.3851390542177
 31
0.0
  0
LINE
  5
32BBF
330
1E
100
AcDbEntity
  8
SIZE
100
AcDbLine
 10
400.0000005705078
 20
-384.3851390542177
 30
0.0
 11
469.4999999999891
 21
-384.3851390542177
 31
0.0
  0
LINE
  5
32BC3
330
1E
100
AcDbEntity
  8
SIZE
100
AcDbLine
 10
-442.1268586790756
 20
280.0
 30
0.0
 11
-545.801434439203
 21
280.0
 31
0.0
  0
LINE
  5
32BC4
330
1E
100
AcDbEntity
  8
SIZE
100
AcDbLine
 10
-290.0000000115869
 20
0.0000000000000057
 30
0.0
 11
-545.8014344392031
 21
0.0000000000000781
 31
0.0
  0
LINE
  5
32BC5
330
1E
100
AcDbEntity
  8
SIZE
100
AcDbLine
 10
-515.801434439203
 20
270.0
 30
0.0
 11
-515.8014344392031
 21
10.00000000000006
 31
0.0
  0
LINE
  5
32BC9
330
1E
100
AcDbEntity
  8
SIZE
100
AcDbLine
 10
-399.9999999999963
 20
10.20000000000391
 30
0.0
 11
-399.9999999999963
 21
-183.0810568103397
 31
0.0
  0
LINE
  5
32BCA
330
1E
100
AcDbEntity
  8
SIZE
100
AcDbLine
 10
-97.5
 20
22.70575797107085
 30
0.0
 11
-97.50000000000001
 21
-183.0810568103397
 31
0.0
  0
LINE
  5
32BCB
330
1E
100
AcDbEntity
  8
SIZE
100
AcDbLine
 10
-389.9999999999963
 20
-153.0810568103397
 30
0.0
 11
-107.5
 21
-153.0810568103397
 31
0.0
  0
LINE
  5
32BCF
330
1E
100
AcDbEntity
  8
SIZE
100
AcDbLine
 10
-250.0000000115869
 20
-40.0
 30
0.0
 11
-250.0000000115869
 21
-299.4677373327494
 31
0.0
  0
LINE
  5
32BD0
330
1E
100
AcDbEntity
  8
SIZE
100
AcDbLine
 10
-399.9999999999927
 20
10.20000000000345
 30
0.0
 11
-399.9999999999927
 21
-299.4677373327494
 31
0.0
  0
LINE
  5
32BD1
330
1E
100
AcDbEntity
  8
SIZE
100
AcDbLine
 10
-240.0000000115869
 20
-269.4677373327495
 30
0.0
 11
-230.0000000115869
 21
-269.4677373327495
 31
0.0
  0
LINE
  5
32BD2
330
1E
100
AcDbEntity
  8
SIZE
100
AcDbLine
 10
-409.9999999999927
 20
-269.4677373327495
 30
0.0
 11
-597.1428571428498
 21
-269.4677373327495
 31
0.0
  0
LINE
  5
32BD3
330
1E
100
AcDbEntity
  8
SIZE
100
AcDbLine
 10
-250.0000000115869
 20
-269.4677373327495
 30
0.0
 11
-399.9999999999927
 21
-269.4677373327495
 31
0.0
  0
LINE
  5
32BD7
330
1E
100
AcDbEntity
  8
SIZE
100
AcDbLine
 10
-399.9999999999927
 20
10.20000000000345
 30
0.0
 11
-399.9999999999927
 21
-414.3851390542176
 31
0.0
  0
LINE
  5
32BD8
330
1E
100
AcDbEntity
  8
SIZE
100
AcDbLine
 10
400.0000005705114
 20
10.19999999978472
 30
0.0
 11
400.0000005705114
 21
-414.3851390542176
 31
0.0
  0
LINE
  5
32BD9
330
1E
100
AcDbEntity
  8
SIZE
100
AcDbLine
 10
-389.9999999999927
 20
-384.3851390542177
 30
0.0
 11
390.0000005705114
 21
-384.3851390542177
 31
0.0
  0
LINE
  5
32BDD
330
1E
100
AcDbEntity
  8
SIZE
100
AcDbLine
 10
290.0
 20
-0.0000000000000057
 30
0.0
 11
690.203925504884
 21
-0.000000000000119
 31
0.0
  0
LINE
  5
32BDE
330
1E
100
AcDbEntity
  8
SIZE
100
AcDbLine
 10
299.6965546087412
 20
713.0
 30
0.0
 11
690.203925504884
 21
713.0
 31
0.0
  0
LINE
  5
32BDF
330
1E
100
AcDbEntity
  8
SIZE
100
AcDbLine
 10
660.2039255048839
 20
9.999999999999888
 30
0.0
 11
660.2039255048841
 21
703.0
 31
0.0
  0
LINE
  5
32BE3
330
1E
100
AcDbEntity
  8
SIZE
100
AcDbLine
 10
-380.4323029590814
 20
789.9999999999963
 30
0.0
 11
-705.6900628537439
 21
789.9999999999963
 31
0.0
  0
LINE
  5
32BE4
330
1E
100
AcDbEntity
  8
SIZE
100
AcDbLine
 10
-290.0
 20
0.0000000000000057
 30
0.0
 11
-705.6900628537441
 21
0.0000000000001234
 31
0.0
  0
LINE
  5
32BE5
330
1E
100
AcDbEntity
  8
SIZE
100
AcDbLine
 10
-675.6900628537439
 20
779.9999999999963
 30
0.0
 11
-675.6900628537441
 21
10.00000000000011
 31
0.0
  0
LINE
  5
32BE9
330
1E
100
AcDbEntity
  8
SIZE
100
AcDbLine
 10
-250.0000000115869
 20
-40.0
 30
0.0
 11
-250.0000000115869
 21
-299.4677373327494
 31
0.0
  0
LINE
  5
32BEA
330
1E
100
AcDbEntity
  8
SIZE
100
AcDbLine
 10
249.999999988413
 20
-40.0
 30
0.0
 11
249.999999988413
 21
-299.4677373327494
 31
0.0
  0
LINE
  5
32BEB
330
1E
100
AcDbEntity
  8
SIZE
100
AcDbLine
 10
-240.0000000115869
 20
-269.4677373327495
 30
0.0
 11
239.9999999884129
 21
-269.4677373327495
 31
0.0
  0
LINE
  5
32BEF
330
1E
100
AcDbEntity
  8
SIZE
100
AcDbLine
 10
-400.0
 20
544.4999999999981
 30
0.0
 11
-400.0
 21
899.8254609982623
 31
0.0
  0
LINE
  5
32BF0
330
1E
100
AcDbEntity
  8
SIZE
100
AcDbLine
 10
-422.2999999999996
 20
785.2000000187309
 30
0.0
 11
-422.2999999999996
 21
899.8254609982623
 31
0.0
  0
LINE
  5
32BF1
330
1E
100
AcDbEntity
  8
SIZE
100
AcDbLine
 10
-390.0
 20
869.8254609982623
 30
0.0
 11
-380.0
 21
869.8254609982623
 31
0.0
  0
LINE
  5
32BF2
330
1E
100
AcDbEntity
  8
SIZE
100
AcDbLine
 10
-432.2999999999995
 20
869.8254609982623
 30
0.0
 11
-657.8428571428568
 21
869.8254609982623
 31
0.0
  0
LINE
  5
32BF3
330
1E
100
AcDbEntity
  8
SIZE
100
AcDbLine
 10
-400.0
 20
869.8254609982623
 30
0.0
 11
-422.2999999999996
 21
869.8254609982623
 31
0.0
  0
LINE
  5
32BF7
330
1E
100
AcDbEntity
  8
SIZE
100
AcDbLine
 10
400.2000000000007
 20
781.6609003688244
 30
0.0
 11
400.2000000000007
 21
1027.912537830439
 31
0.0
  0
LINE
  5
32BF8
330
1E
100
AcDbEntity
  8
SIZE
100
AcDbLine
 10
173.0000005705114
 20
753.0
 30
0.0
 11
173.0000005705115
 21
1027.912537830439
 31
0.0
  0
LINE
  5
32BF9
330
1E
100
AcDbEntity
  8
SIZE
100
AcDbLine
 10
390.2000000000007
 20
997.9125378304388
 30
0.0
 11
183.0000005705115
 21
997.9125378304388
 31
0.0
  0
LINE
  5
32BFD
330
1E
100
AcDbEntity
  8
SIZE
100
AcDbLine
 10
238.0000005705114
 20
757.3916200590838
 30
0.0
 11
238.0000005705114
 21
915.8858160468453
 31
0.0
  0
LINE
  5
32BFE
330
1E
100
AcDbEntity
  8
SIZE
100
AcDbLine
 10
173.0000005705114
 20
753.0
 30
0.0
 11
173.0000005705114
 21
915.8858160468453
 31
0.0
  0
LINE
  5
32BFF
330
1E
100
AcDbEntity
  8
SIZE
100
AcDbLine
 10
248.0000005705114
 20
885.8858160468454
 30
0.0
 11
258.0000005705114
 21
885.8858160468454
 31
0.0
  0
LINE
  5
32C00
330
1E
100
AcDbEntity
  8
SIZE
100
AcDbLine
 10
163.0000005705114
 20
885.8858160468454
 30
0.0
 11
19.74285771336863
 21
885.8858160468454
 31
0.0
  0
LINE
  5
32C01
330
1E
100
AcDbEntity
  8
SIZE
100
AcDbLine
 10
238.0000005705114
 20
885.8858160468454
 30
0.0
 11
173.0000005705114
 21
885.8858160468454
 31
0.0
  0
LINE
  5
32C05
330
1E
100
AcDbEntity
  8
SIZE
100
AcDbLine
 10
400.0000000007038
 20
563.0560983669097
 30
0.0
 11
400.0000000007038
 21
639.0911671809963
 31
0.0
  0
LINE
  5
32C06
330
1E
100
AcDbEntity
  8
SIZE
100
AcDbLine
 10
469.8999999999933
 20
579.3454017059434
 30
0.0
 11
469.8999999999933
 21
639.0911671809963
 31
0.0
  0
LINE
  5
32C07
330
1E
100
AcDbEntity
  8
SIZE
100
AcDbLine
 10
390.0000000007038
 20
609.0911671809963
 30
0.0
 11
380.0000000007038
 21
609.0911671809963
 31
0.0
  0
LINE
  5
32C08
330
1E
100
AcDbEntity
  8
SIZE
100
AcDbLine
 10
479.8999999999932
 20
609.0911671809963
 30
0.0
 11
623.157142857136
 21
609.0911671809963
 31
0.0
  0
LINE
  5
32C09
330
1E
100
AcDbEntity
  8
SIZE
100
AcDbLine
 10
400.0000000007038
 20
609.0911671809963
 30
0.0
 11
469.8999999999933
 21
609.0911671809963
 31
0.0
  0
CIRCLE
  5
32C0D
330
1E
100
AcDbEntity
  8
SIZE
100
AcDbCircle
 10
-675.6900628537441
 20
0.0000000000001149
 30
0.0
 40
5.0
  0
LINE
  5
32C0E
330
1E
100
AcDbEntity
  8
SIZE
100
AcDbLine
 10
-675.6900628537441
 20
0.0000000000001149
 30
0.0
 11
-675.6900628537441
 21
10.00000000000011
 31
0.0
  0
CIRCLE
  5
32C0F
330
1E
100
AcDbEntity
  8
SIZE
100
AcDbCircle
 10
660.2039255048839
 20
-0.0000000000001105
 30
0.0
 40
5.0
  0
LINE
  5
32C10
330
1E
100
AcDbEntity
  8
SIZE
100
AcDbLine
 10
660.2039255048839
 20
-0.0000000000001105
 30
0.0
 11
660.2039255048839
 21
9.999999999999889
 31
0.0
  0
CIRCLE
  5
32C11
330
1E
100
AcDbEntity
  8
SIZE
100
AcDbCircle
 10
-515.8014344392031
 20
0.0000000000000696
 30
0.0
 40
5.0
  0
LINE
  5
32C12
330
1E
100
AcDbEntity
  8
SIZE
100
AcDbLine
 10
-515.8014344392031
 20
0.0000000000000696
 30
0.0
 11
-515.8014344392031
 21
10.00000000000006
 31
0.0
  0
TEXT
  5
32C13
330
1E
100
AcDbEntity
  8
SIZE
100
AcDbText
 10
-363.9499999999981
 20
-133.0810568103397
 30
0.0
 40
64.0
  1
302.5
 41
0.9
100
AcDbText
  0
TEXT
  5
32C14
330
1E
100
AcDbEntity
  8
SIZE
100
AcDbText
 10
-577.1428571428498
 20
-249.4677373327494
 30
0.0
 40
64.0
  1
150
 41
0.9
100
AcDbText
  0
CIRCLE
  5
32C15
330
1E
100
AcDbEntity
  8
SIZE
100
AcDbCircle
 10
-399.9999999999927
 20
-384.3851390542177
 30
0.0
 40
5.0
  0
LINE
  5
32C16
330
1E
100
AcDbEntity
  8
SIZE
100
AcDbLine
 10
-399.9999999999927
 20
-384.3851390542177
 30
0.0
 11
-389.9999999999927
 21
-384.3851390542177
 31
0.0
  0
CIRCLE
  5
32C17
330
1E
100
AcDbEntity
  8
SIZE
100
AcDbCircle
 10
-399.9999999999927
 20
-269.4677373327495
 30
0.0
 40
5.0
  0
LINE
  5
32C18
330
1E
100
AcDbEntity
  8
SIZE
100
AcDbLine
 10
-399.9999999999927
 20
-269.4677373327495
 30
0.0
 11
-409.9999999999927
 21
-269.4677373327495
 31
0.0
  0
CIRCLE
  5
32C19
330
1E
100
AcDbEntity
  8
SIZE
100
AcDbCircle
 10
-399.9999999999963
 20
-153.0810568103397
 30
0.0
 40
5.0
  0
LINE
  5
32C1A
330
1E
100
AcDbEntity
  8
SIZE
100
AcDbLine
 10
-399.9999999999963
 20
-153.0810568103397
 30
0.0
 11
-389.9999999999963
 21
-153.0810568103397
 31
0.0
  0
TEXT
  5
32C1B
330
1E
100
AcDbEntity
  8
SIZE
100
AcDbText
 10
-74.05714286872981
 20
-249.4677373327494
 30
0.0
 40
64.0
  1
500
 41
0.9
100
AcDbText
  0
TEXT
  5
32C1C
330
1E
100
AcDbEntity
  8
SIZE
100
AcDbText
 10
-81.03497354126458
 20
-364.3851390542176
 30
0.0
 40
64.0
  1
800
 41
0.9
100
AcDbText
  0
CIRCLE
  5
32C1D
330
1E
100
AcDbEntity
  8
SIZE
100
AcDbCircle
 10
-250.0000000115869
 20
-269.4677373327495
 30
0.0
 40
5.0
  0
LINE
  5
32C1E
330
1E
100
AcDbEntity
  8
SIZE
100
AcDbLine
 10
-250.0000000115869
 20
-269.4677373327495
 30
0.0
 11
-240.0000000115869
 21
-269.4677373327495
 31
0.0
  0
CIRCLE
  5
32C1F
330
1E
100
AcDbEntity
  8
SIZE
100
AcDbCircle
 10
-250.0000000115869
 20
-269.4677373327495
 30
0.0
 40
5.0
  0
LINE
  5
32C20
330
1E
100
AcDbEntity
  8
SIZE
100
AcDbLine
 10
-250.0000000115869
 20
-269.4677373327495
 30
0.0
 11
-240.0000000115869
 21
-269.4677373327495
 31
0.0
  0
CIRCLE
  5
32C21
330
1E
100
AcDbEntity
  8
SIZE
100
AcDbCircle
 10
-97.50000000000001
 20
-153.0810568103397
 30
0.0
 40
5.0
  0
LINE
  5
32C22
330
1E
100
AcDbEntity
  8
SIZE
100
AcDbLine
 10
-97.50000000000001
 20
-153.0810568103397
 30
0.0
 11
-107.5
 21
-153.0810568103397
 31
0.0
  0
CIRCLE
  5
32C23
330
1E
100
AcDbEntity
  8
SIZE
100
AcDbCircle
 10
249.999999988413
 20
-269.4677373327495
 30
0.0
 40
5.0
  0
LINE
  5
32C24
330
1E
100
AcDbEntity
  8
SIZE
100
AcDbLine
 10
249.999999988413
 20
-269.4677373327495
 30
0.0
 11
239.9999999884129
 21
-269.4677373327495
 31
0.0
  0
TEXT
  5
32C25
330
1E
100
AcDbEntity
  8
SIZE
100
AcDbText
 10
509.4999999999891
 20
-364.3851390542176
 30
0.0
 40
64.0
  1
69
 41
0.9
100
AcDbText
  0
CIRCLE
  5
32C26
330
1E
100
AcDbEntity
  8
SIZE
100
AcDbCircle
 10
400.0000005705114
 20
-384.3851390542177
 30
0.0
 40
5.0
  0
LINE
  5
32C27
330
1E
100
AcDbEntity
  8
SIZE
100
AcDbLine
 10
400.0000005705114
 20
-384.3851390542177
 30
0.0
 11
390.0000005705114
 21
-384.3851390542177
 31
0.0
  0
CIRCLE
  5
32C28
330
1E
100
AcDbEntity
  8
SIZE
100
AcDbCircle
 10
400.0000005705078
 20
-384.3851390542177
 30
0.0
 40
5.0
  0
LINE
  5
32C29
330
1E
100
AcDbEntity
  8
SIZE
100
AcDbLine
 10
400.0000005705078
 20
-384.3851390542177
 30
0.0
 11
390.0000005705078
 21
-384.3851390542177
 31
0.0
  0
CIRCLE
  5
32C2A
330
1E
100
AcDbEntity
  8
SIZE
100
AcDbCircle
 10
469.4999999999891
 20
-384.3851390542177
 30
0.0
 40
5.0
  0
LINE
  5
32C2B
330
1E
100
AcDbEntity
  8
SIZE
100
AcDbLine
 10
469.4999999999891
 20
-384.3851390542177
 30
0.0
 11
479.499999999989
 21
-384.3851390542177
 31
0.0
  0
TEXT
  5
32C2C
330
1E
100
AcDbEntity
  8
SIZE
100
AcDbText
 10
-637.8428571428568
 20
889.8254609982624
 30
0.0
 40
64.0
  1
22.3
 41
0.9
100
AcDbText
  0
TEXT
  5
32C2D
330
1E
100
AcDbEntity
  8
SIZE
100
AcDbText
 10
-695.6900628537441
 20
320.9428571428553
 30
0.0
 40
64.0
  1
790
 50
90.0
 41
0.9
100
AcDbText
  0
TEXT
  5
32C2E
330
1E
100
AcDbEntity
  8
SIZE
100
AcDbText
 10
-535.8014344392031
 20
65.9428571428571
 30
0.0
 40
64.0
  1
280
 50
90.0
 41
0.9
100
AcDbText
  0
CIRCLE
  5
32C2F
330
1E
100
AcDbEntity
  8
SIZE
100
AcDbCircle
 10
-515.801434439203
 20
280.0
 30
0.0
 40
5.0
  0
LINE
  5
32C30
330
1E
100
AcDbEntity
  8
SIZE
100
AcDbLine
 10
-515.801434439203
 20
280.0
 30
0.0
 11
-515.801434439203
 21
270.0
 31
0.0
  0
CIRCLE
  5
32C31
330
1E
100
AcDbEntity
  8
SIZE
100
AcDbCircle
 10
-675.6900628537439
 20
789.9999999999963
 30
0.0
 40
5.0
  0
LINE
  5
32C32
330
1E
100
AcDbEntity
  8
SIZE
100
AcDbLine
 10
-675.6900628537439
 20
789.9999999999963
 30
0.0
 11
-675.6900628537439
 21
779.9999999999963
 31
0.0
  0
CIRCLE
  5
32C33
330
1E
100
AcDbEntity
  8
SIZE
100
AcDbCircle
 10
-422.2999999999996
 20
869.8254609982623
 30
0.0
 40
5.0
  0
LINE
  5
32C34
330
1E
100
AcDbEntity
  8
SIZE
100
AcDbLine
 10
-422.2999999999996
 20
869.8254609982623
 30
0.0
 11
-432.2999999999995
 21
869.8254609982623
 31
0.0
  0
CIRCLE
  5
32C35
330
1E
100
AcDbEntity
  8
SIZE
100
AcDbCircle
 10
-400.0
 20
869.8254609982623
 30
0.0
 40
5.0
  0
LINE
  5
32C36
330
1E
100
AcDbEntity
  8
SIZE
100
AcDbLine
 10
-400.0
 20
869.8254609982623
 30
0.0
 11
-390.0
 21
869.8254609982623
 31
0.0
  0
CIRCLE
  5
32C37
330
1E
100
AcDbEntity
  8
SIZE
100
AcDbCircle
 10
173.0000005705114
 20
885.8858160468454
 30
0.0
 40
5.0
  0
LINE
  5
32C38
330
1E
100
AcDbEntity
  8
SIZE
100
AcDbLine
 10
173.0000005705114
 20
885.8858160468454
 30
0.0
 11
163.0000005705114
 21
885.8858160468454
 31
0.0
  0
CIRCLE
  5
32C39
330
1E
100
AcDbEntity
  8
SIZE
100
AcDbCircle
 10
238.0000005705114
 20
885.8858160468454
 30
0.0
 40
5.0
  0
LINE
  5
32C3A
330
1E
100
AcDbEntity
  8
SIZE
100
AcDbLine
 10
238.0000005705114
 20
885.8858160468454
 30
0.0
 11
248.0000005705114
 21
885.8858160468454
 31
0.0
  0
TEXT
  5
32C3B
330
1E
100
AcDbEntity
  8
SIZE
100
AcDbText
 10
640.203925504884
 20
285.2242720261564
 30
0.0
 40
64.0
  1
713
 50
90.0
 41
0.9
100
AcDbText
  0
TEXT
  5
32C3C
330
1E
100
AcDbEntity
  8
SIZE
100
AcDbText
 10
509.8999999999931
 20
629.0911671809963
 30
0.0
 40
64.0
  1
70
 41
0.9
100
AcDbText
  0
CIRCLE
  5
32C3D
330
1E
100
AcDbEntity
  8
SIZE
100
AcDbCircle
 10
400.0000000007038
 20
609.0911671809963
 30
0.0
 40
5.0
  0
LINE
  5
32C3E
330
1E
100
AcDbEntity
  8
SIZE
100
AcDbLine
 10
400.0000000007038
 20
609.0911671809963
 30
0.0
 11
390.0000000007038
 21
609.0911671809963
 31
0.0
  0
CIRCLE
  5
32C3F
330
1E
100
AcDbEntity
  8
SIZE
100
AcDbCircle
 10
469.8999999999933
 20
609.0911671809963
 30
0.0
 40
5.0
  0
LINE
  5
32C40
330
1E
100
AcDbEntity
  8
SIZE
100
AcDbLine
 10
469.8999999999933
 20
609.0911671809963
 30
0.0
 11
479.8999999999932
 21
609.0911671809963
 31
0.0
  0
CIRCLE
  5
32C41
330
1E
100
AcDbEntity
  8
SIZE
100
AcDbCircle
 10
660.2039255048841
 20
713.0
 30
0.0
 40
5.0
  0
LINE
  5
32C42
330
1E
100
AcDbEntity
  8
SIZE
100
AcDbLine
 10
660.2039255048841
 20
713.0
 30
0.0
 11
660.2039255048841
 21
703.0
 31
0.0
  0
TEXT
  5
32C43
330
1E
100
AcDbEntity
  8
SIZE
100
AcDbText
 10
39.74285771336864
 20
905.8858160468453
 30
0.0
 40
64.0
  1
65
 41
0.9
100
AcDbText
  0
CIRCLE
  5
32C44
330
1E
100
AcDbEntity
  8
SIZE
100
AcDbCircle
 10
173.0000005705115
 20
997.9125378304388
 30
0.0
 40
5.0
  0
LINE
  5
32C45
330
1E
100
AcDbEntity
  8
SIZE
100
AcDbLine
 10
173.0000005705115
 20
997.9125378304388
 30
0.0
 11
183.0000005705115
 21
997.9125378304388
 31
0.0
  0
TEXT
  5
32C46
330
1E
100
AcDbEntity
  8
SIZE
100
AcDbText
 10
212.5428574281132
 20
1017.912537830439
 30
0.0
 40
64.0
  1
227
 41
0.9
100
AcDbText
  0
CIRCLE
  5
32C47
330
1E
100
AcDbEntity
  8
SIZE
100
AcDbCircle
 10
400.2000000000007
 20
997.9125378304388
 30
0.0
 40
5.0
  0
LINE
  5
32C48
330
1E
100
AcDbEntity
  8
SIZE
100
AcDbLine
 10
400.2000000000007
 20
997.9125378304388
 30
0.0
 11
390.2000000000007
 21
997.9125378304388
 31
0.0
  0
LINE
  5
32C75
330
1E
100
AcDbEntity
  8
OUTLINE
100
AcDbLine
 10
469.4999999999891
 20
62.93366701082959
 30
0.0
 11
469.4999999999891
 21
202.3492533421995
 31
0.0
  0
LINE
  5
32C77
330
1E
100
AcDbEntity
  8
OUTLINE
100
AcDbLine
 10
457.331487491374
 20
47.01223135197324
 30
0.0
 11
400.0000005688962
 21
31.65030573021883
 31
0.0
  0
LINE
  5
32C7D
330
1E
100
AcDbEntity
  8
OUTLINE
100
AcDbLine
 10
441.999999999989
 20
222.5962230284949
 30
0.0
 11
441.999999999989
 21
548.2130499247523
 31
0.0
  0
ARC
  5
32C80
330
1E
100
AcDbEntity
  8
OUTLINE
100
AcDbCircle
 10
400.6999999999971
 20
740.6006387646175
 30
0.0
 40
0.5
100
AcDbArc
 50
180.0
 51
259.9999999999448
  0
ARC
  5
32C81
330
1E
100
AcDbEntity
  8
OUTLINE
100
AcDbCircle
 10
399.2000000000007
 20
761.6609003688245
 30
0.0
 40
1.0
100
AcDbArc
 50
0.0
 51
80.00000000004742
  0
ARC
  5
32C82
330
1E
100
AcDbEntity
  8
OUTLINE
100
AcDbCircle
 10
445.4999999999927
 20
553.191534173302
 30
0.0
 40
0.4999999999985901
100
AcDbArc
 50
96.99999999992801
 51
180.0000000001563
  0
ARC
  5
32C83
330
1E
100
AcDbEntity
  8
OUTLINE
100
AcDbCircle
 10
443.9999999999963
 20
549.466128872018
 30
0.0
 40
0.9999999999999099
100
AcDbArc
 50
277.0000000000314
 51
0.0
  0
ARC
  5
32C84
330
1E
100
AcDbEntity
  8
OUTLINE
100
AcDbCircle
 10
466.8999887561767
 20
559.3454181134165
 30
0.0
 40
3.000011243861409
100
AcDbArc
 50
276.9996866400357
 51
359.999686641518
  0
ARC
  5
32C85
330
1E
100
AcDbEntity
  8
OUTLINE
100
AcDbCircle
 10
399.2000000000007
 20
543.9653805435682
 30
0.0
 40
0.9999999999999399
100
AcDbArc
 50
323.1301023884861
 51
0.0
  0
LINE
  5
32C86
330
1E
100
AcDbEntity
  8
OUTLINE
100
AcDbLine
 10
467.2655818714156
 20
556.3677664989084
 30
0.0
 11
445.4390653283008
 21
553.6878072491163
 31
0.0
  0
LINE
  5
32C87
330
1E
100
AcDbEntity
  8
OUTLINE
100
AcDbLine
 10
400.1999999999862
 20
761.6609003688245
 30
0.0
 11
400.2000000000043
 21
543.9653805435798
 31
0.0
  0
LINE
  5
32C88
330
1E
100
AcDbEntity
  8
OUTLINE
100
AcDbLine
 10
394.7943717843409
 20
763.5000000000036
 30
0.0
 11
399.3736481776686
 21
762.6457081218368
 31
0.0
  0
LINE
  5
32C89
330
1E
100
AcDbEntity
  8
OUTLINE
100
AcDbLine
 10
445.0
 20
549.466128872018
 30
0.0
 11
445.0
 21
553.1915341732928
 31
0.0
  0
LINE
  5
32C8A
330
1E
100
AcDbEntity
  8
OUTLINE
100
AcDbLine
 10
441.999999999989
 20
548.2130499247523
 30
0.0
 11
444.1218693433984
 21
548.4735827203713
 31
0.0
  0
LINE
  5
32C8B
330
1E
100
AcDbEntity
  8
OUTLINE
100
AcDbLine
 10
469.8999999999978
 20
715.3046039259879
 30
0.0
 11
469.8999999999978
 21
559.3454017059412
 31
0.0
  0
ARC
  5
32C8D
330
1E
100
AcDbEntity
  8
OUTLINE
100
AcDbCircle
 10
-399.5000000000072
 20
763.2999999999992
 30
0.0
 40
0.7999999999999802
100
AcDbArc
 50
270.0
 51
0.0
  0
ARC
  5
32C8E
330
1E
100
AcDbEntity
  8
OUTLINE
100
AcDbCircle
 10
-401.0000000000036
 20
760.9000000000015
 30
0.0
 40
1.59999999999999
100
AcDbArc
 50
90.0
 51
180.0
  0
LINE
  5
32C8F
330
1E
100
AcDbEntity
  8
OUTLINE
100
AcDbLine
 10
-401.0000000000036
 20
762.5
 30
0.0
 11
-399.5000000000072
 21
762.5
 31
0.0
  0
LINE
  5
32C90
330
1E
100
AcDbEntity
  8
OUTLINE
100
AcDbLine
 10
-398.700000000008
 20
763.500000000002
 30
0.0
 11
-398.700000000008
 21
763.2999999999992
 31
0.0
  0
LINE
  5
32C92
330
1E
100
AcDbEntity
  8
OUTLINE
100
AcDbLine
 10
-401.0000000000036
 20
762.5
 30
0.0
 11
-399.5000000000072
 21
762.5
 31
0.0
  0
LINE
  5
32C93
330
1E
100
AcDbEntity
  8
OUTLINE
100
AcDbLine
 10
-402.6000000000022
 20
524.4999999999982
 30
0.0
 11
-402.6000000000022
 21
760.9000000000015
 31
0.0
  0
LINE
  5
32C94
330
1E
100
AcDbEntity
  8
OUTLINE
100
AcDbLine
 10
-400.0
 20
524.4999999999982
 30
0.0
 11
-402.6000000000022
 21
524.4999999999982
 31
0.0
  0
ARC
  5
32C97
330
1E
100
AcDbEntity
  8
OUTLINE
100
AcDbCircle
 10
-158.4233309840055
 20
791.7007462786841
 30
0.0
 40
1.59925377931477
100
AcDbArc
 50
29.98456361371874
 51
90.01543095926454
  0
ARC
  5
32C98
330
1E
100
AcDbEntity
  8
OUTLINE
100
AcDbCircle
 10
-285.5766690160089
 20
791.7007462786841
 30
0.0
 40
1.5992537793142
100
AcDbArc
 50
89.98456904073547
 51
150.0154363863524
  0
LINE
  5
32C99
330
1E
100
AcDbEntity
  8
OUTLINE
100
AcDbLine
 10
-155.8834192462745
 20
790.5000000000018
 30
0.0
 11
-158.0000000000109
 21
790.5000000000018
 31
0.0
  0
LINE
  5
32C9A
330
1E
100
AcDbEntity
  8
OUTLINE
100
AcDbLine
 10
-286.0000000000036
 20
790.5000000000018
 30
0.0
 11
-288.1165807537399
 21
790.5000000000018
 31
0.0
  0
LINE
  5
32C9B
330
1E
100
AcDbEntity
  8
OUTLINE
100
AcDbLine
 10
-182.32596956208
 20
793.2999999999992
 30
0.0
 11
-261.6740304379163
 21
793.2999999999992
 31
0.0
  0
LINE
  5
32C9C
330
1E
100
AcDbEntity
  8
OUTLINE
100
AcDbLine
 10
-282.9047996686858
 20
793.2999999999992
 30
0.0
 11
-261.6740304379163
 21
793.2999999999992
 31
0.0
  0
LINE
  5
32C9D
330
1E
100
AcDbEntity
  8
OUTLINE
100
AcDbLine
 10
-182.32596956208
 20
793.2999999999992
 30
0.0
 11
-161.0951986621512
 21
793.2999999999992
 31
0.0
  0
LINE
  5
32C9E
330
1E
100
AcDbEntity
  8
OUTLINE
100
AcDbLine
 10
-161.0951986621512
 20
793.2999999999992
 30
0.0
 11
-158.4237616967038
 21
793.2999999999992
 31
0.0
  0
LINE
  5
32C9F
330
1E
100
AcDbEntity
  8
OUTLINE
100
AcDbLine
 10
-286.9618787978106
 20
792.4999999999999
 30
0.0
 11
-288.1165807537399
 21
790.5000000000018
 31
0.0
  0
LINE
  5
32CA0
330
1E
100
AcDbEntity
  8
OUTLINE
100
AcDbLine
 10
-285.5762383033106
 20
793.2999999999992
 30
0.0
 11
-282.9047996686858
 21
793.2999999999992
 31
0.0
  0
LINE
  5
32CA1
330
1E
100
AcDbEntity
  8
OUTLINE
100
AcDbLine
 10
-157.0381212022039
 20
792.4999999999999
 30
0.0
 11
-155.8834192462745
 21
790.5000000000018
 31
0.0
  0
ARC
  5
32CA4
330
1E
100
AcDbEntity
  8
OUTLINE
100
AcDbCircle
 10
397.0010000000002
 20
764.998999999998
 30
0.0
 40
1.499000000000429
100
AcDbArc
 50
270.000043676796
 51
0.0
  0
ARC
  5
32CA5
330
1E
100
AcDbEntity
  8
OUTLINE
100
AcDbCircle
 10
393.4998899268066
 20
777.7081061587523
 30
0.0
 40
4.999636652370469
100
AcDbArc
 50
0.689244937429029
 51
74.35412105987619
  0
ARC
  5
32CA7
330
1E
100
AcDbEntity
  8
OUTLINE
100
AcDbCircle
 10
-401.8009999999958
 20
764.998999999998
 30
0.0
 40
1.49900000000025
100
AcDbArc
 50
180.0
 51
270.0000597594653
  0
ARC
  5
32CA8
330
1E
100
AcDbEntity
  8
OUTLINE
100
AcDbCircle
 10
-392.6000000000061
 20
715.0480323435931
 30
0.0
 40
60.00000000000032
100
AcDbArc
 50
112.1487160964866
 51
118.5278444349031
  0
ARC
  5
32CA9
330
1E
100
AcDbEntity
  8
OUTLINE
100
AcDbCircle
 10
-398.3000025982073
 20
776.3636999763366
 30
0.0
 40
4.999997401800289
100
AcDbArc
 50
105.6422499870002
 51
180.0000035297891
  0
ARC
  5
32CAA
330
1E
100
AcDbEntity
  8
OUTLINE
100
AcDbCircle
 10
-420.3000744679632
 20
766.0060004424486
 30
0.0
 40
1.99992553333323
100
AcDbArc
 50
118.5257852611411
 51
179.9979408701369
  0
ARC
  5
32CAB
330
1E
100
AcDbEntity
  8
OUTLINE
100
AcDbCircle
 10
-392.5999992365035
 20
715.048032587174
 30
0.0
 40
60.00000006224211
100
AcDbArc
 50
102.6533053927362
 51
112.1487168594057
  0
ARC
  5
32CAC
330
1E
100
AcDbEntity
  8
OUTLINE
100
AcDbCircle
 10
-363.7000176310903
 20
788.6226868708582
 30
0.0
 40
0.20001763245121
100
AcDbArc
 50
272.2578393494752
 51
0.0066859658992969
  0
ARC
  5
32CAD
330
1E
100
AcDbEntity
  8
OUTLINE
100
AcDbCircle
 10
-362.5
 20
788.9999999999964
 30
0.0
 40
1.0
100
AcDbArc
 50
90.0
 51
180.0
  0
ARC
  5
32CAE
330
1E
100
AcDbEntity
  8
OUTLINE
100
AcDbCircle
 10
362.5
 20
788.9999999999964
 30
0.0
 40
1.0
100
AcDbArc
 50
0.0
 51
90.0
  0
ARC
  5
32CAF
330
1E
100
AcDbEntity
  8
OUTLINE
100
AcDbCircle
 10
-420.6000002621152
 20
765.1999997378971
 30
0.0
 40
1.69999973789529
100
AcDbArc
 50
179.9999905349102
 51
269.9999905349102
  0
LINE
  5
32CB0
330
1E
100
AcDbEntity
  8
OUTLINE
100
AcDbLine
 10
-420.6000002621152
 20
763.5000000000018
 30
0.0
 11
-398.700000000008
 21
763.500000000002
 31
0.0
  0
LINE
  5
32CB1
330
1E
100
AcDbEntity
  8
OUTLINE
100
AcDbLine
 10
398.5000000000036
 20
764.998999999998
 30
0.0
 11
398.5000873128047
 21
777.6722492782755
 31
0.0
  0
LINE
  5
32CB2
330
1E
100
AcDbEntity
  8
OUTLINE
100
AcDbLine
 10
-422.2999999999996
 20
766.006072316959
 30
0.0
 11
-422.2999999999996
 21
765.2000000187308
 31
0.0
  0
LINE
  5
32CB3
330
1E
100
AcDbEntity
  8
OUTLINE
100
AcDbLine
 10
-403.299999999992
 20
764.9990000000025
 30
0.0
 11
-403.2999999999992
 21
776.3636996682999
 31
0.0
  0
LINE
  5
32CB4
330
1E
100
AcDbEntity
  8
OUTLINE
100
AcDbLine
 10
363.5000000000036
 20
788.4301925069067
 30
0.0
 11
363.5000000000036
 21
788.9999999999964
 31
0.0
  0
LINE
  5
32CB5
330
1E
100
AcDbEntity
  8
OUTLINE
100
AcDbLine
 10
-363.5000000000036
 20
788.9999999999964
 30
0.0
 11
-363.5000000000036
 21
788.622710211348
 31
0.0
  0
LINE
  5
32CB6
330
1E
100
AcDbEntity
  8
OUTLINE
100
AcDbLine
 10
-286.0000000000036
 20
789.9999999999977
 30
0.0
 11
-362.5
 21
789.9999999999963
 31
0.0
  0
LINE
  5
32CB7
330
1E
100
AcDbEntity
  8
OUTLINE
100
AcDbLine
 10
362.5
 20
789.9999999999963
 30
0.0
 11
-158.0000000000109
 21
790.0
 31
0.0
  0
LINE
  5
32CB8
330
1E
100
AcDbEntity
  8
OUTLINE
100
AcDbLine
 10
-158.0000000000109
 20
790.0
 30
0.0
 11
-158.0000000000109
 21
790.5000000000018
 31
0.0
  0
LINE
  5
32CB9
330
1E
100
AcDbEntity
  8
OUTLINE
100
AcDbLine
 10
-286.0000000000036
 20
789.9999999999977
 30
0.0
 11
-286.0000000000036
 21
790.5000000000018
 31
0.0
  0
SPLINE
  5
32CBA
330
1E
100
AcDbEntity
  8
OUTLINE
100
AcDbSpline
210
0.0
220
0.0
230
1.0
 70
     8
 71
     3
 72
    17
 73
    13
 74
    11
 42
0.0000000001
 43
0.0000000001
 44
0.00000000001
 40
0.0
 40
0.0
 40
0.0
 40
0.0
 40
2.125173010022288
 40
5.117699253488947
 40
8.528569512007297
 40
11.9095370597327
 40
14.2156008263645
 40
15.65962683125251
 40
17.09726052004358
 40
18.39330493018711
 40
19.04916166891052
 40
19.77837349375668
 40
19.77837349375668
 40
19.77837349375668
 40
19.77837349375668
 10
-374.3748697035407
 20
19.51186549645262
 30
0.0
 10
-375.0820629621672
 20
19.55307199315144
 30
0.0
 10
-376.7850783847599
 20
19.65230271761477
 30
0.0
 10
-379.6217007575055
 20
19.84106940420135
 30
0.0
 10
-382.8737066914705
 20
20.09052881301983
 30
0.0
 10
-385.8933018445263
 20
20.3730876806232
 30
0.0
 10
-388.2539695763485
 20
20.6566071925917
 30
0.0
 10
-389.9614047510301
 20
20.93162682912458
 30
0.0
 10
-391.3219176330076
 20
21.24067881048871
 30
0.0
 10
-392.3802403921967
 20
21.65223861342624
 30
0.0
 10
-393.1585368803179
 20
22.09722570950749
 30
0.0
 10
-393.5197916947902
 20
22.38577664631387
 30
0.0
 10
-393.7099853714244
 20
22.53769313674911
 30
0.0
 11
-374.3748697035407
 21
19.51186549645262
 31
0.0
 11
-376.4963017742484
 21
19.63790633070948
 31
0.0
 11
-379.482230279369
 21
19.83651217187343
 31
0.0
 11
-382.8828446584011
 21
20.10081836848166
 31
0.0
 11
-386.2483343509738
 21
20.42396026913684
 31
0.0
 11
-388.5366297587825
 21
20.70967730113534
 31
0.0
 11
-389.9609980509922
 21
20.94713481510461
 31
0.0
 11
-391.3578754701811
 21
21.28702317752231
 31
0.0
 11
-392.5612437098825
 21
21.76830894787326
 31
0.0
 11
-393.1280912241854
 21
22.09820583669988
 31
0.0
 11
-393.7099853714244
 21
22.53769313674911
 31
0.0
  0
ARC
  5
32CBB
330
1E
100
AcDbEntity
  8
OUTLINE
100
AcDbCircle
 10
378.2439598870951
 20
24.50027002648312
 30
0.0
 40
4.99961531575362
100
AcDbArc
 50
269.9938557067397
 51
314.9911460211746
  0
ARC
  5
32CBC
330
1E
100
AcDbEntity
  8
OUTLINE
100
AcDbCircle
 10
69.88905412254098
 20
18.00000000000181
 30
0.0
 40
8.0
100
AcDbArc
 50
270.0
 51
273.400000000001
  0
LINE
  5
32CBD
330
1E
100
AcDbEntity
  8
OUTLINE
100
AcDbLine
 10
381.7786754301341
 20
20.96446186775574
 30
0.0
 11
388.5142569504551
 21
27.70004338808406
 31
0.0
  0
LINE
  5
32CBE
330
1E
100
AcDbEntity
  8
OUTLINE
100
AcDbLine
 10
-69.88905412254098
 20
10.0
 30
0.0
 11
-58.97293385862212
 21
10.0
 31
0.0
  0
LINE
  5
32CBF
330
1E
100
AcDbEntity
  8
OUTLINE
100
AcDbLine
 10
-72.08438465302606
 20
10.11632045998339
 30
0.0
 11
-70.36350511114505
 21
10.01408137661201
 31
0.0
  0
LINE
  5
32CC0
330
1E
100
AcDbEntity
  8
OUTLINE
100
AcDbLine
 10
-176.9584077188483
 20
16.34698549294625
 30
0.0
 11
-80.14477601302132
 21
10.59519594439734
 31
0.0
  0
LINE
  5
32CC1
330
1E
100
AcDbEntity
  8
OUTLINE
100
AcDbLine
 10
113.6011849621354
 20
12.58287288549581
 30
0.0
 11
72.08438465302606
 21
10.11632045998339
 31
0.0
  0
LINE
  5
32CC2
330
1E
100
AcDbEntity
  8
OUTLINE
100
AcDbLine
 10
-80.14477601302132
 20
10.59519594439734
 30
0.0
 11
-72.08438465302606
 21
10.11632045998339
 31
0.0
  0
LINE
  5
32CC3
330
1E
100
AcDbEntity
  8
OUTLINE
100
AcDbLine
 10
-210.3311211369691
 20
18.32969000327466
 30
0.0
 11
-228.3190175502386
 21
19.39836796491363
 31
0.0
  0
LINE
  5
32CC4
330
1E
100
AcDbEntity
  8
OUTLINE
100
AcDbLine
 10
-229.8222898420317
 20
19.48767879546721
 30
0.0
 11
-228.3190175502386
 21
19.39836796491363
 31
0.0
  0
LINE
  5
32CC5
330
1E
100
AcDbEntity
  8
OUTLINE
100
AcDbLine
 10
-210.3311211369691
 20
18.32969000327466
 30
0.0
 11
-184.2724003142029
 21
16.78151671986597
 31
0.0
  0
LINE
  5
32CC6
330
1E
100
AcDbEntity
  8
OUTLINE
100
AcDbLine
 10
-184.2724003142029
 20
16.78151671986597
 30
0.0
 11
-176.9584077188483
 21
16.34698549294625
 31
0.0
  0
LINE
  5
32CC7
330
1E
100
AcDbEntity
  8
OUTLINE
100
AcDbLine
 10
-233.7551131526015
 20
19.49999999999818
 30
0.0
 11
-230.2374344570489
 21
19.49999999999818
 31
0.0
  0
LINE
  5
32CC8
330
1E
100
AcDbEntity
  8
OUTLINE
100
AcDbLine
 10
-395.5000000000109
 20
26.43826172521585
 30
0.0
 11
-395.5000000000109
 21
27.70000000000436
 31
0.0
  0
LINE
  5
32CC9
330
1E
100
AcDbEntity
  8
OUTLINE
100
AcDbLine
 10
230.2374344570489
 20
19.49999999999818
 30
0.0
 11
113.6011849621354
 21
12.58287288549581
 31
0.0
  0
LINE
  5
32CCA
330
1E
100
AcDbEntity
  8
OUTLINE
100
AcDbLine
 10
70.36350511114505
 20
10.01408137661201
 30
0.0
 11
72.08438465302606
 21
10.11632045998339
 31
0.0
  0
LINE
  5
32CCB
330
1E
100
AcDbEntity
  8
OUTLINE
100
AcDbLine
 10
58.97293525333225
 20
9.999990984433679
 30
0.0
 11
69.88905412254098
 21
10.0
 31
0.0
  0
LINE
  5
32CCC
330
1E
100
AcDbEntity
  8
OUTLINE
100
AcDbLine
 10
-58.97293385862212
 20
10.0
 30
0.0
 11
58.97293525333225
 21
9.999990984433679
 31
0.0
  0
LINE
  5
32CCD
330
1E
100
AcDbEntity
  8
OUTLINE
100
AcDbLine
 10
324.0734672299004
 20
19.49999999999818
 30
0.0
 11
330.4389338544024
 21
19.49999999999818
 31
0.0
  0
LINE
  5
32CCE
330
1E
100
AcDbEntity
  8
OUTLINE
100
AcDbLine
 10
324.0734672299004
 20
19.49999999999818
 30
0.0
 11
233.7551131526051
 21
19.49999999999636
 31
0.0
  0
LINE
  5
32CCF
330
1E
100
AcDbEntity
  8
OUTLINE
100
AcDbLine
 10
330.4389338544024
 20
19.49999999999818
 30
0.0
 11
378.2434237376037
 21
19.50065473947688
 31
0.0
  0
ARC
  5
32CD0
330
1E
100
AcDbEntity
  8
OUTLINE
100
AcDbCircle
 10
266.2448868473984
 20
16.49999999999636
 30
0.0
 40
2.99999999999997
100
AcDbArc
 50
4.999999999972366
 51
90.0
  0
ARC
  5
32CD1
330
1E
100
AcDbEntity
  8
OUTLINE
100
AcDbCircle
 10
266.9999999999891
 20
5.0
 30
0.0
 40
3.0
100
AcDbArc
 50
0.0
 51
90.0
  0
ARC
  5
32CD2
330
1E
100
AcDbEntity
  8
OUTLINE
100
AcDbCircle
 10
232.9999999999927
 20
5.0
 30
0.0
 40
3.0
100
AcDbArc
 50
90.0
 51
180.0
  0
ARC
  5
32CD3
330
1E
100
AcDbEntity
  8
OUTLINE
100
AcDbCircle
 10
233.7551131526015
 20
16.49999999999636
 30
0.0
 40
3.0
100
AcDbArc
 50
90.0
 51
174.9999999999757
  0
LINE
  5
32CD4
330
1E
100
AcDbEntity
  8
OUTLINE
100
AcDbLine
 10
230.0
 20
0.0
 30
0.0
 11
230.0190265095443
 21
8.217473999193316
 31
0.0
  0
LINE
  5
32CD5
330
1E
100
AcDbEntity
  8
OUTLINE
100
AcDbLine
 10
230.0
 20
0.0
 30
0.0
 11
270.0
 21
0.0
 31
0.0
  0
LINE
  5
32CD6
330
1E
100
AcDbEntity
  8
OUTLINE
100
AcDbLine
 10
270.0
 20
0.0
 30
0.0
 11
269.9809734904556
 21
8.217473999193316
 31
0.0
  0
LINE
  5
32CD7
330
1E
100
AcDbEntity
  8
OUTLINE
100
AcDbLine
 10
269.9809734904556
 20
8.217473999193316
 30
0.0
 11
269.2334709416754
 21
16.76146722823796
 31
0.0
  0
LINE
  5
32CD8
330
1E
100
AcDbEntity
  8
OUTLINE
100
AcDbLine
 10
230.2374344570489
 20
19.49999999999818
 30
0.0
 11
266.2448868473984
 21
19.49999999999636
 31
0.0
  0
LINE
  5
32CD9
330
1E
100
AcDbEntity
  8
OUTLINE
100
AcDbLine
 10
232.9999999999927
 20
8.0
 30
0.0
 11
266.9999999999927
 21
8.000000000006366
 31
0.0
  0
LINE
  5
32CDA
330
1E
100
AcDbEntity
  8
OUTLINE
100
AcDbLine
 10
230.7665290583281
 20
16.76146722824069
 30
0.0
 11
230.0190265095443
 21
8.217473999193316
 31
0.0
  0
ARC
  5
32CDB
330
1E
100
AcDbEntity
  8
OUTLINE
100
AcDbCircle
 10
-233.0000000000109
 20
5.0
 30
0.0
 40
3.0
100
AcDbArc
 50
0.0
 51
90.0
  0
ARC
  5
32CDC
330
1E
100
AcDbEntity
  8
OUTLINE
100
AcDbCircle
 10
-233.7551131526015
 20
16.49999999999636
 30
0.0
 40
3.000000000000879
100
AcDbArc
 50
4.999999999972366
 51
90.0
  0
ARC
  5
32CDD
330
1E
100
AcDbEntity
  8
OUTLINE
100
AcDbCircle
 10
-266.2448868473984
 20
16.49999999999636
 30
0.0
 40
3.0
100
AcDbArc
 50
90.0
 51
174.9999999999757
  0
ARC
  5
32CDE
330
1E
100
AcDbEntity
  8
OUTLINE
100
AcDbCircle
 10
-267.0000000000072
 20
5.0
 30
0.0
 40
3.0
100
AcDbArc
 50
90.0
 51
180.0
  0
LINE
  5
32CDF
330
1E
100
AcDbEntity
  8
OUTLINE
100
AcDbLine
 10
-267.0000000000036
 20
8.000000000001818
 30
0.0
 11
-233.0000000000109
 21
8.0
 31
0.0
  0
LINE
  5
32CE0
330
1E
100
AcDbEntity
  8
OUTLINE
100
AcDbLine
 10
-230.0190265095443
 20
8.217473999193316
 30
0.0
 11
-230.7665290583245
 21
16.76146722823796
 31
0.0
  0
LINE
  5
32CE1
330
1E
100
AcDbEntity
  8
OUTLINE
100
AcDbLine
 10
-230.019026509537
 20
8.217473999196499
 30
0.0
 11
-230.0
 21
5.0
 31
0.0
  0
LINE
  5
32CE2
330
1E
100
AcDbEntity
  8
OUTLINE
100
AcDbLine
 10
-230.0
 20
0.0
 30
0.0
 11
-230.0
 21
5.0
 31
0.0
  0
LINE
  5
32CE3
330
1E
100
AcDbEntity
  8
OUTLINE
100
AcDbLine
 10
-270.0
 20
0.0
 30
0.0
 11
-230.0
 21
0.0
 31
0.0
  0
LINE
  5
32CE4
330
1E
100
AcDbEntity
  8
OUTLINE
100
AcDbLine
 10
-270.0
 20
0.0
 30
0.0
 11
-270.0
 21
5.0
 31
0.0
  0
LINE
  5
32CE5
330
1E
100
AcDbEntity
  8
OUTLINE
100
AcDbLine
 10
-269.9809734904556
 20
8.217473999193316
 30
0.0
 11
-270.0
 21
5.0
 31
0.0
  0
LINE
  5
32CE6
330
1E
100
AcDbEntity
  8
OUTLINE
100
AcDbLine
 10
-269.2334709416718
 20
16.76146722824069
 30
0.0
 11
-269.9809734904556
 21
8.217473999193316
 31
0.0
  0
LINE
  5
32CE7
330
1E
100
AcDbEntity
  8
OUTLINE
100
AcDbLine
 10
-233.7551131525906
 20
19.49999999999727
 30
0.0
 11
-374.2960987278093
 21
19.50773047071334
 31
0.0
  0
ARC
  5
32CF1
330
1E
100
AcDbEntity
  8
OUTLINE
100
AcDbCircle
 10
-398.0999999999949
 20
29.60000000000036
 30
0.0
 40
1.900000000000999
100
AcDbArc
 50
180.0
 51
270.0
  0
LINE
  5
32CFE
330
1E
100
AcDbEntity
  8
OUTLINE
100
AcDbLine
 10
-399.9999999999963
 20
29.60000000000036
 30
0.0
 11
-400.0
 21
524.4999999999982
 31
0.0
  0
LINE
  5
32CFF
330
1E
100
AcDbEntity
  8
OUTLINE
100
AcDbLine
 10
-398.0999999999949
 20
27.69999999999936
 30
0.0
 11
-395.500000000011
 21
27.70000014341021
 31
0.0
  0
LINE
  5
32D51
330
1E
100
AcDbEntity
  8
OUTLINE
100
AcDbLine
 10
400.0000005705078
 20
30.20000000000436
 30
0.0
 11
400.0000000003601
 21
543.3653805440498
 31
0.0
  0
ARC
  5
32D52
330
1E
100
AcDbEntity
  8
OUTLINE
  6
CONTINUOUS
100
AcDbCircle
 10
397.3811794891371
 20
30.31886468533457
 30
0.0
 40
2.621517245740674
100
AcDbArc
 50
272.5989278098763
 51
357.4012070434186
  0
ARC
  5
32D53
330
1E
100
AcDbEntity
  8
OUTLINE
  6
CONTINUOUS
100
AcDbCircle
 10
357.4424971260377
 20
670.1610416486905
 30
0.0
 40
118.4241756812838
100
AcDbArc
 50
71.58711333936877
 51
87.06798994595175
  0
LINE
  5
32D54
330
1E
100
AcDbEntity
  8
OUTLINE
  6
CONTINUOUS
100
AcDbLine
 10
-405.7430649812331
 20
773.5908359903146
 30
0.0
 11
-403.4420510152304
 21
775.5740627201437
 31
0.0
  0
LINE
  5
32D55
330
1E
100
AcDbEntity
  8
OUTLINE
  6
CONTINUOUS
100
AcDbLine
 10
-403.4420510152304
 20
775.5740627201437
 30
0.0
 11
-403.2999999999992
 21
776.314350214263
 31
0.0
  0
ARC
  5
32D56
330
1E
100
AcDbEntity
  8
OUTLINE
  6
CONTINUOUS
100
AcDbCircle
 10
-350.8182644276755
 20
631.6720637999584
 30
0.0
 40
157.2785350830406
100
AcDbArc
 50
94.69514022727112
 51
108.0874117516877
  0
LINE
  5
32D57
330
1E
100
AcDbEntity
  8
OUTLINE
  6
CONTINUOUS
100
AcDbLine
 10
400.6131759111849
 20
740.1082348881073
 30
0.0
 11
457.5047316555756
 21
730.0767186358953
 31
0.0
  0
ARC
  5
32D58
330
1E
100
AcDbEntity
  8
OUTLINE
  6
CONTINUOUS
100
AcDbCircle
 10
454.8999989394178
 20
715.3046030360513
 30
0.0
 40
15.00000106058097
100
AcDbArc
 50
0.000003399298043
 51
79.99999660072261
  0
ARC
  5
32D59
330
1E
100
AcDbEntity
  8
OUTLINE
  6
CONTINUOUS
100
AcDbCircle
 10
453.538356754736
 20
202.3776768041571
 30
0.0
 40
15.96166855256278
100
AcDbArc
 50
359.8979714890678
 51
72.83564071572562
  0
ARC
  5
32D5A
330
1E
100
AcDbEntity
  8
OUTLINE
  6
CONTINUOUS
100
AcDbCircle
 10
453.0443057846277
 20
62.89024637512238
 30
0.0
 40
16.44661935055375
100
AcDbArc
 50
285.1099708169472
 51
0.0338863370739461
  0
ARC
  5
32D5B
330
1E
100
AcDbEntity
  8
OUTLINE
  6
CONTINUOUS
100
AcDbCircle
 10
-390.4181219391503
 20
26.40937932775114
 30
0.0
 40
5.081960135453572
100
AcDbArc
 50
179.6743680899591
 51
229.6274729250456
  0
LINE
  5
32DC8
330
1E
100
AcDbEntity
  8
OUTLINE
100
AcDbLine
 10
394.7943717843409
 20
763.5000000000031
 30
0.0
 11
397.0010083344727
 21
763.5000000000031
 31
0.0
  0
LINE
  5
32DCA
330
1E
100
AcDbEntity
  8
OUTLINE
100
AcDbLine
 10
441.999999999988
 20
222.5962230284909
 30
0.0
 11
458.2488648415164
 21
217.6284465075605
 31
0.0
  0
LINE
  5
32DCB
330
1E
100
AcDbEntity
  8
OUTLINE
100
AcDbLine
 10
388.5142569504551
 20
27.70004338808406
 30
0.0
 11
397.5000503382143
 21
27.70004388372262
 31
0.0
  0
ENDSEC
  0
SECTION
  2
OBJECTS
  0
DICTIONARY
  5
C
330
0
100
AcDbDictionary
  3
ACAD_COLOR
350
1301
  3
ACAD_GROUP
350
D
  3
ACAD_LAYOUT
350
19
  3
ACAD_MATERIAL
350
1300
  3
ACAD_MLINESTYLE
350
16
  3
ACAD_PLOTSETTINGS
350
18
  3
ACAD_PLOTSTYLENAME
350
E
  3
ACAD_TABLESTYLE
350
1302
  3
ACDBHEADERROUNDTRIPXREC
350
32DD2
  3
ACDBVARIABLEDICTIONARY
350
1307
  3
DWGPROPS
350
32DD0
  0
DICTIONARY
  5
259B5
330
2
100
AcDbDictionary
280
     1
  3
ACAD_LAYERFILTERS
360
31111
  3
ACLYDICTIONARY
360
31110
  0
DICTIONARY
  5
25971
330
1E
100
AcDbDictionary
280
     1
  3
ACAD_LAYOUTSELFREF
360
32DF5
  3
ACAD_SORTENTS
360
25972
  0
DICTIONARY
  5
32DF3
330
1A
100
AcDbDictionary
280
     1
  3
ACAD_LAYOUTSELFREF
360
32DF4
  0
DICTIONARY
  5
1301
102
{ACAD_REACTORS
330
C
102
}
330
C
100
AcDbDictionary
  0
DICTIONARY
  5
D
102
{ACAD_REACTORS
330
C
102
}
330
C
100
AcDbDictionary
  0
DICTIONARY
  5
19
102
{ACAD_REACTORS
330
C
102
}
330
C
100
AcDbDictionary
  0
DICTIONARY
  5
1300
102
{ACAD_REACTORS
330
C
102
}
330
C
100
AcDbDictionary
  0
DICTIONARY
  5
16
102
{ACAD_REACTORS
330
C
102
}
330
C
100
AcDbDictionary
  3
STANDARD
350
17
  0
DICTIONARY
  5
18
102
{ACAD_REACTORS
330
C
102
}
330
C
100
AcDbDictionary
  0
ACDBDICTIONARYWDFLT
  5
E
102
{ACAD_REACTORS
330
C
102
}
330
C
100
AcDbDictionary
281
     1
  3
Normal
350
F
100
AcDbDictionaryWithDefault
340
F
  0
DICTIONARY
  5
1302
102
{ACAD_REACTORS
330
C
102
}
330
C
100
AcDbDictionary
  3
STANDARD
350
1303
  0
DICTIONARY
  5
32DD2
102
{ACAD_REACTORS
330
C
102
}
330
C
100
AcDbDictionary
  3
CEPSNTYPE
350
32DDC
  3
DIMSTYLEDATA
350
32DE0
  3
FINGERPRINTGUID
350
32DDD
  3
HYPERLINKBASE
350
32DD5
  3
INSUNITS
350
32DDB
  3
LAYOUTDICT
350
32DD7
  3
LWETCUNION
350
32DDA
  3
PLOTSETDICT
350
32DD8
  3
PLOTSTYLNAMDICT
350
32DD9
  3
PSVPSCALE
350
32DDF
  3
PUCSBASE
350
32DE3
  3
PUCSORGBACK
350
32DE9
  3
PUCSORGBOTTOM
350
32DE5
  3
PUCSORGFRONT
350
32DE8
  3
PUCSORGLEFT
350
32DE6
  3
PUCSORGRIGHT
350
32DE7
  3
PUCSORGTOP
350
32DE4
  3
PUCSORTHOREF
350
32DE1
  3
PUCSORTHOVIEW
350
32DE2
  3
STYLESHEET
350
32DD6
  3
TSTACKALIGN
350
32DD3
  3
TSTACKSIZE
350
32DD4
  3
UCSBASE
350
32DEC
  3
UCSORGBACK
350
32DF2
  3
UCSORGBOTTOM
350
32DEE
  3
UCSORGFRONT
350
32DF1
  3
UCSORGLEFT
350
32DEF
  3
UCSORGRIGHT
350
32DF0
  3
UCSORGTOP
350
32DED
  3
UCSORTHOREF
350
32DEA
  3
UCSORTHOVIEW
350
32DEB
  3
VERSIONGUID
350
32DDE
  0
DICTIONARY
  5
1307
102
{ACAD_REACTORS
330
C
102
}
330
C
100
AcDbDictionary
  3
CTABLESTYLE
350
1308
  3
DIMASSOC
350
25D2C
  3
PROJECTNAME
350
25D2D
  0
XRECORD
  5
32DD0
102
{ACAD_REACTORS
330
C
102
}
330
C
100
AcDbXrecord
  1
DWGPROPS COOKIE
  2

  3

  4

  6

  7

  8

  9

300
=
301
=
302
=
303
=
304
=
305
=
306
=
307
=
308
=
309
=
 40
1.12177011574074
 41
2450330.393205995
 42
2454298.450300382
  1

 90
        0
  0
DICTIONARY
  5
31111
102
{ACAD_REACTORS
330
259B5
102
}
330
259B5
100
AcDbDictionary
  0
DICTIONARY
  5
31110
102
{ACAD_REACTORS
330
259B5
102
}
330
259B5
100
AcDbDictionary
1001
ACAD
1000
<All
  0
XRECORD
  5
32DF5
102
{ACAD_REACTORS
330
25971
102
}
330
25971
100
AcDbXrecord
340
1E
  0
SORTENTSTABLE
  5
25972
102
{ACAD_REACTORS
330
25971
102
}
330
25971
100
AcDbSortentsTable
330
1E
331
30C16
  5
30C2C
331
3105D
  5
31064
331
312FD
  5
31312
331
2F517
  5
2F52D
331
2F0E8
  5
2F0FE
331
30A63
  5
30A88
331
30C06
  5
30C20
331
2F84F
  5
2F866
331
312ED
  5
31302
331
2FFDB
  5
2FFF1
331
2F507
  5
2F51D
331
30A53
  5
30A69
331
2B81F
  5
2B824
331
2FFCB
  5
2FFE1
331
30C6A
  5
30C80
331
31121
  5
31128
331
30C5A
  5
30C70
331
2B96B
  5
2B970
331
31349
  5
312C5
331
2B4BD
  5
2B4C2
331
30AAF
  5
30AC9
331
2F56A
  5
2F580
331
2F8AB
  5
2F8C1
331
2F906
  5
2F91C
331
3138B
  5
31391
331
30A9F
  5
30ABD
331
30AE5
  5
30AFC
331
311A4
  5
311BB
331
3137B
  5
31381
331
30AD5
  5
30AEB
331
2F676
  5
2F69E
331
31194
  5
3119B
331
2F982
  5
2F99D
331
2DB81
  5
2DB97
331
31597
  5
315B5
331
2F666
  5
2F68E
331
2F97A
  5
2F996
331
2DB71
  5
2DB87
331
30B39
  5
30B50
331
30EE8
  5
30EEF
331
3158F
  5
31597
331
322B6
  5
322FC
331
30ED8
  5
30EDF
331
317E3
  5
31ABC
331
3003E
  5
30054
331
2F6D2
  5
2F6EF
331
30B95
  5
30BAB
331
2B1E0
  5
2B1E4
331
3002E
  5
30044
331
2EFF7
  5
2F00D
331
2E045
  5
2E05B
331
30B85
  5
30B9F
331
30F34
  5
30F3B
331
3124C
  5
31257
331
30F24
  5
30F2B
331
30BE9
  5
30C00
331
2F4D2
  5
2F4E8
331
30BD9
  5
30BEF
331
30F88
  5
30FE1
331
312C8
  5
312DD
331
30A2E
  5
30A44
331
312B8
  5
312CD
331
2FF9E
  5
2FFB4
331
30A1E
  5
30A34
331
30C2D
  5
30C43
331
3131C
  5
31333
331
2F536
  5
2F54C
331
3130C
  5
3132A
331
2FFFA
  5
30010
331
2F526
  5
2F53C
331
2F1F3
  5
2F209
331
2FFEA
  5
30000
331
30C89
  5
30CA2
331
2B4FC
  5
2B501
331
30C79
  5
30C8F
331
30C9F
  5
30E98
331
2BA32
  5
2BA37
331
31167
  5
31174
331
2F631
  5
2F66B
331
32291
  5
322A9
331
31157
  5
31160
331
2DA8C
  5
2DA92
331
2D1FC
  5
2D202
331
2F621
  5
2F637
331
2D2A4
  5
2D2AA
331
30B04
  5
30B27
331
30EB3
  5
30ECC
331
3139A
  5
313A0
331
30011
  5
30027
331
30AF4
  5
30B0D
331
2B5C5
  5
2B5CA
331
2DB98
  5
2DBAE
331
315C6
  5
315CC
331
2F68D
  5
2F6A7
331
2F9A1
  5
2F9B7
331
2DB90
  5
2DBA6
331
30B58
  5
30B6E
331
2C67F
  5
2C685
331
315B6
  5
315BC
331
30B48
  5
30B5E
331
30EF7
  5
30EFE
331
3120F
  5
3121F
331
30EE7
  5
30EEE
331
3005D
  5
30976
331
311FF
  5
31207
331
30BAC
  5
30BC2
331
3004D
  5
30953
331
2F485
  5
2F49B
331
2E0BC
  5
2E0D2
331
30BA4
  5
30BBA
331
30F4B
  5
30F52
331
3126B
  5
312A8
331
2B1EF
  5
2B1F3
331
2F745
  5
2F75B
331
3125B
  5
31269
331
30C08
  5
30C22
331
2F735
  5
2F74B
331
30BF8
  5
30C12
331
30FEF
  5
3105B
331
312DF
  5
312F4
331
30A45
  5
30A5B
331
30FDF
  5
30FE6
331
2F811
  5
2F828
331
312D7
  5
312EC
331
2FFBD
  5
2FFD3
331
30A3D
  5
30A53
331
2F196
  5
2F1AC
331
2FFAD
  5
2FFC3
331
30C4C
  5
30C62
331
31103
  5
3110A
331
3133B
  5
31353
331
2F24C
  5
2F262
331
2F555
  5
2F56B
331
2F18E
  5
2F1A4
331
30C3C
  5
30C52
331
310F3
  5
310FA
331
30AA1
  5
30AC1
331
3132B
  5
31342
331
2B497
  5
2B49C
331
2F545
  5
2F55B
331
30A91
  5
30AAD
331
30009
  5
3001F
331
2ED40
  5
2ED56
331
30AC7
  5
30ADD
331
31186
  5
3118F
331
2F658
  5
2F67B
331
31176
  5
3117E
331
2BAD2
  5
2BAD7
331
2F94C
  5
2F962
331
2DABB
  5
2DAC1
331
30B23
  5
30B39
331
30ECA
  5
2DB6C
331
311DA
  5
311E1
331
2BAB2
  5
2BAB7
331
313E1
  5
3153A
331
2EEB5
  5
2EECD
331
30030
  5
30046
331
2B5F4
  5
2B5F9
331
311CA
  5
311D1
331
30020
  5
30036
331
30B77
  5
30B93
331
2C69E
  5
2C6A4
331
315D5
  5
315E0
331
2EFC1
  5
2EFD7
331
30B67
  5
30B7E
331
30F16
  5
30F1D
331
2F718
  5
2F730
331
31236
  5
31241
331
2B0BA
  5
2B0BE
331
30F06
  5
30F0D
331
2B698
  5
2B69D
331
2E12B
  5
2E141
331
30BCB
  5
30BE1
331
2C79A
  5
2C7A0
331
30954
  5
309A8
331
2F035
  5
2F04B
331
2E10B
  5
2E121
331
30BBB
  5
30BD1
331
30F6A
  5
30F71
331
30A10
  5
30A29
331
30F5A
  5
30F61
331
2F7D4
  5
2F7EC
331
2FE58
  5
2FE6E
331
2E227
  5
2E23D
331
2C96E
  5
2C974
331
309E0
  5
30A23
331
2F528
  5
2F53E
331
30C17
  5
30C2D
331
3105E
  5
31084
331
312FE
  5
31313
331
2F518
  5
2F52E
331
30C07
  5
30C21
331
30A64
  5
30A8F
331
312EE
  5
31303
331
2FFDC
  5
2FFF2
331
2B432
  5
2B437
331
30A54
  5
30A6A
331
2F840
  5
2F858
331
2B820
  5
2B825
331
2FFCC
  5
2FFE2
331
30C6B
  5
30C81
331
31122
  5
31134
331
2F26B
  5
2F286
331
30C5B
  5
30C71
331
31112
  5
31119
331
3134A
  5
312C3
331
30AB0
  5
30ACA
331
2F56B
  5
2F581
331
2F8AC
  5
2F8C2
331
3138C
  5
31392
331
2F239
  5
2F24F
331
30AE6
  5
30AFE
331
311A5
  5
311BD
331
3137C
  5
31382
331
30AD6
  5
30AEC
331
30E2D
  5
30EB8
331
31195
  5
3119C
331
2F983
  5
2F99E
331
2DB82
  5
2DB98
331
2F2E7
  5
2F303
331
2F97B
  5
2F997
331
2DB72
  5
2DB88
331
30B3A
  5
30B51
331
30EE9
  5
30EF0
331
31201
  5
31208
331
30ED9
  5
30EE0
331
2B62B
  5
2B630
331
317E4
  5
31ABD
331
3003F
  5
30055
331
3237B
  5
32388
331
30B96
  5
30BAC
331
2B1E1
  5
2B1E5
331
3002F
  5
30045
331
2EFF8
  5
2F00E
331
30B86
  5
30BA0
331
30F35
  5
30F3C
331
2F457
  5
2F470
331
3124D
  5
31258
331
30F25
  5
30F2C
331
2F727
  5
2F740
331
2B6BF
  5
2B6C4
331
30BEA
  5
30C01
331
2F4D3
  5
2F4E9
331
2F054
  5
2F06A
331
30BDA
  5
30BF0
331
2B3F5
  5
2B3FA
331
312C9
  5
312DE
331
30A2F
  5
30A45
331
2FF9F
  5
2FFB5
331
2E28E
  5
2E2A4
331
312B9
  5
312CE
331
30A1F
  5
30A35
331
30C2E
  5
30C44
331
2F537
  5
2F54D
331
3131D
  5
31334
331
30A83
  5
30A9F
331
2F877
  5
2F892
331
2FFFB
  5
30011
331
2F527
  5
2F53D
331
3130D
  5
3132B
331
2F867
  5
2F880
331
30AB9
  5
30AD2
331
2FFEB
  5
30001
331
30C8A
  5
30CA3
331
2F1D4
  5
2F1EB
331
30C7A
  5
30C90
331
31139
  5
31140
331
30CA0
  5
30E99
331
2BA33
  5
2BA38
331
2F292
  5
2F2AC
331
31168
  5
31175
331
2F632
  5
2F66C
331
2DA8D
  5
2DA93
331
31158
  5
31161
331
2F622
  5
2F638
331
30B05
  5
30B28
331
30EB4
  5
30ECD
331
3139B
  5
313A1
331
311BC
  5
311C3
331
30AF5
  5
30B10
331
30012
  5
30028
331
2DB99
  5
2DBAF
331
2C690
  5
2C696
331
315C7
  5
315CD
331
2F68E
  5
2F6A8
331
2F9A2
  5
2F9B8
331
2DB91
  5
2DBA7
331
30B59
  5
30B6F
331
30F08
  5
30F0F
331
315B7
  5
315BD
331
31220
  5
31238
331
30B49
  5
30B5F
331
30EF8
  5
30EFF
331
31210
  5
31223
331
3005E
  5
3097B
331
2F6F2
  5
2F708
331
30BAD
  5
30BC3
331
3004E
  5
30954
331
2F486
  5
2F49C
331
2FC96
  5
2FCC0
331
30BA5
  5
30BBB
331
30F4C
  5
30F53
331
3126C
  5
312A9
331
309D2
  5
30A15
331
2F746
  5
2F75C
331
30C09
  5
30C23
331
3125C
  5
3126A
331
2E1E9
  5
2E1FF
331
30BF9
  5
30C13
331
30FF0
  5
3105C
331
320EF
  5
32114
331
312E0
  5
312F5
331
30A46
  5
30A5C
331
30FE0
  5
30FE7
331
2F812
  5
2F829
331
2FFBE
  5
2FFD4
331
2B40C
  5
2B411
331
30A3E
  5
30A54
331
2F197
  5
2F1AD
331
2FFAE
  5
2FFC4
331
30C4D
  5
30C63
331
31104
  5
3110B
331
2F556
  5
2F56C
331
3133C
  5
31354
331
30C3D
  5
30C53
331
310F4
  5
310FB
331
2B89E
  5
2B8A3
331
2F546
  5
2F55C
331
3132C
  5
31343
331
30A92
  5
30AAE
331
2B88E
  5
2B893
331
2F223
  5
2F239
331
2F8B9
  5
2F8CF
331
3000A
  5
30020
331
30AD8
  5
30AEF
331
30AC8
  5
30ADE
331
2F659
  5
2F67C
331
2DB64
  5
2DB7A
331
2BAD3
  5
2BAD8
331
3153A
  5
31596
331
2F649
  5
2F678
331
322A9
  5
322B6
331
2DABC
  5
2DAC2
331
30B24
  5
30B3A
331
30ECB
  5
2DB6D
331
311DB
  5
311E2
331
30031
  5
30047
331
30EC3
  5
2DB73
331
2F6C5
  5
2F6E3
331
311CB
  5
311D2
331
2C6A7
  5
2C6AD
331
30021
  5
30037
331
2F6B5
  5
2F6D6
331
2E020
  5
2E036
331
30B78
  5
30B94
331
2F439
  5
2F454
331
2C69F
  5
2C6A5
331
2EFC2
  5
2EFD8
331
30B68
  5
30B80
331
30F17
  5
30F1E
331
2F719
  5
2F731
331
2B0BB
  5
2B0BF
331
31237
  5
31242
331
30F07
  5
30F0E
331
2B699
  5
2B69E
331
2FCE5
  5
2FCFB
331
30BCC
  5
30BE2
331
3121F
  5
31237
331
30955
  5
309A9
331
2E10C
  5
2E122
331
30BBC
  5
30BD2
331
30F6B
  5
30F72
331
2B37F
  5
2B384
331
30A11
  5
30A2A
331
30F5B
  5
30F62
331
2F7D5
  5
2F7ED
331
30C20
  5
30C36
331
2F529
  5
2F53F
331
30C18
  5
30C2E
331
3105F
  5
31096
331
2B463
  5
2B468
331
2F0EA
  5
2F100
331
312FF
  5
31314
331
30A65
  5
30A90
331
31057
  5
3105F
331
2B849
  5
2B84E
331
2FFDD
  5
2FFF3
331
2E2F4
  5
2E30A
331
312EF
  5
31304
331
2CC6B
  5
2CC71
331
30A55
  5
30A6B
331
2B821
  5
2B826
331
2FFCD
  5
2FFE3
331
2E2BC
  5
2E2D2
331
30C6C
  5
30C82
331
31123
  5
31135
331
2B4CF
  5
2B4D4
331
2F26C
  5
2F287
331
30C5C
  5
30C72
331
31113
  5
3111A
331
2F25C
  5
2F272
331
2D0D7
  5
2D0DD
331
30AB1
  5
30ACB
331
2F56C
  5
2F582
331
2F8AD
  5
2F8C3
331
2D027
  5
2D02D
331
3138D
  5
31393
331
2EDC9
  5
2EDDF
331
30AE7
  5
30B00
331
3137D
  5
31383
331
2F340
  5
2F35C
331
311A6
  5
311BE
331
30AD7
  5
30AED
331
2F984
  5
2F9A1
331
2DB83
  5
2DB99
331
31196
  5
3119D
331
2F97C
  5
2F998
331
2DB73
  5
2DB89
331
30B3B
  5
30B52
331
30EEA
  5
30EF1
331
31202
  5
31209
331
2BAE2
  5
2BAE8
331
30050
  5
30956
331
30EDA
  5
30EE1
331
2B62C
  5
2B631
331
311EA
  5
31201
331
317E5
  5
32047
331
30040
  5
30056
331
2F009
  5
2F01F
331
30B97
  5
30BAD
331
2B1E2
  5
2B1E6
331
317D5
  5
317DB
331
2F468
  5
2F481
331
3236C
  5
3237B
331
30B87
  5
30BA1
331
30F36
  5
30F3D
331
3124E
  5
31259
331
30F26
  5
30F2D
331
30BEB
  5
30C02
331
2F4D4
  5
2F4EA
331
30BDB
  5
30BF1
331
30F8A
  5
30FE2
331
2F4CC
  5
2F4E2
331
312CA
  5
312DF
331
30A30
  5
30A46
331
2F7FC
  5
2F815
331
2FFA0
  5
2FFB6
331
312BA
  5
312CF
331
30A20
  5
30A36
331
2F548
  5
2F55E
331
2E24F
  5
2E265
331
30C2F
  5
30C45
331
310E6
  5
310ED
331
2F538
  5
2F54E
331
3131E
  5
31335
331
30A84
  5
30AA0
331
310D6
  5
310DD
331
2FFFC
  5
30012
331
3130E
  5
3132C
331
2F1F5
  5
2F20B
331
2FFEC
  5
30002
331
2E303
  5
2E319
331
30C8B
  5
30CA4
331
30CA1
  5
30EA7
331
30C7B
  5
30C91
331
3113A
  5
31141
331
2BA34
  5
2BA39
331
31169
  5
31176
331
2F633
  5
2F66E
331
31159
  5
31162
331
2F623
  5
2F639
331
2EEA8
  5
2EEBF
331
30EB5
  5
30ECE
331
3139C
  5
313A2
331
2F39F
  5
2F3B7
331
311BD
  5
311C5
331
30AF6
  5
30B11
331
30013
  5
30029
331
2FB1B
  5
2FB31
331
2DB9A
  5
2DBB0
331
311B5
  5
311C1
331
315C8
  5
315CE
331
2F9A3
  5
2F9B9
331
2DB92
  5
2DBA8
331
30B5A
  5
30B70
331
30F09
  5
30F10
331
315B8
  5
315BE
331
2C681
  5
2C687
331
30B4A
  5
30B60
331
30EF9
  5
30F00
331
3005F
  5
3097C
331
2F6F3
  5
2F709
331
2B63B
  5
2B640
331
2E0DE
  5
2E0F4
331
30BAE
  5
30BC4
331
3004F
  5
30955
331
2C6DD
  5
2C6E3
331
30BA6
  5
30BBC
331
30F4D
  5
30F54
331
2B1F1
  5
2B1F5
331
2F477
  5
2F48D
331
3126D
  5
312AA
331
309D3
  5
30A16
331
2F747
  5
2F75D
331
3125D
  5
3126B
331
309C3
  5
309E0
331
2F50B
  5
2F521
331
2FD33
  5
2FD49
331
30BFA
  5
30C14
331
30FF1
  5
3105D
331
2F4FB
  5
2F512
331
312E1
  5
312F6
331
30A47
  5
30A5D
331
30FE1
  5
30FE8
331
2B813
  5
2B818
331
2FFBF
  5
2FFD5
331
30A3F
  5
30A55
331
2F198
  5
2F1AE
331
2FFAF
  5
2FFC5
331
30C4E
  5
30C64
331
31105
  5
3110C
331
2F557
  5
2F56D
331
3133D
  5
31355
331
30C3E
  5
30C54
331
310F5
  5
310FC
331
2F89F
  5
2F8B5
331
2B89F
  5
2B8A4
331
2F547
  5
2F55D
331
3132D
  5
31344
331
30A93
  5
30AAF
331
3000B
  5
30021
331
2F8BA
  5
2F8D0
331
30AD9
  5
30AF0
331
2F312
  5
2F331
331
30AC9
  5
30ADF
331
2B562
  5
2B567
331
2DB65
  5
2DB7B
331
31178
  5
3117F
331
2EECF
  5
2EEE5
331
30B25
  5
30B3B
331
30ECC
  5
2DB6E
331
2F3DE
  5
2F3F4
331
313E3
  5
3158F
331
2EEB7
  5
2EECF
331
311DC
  5
311E3
331
30EC4
  5
2DB74
331
30032
  5
30048
331
311CC
  5
311D3
331
30022
  5
30038
331
2E021
  5
2E037
331
30B79
  5
30B95
331
30F28
  5
30F2F
331
31240
  5
3124B
331
30B69
  5
30B81
331
30F18
  5
30F1F
331
2F71A
  5
2F734
331
31238
  5
31243
331
2B69A
  5
2B69F
331
2FCE6
  5
2FCFC
331
30BCD
  5
30BE3
331
30956
  5
309C3
331
2E10D
  5
2E123
331
30BBD
  5
30BD3
331
30F6C
  5
30F73
331
2B380
  5
2B385
331
2F027
  5
2F03D
331
30A12
  5
30A2B
331
30F5C
  5
30F63
331
2F7D6
  5
2F7EE
331
2E241
  5
2E257
331
30C21
  5
30C37
331
2F52A
  5
2F540
331
2F14B
  5
2F164
331
30C19
  5
30C2F
331
31060
  5
31097
331
2B464
  5
2B469
331
2F51A
  5
2F530
331
31300
  5
31315
331
30A66
  5
30A91
331
2B84A
  5
2B84F
331
2FFDE
  5
2FFF4
331
2E2F5
  5
2E30B
331
312F0
  5
31305
331
30A56
  5
30A6C
331
2B822
  5
2B827
331
2FFCE
  5
2FFE4
331
2E2BD
  5
2E2D3
331
30C6D
  5
30C83
331
31124
  5
31136
331
2B4D0
  5
2B4D5
331
30C5D
  5
30C73
331
31114
  5
3111B
331
30AB2
  5
30ACC
331
2F56D
  5
2F583
331
2F8AE
  5
2F8C4
331
30AF8
  5
30B1D
331
3138E
  5
31394
331
2F23B
  5
2F251
331
2D0A0
  5
2D0A6
331
30AE8
  5
30B01
331
3137E
  5
31384
331
2F341
  5
2F35D
331
2F985
  5
2F9A2
331
2DB84
  5
2DB9A
331
31197
  5
3119E
331
2DB74
  5
2DB8A
331
30B3C
  5
30B53
331
30EEB
  5
30EF2
331
2EF3E
  5
2EF54
331
31203
  5
3120A
331
30EDB
  5
30EE2
331
30051
  5
30958
331
2E0C0
  5
2E0D6
331
311EB
  5
31202
331
317E6
  5
3208D
331
30041
  5
30057
331
2F6D5
  5
2F6F1
331
2FC49
  5
2FC5F
331
30B98
  5
30BAE
331
317D6
  5
317DC
331
2F469
  5
2F482
331
30B88
  5
30BA2
331
30F37
  5
30F3E
331
2F739
  5
2F74F
331
2B6D1
  5
2B6D6
331
2F459
  5
2F475
331
3124F
  5
3125C
331
30F27
  5
30F2E
331
2E174
  5
2E18A
331
30BEC
  5
30C03
331
320E2
  5
32107
331
2F4D5
  5
2F4EB
331
30BDC
  5
30BF2
331
30F8B
  5
30FE3
331
2F4CD
  5
2F4E3
331
312CB
  5
312E0
331
30A31
  5
30A47
331
2FFA1
  5
2FFB7
331
2E290
  5
2E2A6
331
30C40
  5
30C56
331
312BB
  5
312D0
331
30A21
  5
30A37
331
2F549
  5
2F55F
331
2B7DD
  5
2B7E2
331
2E250
  5
2E266
331
30C30
  5
30C46
331
310E7
  5
310EE
331
2F539
  5
2F54F
331
3131F
  5
31336
331
30A85
  5
30AA1
331
310D7
  5
310DE
331
2B869
  5
2B86E
331
2FFFD
  5
30013
331
2ED2C
  5
2ED42
331
3130F
  5
3132D
331
31351
  5
31231
331
2F869
  5
2F882
331
2FFED
  5
30003
331
2E304
  5
2E31A
331
30C8C
  5
30CA5
331
30ABB
  5
30AD3
331
30CA2
  5
30EA8
331
30C7C
  5
30C92
331
3113B
  5
31142
331
2BA35
  5
2BA3A
331
2B4E7
  5
2B4EC
331
2F634
  5
2F66F
331
3115A
  5
31163
331
2F624
  5
2F63B
331
2EEA9
  5
2EEC0
331
32284
  5
32291
331
30B07
  5
30B29
331
30EB6
  5
30ECF
331
3139D
  5
313A3
331
311BE
  5
311C6
331
30014
  5
3002A
331
30AF7
  5
30B1C
331
2B5C8
  5
2B5CD
331
2DB9B
  5
2DBB1
331
315C9
  5
315CF
331
2DB93
  5
2DBA9
331
30B5B
  5
30B71
331
30F0A
  5
30F11
331
315B9
  5
315BF
331
2F424
  5
2F443
331
31222
  5
31239
331
30958
  5
309C4
331
30B4B
  5
30B61
331
30EFA
  5
30F01
331
2F704
  5
2F71E
331
2F414
  5
2F42C
331
30060
  5
3097D
331
2F6F4
  5
2F70A
331
2B63C
  5
2B641
331
2C6EE
  5
2C6F4
331
2FCA8
  5
2FCCC
331
2E0DF
  5
2E0F5
331
30BAF
  5
30BC5
331
2F490
  5
2F4A9
331
30BA7
  5
30BBD
331
30F4E
  5
30F55
331
2B1F2
  5
2B1F6
331
2F478
  5
2F48E
331
3126E
  5
312AB
331
309D4
  5
30A17
331
2F748
  5
2F75E
331
3125E
  5
3126C
331
2F50C
  5
2F522
331
2F0DD
  5
2F0F3
331
309C4
  5
30A0A
331
2C82A
  5
2C830
331
30BFB
  5
30C15
331
30FF2
  5
3105E
331
2F4FC
  5
2F513
331
312E2
  5
312F7
331
30A48
  5
30A5E
331
30FE2
  5
30FE9
331
2F814
  5
2F82A
331
2FFC0
  5
2FFD6
331
2FFB0
  5
2FFC6
331
30C4F
  5
30C65
331
31106
  5
3110D
331
2F558
  5
2F56E
331
3133E
  5
31356
331
30C3F
  5
30C55
331
310F6
  5
310FD
331
2F8A0
  5
2F8B6
331
3132E
  5
31345
331
31380
  5
31386
331
30A94
  5
30AB0
331
2F225
  5
2F23B
331
3000C
  5
30022
331
30ADA
  5
30AF1
331
2F205
  5
2F21B
331
30ACA
  5
30AE0
331
2B556
  5
2B55B
331
31189
  5
31190
331
2DB66
  5
2DB7C
331
31179
  5
31180
331
30B26
  5
30B3C
331
30ECD
  5
2DB6F
331
311DD
  5
311E4
331
30033
  5
30049
331
30EC5
  5
2DB75
331
2B5F7
  5
2B5FC
331
2F3AF
  5
2F3C5
331
311CD
  5
311D6
331
30023
  5
30039
331
30F29
  5
30F30
331
2B0CD
  5
2B0D1
331
2EFC4
  5
2EFDA
331
31241
  5
3124C
331
30B6A
  5
30B82
331
30F19
  5
30F20
331
2F71B
  5
2F735
331
31239
  5
31244
331
2B69B
  5
2B6A0
331
2F048
  5
2F05E
331
2FCE7
  5
2FCFD
331
30BCE
  5
30BE4
331
2E10E
  5
2E124
331
30BBE
  5
30BD4
331
30F6D
  5
30F74
331
2B381
  5
2B386
331
312AD
  5
312BF
331
30A13
  5
30A2C
331
30F5D
  5
30F64
331
2F7D7
  5
2F7EF
331
2E242
  5
2E258
331
30C22
  5
30C38
331
2F52B
  5
2F541
331
30C1A
  5
30C30
331
31061
  5
31098
331
2F0EC
  5
2F102
331
31301
  5
31319
331
30A67
  5
30A92
331
2B84B
  5
2B850
331
2FFDF
  5
2FFF5
331
2E2F6
  5
2E30C
331
312F1
  5
31306
331
30A57
  5
30A6D
331
2F1C8
  5
2F1DF
331
2FFCF
  5
2FFE5
331
2E2BE
  5
2E2D4
331
30C6E
  5
30C84
331
31125
  5
31137
331
2B4D1
  5
2B4D6
331
30C5E
  5
30C74
331
31115
  5
3111C
331
2F25E
  5
2F274
331
30AB3
  5
30ACD
331
2F8AF
  5
2F8C5
331
3223E
  5
32284
331
2F91A
  5
2F933
331
30AF9
  5
30B1E
331
3138F
  5
31395
331
30AE9
  5
30B02
331
30E98
  5
30EBC
331
3137F
  5
31385
331
2F342
  5
2F35E
331
2DB85
  5
2DB9B
331
31198
  5
3119F
331
2F97E
  5
2F999
331
2DB75
  5
2DB8B
331
30B3D
  5
30B54
331
30EEC
  5
30EF3
331
31204
  5
3120E
331
30052
  5
30959
331
30EDC
  5
30EE3
331
2F6E6
  5
2F6FC
331
2E0C1
  5
2E0D7
331
311EC
  5
31203
331
30042
  5
30058
331
2F6D6
  5
2F6F2
331
30B99
  5
30BAF
331
30F40
  5
30F47
331
317D7
  5
317DD
331
2F46A
  5
2F483
331
31260
  5
3126E
331
30B89
  5
30BA3
331
30F38
  5
30F3F
331
2F73A
  5
2F750
331
31250
  5
3125D
331
2F72A
  5
2F743
331
2FD1E
  5
2FD35
331
30BED
  5
30C04
331
2F4D6
  5
2F4EC
331
2FD06
  5
2FD1C
331
30BDD
  5
30BF4
331
2B400
  5
2B405
331
312CC
  5
312E1
331
30A32
  5
30A48
331
2B7EE
  5
2B7F3
331
2FFA2
  5
2FFB8
331
2E291
  5
2E2A7
331
30C41
  5
30C57
331
312BC
  5
312D1
331
30A22
  5
30A38
331
2F54A
  5
2F560
331
2F7E6
  5
2F800
331
2B7DE
  5
2B7E3
331
2E251
  5
2E267
331
30C31
  5
30C47
331
310E8
  5
310EF
331
2B48C
  5
2B491
331
2F53A
  5
2F550
331
2F15B
  5
2F174
331
31320
  5
31337
331
310D8
  5
310DF
331
30A86
  5
30AA6
331
2FFFE
  5
30014
331
2ED2D
  5
2ED43
331
31352
  5
3125A
331
2F1F7
  5
2F20D
331
2FFEE
  5
30004
331
2E305
  5
2E31B
331
30C8D
  5
30CA6
331
30ABC
  5
30AD4
331
2F2B5
  5
2F2CC
331
2F1D7
  5
2F1EE
331
2CCC4
  5
2CCCA
331
30CA3
  5
30EA9
331
30C7D
  5
30C93
331
3113C
  5
31143
331
2F635
  5
2F670
331
2B9C6
  5
2B9CB
331
3115B
  5
31164
331
2F625
  5
2F63C
331
30B08
  5
30B2A
331
30EB7
  5
30ED0
331
3139E
  5
313A4
331
311BF
  5
311C7
331
30015
  5
3002B
331
30EA7
  5
30EBE
331
2DB9C
  5
2DBB2
331
2B5B9
  5
2B5BE
331
315CA
  5
315D0
331
2DB94
  5
2DBAA
331
30B5C
  5
30B72
331
30F0B
  5
30F12
331
2EFAE
  5
2EFC4
331
31223
  5
3123A
331
315BA
  5
315C0
331
30959
  5
309C5
331
30B4C
  5
30B62
331
30EFB
  5
30F02
331
2F705
  5
2F71F
331
2B68D
  5
2B692
331
2E120
  5
2E136
331
2F415
  5
2F42D
331
31213
  5
31225
331
2F6F5
  5
2F70B
331
2E0E0
  5
2E0F6
331
30BB0
  5
30BC6
331
2B213
  5
2B217
331
2F491
  5
2F4AA
331
30F4F
  5
30F56
331
2B7B1
  5
2B7B6
331
2F479
  5
2F48F
331
3126F
  5
312B8
331
309D5
  5
30A18
331
2F749
  5
2F75F
331
3125F
  5
3126D
331
309C5
  5
30A0B
331
2F50D
  5
2F523
331
30BFC
  5
30C16
331
2F4FD
  5
2F514
331
312E3
  5
312F8
331
30A49
  5
30A5F
331
30FE3
  5
30FEA
331
2F815
  5
2F82B
331
2FFC1
  5
2FFD7
331
30C60
  5
30C76
331
2FFB1
  5
2FFC7
331
30C50
  5
30C66
331
31107
  5
3110E
331
2F559
  5
2F56F
331
3133F
  5
31357
331
2F560
  5
2F576
331
310F7
  5
310FE
331
2F8A1
  5
2F8B7
331
2B8A1
  5
2B8A6
331
3132F
  5
31346
331
30A95
  5
30AB1
331
2B891
  5
2B896
331
31381
  5
31387
331
2F8BC
  5
2F8D2
331
3000D
  5
30023
331
30ADB
  5
30AF2
331
2F206
  5
2F21C
331
30ACB
  5
30AE1
331
2B557
  5
2B55C
331
2F2D4
  5
2F2EC
331
3118A
  5
31191
331
2DB67
  5
2DB7D
331
3117A
  5
31181
331
2F3F0
  5
2F406
331
2BAD6
  5
2BADB
331
30B27
  5
30B3D
331
30ECE
  5
2DB70
331
311DE
  5
311E5
331
30034
  5
3004A
331
30EC6
  5
2DB76
331
2B5F8
  5
2B5FD
331
311CE
  5
311D7
331
30024
  5
3003A
331
2F6B8
  5
2F6D7
331
2EFE5
  5
2EFFB
331
30B7B
  5
30B96
331
30F2A
  5
30F31
331
2B0CE
  5
2B0D2
331
2EFC5
  5
2EFDB
331
31242
  5
3124D
331
30B6B
  5
30B83
331
30F1A
  5
30F21
331
2F71C
  5
2F736
331
2B6AC
  5
2B6B1
331
2B0BE
  5
2B0C2
331
3123A
  5
31245
331
2F714
  5
2F72B
331
2C7BE
  5
2C7C5
331
2FCE8
  5
2FCFE
331
30BCF
  5
30BE5
331
3208D
  5
320E2
331
2E10F
  5
2E125
331
30BBF
  5
30BD5
331
30F6E
  5
30F7D
331
2F7E8
  5
2F802
331
2B382
  5
2B387
331
2F4A0
  5
2F4BD
331
312AE
  5
312C0
331
30F5E
  5
30F65
331
30A14
  5
30A2D
331
2CB42
  5
2CB48
331
2E243
  5
2E259
331
30C23
  5
30C39
331
2F52C
  5
2F542
331
30C1B
  5
30C31
331
31062
  5
31099
331
2F51C
  5
2F532
331
31302
  5
3131A
331
30A68
  5
30A93
331
2FFE0
  5
2FFF6
331
2E2F7
  5
2E30D
331
312F2
  5
31307
331
30A58
  5
30A6E
331
2FFD0
  5
2FFE6
331
30C6F
  5
30C85
331
31126
  5
31139
331
30C5F
  5
30C75
331
31116
  5
3111D
331
3134E
  5
31330
331
30AB4
  5
30ACE
331
313A0
  5
313A6
331
30AFA
  5
30B1F
331
2F23D
  5
2F253
331
2D0A2
  5
2D0A8
331
31390
  5
31396
331
30AEA
  5
30B03
331
30E99
  5
30EBD
331
2F343
  5
2F35F
331
311A9
  5
311BF
331
2DB86
  5
2DB9C
331
31199
  5
311A0
331
2F66B
  5
2F690
331
2C66D
  5
2C673
331
2F97F
  5
2F99A
331
2DB76
  5
2DB8C
331
30B3E
  5
30B55
331
30EED
  5
30EF4
331
2F3FF
  5
2F415
331
31205
  5
3120F
331
30053
  5
3095A
331
30EDD
  5
30EE4
331
2F6E7
  5
2F6FD
331
2B62F
  5
2B634
331
2F3EF
  5
2F405
331
311ED
  5
31204
331
30043
  5
30059
331
2F6D7
  5
2F6F3
331
2FC4B
  5
2FC61
331
30B9A
  5
30BB0
331
30F41
  5
30F48
331
2F46B
  5
2F484
331
31261
  5
3126F
331
2C6B9
  5
2C6BF
331
317D8
  5
317DE
331
30F39
  5
30F40
331
2F73B
  5
2F751
331
2B6D3
  5
2B6D8
331
31251
  5
3125E
331
309A7
  5
309DD
331
2F72B
  5
2F744
331
2C7FD
  5
2C803
331
2E176
  5
2E18C
331
30BEE
  5
30C05
331
2F060
  5
2F076
331
30BDE
  5
30BF5
331
2F4CF
  5
2F4E5
331
312CD
  5
312E2
331
30A33
  5
30A49
331
30F7D
  5
30FDF
331
2F7FF
  5
2F816
331
2CBC9
  5
2CBCF
331
2FFA3
  5
2FFB9
331
2E292
  5
2E2A8
331
30C42
  5
30C58
331
312BD
  5
312D2
331
30A23
  5
30A39
331
2F54B
  5
2F561
331
2F7E7
  5
2F801
331
2B7DF
  5
2B7E4
331
2E252
  5
2E268
331
30C32
  5
30C48
331
310E9
  5
310F0
331
2B48D
  5
2B492
331
2F53B
  5
2F551
331
31321
  5
31338
331
310D9
  5
310E0
331
30A87
  5
30AA7
331
2FFFF
  5
30015
331
2ED2E
  5
2ED44
331
2F86B
  5
2F883
331
2CE9D
  5
2CEA3
331
31353
  5
31279
331
30ABD
  5
30AD5
331
2FFEF
  5
30005
331
30C8E
  5
30CA7
331
2B501
  5
2B506
331
30CA4
  5
30EAA
331
30C7E
  5
30C94
331
3113D
  5
31144
331
3116C
  5
31178
331
2F636
  5
2F671
331
2BAC8
  5
2BACF
331
2F3CA
  5
2F3E0
331
2F626
  5
2F63D
331
30B09
  5
30B2B
331
30EB8
  5
30ED3
331
311C0
  5
311C8
331
3139F
  5
313A5
331
30016
  5
3002C
331
30EA8
  5
30EC1
331
2F6AA
  5
2F6CB
331
2DB9D
  5
2DBB3
331
2EFB7
  5
2EFCD
331
315CB
  5
315D1
331
2DB95
  5
2DBAB
331
30B5D
  5
30B73
331
30F0C
  5
30F13
331
315BB
  5
315C1
331
3095A
  5
309C7
331
30B4D
  5
30B63
331
30EFC
  5
30F03
331
2F706
  5
2F721
331
2B68E
  5
2B693
331
2FCBA
  5
2FCD0
331
2E121
  5
2E137
331
2F6F6
  5
2F70C
331
2E0E1
  5
2E0F7
331
30BB1
  5
30BC7
331
30F60
  5
30F67
331
2F01B
  5
2F031
331
312A0
  5
312BB
331
32047
  5
3209A
331
30F50
  5
30F57
331
2F47A
  5
2F490
331
31270
  5
312B9
331
2F74A
  5
2F760
331
2B78A
  5
2B78F
331
2E20D
  5
2E223
331
2F50E
  5
2F524
331
2E1ED
  5
2E203
331
30BFD
  5
30C17
331
2F4FE
  5
2F515
331
312E4
  5
312F9
331
30A4A
  5
30A60
331
30FE4
  5
30FEB
331
2F816
  5
2F82C
331
2FFC2
  5
2FFD8
331
30C61
  5
30C77
331
2FFB2
  5
2FFC8
331
30C51
  5
30C67
331
31108
  5
3110F
331
2F55A
  5
2F570
331
31340
  5
31358
331
30AA6
  5
30AC2
331
2F561
  5
2F577
331
310F8
  5
310FF
331
2F8A2
  5
2F8B8
331
2B49C
  5
2B4A1
331
31330
  5
31347
331
30A96
  5
30AB2
331
2B892
  5
2B897
331
31382
  5
31388
331
2F8BD
  5
2F8D3
331
3000E
  5
30024
331
30ADC
  5
30AF3
331
3136A
  5
30EBA
331
30ACC
  5
30AE2
331
30DFB
  5
30EB6
331
3118B
  5
31192
331
2BA6E
  5
2BA73
331
2DB68
  5
2DB7E
331
30B30
  5
30B47
331
3117B
  5
31182
331
2DAE0
  5
2DAE6
331
30B28
  5
30B3E
331
30ECF
  5
2DB71
331
311DF
  5
311E6
331
30035
  5
3004B
331
30EC7
  5
2DB77
331
2E06C
  5
2E082
331
311CF
  5
311D8
331
30025
  5
3003B
331
2F6B9
  5
2F6D8
331
30B7C
  5
30B97
331
30F2B
  5
30F32
331
2B0CF
  5
2B0D3
331
2EFC6
  5
2EFDC
331
31243
  5
3124E
331
30B6C
  5
30B84
331
30F1B
  5
30F22
331
2F71D
  5
2F737
331
2B0BF
  5
2B0C3
331
3123B
  5
31246
331
2F715
  5
2F72C
331
2B69D
  5
2B6A2
331
2FCE9
  5
2FCFF
331
30BD0
  5
30BE6
331
30BC0
  5
30BD6
331
30F6F
  5
30F83
331
312AF
  5
312C1
331
30F5F
  5
30F66
331
30A15
  5
30A2E
331
2E244
  5
2E25A
331
30C24
  5
30C3A
331
3129F
  5
312BA
331
2F52D
  5
2F543
331
30C1C
  5
30C32
331
31063
  5
3109A
331
2F51D
  5
2F533
331
31303
  5
31320
331
30A69
  5
30A94
331
2FFE1
  5
2FFF7
331
30C80
  5
30C96
331
312F3
  5
31308
331
30A59
  5
30A6F
331
2B825
  5
2B82A
331
2F1CA
  5
2F1E1
331
2FFD1
  5
2FFE7
331
2E2C0
  5
2E2D6
331
30C70
  5
30C86
331
31127
  5
3113A
331
2F1B2
  5
2F1C8
331
31117
  5
3111E
331
2F628
  5
2F64A
331
30AB5
  5
30ACF
331
2B8B1
  5
2B8B6
331
313A1
  5
313A7
331
30AFB
  5
30B20
331
2EDCD
  5
2EDE3
331
31391
  5
31397
331
30AEB
  5
30B04
331
2DB87
  5
2DB9D
331
3119A
  5
311A1
331
2F418
  5
2F430
331
2C66E
  5
2C674
331
322FC
  5
32324
331
2DB77
  5
2DB8D
331
30B3F
  5
30B56
331
30EEE
  5
30EF5
331
31206
  5
31210
331
30054
  5
3095B
331
30EDE
  5
30EE5
331
2F6E8
  5
2F6FE
331
30044
  5
3005A
331
2F6D8
  5
2F6F4
331
2C6D2
  5
2C6D8
331
2E093
  5
2E0A9
331
30B9B
  5
30BB1
331
30F42
  5
30F49
331
31262
  5
31270
331
317D9
  5
317DF
331
30B8B
  5
30BA4
331
30F3A
  5
30F41
331
2F73C
  5
2F752
331
2B106
  5
2B10A
331
31252
  5
3125F
331
309A8
  5
309DE
331
2F72C
  5
2F745
331
2E177
  5
2E18D
331
30BEF
  5
30C06
331
2C7F6
  5
2C7FC
331
30BDF
  5
30BF6
331
2F808
  5
2F81F
331
312CE
  5
312E3
331
30A34
  5
30A4A
331
2B7F0
  5
2B7F5
331
2FFA4
  5
2FFBA
331
30C43
  5
30C59
331
312BE
  5
312D3
331
30A24
  5
30A3A
331
2F54C
  5
2F562
331
30C33
  5
30C49
331
310EA
  5
310F1
331
2B48E
  5
2B493
331
2F53C
  5
2F552
331
31322
  5
31339
331
30A88
  5
30AA8
331
310DA
  5
310E1
331
2F884
  5
2F8A1
331
30000
  5
30016
331
2F86C
  5
2F884
331
2CE9E
  5
2CEA4
331
31354
  5
3121D
331
2FFF0
  5
30006
331
30C8F
  5
30CC7
331
30CA5
  5
30EAC
331
30C7F
  5
30C95
331
3113E
  5
31145
331
2F637
  5
2F672
331
2B9D8
  5
2B9DD
331
2F627
  5
2F63F
331
2D722
  5
2D728
331
30B0A
  5
30B2C
331
30EB9
  5
30ED4
331
2EE34
  5
2EE4F
331
311C1
  5
311C9
331
30017
  5
3002D
331
30EA9
  5
30EC2
331
2F6AB
  5
2F6CC
331
2EFB8
  5
2EFCE
331
315CC
  5
315D2
331
2DB96
  5
2DBAC
331
30B5E
  5
30B74
331
30F0D
  5
30F14
331
315BC
  5
315C2
331
3095B
  5
309CA
331
30B4E
  5
30B64
331
30EFD
  5
30F04
331
2F707
  5
2F722
331
2E122
  5
2E138
331
31215
  5
31232
331
2F02C
  5
2F042
331
2FCAB
  5
2FCCF
331
2E0E2
  5
2E0F8
331
30BB2
  5
30BC8
331
30F61
  5
30F68
331
2B215
  5
2B219
331
2F493
  5
2F4AC
331
312A1
  5
312BC
331
2C6E1
  5
2C6E7
331
30F51
  5
30F58
331
2F7BB
  5
2F7D4
331
309D7
  5
30A19
331
32114
  5
32142
331
2FDCF
  5
2FDE5
331
2E20E
  5
2E224
331
30C0E
  5
30C24
331
2B459
  5
2B45E
331
2F50F
  5
2F525
331
30BFE
  5
30C18
331
312E5
  5
312FA
331
30A4B
  5
30A61
331
30FE5
  5
30FEC
331
2F817
  5
2F82D
331
2FFC3
  5
2FFD9
331
30C62
  5
30C78
331
2FFB3
  5
2FFC9
331
30C52
  5
30C68
331
31109
  5
31112
331
31140
  5
31150
331
2F252
  5
2F268
331
2F55B
  5
2F571
331
31341
  5
31359
331
30AA7
  5
30AC3
331
2F562
  5
2F578
331
310F9
  5
31100
331
2F8A3
  5
2F8B9
331
2B49D
  5
2B4A2
331
31331
  5
31348
331
30A97
  5
30AB3
331
2D005
  5
2D00B
331
31383
  5
31389
331
2F8BE
  5
2F8D4
331
3000F
  5
30025
331
30ADD
  5
30AF4
331
3136B
  5
3137D
331
30ACD
  5
30AE3
331
30DFC
  5
30EB7
331
3118C
  5
31193
331
2BA6F
  5
2BA74
331
2DB69
  5
2DB7F
331
30B31
  5
30B48
331
3117C
  5
31183
331
2DAE1
  5
2DAE7
331
30B29
  5
30B3F
331
30ED0
  5
2DB72
331
311E0
  5
311E7
331
30036
  5
3004C
331
311D0
  5
311D9
331
30026
  5
3003C
331
2C6AC
  5
2C6B2
331
30B7D
  5
30B98
331
30F2C
  5
30F33
331
2EFC7
  5
2EFDD
331
31244
  5
3124F
331
315DB
  5
315E1
331
30B6D
  5
30B85
331
30F1C
  5
30F23
331
2F71E
  5
2F738
331
2B0C0
  5
2B0C4
331
3123C
  5
31247
331
30972
  5
309D0
331
2B69E
  5
2B6A3
331
2FCEA
  5
2FD00
331
30BD1
  5
30BE7
331
312C0
  5
312D5
331
30BC1
  5
30BD7
331
30F70
  5
30F88
331
312B0
  5
312C2
331
30A16
  5
30A2F
331
2F7DA
  5
2F7F2
331
2E245
  5
2E25B
331
30C25
  5
30C3B
331
2F52E
  5
2F544
331
32123
  5
3219E
331
2FE3E
  5
2FE54
331
2E21D
  5
2E233
331
30C1D
  5
30C33
331
31064
  5
3109B
331
2F51E
  5
2F534
331
31304
  5
31321
331
30A6A
  5
30A95
331
2F85E
  5
2F878
331
2FFE2
  5
2FFF8
331
30C81
  5
30C97
331
312F4
  5
31309
331
30A5A
  5
30A70
331
2F1CB
  5
2F1E2
331
2FFD2
  5
2FFE8
331
2E2C1
  5
2E2D7
331
30C71
  5
30C87
331
31118
  5
3111F
331
2F629
  5
2F655
331
2B4C4
  5
2B4C9
331
3114F
  5
31156
331
30AB6
  5
30AD0
331
2B8B2
  5
2B8B7
331
313A2
  5
313A8
331
2D26C
  5
2D272
331
30AFC
  5
30B21
331
2F36D
  5
2F383
331
2F23F
  5
2F255
331
31392
  5
31398
331
30AEC
  5
30B05
331
2DB88
  5
2DB9E
331
30B50
  5
30B66
331
3119B
  5
311A5
331
2F66D
  5
2F693
331
2DB78
  5
2DB8E
331
30B40
  5
30B57
331
30EEF
  5
30EF6
331
31207
  5
31213
331
30055
  5
3095C
331
30EDF
  5
30EE6
331
2F6E9
  5
2F6FF
331
2B631
  5
2B636
331
30045
  5
3005B
331
2F6D9
  5
2F6F5
331
31ABA
  5
2B098
331
30B9C
  5
30BB2
331
30F43
  5
30F4A
331
31263
  5
31273
331
2C6BB
  5
2C6C1
331
317DA
  5
317E0
331
30B8C
  5
30BA5
331
30F3B
  5
30F42
331
2F73D
  5
2F753
331
2FDB9
  5
2FDCF
331
2B107
  5
2B10B
331
2F45D
  5
2F478
331
31253
  5
31260
331
2F72D
  5
2F746
331
2B6C5
  5
2B6CA
331
30BF0
  5
30C07
331
2F4E9
  5
2F4FF
331
2C7F7
  5
2C7FD
331
30BE0
  5
30BF7
331
2F809
  5
2F820
331
312CF
  5
312E4
331
30A35
  5
30A4B
331
2FFA5
  5
2FFBB
331
30C44
  5
30C5A
331
312BF
  5
312D4
331
2F54D
  5
2F563
331
30A25
  5
30A3B
331
2F186
  5
2F19C
331
30C34
  5
30C4A
331
310EB
  5
310F2
331
2B48F
  5
2B494
331
2F53D
  5
2F553
331
31323
  5
3133A
331
310DB
  5
310E2
331
2F885
  5
2F8A2
331
30001
  5
30017
331
2F8B0
  5
2F8C6
331
31313
  5
3132E
331
2F86D
  5
2F885
331
2FFF1
  5
30007
331
30C90
  5
30CC8
331
2F2C8
  5
2F2E0
331
2F1EA
  5
2F200
331
30CA6
  5
30EAD
331
3113F
  5
31146
331
2F298
  5
2F2B0
331
3116E
  5
31179
331
2F638
  5
2F673
331
2B9D9
  5
2B9DE
331
3115E
  5
31165
331
30B0B
  5
30B2D
331
30EBA
  5
30ED5
331
2F3A4
  5
2F3BB
331
2EE35
  5
2EE50
331
311C2
  5
311CA
331
30018
  5
3002E
331
30EAA
  5
30EC3
331
2F6AC
  5
2F6CD
331
32324
  5
3236C
331
315CD
  5
315D5
331
2DB97
  5
2DBAD
331
30B5F
  5
30B75
331
30F0E
  5
30F15
331
2C686
  5
2C68C
331
315BD
  5
315C3
331
3095C
  5
309CB
331
30B4F
  5
30B65
331
30EFE
  5
30F05
331
2F708
  5
2F723
331
2E123
  5
2E139
331
2F6F8
  5
2F70E
331
30BB3
  5
30BC9
331
30F62
  5
30F69
331
323A0
  5
323B8
331
2F01D
  5
2F033
331
312A2
  5
312BD
331
30F52
  5
30F59
331
2F7BC
  5
2F7D5
331
309D8
  5
30A1D
331
2F121
  5
2F137
331
2E20F
  5
2E225
331
30C0F
  5
30C25
331
30BFF
  5
30C19
331
2F848
  5
2F85E
331
312E6
  5
312FB
331
30A4C
  5
30A62
331
30FE6
  5
30FED
331
2F818
  5
2F82E
331
2CC62
  5
2CC68
331
2E2B3
  5
2E2C9
331
30C63
  5
30C79
331
2FFC4
  5
2FFDA
331
30C53
  5
30C69
331
3110A
  5
31113
331
2FFB4
  5
2FFCA
331
31141
  5
31151
331
2B4B6
  5
2B4BB
331
2F55C
  5
2F572
331
2F253
  5
2F269
331
31342
  5
3135A
331
30AA8
  5
30AC4
331
2F563
  5
2F579
331
310FA
  5
31101
331
2F8A4
  5
2F8BA
331
2ED57
  5
2ED6D
331
31332
  5
31349
331
30A98
  5
30AB4
331
2B894
  5
2B899
331
31384
  5
3138A
331
30ADE
  5
30AF5
331
2F8BF
  5
2F8D5
331
2CF76
  5
2CF7C
331
3136C
  5
3137E
331
30ACE
  5
30AE4
331
3118D
  5
31194
331
31590
  5
3159F
331
2DB6A
  5
2DB80
331
30B32
  5
30B49
331
3117D
  5
31184
331
2F973
  5
2F992
331
2EF34
  5
2EF4A
331
2DAE2
  5
2DAE8
331
30B2A
  5
30B40
331
2F953
  5
2F969
331
2EEBC
  5
2EED4
331
311E1
  5
311E8
331
30037
  5
3004D
331
311D1
  5
311DA
331
2FC2F
  5
2FC45
331
30027
  5
3003D
331
2F6BB
  5
2F6DA
331
2C6AD
  5
2C6B3
331
30B7E
  5
30B99
331
30F2D
  5
30F34
331
2FC1F
  5
2FC35
331
2B0D9
  5
2B0DD
331
2EFC8
  5
2EFDE
331
31245
  5
31250
331
315DC
  5
315E2
331
3097B
  5
309D5
331
30B6E
  5
30B86
331
30F1D
  5
30F24
331
2E15A
  5
2E170
331
2B0C1
  5
2B0C5
331
3123D
  5
31248
331
2B69F
  5
2B6A4
331
2E152
  5
2E168
331
30BD2
  5
30BE8
331
312C1
  5
312D6
331
30BC2
  5
30BD8
331
30F71
  5
30F8A
331
2B7E3
  5
2B7E8
331
312B1
  5
312C4
331
30A17
  5
30A30
331
2F7DB
  5
2F7F3
331
2E246
  5
2E25C
331
30C26
  5
30C3C
331
2F52F
  5
2F545
331
2E21E
  5
2E234
331
30C1E
  5
30C34
331
2F51F
  5
2F535
331
31305
  5
31322
331
30A6B
  5
30A96
331
2B84F
  5
2B854
331
30C82
  5
30C98
331
312F5
  5
3130A
331
2FFE3
  5
2FFF9
331
30A5B
  5
30A7B
331
2F847
  5
2F85D
331
30C72
  5
30C88
331
30C98
  5
30DFC
331
2FFD3
  5
2FFE9
331
31160
  5
31167
331
2F62A
  5
2F658
331
31119
  5
31120
331
2B983
  5
2B988
331
2F262
  5
2F27A
331
31150
  5
31157
331
30AB7
  5
30AD1
331
2D0F5
  5
2D0FB
331
2BA74
  5
2BA79
331
313A3
  5
313A9
331
2EDBE
  5
2EDD4
331
31393
  5
31399
331
30AED
  5
30B07
331
2F8EE
  5
2F904
331
2F686
  5
2F6A6
331
2B58E
  5
2B593
331
2DB89
  5
2DB9F
331
30B51
  5
30B67
331
3119C
  5
311A6
331
2F66E
  5
2F694
331
2B576
  5
2B57B
331
2C678
  5
2C67E
331
3159F
  5
315B6
331
2DB79
  5
2DB8F
331
30B41
  5
30B58
331
30EF0
  5
30EF7
331
2EF6B
  5
2EF81
331
31208
  5
31215
331
30056
  5
3095D
331
30EE0
  5
30EE7
331
2F6EA
  5
2F700
331
2B632
  5
2B637
331
2E0C5
  5
2E0DB
331
2F00F
  5
2F025
331
30046
  5
3005C
331
2F6DA
  5
2F6F6
331
31ABB
  5
2B099
331
30B9D
  5
30BB3
331
30F44
  5
30F4B
331
2EFFF
  5
2F015
331
31264
  5
31274
331
317DB
  5
317E1
331
30B8D
  5
30BA6
331
30F3C
  5
30F43
331
309CA
  5
30A0E
331
2E1F9
  5
2E20F
331
2B108
  5
2B10C
331
2F45E
  5
2F479
331
31254
  5
31261
331
2F0B3
  5
2F0C9
331
30BF1
  5
30C08
331
30FE8
  5
30FEF
331
2FD22
  5
2FD39
331
2F4EA
  5
2F500
331
312D8
  5
312ED
331
30BE1
  5
30BF8
331
2F80A
  5
2F821
331
312D0
  5
312E5
331
30A36
  5
30A4C
331
2B7F2
  5
2B7F7
331
30C45
  5
30C5B
331
2FFA6
  5
2FFBC
331
2F54E
  5
2F564
331
30A26
  5
30A3C
331
2CB64
  5
2CB6A
331
30C35
  5
30C4B
331
310EC
  5
310F3
331
2B490
  5
2B495
331
2F53E
  5
2F554
331
31324
  5
3133B
331
310DC
  5
310E3
331
31314
  5
3132F
331
30002
  5
30018
331
2F8B1
  5
2F8C7
331
2F86E
  5
2F886
331
31356
  5
3125B
331
30AC0
  5
30AD6
331
30C91
  5
30D55
331
2FFF2
  5
30008
331
30CA7
  5
30EAE
331
2F299
  5
2F2B1
331
30B1C
  5
30B32
331
3115F
  5
31166
331
2BAA3
  5
2BAA8
331
30B0C
  5
30B2E
331
30EBB
  5
30ED6
331
2EE36
  5
2EE51
331
30019
  5
3002F
331
30EAB
  5
30EC4
331
2F6AD
  5
2F6CE
331
30B70
  5
30B88
331
2DBD8
  5
2DBEE
331
2EFBA
  5
2EFD0
331
2C697
  5
2C69D
331
315CE
  5
315DB
331
30B60
  5
30B76
331
30F0F
  5
30F16
331
315BE
  5
315C4
331
3095D
  5
309CC
331
30EFF
  5
30F06
331
2E124
  5
2E13A
331
2F6F9
  5
2F70F
331
2B661
  5
2B666
331
2C6F3
  5
2C6F9
331
30BB4
  5
30BCA
331
30F63
  5
30F6A
331
2E0E4
  5
2E0FA
331
312A3
  5
312BE
331
30F53
  5
30F5A
331
2C93F
  5
2C945
331
30C10
  5
30C26
331
2F511
  5
2F527
331
2F0E2
  5
2F0F8
331
30C00
  5
30C1A
331
2F849
  5
2F85F
331
2F501
  5
2F518
331
312E7
  5
312FC
331
30A4D
  5
30A63
331
30FE7
  5
30FEE
331
2F819
  5
2F82F
331
30C64
  5
30C7A
331
2FFC5
  5
2FFDB
331
30C54
  5
30C6A
331
3110B
  5
31114
331
2FFB5
  5
2FFCB
331
2F55D
  5
2F573
331
31343
  5
3135B
331
31142
  5
31152
331
310FB
  5
31102
331
2F564
  5
2F57A
331
31333
  5
3134A
331
30A99
  5
30AB5
331
31385
  5
3138B
331
30ADF
  5
30AF6
331
2F8C0
  5
2F8D7
331
3136D
  5
3137F
331
30ACF
  5
30AE5
331
3118E
  5
31195
331
30DCE
  5
30EB2
331
2B568
  5
2B56D
331
31591
  5
315B1
331
30B33
  5
30B4A
331
3117E
  5
31186
331
2DB6B
  5
2DB81
331
2DAE3
  5
2DAE9
331
30B2B
  5
30B41
331
2F3E4
  5
2F3FA
331
30038
  5
3004E
331
311D2
  5
311DB
331
2FC40
  5
2FC56
331
30028
  5
3003E
331
2EFF1
  5
2F007
331
30F2E
  5
30F35
331
2FC20
  5
2FC36
331
31246
  5
31251
331
315DD
  5
315E3
331
3097C
  5
309D8
331
30F1E
  5
30F25
331
2F720
  5
2F739
331
30B6F
  5
30B87
331
2B0C2
  5
2B0C6
331
3123E
  5
31249
331
30974
  5
309D2
331
2B6A0
  5
2B6A5
331
2E153
  5
2E169
331
30BD3
  5
30BE9
331
2B3EE
  5
2B3F3
331
312C2
  5
312D7
331
30A28
  5
30A3E
331
30F72
  5
30F8B
331
2B7E4
  5
2B7E9
331
30BC3
  5
30BD9
331
312B2
  5
312C6
331
30A18
  5
30A31
331
2B7D4
  5
2B7D9
331
30C27
  5
30C3D
331
2F530
  5
2F546
331
2F870
  5
2F88A
331
2B858
  5
2B85D
331
30C1F
  5
30C35
331
2F520
  5
2F536
331
31306
  5
31324
331
30A6C
  5
30A97
331
312F6
  5
3130B
331
2FFE4
  5
2FFFA
331
30C83
  5
30C99
331
30A5C
  5
30A7C
331
2CC7A
  5
2CC80
331
30C99
  5
30E2D
331
2FFD4
  5
2FFEA
331
30C73
  5
30C89
331
31161
  5
31168
331
3111A
  5
31121
331
2F62B
  5
2F659
331
31151
  5
31158
331
313A4
  5
313DD
331
2EDBF
  5
2EDD5
331
30AFE
  5
30B22
331
31394
  5
3139A
331
2B58F
  5
2B594
331
315C0
  5
315C6
331
3119D
  5
311A7
331
2DB8A
  5
2DBA0
331
30B52
  5
30B68
331
2F66F
  5
2F695
331
2C679
  5
2C67F
331
30EF1
  5
30EF8
331
2DB7A
  5
2DB90
331
30B42
  5
30B59
331
31209
  5
31218
331
30057
  5
3095E
331
30EE1
  5
30EE8
331
2F6EB
  5
2F701
331
2B633
  5
2B638
331
2FC9F
  5
2FCC7
331
2E0C6
  5
2E0DC
331
30047
  5
3005D
331
2F6DB
  5
2F6F7
331
2C6D5
  5
2C6DB
331
31ABC
  5
2B09A
331
30F45
  5
30F4C
331
30B9E
  5
30BB4
331
2F000
  5
2F016
331
31265
  5
31275
331
317DC
  5
317E2
331
309CB
  5
30A0F
331
30F3D
  5
30F44
331
2F73F
  5
2F755
331
2F45F
  5
2F47A
331
31255
  5
31262
331
2E1FA
  5
2E210
331
2F72F
  5
2F747
331
30FE9
  5
30FF0
331
30BF2
  5
30C09
331
2B41D
  5
2B422
331
2F4EB
  5
2F501
331
312D9
  5
312EE
331
2F80B
  5
2F822
331
30BE2
  5
30BF9
331
312D1
  5
312E6
331
30A37
  5
30A4D
331
2F803
  5
2F81A
331
2B7F3
  5
2B7F8
331
2CBCD
  5
2CBD3
331
2FFA7
  5
2FFBD
331
30C46
  5
30C5C
331
30A27
  5
30A3D
331
2F54F
  5
2F565
331
310ED
  5
310F4
331
30C36
  5
30C4C
331
2B491
  5
2B496
331
2F53F
  5
2F555
331
31325
  5
3133C
331
310DD
  5
310E6
331
2B86F
  5
2B874
331
2F8B2
  5
2F8C8
331
30003
  5
30019
331
30A7B
  5
30A9C
331
2F86F
  5
2F889
331
31357
  5
3127A
331
30DD0
  5
30EB4
331
30AC1
  5
30AD7
331
2FFF3
  5
30009
331
30C92
  5
30DCD
331
31180
  5
3118A
331
31170
  5
3117A
331
3152B
  5
31590
331
2F946
  5
2F95D
331
2DAB5
  5
2DABB
331
30B1D
  5
30B33
331
30EBC
  5
30ED7
331
30B0D
  5
30B2F
331
2EE37
  5
2EE52
331
311C4
  5
311CB
331
2F6AE
  5
2F6CF
331
3001A
  5
30030
331
30EAC
  5
30EC5
331
2DBD9
  5
2DBEF
331
30B71
  5
30B89
331
2EFBB
  5
2EFD1
331
315CF
  5
315DC
331
30B61
  5
30B77
331
30F10
  5
30F17
331
31230
  5
3123B
331
315BF
  5
315C5
331
2F70A
  5
2F725
331
3095E
  5
309CD
331
30F00
  5
30F07
331
31218
  5
31234
331
2B662
  5
2B667
331
30BB5
  5
30BCB
331
30F64
  5
30F6B
331
30A0A
  5
30A24
331
30F54
  5
30F5B
331
2F47E
  5
2F494
331
309DA
  5
30A1E
331
30C11
  5
30C27
331
2F512
  5
2F528
331
312F8
  5
3130D
331
32107
  5
32123
331
2F84A
  5
2F861
331
30C01
  5
30C1B
331
312E8
  5
312FD
331
2F502
  5
2F519
331
2B42C
  5
2B431
331
2F81A
  5
2F830
331
30A4E
  5
30A64
331
2FFC6
  5
2FFDC
331
30C65
  5
30C7B
331
2CC3C
  5
2CC42
331
321AB
  5
321DA
331
2FFB6
  5
2FFCC
331
30C55
  5
30C6B
331
3110C
  5
31115
331
2F55E
  5
2F574
331
31344
  5
3136B
331
31143
  5
31153
331
2F565
  5
2F57B
331
310FC
  5
31103
331
30AAA
  5
30AC5
331
31334
  5
3134B
331
2ED59
  5
2ED6F
331
31386
  5
3138C
331
2F896
  5
2F8AE
331
30A9A
  5
30AB6
331
30AE0
  5
30AF7
331
3136E
  5
31380
331
30AD0
  5
30AE6
331
3118F
  5
31196
331
2B569
  5
2B56E
331
31592
  5
315B2
331
30DCF
  5
30EB3
331
3117F
  5
31187
331
2DB6C
  5
2DB82
331
30B34
  5
30B4B
331
2DAE4
  5
2DAEA
331
30B2C
  5
30B42
331
30ED3
  5
30EDA
331
2F3E5
  5
2F3FB
331
311E3
  5
311EA
331
30039
  5
3004F
331
311D3
  5
311DC
331
316C6
  5
317DA
331
30029
  5
3003F
331
30B80
  5
30B9A
331
30F2F
  5
30F36
331
2EFCA
  5
2EFE0
331
31247
  5
31252
331
315DE
  5
315E4
331
2F721
  5
2F73A
331
3097D
  5
309DA
331
30F1F
  5
30F26
331
3123F
  5
3124A
331
2FD15
  5
2FD2C
331
2B0C3
  5
2B0C7
331
2C7E3
  5
2C7E9
331
2B6A1
  5
2B6A6
331
30975
  5
309D3
331
2E154
  5
2E16A
331
30BD4
  5
30BEA
331
30F83
  5
30FE0
331
2F4BD
  5
2F4D3
331
312C3
  5
312D8
331
2C7B3
  5
2C7B9
331
3209A
  5
320EF
331
30A29
  5
30A3F
331
30BC4
  5
30BDA
331
30F73
  5
30FDD
331
312B3
  5
312C8
331
2CB47
  5
2CB4D
331
30A19
  5
30A32
331
30C28
  5
30C3E
331
2F531
  5
2F547
331
2F152
  5
2F16B
331
2C987
  5
2C98D
331
2B47B
  5
2B480
331
2F871
  5
2F88B
331
31307
  5
31325
331
30A6D
  5
30A98
331
312F7
  5
3130C
331
2FFE5
  5
2FFFB
331
30C84
  5
30C9D
331
30A5D
  5
30A7D
331
2FFD5
  5
2FFEB
331
30C74
  5
30C8A
331
31133
  5
3113B
331
31162
  5
31169
331
2F62C
  5
2F65A
331
3111B
  5
31122
331
31152
  5
31159
331
2F938
  5
2F951
331
2F61C
  5
2F632
331
2B8B5
  5
2B8BA
331
313A5
  5
313DE
331
2EDD1
  5
2EDE7
331
31395
  5
3139B
331
30AEF
  5
30B08
331
315C1
  5
315C7
331
3119E
  5
311AA
331
2DB8B
  5
2DBA1
331
30B53
  5
30B69
331
2F41C
  5
2F437
331
2C67A
  5
2C680
331
315B1
  5
315B7
331
2DB7B
  5
2DB91
331
30B43
  5
30B5A
331
30EF2
  5
30EF9
331
2F40C
  5
2F422
331
3120A
  5
31219
331
2F6EC
  5
2F702
331
2B634
  5
2B639
331
30058
  5
3095F
331
30EE2
  5
30EE9
331
2FCA0
  5
2FCC8
331
31ABD
  5
2B09B
331
30048
  5
3005E
331
30B9F
  5
30BB5
331
30F46
  5
30F4D
331
31266
  5
31276
331
2C6BE
  5
2C6C4
331
317DD
  5
317E3
331
2B1EA
  5
2B1EE
331
309CC
  5
30A10
331
30F3E
  5
30F45
331
31256
  5
31263
331
2E1FB
  5
2E211
331
2F730
  5
2F748
331
30FEA
  5
30FF1
331
312DA
  5
312EF
331
2F4EC
  5
2F502
331
2B41E
  5
2B423
331
2F80C
  5
2F823
331
2B80C
  5
2B811
331
30BE3
  5
30BFA
331
30A40
  5
30A56
331
312D2
  5
312E7
331
2FFB8
  5
2FFCE
331
2F804
  5
2F81B
331
30A38
  5
30A4E
331
2FFA8
  5
2FFBE
331
2E297
  5
2E2AD
331
30C47
  5
30C5D
331
2F550
  5
2F566
331
2B4A2
  5
2B4A7
331
30C37
  5
30C4D
331
310EE
  5
310F5
331
31326
  5
3133D
331
2F540
  5
2F556
331
2B492
  5
2B497
331
2F888
  5
2F8A3
331
310DE
  5
310E7
331
2F8B3
  5
2F8C9
331
30004
  5
3001A
331
2F1FD
  5
2F213
331
31358
  5
3121E
331
32209
  5
3223E
331
30A7C
  5
30A9D
331
30AC2
  5
30AD8
331
2FFF4
  5
3000A
331
2ED23
  5
2ED39
331
30C93
  5
30DCE
331
31181
  5
3118B
331
2B55B
  5
2B560
331
2B4EE
  5
2B4F3
331
3152C
  5
31591
331
30B1E
  5
30B34
331
2F937
  5
2F950
331
30EBD
  5
30ED8
331
311C5
  5
311CC
331
315E0
  5
317D5
331
2F6AF
  5
2F6D0
331
3001B
  5
30031
331
30EAD
  5
30EC6
331
2DBDA
  5
2DBF0
331
30B72
  5
30B8B
331
2EFBC
  5
2EFD2
331
2C699
  5
2C69F
331
315D0
  5
315DD
331
30B62
  5
30B78
331
30F11
  5
30F18
331
2F42B
  5
2F448
331
31231
  5
3123C
331
2F70B
  5
2F726
331
2B693
  5
2B698
331
3095F
  5
309CE
331
30F01
  5
30F08
331
31219
  5
31235
331
30BB6
  5
30BCC
331
30F65
  5
30F6C
331
30F55
  5
30F5C
331
30A0B
  5
30A25
331
2FE53
  5
2FE6A
331
309DB
  5
30A1F
331
2E212
  5
2E228
331
30C12
  5
30C28
331
31059
  5
31060
331
2F513
  5
2F529
331
312F9
  5
3130E
331
2F84B
  5
2F862
331
30C02
  5
30C1C
331
312E9
  5
312FE
331
2F503
  5
2F51A
331
2B42D
  5
2B432
331
2F81B
  5
2F831
331
30A4F
  5
30A65
331
2FFC7
  5
2FFDD
331
30C66
  5
30C7C
331
2FFB7
  5
2FFCD
331
30C56
  5
30C6C
331
3110D
  5
31116
331
31144
  5
31154
331
2F55F
  5
2F575
331
31345
  5
3136C
331
2F566
  5
2F57C
331
2F8A7
  5
2F8BD
331
2B8A7
  5
2B8AC
331
310FD
  5
31104
331
31335
  5
3134C
331
2ED5A
  5
2ED70
331
2EDC3
  5
2EDD9
331
31387
  5
3138D
331
30A9B
  5
30AB7
331
2F8C2
  5
2F8D9
331
30AE1
  5
30AF8
331
311A0
  5
311B6
331
2F672
  5
2F69A
331
30AD1
  5
30AE7
331
31190
  5
31197
331
2F662
  5
2F67D
331
2C664
  5
2C66A
331
31593
  5
315B3
331
2DB6D
  5
2DB83
331
30B35
  5
30B4C
331
2DAE5
  5
2DAEB
331
30B2D
  5
30B43
331
30ED4
  5
30EDB
331
311E4
  5
311EB
331
2B5FE
  5
2B603
331
3003A
  5
30050
331
2FC42
  5
2FC58
331
2E071
  5
2E087
331
30B91
  5
30BA7
331
2B5E6
  5
2B5EB
331
3002A
  5
30040
331
2F462
  5
2F47C
331
30B81
  5
30B9B
331
30F30
  5
30F37
331
31248
  5
31253
331
315DF
  5
316C6
331
2F722
  5
2F73B
331
2B6BA
  5
2B6C2
331
30F20
  5
30F27
331
2FD16
  5
2FD2D
331
2B0C4
  5
2B0C8
331
2B6A2
  5
2B6A7
331
2F04F
  5
2F065
331
2E155
  5
2E16B
331
30BD5
  5
30BEB
331
2F047
  5
2F05D
331
312C4
  5
312D9
331
30BC5
  5
30BDB
331
30F74
  5
30FDE
331
30A2A
  5
30A40
331
312B4
  5
312C9
331
30C29
  5
30C3F
331
310E0
  5
310E9
331
2B47C
  5
2B481
331
2CB38
  5
2CB3E
331
2F532
  5
2F548
331
31308
  5
31326
331
2B474
  5
2B479
331
2B852
  5
2B857
331
30A6E
  5
30A99
331
2FFE6
  5
2FFFC
331
2E2FD
  5
2E313
331
30C85
  5
30C9E
331
30A5E
  5
30A83
331
2B4F8
  5
2B4FD
331
2FFD6
  5
2FFEC
331
30C75
  5
30C8B
331
31134
  5
3113C
331
31163
  5
3116A
331
2F28D
  5
2F2A8
331
2F62D
  5
2F663
331
3111C
  5
31123
331
31153
  5
3115A
331
2DA88
  5
2DA8E
331
2F61D
  5
2F633
331
313A6
  5
313DF
331
2F929
  5
2F944
331
30B00
  5
30B23
331
31396
  5
3139C
331
30AF0
  5
30B09
331
2C68B
  5
2C691
331
315C2
  5
315C8
331
30E87
  5
30EB9
331
3119F
  5
311B1
331
2F99D
  5
2F9B5
331
2DB8C
  5
2DBA2
331
30B54
  5
30B6A
331
2C67B
  5
2C681
331
315B2
  5
315B8
331
2DB7C
  5
2DB92
331
30B44
  5
30B5B
331
30EF3
  5
30EFA
331
2F6ED
  5
2F703
331
2B635
  5
2B63A
331
30EE3
  5
30EEA
331
30059
  5
30960
331
2FCA1
  5
2FCC9
331
30BA8
  5
30BBE
331
2F012
  5
2F028
331
30049
  5
3005F
331
30BA0
  5
30BB6
331
30F47
  5
30F4E
331
31267
  5
31277
331
317DE
  5
317E4
331
2B1EB
  5
2B1EF
331
2B6D9
  5
2B6DE
331
309CD
  5
30A11
331
30F3F
  5
30F46
331
31257
  5
31264
331
2E1FC
  5
2E212
331
2B10B
  5
2B10F
331
30BF4
  5
30C0E
331
30FEB
  5
30FF2
331
312DB
  5
312F0
331
2B41F
  5
2B424
331
2F4ED
  5
2F503
331
2F80D
  5
2F824
331
30BE4
  5
30BFB
331
30A41
  5
30A57
331
312D3
  5
312E8
331
2FFB9
  5
2FFCF
331
2E2A0
  5
2E2B6
331
3219E
  5
321CC
331
2F805
  5
2F81C
331
30A39
  5
30A4F
331
2FFA9
  5
2FFBF
331
30C48
  5
30C5E
331
2B4A3
  5
2B4A8
331
2F18A
  5
2F1A0
331
2F551
  5
2F567
331
30C38
  5
30C4E
331
310EF
  5
310F6
331
31327
  5
3133E
331
2B493
  5
2B498
331
2F541
  5
2F557
331
2F889
  5
2F8A4
331
310DF
  5
310E8
331
2F8B4
  5
2F8CA
331
30005
  5
3001B
331
2CEB3
  5
2CEB9
331
31359
  5
3137B
331
30A7D
  5
30A9E
331
30AC3
  5
30AD9
331
2FFF5
  5
3000B
331
2ED24
  5
2ED3A
331
30C94
  5
30DCF
331
31182
  5
3118C
331
2F654
  5
2F679
331
2B55C
  5
2B561
331
2BACE
  5
2BAD3
331
3152D
  5
31592
331
2F948
  5
2F95E
331
30B1F
  5
30B35
331
313DD
  5
3152B
331
2F6C0
  5
2F6DC
331
30EBE
  5
30ED9
331
311C6
  5
311CD
331
315E1
  5
317D6
331
2F6B0
  5
2F6D3
331
30EAE
  5
30EC7
331
3001C
  5
30032
331
2DBDB
  5
2DBF1
331
30B73
  5
30B8C
331
2EFBD
  5
2EFD3
331
315D1
  5
315DE
331
30B63
  5
30B79
331
30F12
  5
30F19
331
31232
  5
3123D
331
2F70C
  5
2F727
331
30960
  5
309CF
331
30F02
  5
30F09
331
3121A
  5
31236
331
2C6F6
  5
2C6FC
331
30BB7
  5
30BCD
331
30F66
  5
30F6D
331
2F498
  5
2F4B1
331
2B7C8
  5
2B7CD
331
30F56
  5
30F5D
331
30A0C
  5
30A26
331
2FE54
  5
2FE6B
331
309DC
  5
30A20
331
30C13
  5
30C29
331
3105A
  5
31061
331
312FA
  5
3130F
331
2F84C
  5
2F863
331
30C03
  5
30C1D
331
30A60
  5
30A85
331
312EA
  5
312FF
331
2FFD8
  5
2FFEE
331
2B42E
  5
2B433
331
30A50
  5
30A66
331
2FFC8
  5
2FFDE
331
30C67
  5
30C7D
331
30C57
  5
30C6D
331
3110E
  5
31117
331
31145
  5
31155
331
31346
  5
3136D
331
2F567
  5
2F57D
331
2F8A8
  5
2F8BE
331
310FE
  5
31105
331
30AAC
  5
30AC6
331
31336
  5
3134D
331
31388
  5
3138E
331
30A9C
  5
30AB9
331
2ED4B
  5
2ED61
331
30AE2
  5
30AF9
331
2F20D
  5
2F223
331
2F673
  5
2F69B
331
30AD2
  5
30AE8
331
31191
  5
31198
331
2EF90
  5
2EFA6
331
2F663
  5
2F67E
331
2DB6E
  5
2DB84
331
30B36
  5
30B4D
331
2DAE6
  5
2DAEC
331
30B2E
  5
30B44
331
30ED5
  5
30EDC
331
2C6C1
  5
2C6C7
331
317E0
  5
317E6
331
3003B
  5
30051
331
2F6CF
  5
2F6EE
331
2FC43
  5
2FC59
331
30B92
  5
30BA8
331
3002B
  5
30041
331
2F463
  5
2F47D
331
2F6BF
  5
2F6DB
331
30B82
  5
30B9C
331
30F31
  5
30F38
331
31249
  5
31254
331
30F21
  5
30F28
331
2F723
  5
2F73C
331
2F050
  5
2F066
331
30BD6
  5
30BEC
331
312C5
  5
312DA
331
2F4BF
  5
2F4D5
331
30BC6
  5
30BDC
331
30A2B
  5
30A41
331
312B5
  5
312CA
331
2FF9B
  5
2FFB1
331
2CB49
  5
2CB4F
331
2FE63
  5
2FE79
331
30C2A
  5
30C40
331
310E1
  5
310EA
331
31319
  5
31331
331
2F154
  5
2F16D
331
2F533
  5
2F549
331
31309
  5
31327
331
2B475
  5
2B47A
331
2CD8D
  5
2CD93
331
2B853
  5
2B858
331
30A6F
  5
30A9A
331
2FFE7
  5
2FFFD
331
2E2FE
  5
2E314
331
30C86
  5
30C9F
331
321CC
  5
32209
331
30A5F
  5
30A84
331
2B4F9
  5
2B4FE
331
2FFD7
  5
2FFED
331
30C76
  5
30C8C
331
31135
  5
3113D
331
31164
  5
3116D
331
2F28E
  5
2F2A9
331
3111D
  5
31124
331
2F62E
  5
2F664
331
31154
  5
3115B
331
2DA89
  5
2DA8F
331
313A7
  5
313E0
331
2F61E
  5
2F634
331
2F92A
  5
2F945
331
30B01
  5
30B24
331
30EB0
  5
30EC9
331
31397
  5
3139D
331
30AF1
  5
30B0A
331
2F692
  5
2F6AA
331
311B0
  5
311C0
331
2B592
  5
2B597
331
315C3
  5
315C9
331
2DB8D
  5
2DBA3
331
30B55
  5
30B6B
331
2EF9F
  5
2EFB5
331
315B3
  5
315B9
331
2DB7D
  5
2DB93
331
30B45
  5
30B5C
331
30EF4
  5
30EFB
331
3005A
  5
30972
331
30EE4
  5
30EEB
331
2F6EE
  5
2F704
331
311FC
  5
31205
331
2FCA2
  5
2FCCA
331
30BA9
  5
30BBF
331
2F013
  5
2F029
331
3004A
  5
30060
331
2F6DE
  5
2F6F8
331
30BA1
  5
30BB7
331
30F48
  5
30F4F
331
2F003
  5
2F019
331
317DF
  5
317E5
331
2B6DA
  5
2B6DF
331
309CE
  5
30A12
331
31258
  5
31265
331
2B10C
  5
2B110
331
2B6CA
  5
2B6CF
331
2FD26
  5
2FD3C
331
30BF5
  5
30C0F
331
30FEC
  5
31057
331
312DC
  5
312F1
331
2B420
  5
2B425
331
30BE5
  5
30BFC
331
30A42
  5
30A58
331
312D4
  5
312E9
331
2FFBA
  5
2FFD0
331
30A3A
  5
30A50
331
2F806
  5
2F81D
331
2FFAA
  5
2FFC0
331
30C49
  5
30C5F
331
31100
  5
31107
331
31338
  5
3134F
331
2B4A4
  5
2B4A9
331
2CB98
  5
2CB9E
331
2F552
  5
2F568
331
2F249
  5
2F25F
331
2B89A
  5
2B89F
331
30C39
  5
30C4F
331
310F0
  5
310F7
331
31328
  5
3133F
331
2B494
  5
2B499
331
2F542
  5
2F558
331
2CF8C
  5
2CF92
331
2F88A
  5
2F8A5
331
2F8B5
  5
2F8CB
331
30006
  5
3001C
331
2ED35
  5
2ED4B
331
3135A
  5
3137C
331
30AC4
  5
30ADA
331
2FFF6
  5
3000C
331
30C95
  5
30DD0
331
31183
  5
3118D
331
31173
  5
3117B
331
3152E
  5
31593
331
2F949
  5
2F95F
331
30B20
  5
30B36
331
313DE
  5
3152C
331
2B5F1
  5
2B5F6
331
30B10
  5
30B30
331
2F6C1
  5
2F6DF
331
311C7
  5
311CE
331
315E2
  5
317D7
331
3001D
  5
30033
331
30EAF
  5
30EC8
331
2F6B1
  5
2F6D4
331
2B5D1
  5
2B5D6
331
2DBDC
  5
2DBF2
331
30B74
  5
30B8D
331
2EFBE
  5
2EFD4
331
315D2
  5
315DF
331
30B64
  5
30B7B
331
30F13
  5
30F1A
331
31233
  5
3123E
331
30F03
  5
30F0A
331
2F70D
  5
2F728
331
30BC8
  5
30BDE
331
2F032
  5
2F048
331
30951
  5
30982
331
30BB8
  5
30BCE
331
30F67
  5
30F6E
331
2C6E7
  5
2C6ED
331
30F57
  5
30F5E
331
309DD
  5
30A21
331
2F791
  5
2F7A8
331
2FE0D
  5
2FE23
331
2E214
  5
2E22A
331
30C14
  5
30C2A
331
3105B
  5
31062
331
312FB
  5
31310
331
2F515
  5
2F52B
331
30A61
  5
30A86
331
30C04
  5
30C1E
331
2F84D
  5
2F864
331
312EB
  5
31300
331
2FFD9
  5
2FFEF
331
2F505
  5
2F51B
331
2F1BA
  5
2F1D0
331
30A51
  5
30A67
331
2FFC9
  5
2FFDF
331
30C68
  5
30C7E
331
2F1AA
  5
2F1C0
331
30C58
  5
30C6E
331
3110F
  5
31118
331
31347
  5
3136E
331
30AAD
  5
30AC7
331
2F568
  5
2F57E
331
310FF
  5
31106
331
2F8A9
  5
2F8BF
331
2F904
  5
2F91A
331
31337
  5
3134E
331
2ED5C
  5
2ED72
331
2D203
  5
2D209
331
31389
  5
3138F
331
30A9D
  5
30ABB
331
30AE3
  5
30AFA
331
30E8A
  5
30EBB
331
30AD3
  5
30AE9
331
2F674
  5
2F69C
331
2B57C
  5
2B581
331
31192
  5
31199
331
2F980
  5
2F99B
331
2DB6F
  5
2DB85
331
30B37
  5
30B4E
331
2BADE
  5
2BAE3
331
30B2F
  5
30B45
331
30ED6
  5
30EDD
331
317E1
  5
31ABA
331
3003C
  5
30052
331
2B600
  5
2B605
331
311D6
  5
311DD
331
30B93
  5
30BA9
331
2C6B2
  5
2C6B8
331
3002C
  5
30042
331
2F464
  5
2F47E
331
30B83
  5
30B9D
331
30F32
  5
30F39
331
3124A
  5
31255
331
30F22
  5
30F29
331
2F4D0
  5
2F4E6
331
30BD7
  5
30BED
331
312C6
  5
312DB
331
2F4C8
  5
2F4DE
331
30A2C
  5
30A42
331
30BC7
  5
30BDD
331
2F7F8
  5
2F810
331
312B6
  5
312CB
331
2FF9C
  5
2FFB2
331
2E28B
  5
2E2A1
331
2F175
  5
2F18B
331
30C2B
  5
30C41
331
310E2
  5
310EB
331
3131A
  5
31332
331
2F534
  5
2F54A
331
2B85C
  5
2B866
331
3130A
  5
31328
331
2FFF8
  5
3000E
331
30A70
  5
30A9B
331
2FFE8
  5
2FFFE
331
2E2FF
  5
2E315
331
30C87
  5
30CA0
331
2F1D1
  5
2F1E8
331
2B4FA
  5
2B4FF
331
30C9D
  5
30E87
331
30C77
  5
30C8D
331
31136
  5
3113E
331
31165
  5
3116F
331
3111E
  5
31125
331
2F62F
  5
2F666
331
31155
  5
3115C
331
2DA8A
  5
2DA90
331
2EEA4
  5
2EEBC
331
2BA79
  5
2BA7E
331
313A8
  5
313E1
331
2F61F
  5
2F635
331
30B02
  5
30B25
331
30EB1
  5
30ECA
331
31398
  5
3139E
331
30AF2
  5
30B0B
331
315C4
  5
315CA
331
2DB8E
  5
2DBA4
331
30B56
  5
30B6C
331
315B4
  5
315BA
331
2DB7E
  5
2DB94
331
30EF5
  5
30EFC
331
2C6E9
  5
2C6EF
331
30EE5
  5
30EEC
331
3005B
  5
30973
331
311FD
  5
31206
331
2FCA3
  5
2FCCB
331
30BAA
  5
30BC0
331
3004B
  5
30951
331
2F6DF
  5
2F6F9
331
30BA2
  5
30BB8
331
30F49
  5
30F50
331
31269
  5
31278
331
309CF
  5
30A13
331
2F743
  5
2F759
331
31259
  5
31266
331
2C805
  5
2C80B
331
2F733
  5
2F749
331
30BF6
  5
30C10
331
30FED
  5
31059
331
312DD
  5
312F2
331
2F078
  5
2F08E
331
2B421
  5
2B426
331
30A43
  5
30A59
331
30BE6
  5
30BFD
331
30FDD
  5
30FE4
331
2F80F
  5
2F826
331
2B80F
  5
2B814
331
312D5
  5
312EA
331
2FFBB
  5
2FFD1
331
2F194
  5
2F1AA
331
30A3B
  5
30A51
331
2F807
  5
2F81E
331
2FFAB
  5
2FFC1
331
30C4A
  5
30C60
331
31101
  5
31108
331
31339
  5
31351
331
2F553
  5
2F569
331
2F24A
  5
2F260
331
30C3A
  5
30C50
331
310F1
  5
310F8
331
31329
  5
31340
331
2B495
  5
2B49A
331
2F543
  5
2F559
331
30A8F
  5
30AAA
331
2F8B6
  5
2F8CC
331
30007
  5
3001D
331
2F200
  5
2F216
331
2FFF7
  5
3000D
331
30C96
  5
30DD1
331
30AC5
  5
30ADB
331
2BA4F
  5
2BA54
331
31174
  5
3117C
331
2F96A
  5
2F984
331
2F94A
  5
2F960
331
30B21
  5
30B37
331
30EC8
  5
2DB78
331
313DF
  5
3152D
331
30B11
  5
30B31
331
2F6C2
  5
2F6E0
331
311C8
  5
311CF
331
315E3
  5
317D8
331
3001E
  5
30034
331
2DBDD
  5
2DBF3
331
30B75
  5
30B91
331
2EFBF
  5
2EFD5
331
2F436
  5
2F452
331
30B65
  5
30B7C
331
30F14
  5
30F1B
331
31234
  5
3123F
331
2B0B8
  5
2B0BC
331
30F04
  5
30F0B
331
2E129
  5
2E13F
331
30BC9
  5
30BDF
331
30952
  5
30991
331
2F6FE
  5
2F718
331
2E109
  5
2E11F
331
30BB9
  5
30BCF
331
30F68
  5
30F6F
331
30F58
  5
30F5F
331
30A0E
  5
30A27
331
2FE56
  5
2FE6C
331
2E225
  5
2E23B
331
309DE
  5
30A22
331
2F792
  5
2F7A9
331
30C15
  5
30C2B
331
3105C
  5
31063
331
312FC
  5
31311
331
2C834
  5
2C83A
331
2F516
  5
2F52C
331
30A62
  5
30A87
331
30C05
  5
30C1F
331
2F84E
  5
2F865
331
2B846
  5
2B84B
331
312EC
  5
31301
331
2FFDA
  5
2FFF0
331
2B430
  5
2B435
331
2F1BB
  5
2F1D1
331
30A52
  5
30A68
331
2FFCA
  5
2FFE0
331
30C69
  5
30C7F
331
31120
  5
31127
331
30C59
  5
30C6F
331
31348
  5
312C7
331
2B4BC
  5
2B4C1
331
30AAE
  5
30AC8
331
2F569
  5
2F57F
331
2F8AA
  5
2F8C0
331
2B8AA
  5
2B8AF
331
2F905
  5
2F91B
331
2F237
  5
2F24D
331
3138A
  5
31390
331
30A9E
  5
30ABC
331
2F8C5
  5
2F8DC
331
30AE4
  5
30AFB
331
2F33D
  5
2F359
331
30AD4
  5
30AEA
331
2F675
  5
2F69D
331
31193
  5
3119A
331
2F981
  5
2F99C
331
2DB80
  5
2DB96
331
31596
  5
315B4
331
2F979
  5
2F995
331
2DB70
  5
2DB86
331
30B38
  5
30B4F
331
30ED7
  5
30EDE
331
317E2
  5
31ABB
331
3003D
  5
30053
331
311D7
  5
311DE
331
30B94
  5
30BAA
331
2C6B3
  5
2C6B9
331
3002D
  5
30043
331
2F465
  5
2F47F
331
30B84
  5
30B9E
331
30F33
  5
30F3A
331
3124B
  5
31256
331
30F23
  5
30F2A
331
2F725
  5
2F73E
331
30BE8
  5
30BFF
331
2F4D1
  5
2F4E7
331
30BD8
  5
30BEE
331
312C7
  5
312DC
331
2F4C9
  5
2F4DF
331
30A2D
  5
30A43
331
312B7
  5
312CC
331
2FF9D
  5
2FFB3
331
2E28C
  5
2E2A2
331
2B3E3
  5
2B3E8
331
32142
  5
321AB
331
30A1D
  5
30A33
331
30C2C
  5
30C42
331
310E3
  5
310EC
331
2F535
  5
2F54B
331
3130B
  5
31329
331
2FFF9
  5
3000F
331
2F525
  5
2F53B
331
2F1F2
  5
2F208
331
2FFE9
  5
2FFFF
331
30C88
  5
30CA1
331
2B4FB
  5
2B500
331
30C9E
  5
30E8A
331
30C78
  5
30C8E
331
31137
  5
3113F
331
31166
  5
31171
331
3111F
  5
31126
331
2F630
  5
2F667
331
31156
  5
3115F
331
2DA8B
  5
2DA91
331
2BA7A
  5
2BA7F
331
313A9
  5
313E3
331
2F620
  5
2F636
331
30B03
  5
30B26
331
30EB2
  5
30ECB
331
311BA
  5
311C2
331
31399
  5
3139F
331
30AF3
  5
30B0C
331
30010
  5
30026
331
2C68E
  5
2C694
331
315C5
  5
315CB
331
2F9A0
  5
2F9B6
331
2DB8F
  5
2DBA5
331
30B57
  5
30B6D
331
315B5
  5
315BB
331
2DB7F
  5
2DB95
331
30B47
  5
30B5D
331
30EF6
  5
30EFD
331
2F700
  5
2F71A
331
3120E
  5
3121B
331
2F410
  5
2F426
331
3005C
  5
30975
331
30EE6
  5
30EED
331
2F6F0
  5
2F706
331
2B638
  5
2B63D
331
30BAB
  5
30BC1
331
3004C
  5
30952
331
32388
  5
323A0
331
2E0BB
  5
2E0D1
331
30BA3
  5
30BB9
331
30F4A
  5
30F51
331
3126A
  5
312A7
331
2B1EE
  5
2B1F2
331
309D0
  5
30A14
331
2F744
  5
2F75A
331
3125A
  5
31267
331
2F734
  5
2F74A
331
2FD30
  5
2FD46
331
2E1CF
  5
2E1E5
331
30BF7
  5
30C11
331
30FEE
  5
3105A
331
312DE
  5
312F3
331
2B422
  5
2B427
331
30BE7
  5
30BFE
331
30FDE
  5
30FE5
331
30A44
  5
30A5A
331
312D6
  5
312EB
331
2FFBC
  5
2FFD2
331
2CBF2
  5
2CBF8
331
30A3C
  5
30A52
331
2B7F8
  5
2B7FD
331
2FFAC
  5
2FFC2
331
2E29B
  5
2E2B1
331
30C4B
  5
30C61
331
31102
  5
31109
331
3133A
  5
31352
331
2F24B
  5
2F261
331
2F554
  5
2F56A
331
30AA0
  5
30AC0
331
30C3B
  5
30C51
331
310F2
  5
310F9
331
2F89C
  5
2F8B4
331
3132A
  5
31341
331
2B496
  5
2B49B
331
2F544
  5
2F55A
331
30A90
  5
30AAC
331
2F88C
  5
2F8A7
331
2F8B7
  5
2F8CD
331
30008
  5
3001E
331
2CEB6
  5
2CEBC
331
30AC6
  5
30ADC
331
30C97
  5
30DFB
331
31185
  5
3118E
331
30D55
  5
30EB1
331
2F657
  5
2F67A
331
31175
  5
3117D
331
2EECC
  5
2EEE2
331
2F94B
  5
2F961
331
30B22
  5
30B38
331
30EC9
  5
2DB79
331
313E0
  5
3152E
331
2EEB4
  5
2EECC
331
2F6C3
  5
2F6E2
331
311C9
  5
311D0
331
2C6A5
  5
2C6AB
331
315E4
  5
317D9
331
3001F
  5
30035
331
2FC17
  5
2FC2D
331
30B76
  5
30B92
331
2EFC0
  5
2EFD6
331
2F9E7
  5
2F9FD
331
30B66
  5
30B7D
331
30F15
  5
30F1C
331
31235
  5
31240
331
2B0B9
  5
2B0BD
331
30F05
  5
30F0C
331
2F70F
  5
2F72A
331
2E12A
  5
2E140
331
30BCA
  5
30BE0
331
2C799
  5
2C79F
331
30953
  5
309A7
331
2F4B3
  5
2F4CC
331
30BBA
  5
30BD0
331
30F69
  5
30F70
331
2F024
  5
2F03A
331
30F59
  5
30F60
331
30A0F
  5
30A28
  0
XRECORD
  5
32DF4
102
{ACAD_REACTORS
330
32DF3
102
}
330
32DF3
100
AcDbXrecord
340
1A
  0
MLINESTYLE
  5
17
102
{ACAD_REACTORS
330
16
102
}
330
16
100
AcDbMlineStyle
  2
STANDARD
 70
     0
  3

 62
   256
 51
90.0
 52
90.0
 71
     2
 49
0.5
 62
   256
  6
BYLAYER
 49
-0.5
 62
   256
  6
BYLAYER
  0
ACDBPLACEHOLDER
  5
F
102
{ACAD_REACTORS
330
E
102
}
330
E
100
AcDbPlaceHolder
280
     0
  0
ACAD_PROXY_OBJECT
  5
1303
102
{ACAD_REACTORS
330
1302
102
}
330
1302
100
AcDbProxyObject
 90
      499
 91
      506
 93
     1841
310
4214DD185B99185C9928B81E85EB51B8AE3F2E07A17AD46E2B8FC02B5E8DC0F42B1CFD028000000C1008070000C3001FDFF8000000C1003FBFF000000182007F7FE00000030400FEFFC00000060801FDFF8000000C1003FBFF00000018200000000000000681FA0B0000001820100E000186003FBFF000000182007F7FE000
310
00030400FEFFC00000060801FDFF8000000C1003FBFF000000182007F7FE000000304000AD7A3703D0AC73F4160000003040201C00030C007F7FE00000030400FEFFC00000060801FDFF8000000C1003FBFF000000182007F7FE00000030400FEFFC000000608000
340
11
340
11
340
11
 94
        0
1001
ACAD
1000
AcadProxyRoundTripData
1071
      503
1071
   655383
1070
     0
  0
XRECORD
  5
32DDC
102
{ACAD_REACTORS
330
32DD2
102
}
330
32DD2
100
AcDbXrecord
 90
        0
  0
XRECORD
  5
32DE0
102
{ACAD_REACTORS
330
32DD2
102
}
330
32DD2
100
AcDbXrecord
1000
DSTYLE
1002
{
1070
   289
 70
     0
1070
   342
340
530
1002
}
  0
XRECORD
  5
32DDD
102
{ACAD_REACTORS
330
32DD2
102
}
330
32DD2
100
AcDbXrecord
  1
{C814BBB0-13E5-4952-A5F4-981BF75BEF75}
  0
XRECORD
  5
32DD5
102
{ACAD_REACTORS
330
32DD2
102
}
330
32DD2
100
AcDbXrecord
  1

  0
XRECORD
  5
32DDB
102
{ACAD_REACTORS
330
32DD2
102
}
330
32DD2
100
AcDbXrecord
 90
        0
  0
XRECORD
  5
32DD7
102
{ACAD_REACTORS
330
32DD2
102
}
330
32DD2
100
AcDbXrecord
340
19
  0
XRECORD
  5
32DDA
102
{ACAD_REACTORS
330
32DD2
102
}
330
32DD2
100
AcDbXrecord
 90
    10781
  0
XRECORD
  5
32DD8
102
{ACAD_REACTORS
330
32DD2
102
}
330
32DD2
100
AcDbXrecord
340
18
  0
XRECORD
  5
32DD9
102
{ACAD_REACTORS
330
32DD2
102
}
330
32DD2
100
AcDbXrecord
340
E
  0
XRECORD
  5
32DDF
102
{ACAD_REACTORS
330
32DD2
102
}
330
32DD2
100
AcDbXrecord
 40
0.0
  0
XRECORD
  5
32DE3
102
{ACAD_REACTORS
330
32DD2
102
}
330
32DD2
100
AcDbXrecord
340
0
  0
XRECORD
  5
32DE9
102
{ACAD_REACTORS
330
32DD2
102
}
330
32DD2
100
AcDbXrecord
 10
0.0
 20
0.0
 30
0.0
  0
XRECORD
  5
32DE5
102
{ACAD_REACTORS
330
32DD2
102
}
330
32DD2
100
AcDbXrecord
 10
0.0
 20
0.0
 30
0.0
  0
XRECORD
  5
32DE8
102
{ACAD_REACTORS
330
32DD2
102
}
330
32DD2
100
AcDbXrecord
 10
0.0
 20
0.0
 30
0.0
  0
XRECORD
  5
32DE6
102
{ACAD_REACTORS
330
32DD2
102
}
330
32DD2
100
AcDbXrecord
 10
0.0
 20
0.0
 30
0.0
  0
XRECORD
  5
32DE7
102
{ACAD_REACTORS
330
32DD2
102
}
330
32DD2
100
AcDbXrecord
 10
0.0
 20
0.0
 30
0.0
  0
XRECORD
  5
32DE4
102
{ACAD_REACTORS
330
32DD2
102
}
330
32DD2
100
AcDbXrecord
 10
0.0
 20
0.0
 30
0.0
  0
XRECORD
  5
32DE1
102
{ACAD_REACTORS
330
32DD2
102
}
330
32DD2
100
AcDbXrecord
340
0
  0
XRECORD
  5
32DE2
102
{ACAD_REACTORS
330
32DD2
102
}
330
32DD2
100
AcDbXrecord
 70
     0
  0
XRECORD
  5
32DD6
102
{ACAD_REACTORS
330
32DD2
102
}
330
32DD2
100
AcDbXrecord
  1

  0
XRECORD
  5
32DD3
102
{ACAD_REACTORS
330
32DD2
102
}
330
32DD2
100
AcDbXrecord
 90
        1
  0
XRECORD
  5
32DD4
102
{ACAD_REACTORS
330
32DD2
102
}
330
32DD2
100
AcDbXrecord
 90
       70
  0
XRECORD
  5
32DEC
102
{ACAD_REACTORS
330
32DD2
102
}
330
32DD2
100
AcDbXrecord
340
0
  0
XRECORD
  5
32DF2
102
{ACAD_REACTORS
330
32DD2
102
}
330
32DD2
100
AcDbXrecord
 10
0.0
 20
0.0
 30
0.0
  0
XRECORD
  5
32DEE
102
{ACAD_REACTORS
330
32DD2
102
}
330
32DD2
100
AcDbXrecord
 10
0.0
 20
0.0
 30
0.0
  0
XRECORD
  5
32DF1
102
{ACAD_REACTORS
330
32DD2
102
}
330
32DD2
100
AcDbXrecord
 10
0.0
 20
0.0
 30
0.0
  0
XRECORD
  5
32DEF
102
{ACAD_REACTORS
330
32DD2
102
}
330
32DD2
100
AcDbXrecord
 10
0.0
 20
0.0
 30
0.0
  0
XRECORD
  5
32DF0
102
{ACAD_REACTORS
330
32DD2
102
}
330
32DD2
100
AcDbXrecord
 10
0.0
 20
0.0
 30
0.0
  0
XRECORD
  5
32DED
102
{ACAD_REACTORS
330
32DD2
102
}
330
32DD2
100
AcDbXrecord
 10
0.0
 20
0.0
 30
0.0
  0
XRECORD
  5
32DEA
102
{ACAD_REACTORS
330
32DD2
102
}
330
32DD2
100
AcDbXrecord
340
0
  0
XRECORD
  5
32DEB
102
{ACAD_REACTORS
330
32DD2
102
}
330
32DD2
100
AcDbXrecord
 70
     0
  0
XRECORD
  5
32DDE
102
{ACAD_REACTORS
330
32DD2
102
}
330
32DD2
100
AcDbXrecord
  1
{BF594101-1F87-440F-ADDF-84E3B622DD4B}
  0
DICTIONARYVAR
  5
1308
102
{ACAD_REACTORS
330
1307
102
}
330
1307
100
DictionaryVariables
280
     0
  1
STANDARD
  0
DICTIONARYVAR
  5
25D2C
102
{ACAD_REACTORS
330
1307
102
}
330
1307
100
DictionaryVariables
280
     0
  1
1
  0
DICTIONARYVAR
  5
25D2D
102
{ACAD_REACTORS
330
1307
102
}
330
1307
100
DictionaryVariables
280
     0
  1

  0
ENDSEC
  0
EOF
