  0
SECTION
  2
HEADER
  9
$ACADVER
  1
AC1014
  9
$ACADMAINTVER
 70
     9
  9
$DWGCODEPAGE
  3
ANSI_932
  9
$INSBASE
 10
0.0
 20
0.0
 30
0.0
  9
$EXTMIN
 10
-1522.886845103425
 20
-186.2954058886498
 30
-0.0015258207003583
  9
$EXTMAX
 10
1026.973094696724
 20
1306.309193105873
 30
0.0000000349246037
  9
$LIMMIN
 10
-1896.400093774606
 20
-627.2591697534699
  9
$LIMMAX
 10
1356.255816853867
 20
1528.153228689068
  9
$ORTHOMODE
 70
     0
  9
$REGENMODE
 70
     1
  9
$FILLMODE
 70
     1
  9
$QTEXTMODE
 70
     0
  9
$MIRRTEXT
 70
     0
  9
$DRAGMODE
 70
     2
  9
$LTSCALE
 40
20.0
  9
$OSMODE
 70
    37
  9
$ATTMODE
 70
     1
  9
$TEXTSIZE
 40
64.0
  9
$TRACEWID
 40
0.05
  9
$TEXTSTYLE
  7
STANDARD
  9
$CLAYER
  8
OUTLINE
  9
$CELTYPE
  6
BYLAYER
  9
$CECOLOR
 62
   256
  9
$CELTSCALE
 40
1.0
  9
$DELOBJ
 70
     1
  9
$DISPSILH
 70
     0
  9
$DIMSCALE
 40
1.0
  9
$DIMASZ
 40
10.0
  9
$DIMEXO
 40
20.0
  9
$DIMDLI
 40
200.0
  9
$DIMRND
 40
0.0
  9
$DIMDLE
 40
0.0
  9
$DIMEXE
 40
30.0
  9
$DIMTP
 40
0.0
  9
$DIMTM
 40
0.0
  9
$DIMTXT
 40
64.0
  9
$DIMCEN
 40
0.09
  9
$DIMTSZ
 40
0.0
  9
$DIMTOL
 70
     0
  9
$DIMLIM
 70
     0
  9
$DIMTIH
 70
     0
  9
$DIMTOH
 70
     0
  9
$DIMSE1
 70
     0
  9
$DIMSE2
 70
     0
  9
$DIMTAD
 70
     1
  9
$DIMZIN
 70
     8
  9
$DIMBLK
  1
ORIGIN
  9
$DIMASO
 70
     1
  9
$DIMSHO
 70
     0
  9
$DIMPOST
  1

  9
$DIMAPOST
  1

  9
$DIMALT
 70
     0
  9
$DIMALTD
 70
     2
  9
$DIMALTF
 40
25.4
  9
$DIMLFAC
 40
1.0
  9
$DIMTOFL
 70
     1
  9
$DIMTVP
 40
0.0
  9
$DIMTIX
 70
     0
  9
$DIMSOXD
 70
     0
  9
$DIMSAH
 70
     0
  9
$DIMBLK1
  1

  9
$DIMBLK2
  1

  9
$DIMSTYLE
  2
STANDARD
  9
$DIMCLRD
 70
     0
  9
$DIMCLRE
 70
     0
  9
$DIMCLRT
 70
     0
  9
$DIMTFAC
 40
1.0
  9
$DIMGAP
 40
20.0
  9
$DIMJUST
 70
     0
  9
$DIMSD1
 70
     0
  9
$DIMSD2
 70
     0
  9
$DIMTOLJ
 70
     1
  9
$DIMTZIN
 70
     0
  9
$DIMALTZ
 70
     0
  9
$DIMALTTZ
 70
     0
  9
$DIMFIT
 70
     0
  9
$DIMUPT
 70
     0
  9
$DIMUNIT
 70
     2
  9
$DIMDEC
 70
     0
  9
$DIMTDEC
 70
     0
  9
$DIMALTU
 70
     2
  9
$DIMALTTD
 70
     2
  9
$DIMTXSTY
  7
STANDARD
  9
$DIMAUNIT
 70
     0
  9
$LUNITS
 70
     2
  9
$LUPREC
 70
     4
  9
$SKETCHINC
 40
0.1
  9
$FILLETRAD
 40
10.0
  9
$AUNITS
 70
     1
  9
$AUPREC
 70
     3
  9
$MENU
  1
ACAD
  9
$ELEVATION
 40
0.0
  9
$PELEVATION
 40
0.0
  9
$THICKNESS
 40
0.0
  9
$LIMCHECK
 70
     0
  9
$BLIPMODE
 70
     0
  9
$CHAMFERA
 40
0.0
  9
$CHAMFERB
 40
0.0
  9
$CHAMFERC
 40
0.0
  9
$CHAMFERD
 40
0.0
  9
$SKPOLY
 70
     0
  9
$TDCREATE
 40
2450330.393205995
  9
$TDUPDATE
 40
2454298.461600833
  9
$TDINDWG
 40
1.1216113310
  9
$TDUSRTIMER
 40
1.1216113310
  9
$USRTIMER
 70
     1
  9
$ANGBASE
 50
0.0
  9
$ANGDIR
 70
     0
  9
$PDMODE
 70
     3
  9
$PDSIZE
 40
-2.0
  9
$PLINEWID
 40
0.0
  9
$COORDS
 70
     1
  9
$SPLFRAME
 70
     0
  9
$SPLINETYPE
 70
     6
  9
$SPLINESEGS
 70
     8
  9
$ATTDIA
 70
     0
  9
$ATTREQ
 70
     1
  9
$HANDLING
 70
-16383
  9
$HANDSEED
  5
32CA1
  9
$SURFTAB1
 70
     6
  9
$SURFTAB2
 70
     6
  9
$SURFTYPE
 70
     6
  9
$SURFU
 70
     6
  9
$SURFV
 70
     6
  9
$UCSNAME
  2

  9
$UCSORG
 10
0.0
 20
0.0
 30
0.0
  9
$UCSXDIR
 10
1.0
 20
0.0
 30
0.0
  9
$UCSYDIR
 10
0.0
 20
1.0
 30
0.0
  9
$PUCSNAME
  2

  9
$PUCSORG
 10
0.0
 20
0.0
 30
0.0
  9
$PUCSXDIR
 10
1.0
 20
0.0
 30
0.0
  9
$PUCSYDIR
 10
0.0
 20
1.0
 30
0.0
  9
$USERI1
 70
     0
  9
$USERI2
 70
     0
  9
$USERI3
 70
     0
  9
$USERI4
 70
     0
  9
$USERI5
 70
     0
  9
$USERR1
 40
20.0
  9
$USERR2
 40
0.0
  9
$USERR3
 40
0.0
  9
$USERR4
 40
0.0
  9
$USERR5
 40
0.0
  9
$WORLDVIEW
 70
     1
  9
$SHADEDGE
 70
     3
  9
$SHADEDIF
 70
    70
  9
$TILEMODE
 70
     1
  9
$MAXACTVP
 70
    64
  9
$PINSBASE
 10
0.0
 20
0.0
 30
0.0
  9
$PLIMCHECK
 70
     0
  9
$PEXTMIN
 10
1.000000000000000E+20
 20
1.000000000000000E+20
 30
1.000000000000000E+20
  9
$PEXTMAX
 10
-1.000000000000000E+20
 20
-1.000000000000000E+20
 30
-1.000000000000000E+20
  9
$PLIMMIN
 10
0.0
 20
0.0
  9
$PLIMMAX
 10
12.0
 20
9.0
  9
$UNITMODE
 70
     0
  9
$VISRETAIN
 70
     1
  9
$PLINEGEN
 70
     0
  9
$PSLTSCALE
 70
     1
  9
$TREEDEPTH
 70
  3020
  9
$PICKSTYLE
 70
     1
  9
$CMLSTYLE
  2
STANDARD
  9
$CMLJUST
 70
     0
  9
$CMLSCALE
 40
1.0
  9
$PROXYGRAPHICS
 70
     1
  9
$MEASUREMENT
 70
     0
  0
ENDSEC
  0
SECTION
  2
CLASSES
  0
CLASS
  1
ACDBDICTIONARYWDFLT
  2
AcDbDictionaryWithDefault
  3
AutoCAD 2000
 90
        0
280
     0
281
     0
  0
CLASS
  1
ACDBPLACEHOLDER
  2
AcDbPlaceHolder
  3
AutoCAD 2000
 90
        0
280
     0
281
     0
  0
CLASS
  1
LAYOUT
  2
AcDbLayout
  3
AutoCAD 2000
 90
        0
280
     0
281
     0
  0
CLASS
  1
TABLESTYLE
  2
AcDbTableStyle
  3
ObjectDBX Classes
 90
     2047
280
     0
281
     0
  0
CLASS
  1
DICTIONARYVAR
  2
AcDbDictionaryVar
  3
AutoCAD 2000
 90
        0
280
     0
281
     0
  0
CLASS
  1
SORTENTSTABLE
  2
AcDbSortentsTable
  3
AutoCAD 2000
 90
        0
280
     0
281
     0
  0
CLASS
  1
ACAD_PROXY_OBJECT_WRAPPER
  2
AcDbProxyObjectWrapper
  3
AutoCAD 2000
 90
        0
280
     0
281
     0
  0
CLASS
  1
LONG_TRANSACTION
  2
AcDbLongTransaction
  3
AutoCAD 2000
 90
        0
280
     0
281
     0
  0
CLASS
  1
LWPOLYLINE
  2
AcDbPolyline
  3
AutoCAD 2000
 90
        0
280
     0
281
     1
  0
CLASS
  1
HATCH
  2
AcDbHatch
  3
AutoCAD 2000
 90
        0
280
     0
281
     1
  0
CLASS
  1
XRECORD
  2
AcDbXrecord
  3
AutoCAD 2000
 90
        0
280
     0
281
     0
  0
ENDSEC
  0
SECTION
  2
TABLES
  0
TABLE
  2
VPORT
  5
8
330
0
100
AcDbSymbolTable
 70
     4
  0
VPORT
  5
32C7C
330
8
100
AcDbSymbolTableRecord
100
AcDbViewportTableRecord
  2
*ACTIVE
 70
     0
 10
0.0
 20
0.0
 11
1.0
 21
1.0
 12
-294.996696223965
 22
568.8078236033781
 13
0.0
 23
0.0
 14
50.0
 24
50.0
 15
100.0
 25
100.0
 16
0.0
 26
0.0
 36
1.0
 17
0.0
 27
0.0
 37
0.0
 40
3351.479391799385
 41
1.266749379652605
 42
50.0
 43
0.0
 44
0.0
 50
0.0
 51
0.0
 71
     0
 72
   500
 73
     1
 74
     0
 75
     0
 76
     0
 77
     0
 78
     0
  0
ENDTAB
  0
TABLE
  2
LTYPE
  5
5
330
0
100
AcDbSymbolTable
 70
     2
  0
LTYPE
  5
13
330
5
100
AcDbSymbolTableRecord
100
AcDbLinetypeTableRecord
  2
BYBLOCK
 70
     0
  3

 72
    65
 73
     0
 40
0.0
  0
LTYPE
  5
14
330
5
100
AcDbSymbolTableRecord
100
AcDbLinetypeTableRecord
  2
BYLAYER
 70
     0
  3

 72
    65
 73
     0
 40
0.0
  0
LTYPE
  5
15
330
5
100
AcDbSymbolTableRecord
100
AcDbLinetypeTableRecord
  2
CONTINUOUS
 70
     0
  3
実線
 72
    65
 73
     0
 40
0.0
  0
LTYPE
  5
23
330
5
100
AcDbSymbolTableRecord
100
AcDbLinetypeTableRecord
  2
DASHDOT
 70
     0
  3
____ _ ____ _ ____ _ ____ _ ____ _ ____ _ ____
 72
    65
 73
     4
 40
5.5
 49
4.0
 74
     0
 49
-0.6
 74
     0
 49
0.3
 74
     0
 49
-0.6
 74
     0
  0
ENDTAB
  0
TABLE
  2
LAYER
  5
2
102
{ACAD_XDICTIONARY
360
259B5
102
}
330
0
100
AcDbSymbolTable
 70
    10
  0
LAYER
  5
10
330
2
100
AcDbSymbolTableRecord
100
AcDbLayerTableRecord
  2
0
 70
     0
 62
     7
  6
CONTINUOUS
  0
LAYER
  5
22
330
2
100
AcDbSymbolTableRecord
100
AcDbLayerTableRecord
  2
DETAIL
 70
     0
 62
     5
  6
CONTINUOUS
  0
LAYER
  5
31
330
2
100
AcDbSymbolTableRecord
100
AcDbLayerTableRecord
  2
OUTLINE
 70
     0
 62
     3
  6
CONTINUOUS
  0
LAYER
  5
32
330
2
100
AcDbSymbolTableRecord
100
AcDbLayerTableRecord
  2
BASIS
 70
     0
 62
     6
  6
CONTINUOUS
  0
LAYER
  5
33
330
2
100
AcDbSymbolTableRecord
100
AcDbLayerTableRecord
  2
SIZE
 70
     0
 62
    32
  6
CONTINUOUS
  0
LAYER
  5
34
330
2
100
AcDbSymbolTableRecord
100
AcDbLayerTableRecord
  2
NOTE
 70
     0
 62
     4
  6
CONTINUOUS
  0
LAYER
  5
35
330
2
100
AcDbSymbolTableRecord
100
AcDbLayerTableRecord
  2
ARRANGE
 70
     0
 62
     1
  6
CONTINUOUS
  0
LAYER
  5
37
330
2
100
AcDbSymbolTableRecord
100
AcDbLayerTableRecord
  2
ETC
 70
     0
 62
    83
  6
CONTINUOUS
  0
LAYER
  5
3A
330
2
100
AcDbSymbolTableRecord
100
AcDbLayerTableRecord
  2
DEFPOINTS
 70
     0
 62
     7
  6
CONTINUOUS
  0
LAYER
  5
260C4
330
2
100
AcDbSymbolTableRecord
100
AcDbLayerTableRecord
  2
FIX
 70
     0
 62
   241
  6
CONTINUOUS
  0
ENDTAB
  0
TABLE
  2
STYLE
  5
3
330
0
100
AcDbSymbolTable
 70
     3
  0
STYLE
  5
11
330
3
100
AcDbSymbolTableRecord
100
AcDbTextStyleTableRecord
  2
STANDARD
 70
     0
 40
0.0
 41
0.9
 50
0.0
 71
     0
 42
64.0
  3
SIMPLEX
  4
BIGFONT
  0
ENDTAB
  0
TABLE
  2
VIEW
  5
6
330
0
100
AcDbSymbolTable
 70
     1
  0
VIEW
  5
3C
330
6
100
AcDbSymbolTableRecord
100
AcDbViewTableRecord
  2
ALL
 70
     0
 40
4282.62
 10
0.0
 20
41.30990399999999
 41
5940.0
 11
0.0
 21
0.0
 31
1.0
 12
0.0
 22
0.0
 32
0.0
 42
50.0
 43
0.0
 44
0.0
 50
0.0
 71
     0
  0
ENDTAB
  0
TABLE
  2
UCS
  5
7
330
0
100
AcDbSymbolTable
 70
     0
  0
ENDTAB
  0
TABLE
  2
APPID
  5
9
330
0
100
AcDbSymbolTable
 70
     2
  0
APPID
  5
12
330
9
100
AcDbSymbolTableRecord
100
AcDbRegAppTableRecord
  2
ACAD
 70
     0
  0
APPID
  5
25484
330
9
100
AcDbSymbolTableRecord
100
AcDbRegAppTableRecord
  2
ACAD_DSTYLE_DIMTEXT_FILL
 70
     0
  0
ENDTAB
  0
TABLE
  2
DIMSTYLE
  5
A
330
0
100
AcDbSymbolTable
 70
     1
  0
DIMSTYLE
105
B8
330
A
100
AcDbSymbolTableRecord
100
AcDbDimStyleTableRecord
  2
STANDARD
 70
     0
  3

  4

  5

  6

  7

 40
1.0
 41
0.18
 42
0.0625
 43
0.38
 44
0.18
 45
0.0
 46
0.0
 47
0.0
 48
0.0
140
0.18
141
0.09
142
0.0
143
25.4
144
1.0
145
0.0
146
1.0
147
0.09
 71
     0
 72
     0
 73
     1
 74
     1
 75
     0
 76
     0
 77
     0
 78
     0
170
     0
171
     2
172
     0
173
     0
174
     0
175
     0
176
     0
177
     0
178
     0
270
     2
271
     4
272
     4
273
     2
274
     2
340
11
275
     0
280
     0
281
     0
282
     0
283
     1
284
     0
285
     0
286
     0
287
     3
288
     0
  0
ENDTAB
  0
TABLE
  2
BLOCK_RECORD
  5
1
330
0
100
AcDbSymbolTable
 70
    72
  0
BLOCK_RECORD
  5
1E
102
{ACAD_XDICTIONARY
360
25971
102
}
330
1
100
AcDbSymbolTableRecord
100
AcDbBlockTableRecord
  2
*MODEL_SPACE
  0
BLOCK_RECORD
  5
1A
102
{ACAD_XDICTIONARY
360
32C9E
102
}
330
1
100
AcDbSymbolTableRecord
100
AcDbBlockTableRecord
  2
*PAPER_SPACE
  0
BLOCK_RECORD
  5
530
330
1
100
AcDbSymbolTableRecord
100
AcDbBlockTableRecord
  2
_ORIGIN
  0
ENDTAB
  0
ENDSEC
  0
SECTION
  2
BLOCKS
  0
BLOCK
  5
1F
330
1E
100
AcDbEntity
  8
0
100
AcDbBlockBegin
  2
*MODEL_SPACE
 70
     0
 10
0.0
 20
0.0
 30
0.0
  3
*MODEL_SPACE
  1

  0
ENDBLK
  5
20
330
1E
100
AcDbEntity
  8
0
100
AcDbBlockEnd
  0
BLOCK
  5
1B
330
1A
100
AcDbEntity
 67
     1
  8
0
100
AcDbBlockBegin
  2
*PAPER_SPACE
 70
     0
 10
0.0
 20
0.0
 30
0.0
  3
*PAPER_SPACE
  1

  0
ENDBLK
  5
1C
330
1A
100
AcDbEntity
 67
     1
  8
0
100
AcDbBlockEnd
  0
BLOCK
  5
533
330
530
100
AcDbEntity
  8
0
100
AcDbBlockBegin
  2
_ORIGIN
 70
     0
 10
0.0
 20
0.0
 30
0.0
  3
_ORIGIN
  1

  0
CIRCLE
  5
531
330
530
100
AcDbEntity
  8
0
  6
BYBLOCK
 62
     0
100
AcDbCircle
 10
0.0
 20
0.0
 30
0.0
 40
0.5
  0
LINE
  5
532
330
530
100
AcDbEntity
  8
0
  6
BYBLOCK
 62
     0
100
AcDbLine
 10
0.0
 20
0.0
 30
0.0
 11
-1.0
 21
0.0
 31
0.0
  0
ENDBLK
  5
534
330
530
100
AcDbEntity
  8
0
100
AcDbBlockEnd
  0
ENDSEC
  0
SECTION
  2
ENTITIES
  0
CIRCLE
  5
3137B
330
1E
100
AcDbEntity
  8
ARRANGE
  6
CONTINUOUS
100
AcDbCircle
 10
0.0
 20
0.0
 30
0.0
 40
40.0
  0
POINT
  5
3137C
330
1E
100
AcDbEntity
  8
ARRANGE
100
AcDbPoint
 10
0.0
 20
0.0
 30
0.0
  0
SPLINE
  5
3137D
330
1E
100
AcDbEntity
  8
DETAIL
100
AcDbSpline
210
0.0
220
0.0
230
1.0
 70
     8
 71
     3
 72
    11
 73
     7
 74
     5
 42
0.0000000001
 43
0.0000000001
 44
0.00000000001
 40
0.0
 40
0.0
 40
0.0
 40
0.0
 40
0.6437969766881352
 40
1.272437613155428
 40
1.870879915742595
 40
8.092058040836374
 40
8.092058040836374
 40
8.092058040836374
 40
8.092058040836374
 10
-101.0999892209983
 20
788.4237046263942
 30
0.0
 10
-101.3145893851769
 20
788.4238199817359
 30
0.0
 10
-101.7387375725375
 20
788.4240479767107
 30
0.0
 10
-102.3623412469755
 20
788.4291539060621
 30
0.0
 10
-104.8448828113396
 20
788.4757761797118
 30
0.0
 10
-107.1156284892877
 20
788.3281803010322
 30
0.0
 10
-109.1871093714144
 20
788.1935364067672
 30
0.0
 11
-101.0999892209983
 21
788.4237046263942
 31
0.0
 11
-101.7437851223694
 21
788.424881304184
 31
0.0
 11
-102.3724017686509
 21
788.430373283415
 31
0.0
 11
-102.9707802140219
 21
788.4391154594113
 31
0.0
 11
-109.1871093714144
 21
788.1935364067672
 31
0.0
  0
SPLINE
  5
3137E
330
1E
100
AcDbEntity
  8
DETAIL
100
AcDbSpline
210
0.0
220
0.0
230
1.0
 70
     8
 71
     3
 72
     9
 73
     5
 74
     3
 42
0.0000000001
 43
0.0000000001
 44
0.00000000001
 40
0.0
 40
0.0
 40
0.0
 40
0.0
 40
202.0942645736381
 40
281.9996440986989
 40
281.9996440986989
 40
281.9996440986989
 40
281.9996440986989
 10
-140.0997645417519
 20
777.6662238447561
 30
0.0
 10
-72.73501161433251
 20
777.6850317006396
 30
0.0
 10
21.26486705816205
 20
777.711275932145
 30
0.0
 10
115.2647487053459
 20
777.7084872932095
 30
0.0
 10
141.8998752933075
 20
777.7076971246503
 30
0.0
 11
-140.0997645417519
 21
777.6662238447561
 31
0.0
 11
61.99449576825646
 21
777.7077366162694
 31
0.0
 11
141.8998752933075
 21
777.7076971246503
 31
0.0
  0
SPLINE
  5
3137F
330
1E
100
AcDbEntity
  8
DETAIL
100
AcDbSpline
210
0.0
220
0.0
230
1.0
 70
     8
 71
     3
 72
    11
 73
     7
 74
     5
 42
0.0000000001
 43
0.0000000001
 44
0.00000000001
 40
0.0
 40
0.0
 40
0.0
 40
0.0
 40
15.86452227538972
 40
29.86452332306941
 40
43.86452297290667
 40
205.8645139439029
 40
205.8645139439029
 40
205.8645139439029
 40
205.8645139439029
 10
104.7645164741516
 20
788.4389999635086
 30
0.0
 10
99.47634590717143
 20
788.4320858309442
 30
0.0
 10
89.52151143485048
 20
788.4190701680927
 30
0.0
 10
74.90000140558322
 20
788.4237230122303
 30
0.0
 10
11.56667300276353
 20
788.4194824795656
 30
0.0
 10
-47.0999914191575
 20
788.4216809938932
 30
0.0
 10
-101.099989221002
 20
788.4237046263942
 30
0.0
 11
104.7645164741516
 21
788.4389999635086
 31
0.0
 11
88.90000244511975
 21
788.4228243958777
 31
0.0
 11
74.90000139744006
 21
788.4228242706949
 31
0.0
 11
60.9000017476028
 21
788.4228243971293
 31
0.0
 11
-101.099989221002
 21
788.4237046263942
 31
0.0
  0
ARC
  5
31380
330
1E
100
AcDbEntity
  8
DETAIL
100
AcDbCircle
 10
-142.1009999999841
 20
764.998999999998
 30
0.0
 40
1.499
100
AcDbArc
 50
180.0
 51
269.9999946093031
  0
ARC
  5
31381
330
1E
100
AcDbEntity
  8
DETAIL
100
AcDbCircle
 10
-99.57076589465215
 20
669.245136911268
 30
0.0
 40
119.3364814480627
100
AcDbArc
 50
94.62200598092012
 51
109.7809709946617
  0
ARC
  5
31382
330
1E
100
AcDbEntity
  8
DETAIL
100
AcDbCircle
 10
-101.364143264418
 20
688.4999999999945
 30
0.0
 40
100.0000000000013
100
AcDbArc
 50
92.25115468063766
 51
94.48681383283954
  0
ARC
  5
31383
330
1E
100
AcDbEntity
  8
DETAIL
100
AcDbCircle
 10
-105.3000157071801
 20
788.6226850532875
 30
0.0
 40
0.20001574040486
100
AcDbArc
 50
272.2570357386773
 51
0.0330229867934457
  0
ARC
  5
31384
330
1E
100
AcDbEntity
  8
DETAIL
100
AcDbCircle
 10
-40.90813744105616
 20
788.6997818739018
 30
0.0
 40
0.1997819536034
100
AcDbArc
 50
179.9490301783498
 51
269.9488194027408
  0
ARC
  5
31385
330
1E
100
AcDbEntity
  8
DETAIL
100
AcDbCircle
 10
-31.2918625529528
 20
788.6997818679629
 30
0.0
 40
0.19978194767128
100
AcDbArc
 50
270.0511823091844
 51
0.0509715384216762
  0
ARC
  5
31386
330
1E
100
AcDbEntity
  8
DETAIL
100
AcDbCircle
 10
-104.0999999999985
 20
788.9999999999964
 30
0.0
 40
1.0
100
AcDbArc
 50
90.0
 51
180.0
  0
ARC
  5
31387
330
1E
100
AcDbEntity
  8
DETAIL
100
AcDbCircle
 10
-30.09999999998399
 20
788.9999999999964
 30
0.0
 40
1.0
100
AcDbArc
 50
90.0
 51
180.0
  0
ARC
  5
31388
330
1E
100
AcDbEntity
  8
DETAIL
100
AcDbCircle
 10
-42.09999999999126
 20
788.9999999999964
 30
0.0
 40
1.0
100
AcDbArc
 50
0.000000000000007
 51
90.0
  0
ARC
  5
31389
330
1E
100
AcDbEntity
  8
DETAIL
100
AcDbCircle
 10
140.4009994570333
 20
764.9990005429663
 30
0.0
 40
1.499000542971189
100
AcDbArc
 50
269.9999792461717
 51
359.9999792462238
  0
ARC
  5
3138A
330
1E
100
AcDbEntity
  8
DETAIL
100
AcDbCircle
 10
136.8999376473402
 20
777.7077802166331
 30
0.0
 40
4.999937646647549
100
AcDbArc
 50
359.9990478230004
 51
74.35681147502555
  0
ARC
  5
3138B
330
1E
100
AcDbEntity
  8
DETAIL
100
AcDbCircle
 10
104.1442461701844
 20
696.496791169674
 30
0.0
 40
91.94430103676394
100
AcDbArc
 50
82.10556591114949
 51
89.61347098465976
  0
ARC
  5
3138C
330
1E
100
AcDbEntity
  8
DETAIL
100
AcDbCircle
 10
33.09186255894019
 20
788.6997818738928
 30
0.0
 40
0.19978195359712
100
AcDbArc
 50
179.949030176578
 51
269.9488194027408
  0
ARC
  5
3138D
330
1E
100
AcDbEntity
  8
DETAIL
100
AcDbCircle
 10
105.9000000000014
 20
788.9999999999964
 30
0.0
 40
1.0
100
AcDbArc
 50
0.000000000000007
 51
90.0
  0
ARC
  5
3138E
330
1E
100
AcDbEntity
  8
DETAIL
100
AcDbCircle
 10
107.1000090010966
 20
788.6226785734379
 30
0.0
 40
0.20000900139529
100
AcDbArc
 50
179.9968053859958
 51
267.7456491995865
  0
ARC
  5
3138F
330
1E
100
AcDbEntity
  8
DETAIL
100
AcDbCircle
 10
31.90000000000509
 20
788.9999999999964
 30
0.0
 40
1.0
100
AcDbArc
 50
0.000000000000007
 51
90.0
  0
ARC
  5
31390
330
1E
100
AcDbEntity
  8
DETAIL
100
AcDbCircle
 10
43.90000000001236
 20
788.9999999999964
 30
0.0
 40
1.000000000000909
100
AcDbArc
 50
90.0
 51
180.0
  0
ARC
  5
31391
330
1E
100
AcDbEntity
  8
DETAIL
100
AcDbCircle
 10
42.69991361463326
 20
788.6999099075274
 30
0.0
 40
0.20008640566494
100
AcDbArc
 50
272.4067491843016
 51
0.0257984477180625
  0
LINE
  5
31392
330
1E
100
AcDbEntity
  8
DETAIL
100
AcDbLine
 10
140.4009994570333
 20
763.4999999999952
 30
0.0
 11
-142.0990001408972
 21
763.5000000000036
 31
0.0
  0
LINE
  5
31393
330
1E
100
AcDbEntity
  8
DETAIL
100
AcDbLine
 10
-143.5999999999876
 20
764.998999999998
 30
0.0
 11
-143.5999999999876
 21
776.7276980056976
 31
0.0
  0
LINE
  5
31394
330
1E
100
AcDbEntity
  8
DETAIL
100
AcDbLine
 10
-32.12649545166641
 20
788.5000000000036
 30
0.0
 11
-40.89999984984387
 21
788.5000000000036
 31
0.0
  0
LINE
  5
31395
330
1E
100
AcDbEntity
  8
DETAIL
100
AcDbLine
 10
-27.09999790217989
 20
788.4228245235708
 30
0.0
 11
-32.12649545166641
 21
788.5000000000036
 31
0.0
  0
LINE
  5
31396
330
1E
100
AcDbEntity
  8
DETAIL
100
AcDbLine
 10
-41.09999999998763
 20
788.6999999999988
 30
0.0
 11
-41.09999999998763
 21
788.9999999999964
 31
0.0
  0
LINE
  5
31397
330
1E
100
AcDbEntity
  8
DETAIL
100
AcDbLine
 10
-105.0999999999839
 20
788.622800334324
 30
0.0
 11
-105.0999999999839
 21
788.9999999999964
 31
0.0
  0
LINE
  5
31398
330
1E
100
AcDbEntity
  8
DETAIL
100
AcDbLine
 10
-31.09999999998763
 20
788.6999999999988
 30
0.0
 11
-31.09999999998763
 21
788.9999999999964
 31
0.0
  0
LINE
  5
31399
330
1E
100
AcDbEntity
  8
DETAIL
100
AcDbLine
 10
-42.09999999999126
 20
789.9999999999963
 30
0.0
 11
-104.0999999999985
 21
789.9999999999963
 31
0.0
  0
LINE
  5
3139A
330
1E
100
AcDbEntity
  8
DETAIL
100
AcDbLine
 10
-50.90000000000145
 20
790.0
 30
0.0
 11
-50.90000000000145
 21
790.5000000000018
 31
0.0
  0
LINE
  5
3139B
330
1E
100
AcDbEntity
  8
DETAIL
100
AcDbLine
 10
141.900000000005
 20
764.998999999998
 30
0.0
 11
141.900000000005
 21
777.6723977825804
 31
0.0
  0
LINE
  5
3139C
330
1E
100
AcDbEntity
  8
DETAIL
100
AcDbLine
 10
116.7726418057936
 20
787.56971863338
 30
0.0
 11
138.2481496276013
 21
782.5225181042701
 31
0.0
  0
LINE
  5
3139D
330
1E
100
AcDbEntity
  8
DETAIL
100
AcDbLine
 10
32.90000000000873
 20
788.6999999999988
 30
0.0
 11
32.90000000000873
 21
788.9999999999964
 31
0.0
  0
LINE
  5
3139E
330
1E
100
AcDbEntity
  8
DETAIL
100
AcDbLine
 10
102.9000000000087
 20
790.0
 30
0.0
 11
105.9000000000014
 21
790.0
 31
0.0
  0
LINE
  5
3139F
330
1E
100
AcDbEntity
  8
DETAIL
100
AcDbLine
 10
42.90000000000873
 20
788.9999999999964
 30
0.0
 11
42.90000000000873
 21
788.6999999999988
 31
0.0
  0
LINE
  5
313A0
330
1E
100
AcDbEntity
  8
DETAIL
100
AcDbLine
 10
102.9000000000087
 20
790.0
 30
0.0
 11
43.90000000001236
 21
789.9999999999972
 31
0.0
  0
LINE
  5
313A1
330
1E
100
AcDbEntity
  8
DETAIL
100
AcDbLine
 10
106.9000000000051
 20
788.9999999999964
 30
0.0
 11
106.9000000000051
 21
788.6226897252436
 31
0.0
  0
LINE
  5
313A2
330
1E
100
AcDbEntity
  8
DETAIL
100
AcDbLine
 10
8.767652796541369
 20
790.0
 30
0.0
 11
31.90000000000509
 21
789.9999999999963
 31
0.0
  0
LINE
  5
313A3
330
1E
100
AcDbEntity
  8
DETAIL
100
AcDbLine
 10
53.10000000001309
 20
790.0
 30
0.0
 11
53.10000000001309
 21
790.5000000000018
 31
0.0
  0
ARC
  5
313A4
330
1E
100
AcDbEntity
  8
DETAIL
100
AcDbCircle
 10
-50.47647870274886
 20
791.7003985367773
 30
0.0
 40
1.59960147980124
100
AcDbArc
 50
89.991749799507
 51
150.0082417351915
  0
ARC
  5
313A5
330
1E
100
AcDbEntity
  8
DETAIL
100
AcDbCircle
 10
52.67627046265261
 20
791.70004515061
 30
0.0
 40
1.59995484960354
100
AcDbArc
 50
29.99906649225061
 51
90.00093802636838
  0
LINE
  5
313A6
330
1E
100
AcDbEntity
  8
DETAIL
100
AcDbLine
 10
52.67624426812472
 20
793.2999999999992
 30
0.0
 11
-50.47624837106923
 21
793.2999999999992
 31
0.0
  0
LINE
  5
313A7
330
1E
100
AcDbEntity
  8
DETAIL
100
AcDbLine
 10
-51.86188925352325
 20
792.4999999999999
 30
0.0
 11
-53.0165807537196
 21
790.5000000000018
 31
0.0
  0
LINE
  5
313A8
330
1E
100
AcDbEntity
  8
DETAIL
100
AcDbLine
 10
-53.0165807537196
 20
790.5000000000018
 30
0.0
 11
55.21658075373125
 21
790.5000000000018
 31
0.0
  0
LINE
  5
313A9
330
1E
100
AcDbEntity
  8
DETAIL
100
AcDbLine
 10
54.06188504099191
 20
792.4999999999999
 30
0.0
 11
55.21658075373125
 21
790.5000000000018
 31
0.0
  0
ARC
  5
313DD
330
1E
100
AcDbEntity
  8
DETAIL
100
AcDbCircle
 10
139.8000000000138
 20
760.9000000000015
 30
0.0
 40
1.60000000000011
100
AcDbArc
 50
0.000000000000007
 51
90.0
  0
ARC
  5
313DE
330
1E
100
AcDbEntity
  8
DETAIL
100
AcDbCircle
 10
138.2999999999992
 20
763.2999999999992
 30
0.0
 40
0.8000000000001
100
AcDbArc
 50
180.0
 51
270.0
  0
LINE
  5
313DF
330
1E
100
AcDbEntity
  8
DETAIL
100
AcDbLine
 10
141.4000000000123
 20
524.4999999999982
 30
0.0
 11
-139.5999999999912
 21
524.4999999999982
 31
0.0
  0
LINE
  5
313E0
330
1E
100
AcDbEntity
  8
DETAIL
100
AcDbLine
 10
137.5
 20
763.5000000000036
 30
0.0
 11
137.5
 21
763.2999999999992
 31
0.0
  0
LINE
  5
313E1
330
1E
100
AcDbEntity
  8
DETAIL
100
AcDbLine
 10
139.8000000000138
 20
762.5000000000015
 30
0.0
 11
-137.9999999999927
 21
762.5000000000014
 31
0.0
  0
LINE
  5
313E3
330
1E
100
AcDbEntity
  8
DETAIL
100
AcDbLine
 10
141.4000000000123
 20
524.4999999999982
 30
0.0
 11
141.4000000000123
 21
760.9000000000015
 31
0.0
  0
ARC
  5
3152B
330
1E
100
AcDbEntity
  8
DETAIL
100
AcDbCircle
 10
-137.9999999999927
 20
760.9000000000015
 30
0.0
 40
1.59999999999991
100
AcDbArc
 50
90.0
 51
180.0
  0
ARC
  5
3152C
330
1E
100
AcDbEntity
  8
DETAIL
100
AcDbCircle
 10
-136.4999999999963
 20
763.2999999999992
 30
0.0
 40
0.7999999999999501
100
AcDbArc
 50
270.0
 51
0.000000000000007
  0
LINE
  5
3152D
330
1E
100
AcDbEntity
  8
DETAIL
100
AcDbLine
 10
-135.699999999997
 20
763.5000000000036
 30
0.0
 11
-135.699999999997
 21
763.2999999999992
 31
0.0
  0
LINE
  5
3152E
330
1E
100
AcDbEntity
  8
DETAIL
100
AcDbLine
 10
-139.5999999999912
 20
760.9000000000015
 30
0.0
 11
-139.5999999999912
 21
524.4999999999982
 31
0.0
  0
ARC
  5
3153A
330
1E
100
AcDbEntity
  8
DETAIL
100
AcDbCircle
 10
-140.2000139914707
 20
524.999988526024
 30
0.0
 40
2.50001141403824
100
AcDbArc
 50
270.2451720697386
 51
348.4633627490475
  0
ARC
  5
3158F
330
1E
100
AcDbEntity
  8
DETAIL
100
AcDbCircle
 10
140.0000005881156
 20
30.19999941187961
 30
0.0
 40
2.49999941188396
100
AcDbArc
 50
269.9999841952866
 51
0.0000134786179419
  0
ARC
  5
31590
330
1E
100
AcDbEntity
  8
DETAIL
100
AcDbCircle
 10
140.9999999999308
 20
521.0000000000763
 30
0.0
 40
1.50000000007957
100
AcDbArc
 50
359.9999999969775
 51
90.00083463658929
  0
ARC
  5
31591
330
1E
100
AcDbEntity
  8
DETAIL
100
AcDbCircle
 10
140.1999843689554
 20
524.9999998910152
 30
0.0
 40
2.4999998910421
100
AcDbArc
 50
191.5369569933784
 51
269.9997545745736
  0
LINE
  5
31592
330
1E
100
AcDbEntity
  8
DETAIL
100
AcDbLine
 10
140.0000005881156
 20
27.69999999999572
 30
0.0
 11
-140.2989898207924
 21
27.69999999999618
 31
0.0
  0
LINE
  5
31593
330
1E
100
AcDbEntity
  8
DETAIL
100
AcDbLine
 10
-142.5
 20
521.0000000000036
 30
0.0
 11
-142.4995833261055
 21
29.59999999999763
 31
0.0
  0
LINE
  5
31596
330
1E
100
AcDbEntity
  8
DETAIL
100
AcDbLine
 10
142.5
 20
30.19999999999527
 30
0.0
 11
142.5
 21
521.0000000000763
 31
0.0
  0
LINE
  5
31597
330
1E
100
AcDbEntity
  8
DETAIL
100
AcDbLine
 10
140.9999781491933
 20
522.5
 30
0.0
 11
-141.1259614185073
 21
522.5
 31
0.0
  0
LINE
  5
3159F
330
1E
100
AcDbEntity
  8
DETAIL
100
AcDbLine
 10
80.0
 20
27.69999999999527
 30
0.0
 11
139.7391455219076
 21
27.69999999999527
 31
0.0
  0
SPLINE
  5
315B1
330
1E
100
AcDbEntity
  8
DETAIL
100
AcDbSpline
210
0.0
220
0.0
230
1.0
 70
     8
 71
     3
 72
    11
 73
     7
 74
     5
 42
0.0000000001
 43
0.0000000001
 44
0.00000000001
 40
0.0
 40
0.0
 40
0.0
 40
0.0
 40
83.25011223310056
 40
166.5002245189487
 40
249.7503356191651
 40
333.0004466666338
 40
333.0004466666338
 40
333.0004466666338
 40
333.0004466666338
 10
151.5636635676019
 20
113.4997767532395
 30
0.0
 10
151.5635953013647
 20
141.2498141642436
 30
0.0
 10
151.5634587688909
 20
196.749889003835
 30
0.0
 10
151.5637627727646
 20
280.0000008768076
 30
0.0
 10
151.5634587688477
 20
363.2501123545694
 30
0.0
 10
151.5635953013506
 20
418.7501864037394
 30
0.0
 10
151.5636635676019
 20
446.5002234195335
 30
0.0
 11
151.5636635676019
 21
113.4997767532395
 31
0.0
 11
151.563543569322
 21
196.7498889862536
 31
0.0
 11
151.5636614381328
 21
280.0000012720183
 31
0.0
 11
151.5635435692929
 21
363.2501123721513
 31
0.0
 11
151.5636635676019
 21
446.5002234195335
 31
0.0
  0
SPLINE
  5
315B2
330
1E
100
AcDbEntity
  8
DETAIL
100
AcDbSpline
210
0.0
220
0.0
230
1.0
 70
     8
 71
     3
 72
     9
 73
     5
 74
     3
 42
0.0000000001
 43
0.0000000001
 44
0.00000000001
 40
0.0
 40
0.0
 40
0.0
 40
0.0
 40
0.3279575772838863
 40
1.260162649977549
 40
1.260162649977549
 40
1.260162649977549
 40
1.260162649977549
 10
142.4999999999963
 20
63.69009018582346
 30
0.0
 10
142.6092094585105
 20
63.69500591536916
 30
0.0
 10
143.0288420274061
 20
63.71389439119685
 30
0.0
 10
143.4487231886855
 20
63.72633366349919
 30
0.0
 10
143.7593301952329
 20
63.73553561274002
 30
0.0
 11
142.4999999999963
 21
63.69009018582346
 31
0.0
 11
142.8276452127429
 21
63.70440056884309
 31
0.0
 11
143.7593301952329
 21
63.73553561274002
 31
0.0
  0
SPLINE
  5
315B3
330
1E
100
AcDbEntity
  8
DETAIL
100
AcDbSpline
210
0.0
220
0.0
230
1.0
 70
     8
 71
     3
 72
     9
 73
     5
 74
     3
 42
0.0000000001
 43
0.0000000001
 44
0.00000000001
 40
0.0
 40
0.0
 40
0.0
 40
0.0
 40
0.9321851172310692
 40
1.260142393988823
 40
1.260142393988823
 40
1.260142393988823
 40
1.260142393988823
 10
143.7593099501682
 20
496.2644650943186
 30
0.0
 10
143.4487095904364
 20
496.2736667861913
 30
0.0
 10
143.0288351753106
 20
496.2861057769141
 30
0.0
 10
142.6092093570314
 20
496.3049940748851
 30
0.0
 10
142.4999999999963
 20
496.3099098326556
 30
0.0
 11
143.7593099501682
 21
496.2644650943186
 31
0.0
 11
142.8276449091172
 21
496.2955993852292
 31
0.0
 11
142.4999999999963
 21
496.3099098326556
 31
0.0
  0
ARC
  5
315B4
330
1E
100
AcDbEntity
  8
DETAIL
100
AcDbCircle
 10
-47.5621635625248
 20
113.4996959285308
 30
0.0
 40
199.1258271301533
100
AcDbArc
 50
345.9772434587657
 51
0.000023256212581
  0
ARC
  5
315B5
330
1E
100
AcDbEntity
  8
DETAIL
100
AcDbCircle
 10
-47.56216286068593
 20
446.5003041577893
 30
0.0
 40
199.125826428304
100
AcDbArc
 50
359.999976768644
 51
14.02275656605645
  0
ARC
  5
315B6
330
1E
100
AcDbEntity
  8
DETAIL
100
AcDbCircle
 10
-47.49989155405273
 20
446.4998958604701
 30
0.0
 40
214.9998915540945
100
AcDbArc
 50
0.000030342575533
 51
12.44667521094686
  0
ARC
  5
315B7
330
1E
100
AcDbEntity
  8
DETAIL
100
AcDbCircle
 10
143.6895253264629
 20
65.73382074127948
 30
0.0
 40
1.999503982152899
100
AcDbArc
 50
271.9929426769236
 51
345.999006595115
  0
ARC
  5
315B8
330
1E
100
AcDbEntity
  8
DETAIL
100
AcDbCircle
 10
157.5644059039586
 20
68.23863673354026
 30
0.0
 40
4.99999626621652
100
AcDbArc
 50
271.9999444656772
 51
347.5574252126239
  0
ARC
  5
315B9
330
1E
100
AcDbEntity
  8
DETAIL
100
AcDbCircle
 10
-47.50000000014551
 20
113.4999999986666
 30
0.0
 40
215.000000000146
100
AcDbArc
 50
347.5534540131289
 51
0.0000000003647785
  0
ARC
  5
315BA
330
1E
100
AcDbEntity
  8
DETAIL
100
AcDbCircle
 10
143.6895252708563
 20
494.2661791899991
 30
0.0
 40
1.999504052726269
100
AcDbArc
 50
14.00099493000827
 51
88.00704789991485
  0
LINE
  5
315BB
330
1E
100
AcDbEntity
  8
DETAIL
100
AcDbLine
 10
167.5
 20
446.500009719557
 30
0.0
 11
167.5
 21
113.5000000000036
 31
0.0
  0
LINE
  5
315BC
330
1E
100
AcDbEntity
  8
DETAIL
100
AcDbLine
 10
142.5
 20
497.2904753830516
 30
0.0
 11
157.7393156845428
 21
496.7573089438637
 31
0.0
  0
ARC
  5
315BD
330
1E
100
AcDbEntity
  8
DETAIL
100
AcDbCircle
 10
-142.1999999999934
 20
515.4398088157904
 30
0.0
 40
3.00499999999897
100
AcDbArc
 50
95.72958912265097
 51
180.0
  0
ARC
  5
315BE
330
1E
100
AcDbEntity
  8
DETAIL
100
AcDbCircle
 10
-142.1999999999934
 20
515.4398088157904
 30
0.0
 40
5.0
100
AcDbArc
 50
93.43981276748529
 51
180.0
  0
ARC
  5
315BF
330
1E
100
AcDbEntity
  8
DETAIL
100
AcDbCircle
 10
-142.1999999999934
 20
56.62527041471548
 30
0.0
 40
5.00000000000019
100
AcDbArc
 50
180.0
 51
266.5601872325146
  0
ARC
  5
315C0
330
1E
100
AcDbEntity
  8
DETAIL
100
AcDbCircle
 10
-142.1999999999934
 20
56.62527041471548
 30
0.0
 40
3.00500000000009
100
AcDbArc
 50
180.0
 51
264.270410877349
  0
LINE
  5
315C1
330
1E
100
AcDbEntity
  8
DETAIL
100
AcDbLine
 10
-145.2049999999871
 20
56.62527041471548
 30
0.0
 11
-145.2049999999871
 21
515.4398088157904
 31
0.0
  0
LINE
  5
315C2
330
1E
100
AcDbEntity
  8
DETAIL
100
AcDbLine
 10
-145.2049999999871
 20
515.4398088157904
 30
0.0
 11
-147.1999999999934
 21
515.4398088157904
 31
0.0
  0
LINE
  5
315C3
330
1E
100
AcDbEntity
  8
DETAIL
100
AcDbLine
 10
-147.1999999999934
 20
56.62527041471548
 30
0.0
 11
-147.1999999999934
 21
515.4398088157904
 31
0.0
  0
LINE
  5
315C4
330
1E
100
AcDbEntity
  8
DETAIL
100
AcDbLine
 10
-147.1999999999934
 20
56.62527041471548
 30
0.0
 11
-145.2049999999871
 21
56.62527041471548
 31
0.0
  0
ARC
  5
315C5
330
1E
100
AcDbEntity
  8
DETAIL
100
AcDbCircle
 10
-130.4283137538368
 20
14.50026137330496
 30
0.0
 40
5.00025251894103
100
AcDbArc
 50
90.82145052697503
 51
135.0071285860969
  0
ARC
  5
315C6
330
1E
100
AcDbEntity
  8
DETAIL
100
AcDbCircle
 10
-166.9999995803846
 20
4.999999580395524
 30
0.0
 40
3.00000041960905
100
AcDbArc
 50
89.99999198545003
 51
179.9999919860753
  0
ARC
  5
315C7
330
1E
100
AcDbEntity
  8
DETAIL
100
AcDbCircle
 10
146.0710678118812
 20
13.00000000000181
 30
0.0
 40
5.0
100
AcDbArc
 50
225.0
 51
270.0
  0
ARC
  5
315C8
330
1E
100
AcDbEntity
  8
DETAIL
100
AcDbCircle
 10
130.4289321881333
 20
14.49999999999818
 30
0.0
 40
5.0
100
AcDbArc
 50
45.00000000000002
 51
90.0
  0
ARC
  5
315C9
330
1E
100
AcDbEntity
  8
DETAIL
100
AcDbCircle
 10
-146.071067811863
 20
13.00000000000181
 30
0.0
 40
5.00000000000036
100
AcDbArc
 50
270.0
 51
315.0
  0
ARC
  5
315CA
330
1E
100
AcDbEntity
  8
DETAIL
100
AcDbCircle
 10
172.0000007114322
 20
5.00000071141585
 30
0.0
 40
2.999999288585209
100
AcDbArc
 50
359.9999864129928
 51
89.99998167221455
  0
LINE
  5
315CB
330
1E
100
AcDbEntity
  8
DETAIL
100
AcDbLine
 10
-133.9644660940503
 20
18.03553390593606
 30
0.0
 11
-142.5355339058878
 21
9.464466094099861
 31
0.0
  0
LINE
  5
315CC
330
1E
100
AcDbEntity
  8
DETAIL
100
AcDbLine
 10
-170.0
 20
5.0
 30
0.0
 11
-170.0
 21
0.0
 31
0.0
  0
LINE
  5
315CD
330
1E
100
AcDbEntity
  8
DETAIL
100
AcDbLine
 10
-170.0
 20
0.0
 30
0.0
 11
175.0
 21
0.0
 31
0.0
  0
LINE
  5
315CE
330
1E
100
AcDbEntity
  8
DETAIL
100
AcDbLine
 10
-166.9999991607437
 20
8.000000000004547
 30
0.0
 11
-146.071067811863
 21
8.000000000001364
 31
0.0
  0
LINE
  5
315CF
330
1E
100
AcDbEntity
  8
DETAIL
100
AcDbLine
 10
142.5355339059497
 20
9.464466094068939
 30
0.0
 11
133.9644660941194
 21
18.03553390588786
 31
0.0
  0
LINE
  5
315D0
330
1E
100
AcDbEntity
  8
DETAIL
100
AcDbLine
 10
-144.6124914334759
 20
8.217473999192861
 30
0.0
 11
144.6124914334941
 21
8.217473999193316
 31
0.0
  0
LINE
  5
315D1
330
1E
100
AcDbEntity
  8
DETAIL
100
AcDbLine
 10
175.0
 20
0.0
 30
0.0
 11
175.0
 21
5.0
 31
0.0
  0
LINE
  5
315D2
330
1E
100
AcDbEntity
  8
DETAIL
100
AcDbLine
 10
172.0000016710728
 20
8.000000000000909
 30
0.0
 11
146.0710678118812
 21
8.000000000001818
 31
0.0
  0
LINE
  5
315D5
330
1E
100
AcDbEntity
  8
DETAIL
100
AcDbLine
 10
129.0777115941455
 20
20.96349803176053
 30
0.0
 11
135.8142135623893
 21
27.70000000000436
 31
0.0
  0
LINE
  5
315DB
330
1E
100
AcDbEntity
  8
DETAIL
100
AcDbLine
 10
-130.428932187744
 20
19.49999999999818
 30
0.0
 11
130.4289321881333
 21
19.49999999999818
 31
0.0
  0
ARC
  5
315DC
330
1E
100
AcDbEntity
  8
DETAIL
  6
CONTINUOUS
100
AcDbCircle
 10
-138.5999663991642
 20
776.7276725208033
 30
0.0
 40
5.000033600893398
100
AcDbArc
 50
105.6425384906031
 51
179.9997079665842
  0
ARC
  5
315DD
330
1E
100
AcDbEntity
  8
DETAIL
  6
CONTINUOUS
100
AcDbCircle
 10
-141.0538635267039
 20
521.0546291355361
 30
0.0
 40
1.44716793836919
100
AcDbArc
 50
92.85565728294248
 51
182.163372108302
  0
ARC
  5
315DE
330
1E
100
AcDbEntity
  8
DETAIL
  6
CONTINUOUS
100
AcDbCircle
 10
125.412652570827
 20
24.70738687503626
 30
0.0
 40
5.239213806643799
100
AcDbArc
 50
263.6813826938277
 51
314.3904069636223
  0
ARC
  5
315DF
330
1E
100
AcDbEntity
  8
DETAIL
  6
CONTINUOUS
100
AcDbCircle
 10
-45.16630297866504
 20
907.7152022840694
 30
0.0
 40
119.2915160353732
100
AcDbArc
 50
270.0318444634726
 51
272.0495447614733
  0
ARC
  5
315E0
330
1E
100
AcDbEntity
  8
DETAIL
  6
CONTINUOUS
100
AcDbCircle
 10
157.5635898711552
 20
491.7596761988058
 30
0.0
 40
5.001131945479191
100
AcDbArc
 50
12.46355700912035
 51
88.14729113333646
  0
LINE
  5
315E1
330
1E
100
AcDbEntity
  8
DETAIL
  6
CONTINUOUS
100
AcDbLine
 10
157.7388984138342
 20
63.24168616082352
 30
0.0
 11
142.5
 21
62.70952461694832
 31
0.0
  0
LINE
  5
315E2
330
1E
100
AcDbEntity
  8
DETAIL
  6
CONTINUOUS
100
AcDbLine
 10
143.1792235631983
 20
62.73324362643234
 30
0.0
 11
143.1792234216664
 21
497.2667563785135
 31
0.0
  0
LINE
  5
315E3
330
1E
100
AcDbEntity
  8
DETAIL
  6
CONTINUOUS
100
AcDbLine
 10
151.5636635676128
 20
113.4997767532024
 30
0.0
 11
167.4999999998835
 21
113.4997767532024
 31
0.0
  0
LINE
  5
315E4
330
1E
100
AcDbEntity
  8
DETAIL
  6
CONTINUOUS
100
AcDbLine
 10
151.5636635676019
 20
446.5002234195044
 30
0.0
 11
167.4999999997926
 21
446.5002234195044
 31
0.0
  0
LINE
  5
316C6
330
1E
100
AcDbEntity
  8
DETAIL
  6
CONTINUOUS
100
AcDbLine
 10
-142.4423831435706
 20
30.19999999999618
 30
0.0
 11
142.5
 21
30.19999999999527
 31
0.0
  0
LINE
  5
317D5
330
1E
100
AcDbEntity
  8
BASIS
  6
DASHDOT
100
AcDbLine
 10
193.5603195494768
 20
280.0
 30
0.0
 11
126.8635687294154
 21
280.0
 31
0.0
  0
ARC
  5
317D6
330
1E
100
AcDbEntity
  8
DETAIL
100
AcDbCircle
 10
-140.4836152935604
 20
29.71053698500418
 30
0.0
 40
2.01899616970444
100
AcDbArc
 50
183.1384264095134
 51
275.2466958244741
  0
ARC
  5
317D7
330
1E
100
AcDbEntity
  8
DETAIL
100
AcDbCircle
 10
-132.9726957017301
 20
16.36351359484615
 30
0.0
 40
5.027304472649977
100
AcDbArc
 50
180.0150910304503
 51
202.9960288076847
  0
LINE
  5
317D8
330
1E
100
AcDbEntity
  8
DETAIL
100
AcDbLine
 10
-138.0000000000036
 20
16.36218946234203
 30
0.0
 11
-137.999999999989
 21
27.69999999999527
 31
0.0
  0
LINE
  5
317D9
330
1E
100
AcDbEntity
  8
BASIS
  6
DASHDOT
100
AcDbLine
 10
157.5
 20
17.5381161128389
 30
0.0
 11
157.5
 21
-17.5381161128389
 31
0.0
  0
LINE
  5
317DA
330
1E
100
AcDbEntity
  8
BASIS
  6
DASHDOT
100
AcDbLine
 10
-152.0
 20
20.40354564005338
 30
0.0
 11
-152.0
 21
-17.71499169253274
 31
0.0
  0
LINE
  5
317DB
330
1E
100
AcDbEntity
  8
BASIS
  6
DASHDOT
100
AcDbLine
 10
0.0
 20
811.5690503969899
 30
0.0
 11
0.0
 21
-37.35048877963618
 31
0.0
  0
LINE
  5
317DC
330
1E
100
AcDbEntity
  8
BASIS
100
AcDbLine
 10
-106.0414655934
 20
713.0
 30
0.0
 11
-171.6762809898937
 21
713.0
 31
0.0
  0
LINE
  5
317DD
330
1E
100
AcDbEntity
  8
NOTE
100
AcDbLine
 10
-139.5999999999912
 20
693.0
 30
0.0
 11
-139.5999999999912
 21
733.0
 31
0.0
  0
LINE
  5
317DE
330
1E
100
AcDbEntity
  8
NOTE
100
AcDbLine
 10
-119.5999999999912
 20
713.0
 30
0.0
 11
-159.5999999999912
 21
713.0
 31
0.0
  0
LINE
  5
317DF
330
1E
100
AcDbEntity
  8
NOTE
100
AcDbLine
 10
157.5
 20
-20.0
 30
0.0
 11
157.5
 21
20.0
 31
0.0
  0
LINE
  5
317E0
330
1E
100
AcDbEntity
  8
NOTE
100
AcDbLine
 10
177.5
 20
0.0
 30
0.0
 11
137.5
 21
0.0
 31
0.0
  0
CIRCLE
  5
317E1
330
1E
100
AcDbEntity
  8
FIX
  6
CONTINUOUS
100
AcDbCircle
 10
157.5
 20
0.0
 30
0.0
 40
5.0
  0
LINE
  5
317E2
330
1E
100
AcDbEntity
  8
NOTE
100
AcDbLine
 10
-152.0
 20
-20.0
 30
0.0
 11
-152.0
 21
20.0
 31
0.0
  0
LINE
  5
317E3
330
1E
100
AcDbEntity
  8
NOTE
100
AcDbLine
 10
-132.0
 20
0.0
 30
0.0
 11
-172.0
 21
0.0
 31
0.0
  0
CIRCLE
  5
317E4
330
1E
100
AcDbEntity
  8
FIX
  6
CONTINUOUS
100
AcDbCircle
 10
-152.0
 20
0.0
 30
0.0
 40
5.0
  0
TEXT
  5
317E5
330
1E
100
AcDbEntity
  8
ETC
100
AcDbText
 10
494.5266067436423
 20
1153.191110195996
 30
0.0
 40
64.0
  1
SMUS4495
 41
0.8750000068359346
 72
     5
 11
921.193276743641
 21
1153.191110195996
 31
0.0
100
AcDbText
  0
TEXT
  5
317E6
330
1E
100
AcDbEntity
  8
ETC
100
AcDbText
 10
496.7165467436425
 20
1242.127380195997
 30
0.0
 40
64.0
  1
室外機
100
AcDbText
  0
LINE
  5
3287C
330
1E
100
AcDbEntity
  8
NOTE
  6
CONTINUOUS
100
AcDbLine
 10
-1418.430573791685
 20
1011.885447867423
 30
0.0
 11
-440.6456920176743
 21
1011.885447867423
 31
0.0
  0
LINE
  5
3287D
330
1E
100
AcDbEntity
  8
NOTE
  6
CONTINUOUS
100
AcDbLine
 10
-1522.337782831547
 20
869.2281413972468
 30
0.0
 11
-440.0828172219271
 21
869.2281413972471
 31
0.0
  0
LINE
  5
3287E
330
1E
100
AcDbEntity
  8
NOTE
  6
CONTINUOUS
100
AcDbLine
 10
-440.0828172219271
 20
869.2281413972471
 30
0.0
 11
-138.5049282041554
 21
712.3488535703375
 31
0.0
  0
LINE
  5
3287F
330
1E
100
AcDbEntity
  8
NOTE
  6
CONTINUOUS
100
AcDbLine
 10
-440.6456920176743
 20
1011.885447867423
 30
0.0
 11
-139.5999999999912
 21
713.0
 31
0.0
  0
LINE
  5
32880
330
1E
100
AcDbEntity
  8
NOTE
  6
CONTINUOUS
100
AcDbLine
 10
-138.5049282041554
 20
712.3488535703375
 30
0.0
 11
-167.5515427323512
 21
739.8496654416035
 31
0.0
  0
LINE
  5
32881
330
1E
100
AcDbEntity
  8
NOTE
  6
CONTINUOUS
100
AcDbLine
 10
-138.5049282041554
 20
712.3488535703375
 30
0.0
 11
-177.4104337894628
 21
721.6419458341278
 31
0.0
  0
LINE
  5
32882
330
1E
100
AcDbEntity
  8
NOTE
  6
CONTINUOUS
100
AcDbLine
 10
-139.5999999999912
 20
713.0
 30
0.0
 11
-159.1481435564664
 21
747.8980021294027
 31
0.0
  0
LINE
  5
32883
330
1E
100
AcDbEntity
  8
NOTE
  6
CONTINUOUS
100
AcDbLine
 10
-139.5999999999912
 20
713.0
 30
0.0
 11
-173.9781844946508
 21
733.4484806164873
 31
0.0
  0
TEXT
  5
32884
330
1E
100
AcDbEntity
  8
NOTE
100
AcDbText
 10
-1390.405042486521
 20
1030.379376867424
 30
0.0
 40
64.0
  1
H R3/4(管用テ－パおねじ）
 41
0.9
100
AcDbText
  0
TEXT
  5
32885
330
1E
100
AcDbEntity
  8
NOTE
100
AcDbText
 10
-1494.312251526383
 20
887.7220703972479
 30
0.0
 40
64.0
  1
HR R3/4(管用テ－パおねじ）
 41
0.9
100
AcDbText
  0
TEXT
  5
3289A
330
1E
100
AcDbEntity
  8
NOTE
100
AcDbText
 10
403.746826225899
 20
-88.1075844150996
 30
0.0
 40
64.0
  1
AH 2-%%c10×21
 41
0.9
100
AcDbText
  0
LINE
  5
3289B
330
1E
100
AcDbEntity
  8
NOTE
  6
CONTINUOUS
100
AcDbLine
 10
-388.3807647697885
 20
-63.117071177463
 30
0.0
 11
-1007.53612675983
 21
-63.117071177463
 31
0.0
  0
LINE
  5
3289C
330
1E
100
AcDbEntity
  8
NOTE
  6
CONTINUOUS
100
AcDbLine
 10
-152.0
 20
0.0
 30
0.0
 11
-388.3807647697885
 21
-63.117071177463
 31
0.0
  0
LINE
  5
3289D
330
1E
100
AcDbEntity
  8
NOTE
  6
CONTINUOUS
100
AcDbLine
 10
-187.453985662172
 20
-18.52066776473839
 30
0.0
 11
-152.0
 21
0.0
 31
0.0
  0
LINE
  5
3289E
330
1E
100
AcDbEntity
  8
NOTE
  6
CONTINUOUS
100
AcDbLine
 10
-152.0
 20
0.0
 30
0.0
 11
-191.9643859795301
 21
1.687621853595828
 31
0.0
  0
LINE
  5
3289F
330
1E
100
AcDbEntity
  8
NOTE
  6
CONTINUOUS
100
AcDbLine
 10
157.5
 20
0.0
 30
0.0
 11
188.3396446547571
 21
-25.47383316533114
 31
0.0
  0
LINE
  5
328A0
330
1E
100
AcDbEntity
  8
NOTE
  6
CONTINUOUS
100
AcDbLine
 10
196.9448335340903
 20
-6.641162973732662
 30
0.0
 11
157.5
 21
0.0
 31
0.0
  0
TEXT
  5
328A1
330
1E
100
AcDbEntity
  8
NOTE
100
AcDbText
 10
-940.6898300176035
 20
-37.86996262118009
 30
0.0
 40
64.0
  1
AH 2-U cut
 41
0.9
100
AcDbText
  0
LINE
  5
328A2
330
1E
100
AcDbEntity
  8
NOTE
  6
CONTINUOUS
100
AcDbLine
 10
1026.723752315312
 20
-109.5191156770197
 30
0.0
 11
397.1852974750468
 21
-109.5191156770197
 31
0.0
  0
LINE
  5
328A3
330
1E
100
AcDbEntity
  8
NOTE
  6
CONTINUOUS
100
AcDbLine
 10
157.5
 20
0.0
 30
0.0
 11
397.1852974750468
 21
-109.5191156770197
 31
0.0
  0
LINE
  5
32B9A
330
1E
100
AcDbEntity
  8
SIZE
100
AcDbLine
 10
197.5
 20
-0.0000000000000057
 30
0.0
 11
314.3961103046894
 21
-0.0000000000000388
 31
0.0
  0
LINE
  5
32B9B
330
1E
100
AcDbEntity
  8
SIZE
100
AcDbLine
 10
213.5603195494768
 20
280.0
 30
0.0
 11
314.3961103046895
 21
280.0
 31
0.0
  0
LINE
  5
32B9C
330
1E
100
AcDbEntity
  8
SIZE
100
AcDbLine
 10
284.3961103046894
 20
9.999999999999969
 30
0.0
 11
284.3961103046895
 21
270.0
 31
0.0
  0
LINE
  5
32BA0
330
1E
100
AcDbEntity
  8
SIZE
100
AcDbLine
 10
157.5
 20
-40.17687557969384
 30
0.0
 11
157.5
 21
-186.2825189913474
 31
0.0
  0
LINE
  5
32BA1
330
1E
100
AcDbEntity
  8
SIZE
100
AcDbLine
 10
175.0
 20
-20.0
 30
0.0
 11
175.0
 21
-186.2825189913474
 31
0.0
  0
LINE
  5
32BA2
330
1E
100
AcDbEntity
  8
SIZE
100
AcDbLine
 10
147.5
 20
-156.2825189913473
 30
0.0
 11
137.5
 21
-156.2825189913473
 31
0.0
  0
LINE
  5
32BA3
330
1E
100
AcDbEntity
  8
SIZE
100
AcDbLine
 10
185.0
 20
-156.2825189913473
 30
0.0
 11
399.5714285714285
 21
-156.2825189913473
 31
0.0
  0
LINE
  5
32BA4
330
1E
100
AcDbEntity
  8
SIZE
100
AcDbLine
 10
157.5
 20
-156.2825189913473
 30
0.0
 11
175.0
 21
-156.2825189913473
 31
0.0
  0
LINE
  5
32BA8
330
1E
100
AcDbEntity
  8
SIZE
100
AcDbLine
 10
-192.0
 20
0.0000000000000057
 30
0.0
 11
-337.5015110053645
 21
0.0000000000000469
 31
0.0
  0
LINE
  5
32BA9
330
1E
100
AcDbEntity
  8
SIZE
100
AcDbLine
 10
-191.6762809898937
 20
713.0
 30
0.0
 11
-337.5015110053643
 21
713.0000000000001
 31
0.0
  0
LINE
  5
32BAA
330
1E
100
AcDbEntity
  8
SIZE
100
AcDbLine
 10
-307.5015110053645
 20
10.00000000000003
 30
0.0
 11
-307.5015110053643
 21
703.0000000000001
 31
0.0
  0
LINE
  5
32BAE
330
1E
100
AcDbEntity
  8
SIZE
100
AcDbLine
 10
197.5
 20
-0.0000000000000057
 30
0.0
 11
458.7078256286475
 21
-0.0000000000000797
 31
0.0
  0
LINE
  5
32BAF
330
1E
100
AcDbEntity
  8
SIZE
100
AcDbLine
 10
122.9000000000087
 20
790.0
 30
0.0
 11
458.7078256286477
 21
789.9999999999999
 31
0.0
  0
LINE
  5
32BB0
330
1E
100
AcDbEntity
  8
SIZE
100
AcDbLine
 10
428.7078256286475
 20
9.999999999999928
 30
0.0
 11
428.7078256286476
 21
779.9999999999998
 31
0.0
  0
LINE
  5
32BB4
330
1E
100
AcDbEntity
  8
SIZE
100
AcDbLine
 10
-152.0
 20
-40.35375115938768
 30
0.0
 11
-152.0
 21
-186.2825189913474
 31
0.0
  0
LINE
  5
32BB5
330
1E
100
AcDbEntity
  8
SIZE
100
AcDbLine
 10
157.5
 20
-40.17687557969384
 30
0.0
 11
157.5
 21
-186.2825189913474
 31
0.0
  0
LINE
  5
32BB6
330
1E
100
AcDbEntity
  8
SIZE
100
AcDbLine
 10
-162.0
 20
-156.2825189913473
 30
0.0
 11
-172.0
 21
-156.2825189913473
 31
0.0
  0
LINE
  5
32BB7
330
1E
100
AcDbEntity
  8
SIZE
100
AcDbLine
 10
167.5
 20
-156.2825189913473
 30
0.0
 11
177.5
 21
-156.2825189913473
 31
0.0
  0
LINE
  5
32BB8
330
1E
100
AcDbEntity
  8
SIZE
100
AcDbLine
 10
-152.0
 20
-156.2825189913473
 30
0.0
 11
157.5
 21
-156.2825189913473
 31
0.0
  0
LINE
  5
32BBC
330
1E
100
AcDbEntity
  8
SIZE
100
AcDbLine
 10
0.0000000000000012
 20
831.56905039699
 30
0.0
 11
0.0000000000000169
 21
1087.687085069316
 31
0.0
  0
LINE
  5
32BBD
330
1E
100
AcDbEntity
  8
SIZE
100
AcDbLine
 10
-139.5999999999912
 20
753.0
 30
0.0
 11
-139.5999999999912
 21
1087.687085069316
 31
0.0
  0
LINE
  5
32BBE
330
1E
100
AcDbEntity
  8
SIZE
100
AcDbLine
 10
10.00000000000001
 20
1057.687085069316
 30
0.0
 11
20.00000000000001
 21
1057.687085069316
 31
0.0
  0
LINE
  5
32BBF
330
1E
100
AcDbEntity
  8
SIZE
100
AcDbLine
 10
-149.5999999999912
 20
1057.687085069316
 30
0.0
 11
-416.2857142857055
 21
1057.687085069316
 31
0.0
  0
LINE
  5
32BC0
330
1E
100
AcDbEntity
  8
SIZE
100
AcDbLine
 10
0.0000000000000151
 20
1057.687085069316
 30
0.0
 11
-139.5999999999912
 21
1057.687085069316
 31
0.0
  0
LINE
  5
32BC4
330
1E
100
AcDbEntity
  8
SIZE
100
AcDbLine
 10
142.5000000000104
 20
540.9999999999972
 30
0.0
 11
142.5000000000104
 21
927.4512501226208
 31
0.0
  0
LINE
  5
32BC5
330
1E
100
AcDbEntity
  8
SIZE
100
AcDbLine
 10
167.5
 20
466.4998958604701
 30
0.0
 11
167.5
 21
927.4512501226208
 31
0.0
  0
LINE
  5
32BC6
330
1E
100
AcDbEntity
  8
SIZE
100
AcDbLine
 10
132.5000000000104
 20
897.4512501226209
 30
0.0
 11
122.5000000000104
 21
897.4512501226209
 31
0.0
  0
LINE
  5
32BC7
330
1E
100
AcDbEntity
  8
SIZE
100
AcDbLine
 10
177.5
 20
897.4512501226209
 30
0.0
 11
320.7571428571428
 21
897.4512501226209
 31
0.0
  0
LINE
  5
32BC8
330
1E
100
AcDbEntity
  8
SIZE
100
AcDbLine
 10
142.5000000000104
 20
897.4512501226209
 30
0.0
 11
167.5
 21
897.4512501226209
 31
0.0
  0
LINE
  5
32BCC
330
1E
100
AcDbEntity
  8
SIZE
100
AcDbLine
 10
142.5000000000104
 20
540.9999999999972
 30
0.0
 11
142.5000000000104
 21
927.4512501226208
 31
0.0
  0
LINE
  5
32BCD
330
1E
100
AcDbEntity
  8
SIZE
100
AcDbLine
 10
-142.5
 20
541.0000000000036
 30
0.0
 11
-142.4999999999999
 21
927.4512501226208
 31
0.0
  0
LINE
  5
32BCE
330
1E
100
AcDbEntity
  8
SIZE
100
AcDbLine
 10
132.5000000000104
 20
897.4512501226209
 30
0.0
 11
-132.4999999999999
 21
897.4512501226209
 31
0.0
  0
CIRCLE
  5
32BD2
330
1E
100
AcDbEntity
  8
SIZE
100
AcDbCircle
 10
428.7078256286475
 20
-0.0000000000000712
 30
0.0
 40
5.0
  0
LINE
  5
32BD3
330
1E
100
AcDbEntity
  8
SIZE
100
AcDbLine
 10
428.7078256286475
 20
-0.0000000000000712
 30
0.0
 11
428.7078256286475
 21
9.999999999999928
 31
0.0
  0
CIRCLE
  5
32BD4
330
1E
100
AcDbEntity
  8
SIZE
100
AcDbCircle
 10
-307.5015110053645
 20
0.0000000000000384
 30
0.0
 40
5.0
  0
LINE
  5
32BD5
330
1E
100
AcDbEntity
  8
SIZE
100
AcDbLine
 10
-307.5015110053645
 20
0.0000000000000384
 30
0.0
 11
-307.5015110053645
 21
10.00000000000003
 31
0.0
  0
CIRCLE
  5
32BD6
330
1E
100
AcDbEntity
  8
SIZE
100
AcDbCircle
 10
284.3961103046894
 20
-0.0000000000000303
 30
0.0
 40
5.0
  0
LINE
  5
32BD7
330
1E
100
AcDbEntity
  8
SIZE
100
AcDbLine
 10
284.3961103046894
 20
-0.0000000000000303
 30
0.0
 11
284.3961103046894
 21
9.999999999999969
 31
0.0
  0
TEXT
  5
32BD8
330
1E
100
AcDbEntity
  8
SIZE
100
AcDbText
 10
215.0
 20
-136.2825189913474
 30
0.0
 40
64.0
  1
17.5
 41
0.9
100
AcDbText
  0
TEXT
  5
32BD9
330
1E
100
AcDbEntity
  8
SIZE
100
AcDbText
 10
-258.8955731609239
 20
-136.2825189913474
 30
0.0
 40
64.0
  1
304～325
 41
0.9
100
AcDbText
  0
CIRCLE
  5
32BDA
330
1E
100
AcDbEntity
  8
SIZE
100
AcDbCircle
 10
-152.0
 20
-156.2825189913473
 30
0.0
 40
5.0
  0
LINE
  5
32BDB
330
1E
100
AcDbEntity
  8
SIZE
100
AcDbLine
 10
-152.0
 20
-156.2825189913473
 30
0.0
 11
-162.0
 21
-156.2825189913473
 31
0.0
  0
CIRCLE
  5
32BDC
330
1E
100
AcDbEntity
  8
SIZE
100
AcDbCircle
 10
157.5
 20
-156.2825189913473
 30
0.0
 40
5.0
  0
LINE
  5
32BDD
330
1E
100
AcDbEntity
  8
SIZE
100
AcDbLine
 10
157.5
 20
-156.2825189913473
 30
0.0
 11
167.5
 21
-156.2825189913473
 31
0.0
  0
CIRCLE
  5
32BDE
330
1E
100
AcDbEntity
  8
SIZE
100
AcDbCircle
 10
175.0
 20
-156.2825189913473
 30
0.0
 40
5.0
  0
LINE
  5
32BDF
330
1E
100
AcDbEntity
  8
SIZE
100
AcDbLine
 10
175.0
 20
-156.2825189913473
 30
0.0
 11
185.0
 21
-156.2825189913473
 31
0.0
  0
CIRCLE
  5
32BE0
330
1E
100
AcDbEntity
  8
SIZE
100
AcDbCircle
 10
157.5
 20
-156.2825189913473
 30
0.0
 40
5.0
  0
LINE
  5
32BE1
330
1E
100
AcDbEntity
  8
SIZE
100
AcDbLine
 10
157.5
 20
-156.2825189913473
 30
0.0
 11
147.5
 21
-156.2825189913473
 31
0.0
  0
TEXT
  5
32BE2
330
1E
100
AcDbEntity
  8
SIZE
100
AcDbText
 10
-396.2857142857055
 20
1077.687085069316
 30
0.0
 40
64.0
  1
139.6
 41
0.9
100
AcDbText
  0
TEXT
  5
32BE3
330
1E
100
AcDbEntity
  8
SIZE
100
AcDbText
 10
-327.5015110053645
 20
287.9285714285714
 30
0.0
 40
64.0
  1
713
 50
90.0
 41
0.9
100
AcDbText
  0
CIRCLE
  5
32BE4
330
1E
100
AcDbEntity
  8
SIZE
100
AcDbCircle
 10
-307.5015110053643
 20
713.0000000000001
 30
0.0
 40
5.0
  0
LINE
  5
32BE5
330
1E
100
AcDbEntity
  8
SIZE
100
AcDbLine
 10
-307.5015110053643
 20
713.0000000000001
 30
0.0
 11
-307.5015110053643
 21
703.0000000000001
 31
0.0
  0
CIRCLE
  5
32BE6
330
1E
100
AcDbEntity
  8
SIZE
100
AcDbCircle
 10
-142.4999999999999
 20
897.4512501226209
 30
0.0
 40
5.0
  0
LINE
  5
32BE7
330
1E
100
AcDbEntity
  8
SIZE
100
AcDbLine
 10
-142.4999999999999
 20
897.4512501226209
 30
0.0
 11
-132.4999999999999
 21
897.4512501226209
 31
0.0
  0
CIRCLE
  5
32BE8
330
1E
100
AcDbEntity
  8
SIZE
100
AcDbCircle
 10
142.5000000000104
 20
897.4512501226209
 30
0.0
 40
5.0
  0
LINE
  5
32BE9
330
1E
100
AcDbEntity
  8
SIZE
100
AcDbLine
 10
142.5000000000104
 20
897.4512501226209
 30
0.0
 11
132.5000000000104
 21
897.4512501226209
 31
0.0
  0
CIRCLE
  5
32BEA
330
1E
100
AcDbEntity
  8
SIZE
100
AcDbCircle
 10
167.5
 20
897.4512501226209
 30
0.0
 40
5.0
  0
LINE
  5
32BEB
330
1E
100
AcDbEntity
  8
SIZE
100
AcDbLine
 10
167.5
 20
897.4512501226209
 30
0.0
 11
177.5
 21
897.4512501226209
 31
0.0
  0
CIRCLE
  5
32BEC
330
1E
100
AcDbEntity
  8
SIZE
100
AcDbCircle
 10
142.5000000000104
 20
897.4512501226209
 30
0.0
 40
5.0
  0
LINE
  5
32BED
330
1E
100
AcDbEntity
  8
SIZE
100
AcDbLine
 10
142.5000000000104
 20
897.4512501226209
 30
0.0
 11
132.5000000000104
 21
897.4512501226209
 31
0.0
  0
TEXT
  5
32BEE
330
1E
100
AcDbEntity
  8
SIZE
100
AcDbText
 10
408.7078256286475
 20
320.9428571428571
 30
0.0
 40
64.0
  1
790
 50
90.0
 41
0.9
100
AcDbText
  0
TEXT
  5
32BEF
330
1E
100
AcDbEntity
  8
SIZE
100
AcDbText
 10
264.3961103046894
 20
65.94285714285719
 30
0.0
 40
64.0
  1
280
 50
90.0
 41
0.9
100
AcDbText
  0
CIRCLE
  5
32BF0
330
1E
100
AcDbEntity
  8
SIZE
100
AcDbCircle
 10
284.3961103046895
 20
280.0
 30
0.0
 40
5.0
  0
LINE
  5
32BF1
330
1E
100
AcDbEntity
  8
SIZE
100
AcDbLine
 10
284.3961103046895
 20
280.0
 30
0.0
 11
284.3961103046895
 21
270.0
 31
0.0
  0
CIRCLE
  5
32BF2
330
1E
100
AcDbEntity
  8
SIZE
100
AcDbCircle
 10
428.7078256286476
 20
789.9999999999999
 30
0.0
 40
5.0
  0
LINE
  5
32BF3
330
1E
100
AcDbEntity
  8
SIZE
100
AcDbLine
 10
428.7078256286476
 20
789.9999999999999
 30
0.0
 11
428.7078256286476
 21
779.9999999999998
 31
0.0
  0
TEXT
  5
32BF4
330
1E
100
AcDbEntity
  8
SIZE
100
AcDbText
 10
-74.05714285713759
 20
917.4512501226208
 30
0.0
 40
64.0
  1
285
 41
0.9
100
AcDbText
  0
CIRCLE
  5
32BF5
330
1E
100
AcDbEntity
  8
SIZE
100
AcDbCircle
 10
-139.5999999999912
 20
1057.687085069316
 30
0.0
 40
5.0
  0
LINE
  5
32BF6
330
1E
100
AcDbEntity
  8
SIZE
100
AcDbLine
 10
-139.5999999999912
 20
1057.687085069316
 30
0.0
 11
-149.5999999999912
 21
1057.687085069316
 31
0.0
  0
CIRCLE
  5
32BF7
330
1E
100
AcDbEntity
  8
SIZE
100
AcDbCircle
 10
0.0000000000000151
 20
1057.687085069316
 30
0.0
 40
5.0
  0
LINE
  5
32BF8
330
1E
100
AcDbEntity
  8
SIZE
100
AcDbLine
 10
0.0000000000000151
 20
1057.687085069316
 30
0.0
 11
10.00000000000001
 21
1057.687085069316
 31
0.0
  0
TEXT
  5
32BF9
330
1E
100
AcDbEntity
  8
SIZE
100
AcDbText
 10
207.5
 20
917.4512501226208
 30
0.0
 40
64.0
  1
25
 41
0.9
100
AcDbText
  0
ARC
  5
32BFD
330
1E
100
AcDbEntity
  8
OUTLINE
100
AcDbCircle
 10
-142.1009999999841
 20
764.998999999998
 30
0.0
 40
1.499
100
AcDbArc
 50
180.0
 51
269.9999946093031
  0
ARC
  5
32BFE
330
1E
100
AcDbEntity
  8
OUTLINE
100
AcDbCircle
 10
-99.57076589465215
 20
669.245136911268
 30
0.0
 40
119.3364814480627
100
AcDbArc
 50
94.62200598092012
 51
109.7809709946617
  0
ARC
  5
32BFF
330
1E
100
AcDbEntity
  8
OUTLINE
100
AcDbCircle
 10
-101.364143264418
 20
688.4999999999945
 30
0.0
 40
100.0000000000013
100
AcDbArc
 50
92.25115468063766
 51
94.48681383283954
  0
ARC
  5
32C00
330
1E
100
AcDbEntity
  8
OUTLINE
100
AcDbCircle
 10
-105.3000157071801
 20
788.6226850532875
 30
0.0
 40
0.20001574040486
100
AcDbArc
 50
272.2570357386773
 51
0.0330229867934457
  0
ARC
  5
32C03
330
1E
100
AcDbEntity
  8
OUTLINE
100
AcDbCircle
 10
-104.0999999999985
 20
788.9999999999964
 30
0.0
 40
1.0
100
AcDbArc
 50
90.0
 51
180.0
  0
ARC
  5
32C06
330
1E
100
AcDbEntity
  8
OUTLINE
100
AcDbCircle
 10
140.4009994570333
 20
764.9990005429663
 30
0.0
 40
1.499000542971189
100
AcDbArc
 50
269.9999792461717
 51
359.9999792462238
  0
ARC
  5
32C07
330
1E
100
AcDbEntity
  8
OUTLINE
100
AcDbCircle
 10
136.8999376473402
 20
777.7077802166331
 30
0.0
 40
4.999937646647549
100
AcDbArc
 50
359.9990478230004
 51
74.35681147502555
  0
ARC
  5
32C0A
330
1E
100
AcDbEntity
  8
OUTLINE
100
AcDbCircle
 10
105.9000000000014
 20
788.9999999999964
 30
0.0
 40
1.0
100
AcDbArc
 50
0.000000000000007
 51
90.0
  0
ARC
  5
32C0B
330
1E
100
AcDbEntity
  8
OUTLINE
100
AcDbCircle
 10
107.1000090010966
 20
788.6226785734379
 30
0.0
 40
0.20000900139529
100
AcDbArc
 50
179.9968053859958
 51
267.7456491995865
  0
LINE
  5
32C0F
330
1E
100
AcDbEntity
  8
OUTLINE
100
AcDbLine
 10
140.4009994570333
 20
763.4999999999952
 30
0.0
 11
137.5
 21
763.4999999999952
 31
0.0
  0
LINE
  5
32C10
330
1E
100
AcDbEntity
  8
OUTLINE
100
AcDbLine
 10
-143.5999999999876
 20
764.998999999998
 30
0.0
 11
-143.5999999999876
 21
776.7276980056976
 31
0.0
  0
LINE
  5
32C14
330
1E
100
AcDbEntity
  8
OUTLINE
100
AcDbLine
 10
-105.0999999999839
 20
788.622800334324
 30
0.0
 11
-105.0999999999839
 21
788.9999999999964
 31
0.0
  0
LINE
  5
32C16
330
1E
100
AcDbEntity
  8
OUTLINE
100
AcDbLine
 10
-50.90000000000145
 20
789.9999999999963
 30
0.0
 11
-104.0999999999985
 21
789.9999999999963
 31
0.0
  0
LINE
  5
32C17
330
1E
100
AcDbEntity
  8
OUTLINE
100
AcDbLine
 10
-50.90000000000145
 20
789.9999999999963
 30
0.0
 11
-50.90000000000145
 21
790.5000000000018
 31
0.0
  0
LINE
  5
32C18
330
1E
100
AcDbEntity
  8
OUTLINE
100
AcDbLine
 10
141.900000000005
 20
764.998999999998
 30
0.0
 11
141.900000000005
 21
777.6723977825804
 31
0.0
  0
LINE
  5
32C19
330
1E
100
AcDbEntity
  8
OUTLINE
100
AcDbLine
 10
116.7726418057936
 20
787.56971863338
 30
0.0
 11
138.2481496276013
 21
782.5225181042701
 31
0.0
  0
LINE
  5
32C1B
330
1E
100
AcDbEntity
  8
OUTLINE
100
AcDbLine
 10
102.9000000000087
 20
790.0
 30
0.0
 11
105.9000000000014
 21
790.0
 31
0.0
  0
LINE
  5
32C1D
330
1E
100
AcDbEntity
  8
OUTLINE
100
AcDbLine
 10
102.9000000000087
 20
790.0
 30
0.0
 11
53.10000000001309
 21
789.9999999999976
 31
0.0
  0
LINE
  5
32C1E
330
1E
100
AcDbEntity
  8
OUTLINE
100
AcDbLine
 10
106.9000000000051
 20
788.9999999999964
 30
0.0
 11
106.9000000000051
 21
788.6226897252436
 31
0.0
  0
LINE
  5
32C20
330
1E
100
AcDbEntity
  8
OUTLINE
100
AcDbLine
 10
53.10000000001309
 20
789.9999999999976
 30
0.0
 11
53.10000000001309
 21
790.5000000000018
 31
0.0
  0
ARC
  5
32C21
330
1E
100
AcDbEntity
  8
OUTLINE
100
AcDbCircle
 10
-50.47647870274886
 20
791.7003985367773
 30
0.0
 40
1.59960147980124
100
AcDbArc
 50
89.991749799507
 51
150.0082417351915
  0
ARC
  5
32C22
330
1E
100
AcDbEntity
  8
OUTLINE
100
AcDbCircle
 10
52.67627046265261
 20
791.70004515061
 30
0.0
 40
1.59995484960354
100
AcDbArc
 50
29.99906649225061
 51
90.00093802636838
  0
LINE
  5
32C23
330
1E
100
AcDbEntity
  8
OUTLINE
100
AcDbLine
 10
52.67624426812472
 20
793.2999999999992
 30
0.0
 11
-50.47624837106923
 21
793.2999999999992
 31
0.0
  0
LINE
  5
32C24
330
1E
100
AcDbEntity
  8
OUTLINE
100
AcDbLine
 10
-51.86188925352325
 20
792.4999999999999
 30
0.0
 11
-53.0165807537196
 21
790.5000000000018
 31
0.0
  0
LINE
  5
32C25
330
1E
100
AcDbEntity
  8
OUTLINE
100
AcDbLine
 10
53.10000000001309
 20
790.5000000000018
 30
0.0
 11
55.21658075373125
 21
790.5000000000018
 31
0.0
  0
LINE
  5
32C26
330
1E
100
AcDbEntity
  8
OUTLINE
100
AcDbLine
 10
54.06188504099191
 20
792.4999999999999
 30
0.0
 11
55.21658075373125
 21
790.5000000000018
 31
0.0
  0
ARC
  5
32C27
330
1E
100
AcDbEntity
  8
OUTLINE
100
AcDbCircle
 10
139.8000000000138
 20
760.9000000000015
 30
0.0
 40
1.60000000000011
100
AcDbArc
 50
0.000000000000007
 51
90.0
  0
ARC
  5
32C28
330
1E
100
AcDbEntity
  8
OUTLINE
100
AcDbCircle
 10
138.2999999999992
 20
763.2999999999992
 30
0.0
 40
0.8000000000001
100
AcDbArc
 50
180.0
 51
270.0
  0
LINE
  5
32C29
330
1E
100
AcDbEntity
  8
OUTLINE
100
AcDbLine
 10
141.4000000000123
 20
524.4999999999982
 30
0.0
 11
137.750494715131
 21
524.4999999999982
 31
0.0
  0
LINE
  5
32C2A
330
1E
100
AcDbEntity
  8
OUTLINE
100
AcDbLine
 10
137.5
 20
763.5000000000036
 30
0.0
 11
137.5
 21
763.2999999999992
 31
0.0
  0
LINE
  5
32C2B
330
1E
100
AcDbEntity
  8
OUTLINE
100
AcDbLine
 10
139.8000000000138
 20
762.5000000000015
 30
0.0
 11
138.2999999999992
 21
762.5000000000015
 31
0.0
  0
LINE
  5
32C2C
330
1E
100
AcDbEntity
  8
OUTLINE
100
AcDbLine
 10
141.4000000000123
 20
524.4999999999982
 30
0.0
 11
141.4000000000123
 21
760.9000000000015
 31
0.0
  0
ARC
  5
32C2D
330
1E
100
AcDbEntity
  8
OUTLINE
100
AcDbCircle
 10
-137.9999999999927
 20
760.9000000000015
 30
0.0
 40
1.59999999999991
100
AcDbArc
 50
90.0
 51
180.0
  0
ARC
  5
32C2E
330
1E
100
AcDbEntity
  8
OUTLINE
100
AcDbCircle
 10
-136.4999999999963
 20
763.2999999999992
 30
0.0
 40
0.7999999999999501
100
AcDbArc
 50
270.0
 51
0.000000000000007
  0
LINE
  5
32C2F
330
1E
100
AcDbEntity
  8
OUTLINE
100
AcDbLine
 10
-135.699999999997
 20
763.5000000000036
 30
0.0
 11
-135.699999999997
 21
763.2999999999992
 31
0.0
  0
LINE
  5
32C30
330
1E
100
AcDbEntity
  8
OUTLINE
100
AcDbLine
 10
-139.5999999999912
 20
760.9000000000015
 30
0.0
 11
-139.5999999999912
 21
524.4999999999982
 31
0.0
  0
ARC
  5
32C31
330
1E
100
AcDbEntity
  8
OUTLINE
100
AcDbCircle
 10
-140.2000139914707
 20
524.999988526024
 30
0.0
 40
2.50001141403824
100
AcDbArc
 50
270.2451720697386
 51
348.4633627490475
  0
ARC
  5
32C32
330
1E
100
AcDbEntity
  8
OUTLINE
100
AcDbCircle
 10
140.0000005881156
 20
30.19999941187961
 30
0.0
 40
2.49999941188396
100
AcDbArc
 50
269.9999841952866
 51
0.0000134786179419
  0
ARC
  5
32C33
330
1E
100
AcDbEntity
  8
OUTLINE
100
AcDbCircle
 10
140.9999999999308
 20
521.0000000000763
 30
0.0
 40
1.50000000007957
100
AcDbArc
 50
359.9999999969775
 51
90.00083463658929
  0
ARC
  5
32C34
330
1E
100
AcDbEntity
  8
OUTLINE
100
AcDbCircle
 10
140.1999843689554
 20
524.9999998910152
 30
0.0
 40
2.4999998910421
100
AcDbArc
 50
191.5369569933784
 51
269.9997545745736
  0
LINE
  5
32C36
330
1E
100
AcDbEntity
  8
OUTLINE
100
AcDbLine
 10
-142.5
 20
521.0000000000036
 30
0.0
 11
-142.4995833261055
 21
29.59999999999763
 31
0.0
  0
LINE
  5
32C37
330
1E
100
AcDbEntity
  8
OUTLINE
100
AcDbLine
 10
142.5
 20
30.19999999999527
 30
0.0
 11
142.5
 21
521.0000000000763
 31
0.0
  0
LINE
  5
32C38
330
1E
100
AcDbEntity
  8
OUTLINE
100
AcDbLine
 10
140.9999781491933
 20
522.5
 30
0.0
 11
140.1999736602515
 21
522.5
 31
0.0
  0
SPLINE
  5
32C3A
330
1E
100
AcDbEntity
  8
OUTLINE
100
AcDbSpline
210
0.0
220
0.0
230
1.0
 70
     8
 71
     3
 72
    11
 73
     7
 74
     5
 42
0.0000000001
 43
0.0000000001
 44
0.00000000001
 40
0.0
 40
0.0
 40
0.0
 40
0.0
 40
83.25011223310056
 40
166.5002245189487
 40
249.7503356191651
 40
333.0004466666338
 40
333.0004466666338
 40
333.0004466666338
 40
333.0004466666338
 10
151.5636635676019
 20
113.4997767532395
 30
0.0
 10
151.563595301365
 20
141.2498141642439
 30
0.0
 10
151.5634587688912
 20
196.7498890038354
 30
0.0
 10
151.5637627727644
 20
280.0000008768077
 30
0.0
 10
151.5634587688482
 20
363.2501123545695
 30
0.0
 10
151.5635953013506
 20
418.7501864037397
 30
0.0
 10
151.5636635676019
 20
446.5002234195335
 30
0.0
 11
151.5636635676019
 21
113.4997767532395
 31
0.0
 11
151.563543569322
 21
196.7498889862536
 31
0.0
 11
151.5636614381328
 21
280.0000012720183
 31
0.0
 11
151.5635435692929
 21
363.2501123721513
 31
0.0
 11
151.5636635676019
 21
446.5002234195335
 31
0.0
  0
SPLINE
  5
32C3B
330
1E
100
AcDbEntity
  8
OUTLINE
100
AcDbSpline
210
0.0
220
0.0
230
1.0
 70
     8
 71
     3
 72
     9
 73
     5
 74
     3
 42
0.0000000001
 43
0.0000000001
 44
0.00000000001
 40
0.0
 40
0.0
 40
0.0
 40
0.0
 40
0.3279575772838863
 40
1.260162649977549
 40
1.260162649977549
 40
1.260162649977549
 40
1.260162649977549
 10
142.4999999999963
 20
63.69009018582346
 30
0.0
 10
142.6092094585108
 20
63.69500591536915
 30
0.0
 10
143.0288420274057
 20
63.71389439119631
 30
0.0
 10
143.4487231886851
 20
63.72633366349869
 30
0.0
 10
143.7593301952329
 20
63.73553561274002
 30
0.0
 11
142.4999999999963
 21
63.69009018582346
 31
0.0
 11
142.8276452127429
 21
63.70440056884309
 31
0.0
 11
143.7593301952329
 21
63.73553561274002
 31
0.0
  0
SPLINE
  5
32C3C
330
1E
100
AcDbEntity
  8
OUTLINE
100
AcDbSpline
210
0.0
220
0.0
230
1.0
 70
     8
 71
     3
 72
     9
 73
     5
 74
     3
 42
0.0000000001
 43
0.0000000001
 44
0.00000000001
 40
0.0
 40
0.0
 40
0.0
 40
0.0
 40
0.9321851172310692
 40
1.260142393988823
 40
1.260142393988823
 40
1.260142393988823
 40
1.260142393988823
 10
143.7593099501682
 20
496.2644650943186
 30
0.0
 10
143.4487095904362
 20
496.2736667861912
 30
0.0
 10
143.0288351753103
 20
496.2861057769138
 30
0.0
 10
142.6092093570314
 20
496.3049940748851
 30
0.0
 10
142.4999999999963
 20
496.3099098326556
 30
0.0
 11
143.7593099501682
 21
496.2644650943186
 31
0.0
 11
142.8276449091172
 21
496.2955993852292
 31
0.0
 11
142.4999999999963
 21
496.3099098326556
 31
0.0
  0
ARC
  5
32C3D
330
1E
100
AcDbEntity
  8
OUTLINE
100
AcDbCircle
 10
-47.5621635625248
 20
113.4996959285308
 30
0.0
 40
199.1258271301533
100
AcDbArc
 50
345.9772434587657
 51
0.000023256212581
  0
ARC
  5
32C3E
330
1E
100
AcDbEntity
  8
OUTLINE
100
AcDbCircle
 10
-47.56216286068593
 20
446.5003041577893
 30
0.0
 40
199.125826428304
100
AcDbArc
 50
359.999976768644
 51
14.02275656605645
  0
ARC
  5
32C3F
330
1E
100
AcDbEntity
  8
OUTLINE
100
AcDbCircle
 10
-47.49989155405273
 20
446.4998958604701
 30
0.0
 40
214.9998915540945
100
AcDbArc
 50
0.000030342575533
 51
12.44667521094686
  0
ARC
  5
32C40
330
1E
100
AcDbEntity
  8
OUTLINE
100
AcDbCircle
 10
143.6895253264629
 20
65.73382074127948
 30
0.0
 40
1.999503982152899
100
AcDbArc
 50
271.9929426769236
 51
345.999006595115
  0
ARC
  5
32C41
330
1E
100
AcDbEntity
  8
OUTLINE
100
AcDbCircle
 10
157.5644059039586
 20
68.23863673354026
 30
0.0
 40
4.99999626621652
100
AcDbArc
 50
271.9999444656772
 51
347.5574252126239
  0
ARC
  5
32C42
330
1E
100
AcDbEntity
  8
OUTLINE
100
AcDbCircle
 10
-47.50000000014551
 20
113.4999999986666
 30
0.0
 40
215.000000000146
100
AcDbArc
 50
347.5534540131289
 51
0.0000000003647785
  0
ARC
  5
32C43
330
1E
100
AcDbEntity
  8
OUTLINE
100
AcDbCircle
 10
143.6895252708563
 20
494.2661791899991
 30
0.0
 40
1.999504052726269
100
AcDbArc
 50
14.00099493000827
 51
88.00704789991485
  0
LINE
  5
32C44
330
1E
100
AcDbEntity
  8
OUTLINE
100
AcDbLine
 10
167.5
 20
446.500009719557
 30
0.0
 11
167.5
 21
113.5000000000036
 31
0.0
  0
LINE
  5
32C45
330
1E
100
AcDbEntity
  8
OUTLINE
100
AcDbLine
 10
142.5
 20
497.2904753830516
 30
0.0
 11
157.7393156845428
 21
496.7573089438637
 31
0.0
  0
ARC
  5
32C46
330
1E
100
AcDbEntity
  8
OUTLINE
100
AcDbCircle
 10
-142.1999999999934
 20
515.4398088157904
 30
0.0
 40
3.00499999999897
100
AcDbArc
 50
95.72958912265097
 51
180.0
  0
ARC
  5
32C47
330
1E
100
AcDbEntity
  8
OUTLINE
100
AcDbCircle
 10
-142.1999999999934
 20
515.4398088157904
 30
0.0
 40
5.0
100
AcDbArc
 50
93.43981276748529
 51
180.0
  0
ARC
  5
32C48
330
1E
100
AcDbEntity
  8
OUTLINE
100
AcDbCircle
 10
-142.1999999999934
 20
56.62527041471548
 30
0.0
 40
5.00000000000019
100
AcDbArc
 50
180.0
 51
266.5601872325146
  0
ARC
  5
32C49
330
1E
100
AcDbEntity
  8
OUTLINE
100
AcDbCircle
 10
-142.1999999999934
 20
56.62527041471548
 30
0.0
 40
3.00500000000009
100
AcDbArc
 50
180.0
 51
264.270410877349
  0
LINE
  5
32C4A
330
1E
100
AcDbEntity
  8
OUTLINE
100
AcDbLine
 10
-145.2049999999871
 20
56.62527041471548
 30
0.0
 11
-145.2049999999871
 21
515.4398088157904
 31
0.0
  0
LINE
  5
32C4B
330
1E
100
AcDbEntity
  8
OUTLINE
100
AcDbLine
 10
-145.2049999999871
 20
515.4398088157904
 30
0.0
 11
-147.1999999999934
 21
515.4398088157904
 31
0.0
  0
LINE
  5
32C4C
330
1E
100
AcDbEntity
  8
OUTLINE
100
AcDbLine
 10
-147.1999999999934
 20
56.62527041471548
 30
0.0
 11
-147.1999999999934
 21
515.4398088157904
 31
0.0
  0
LINE
  5
32C4D
330
1E
100
AcDbEntity
  8
OUTLINE
100
AcDbLine
 10
-147.1999999999934
 20
56.62527041471548
 30
0.0
 11
-145.2049999999871
 21
56.62527041471548
 31
0.0
  0
ARC
  5
32C4F
330
1E
100
AcDbEntity
  8
OUTLINE
100
AcDbCircle
 10
-166.9999995803846
 20
4.999999580395524
 30
0.0
 40
3.00000041960905
100
AcDbArc
 50
89.99999198545003
 51
179.9999919860753
  0
ARC
  5
32C50
330
1E
100
AcDbEntity
  8
OUTLINE
100
AcDbCircle
 10
146.0710678118812
 20
13.00000000000181
 30
0.0
 40
5.0
100
AcDbArc
 50
225.0
 51
270.0
  0
ARC
  5
32C51
330
1E
100
AcDbEntity
  8
OUTLINE
100
AcDbCircle
 10
130.4289321881333
 20
14.49999999999818
 30
0.0
 40
5.0
100
AcDbArc
 50
45.00000000000002
 51
90.0
  0
ARC
  5
32C52
330
1E
100
AcDbEntity
  8
OUTLINE
100
AcDbCircle
 10
-146.071067811863
 20
13.00000000000181
 30
0.0
 40
5.00000000000036
100
AcDbArc
 50
270.0
 51
315.0
  0
ARC
  5
32C53
330
1E
100
AcDbEntity
  8
OUTLINE
100
AcDbCircle
 10
172.0000007114322
 20
5.00000071141585
 30
0.0
 40
2.999999288585209
100
AcDbArc
 50
359.9999864129928
 51
89.99998167221455
  0
LINE
  5
32C55
330
1E
100
AcDbEntity
  8
OUTLINE
100
AcDbLine
 10
-170.0
 20
5.0
 30
0.0
 11
-170.0
 21
0.0
 31
0.0
  0
LINE
  5
32C56
330
1E
100
AcDbEntity
  8
OUTLINE
100
AcDbLine
 10
-170.0
 20
0.0
 30
0.0
 11
175.0
 21
0.0
 31
0.0
  0
LINE
  5
32C57
330
1E
100
AcDbEntity
  8
OUTLINE
100
AcDbLine
 10
-166.9999991607437
 20
8.000000000004547
 30
0.0
 11
-146.071067811863
 21
8.000000000001364
 31
0.0
  0
LINE
  5
32C58
330
1E
100
AcDbEntity
  8
OUTLINE
100
AcDbLine
 10
142.5355339059497
 20
9.464466094068939
 30
0.0
 11
133.9644660941194
 21
18.03553390588786
 31
0.0
  0
LINE
  5
32C5A
330
1E
100
AcDbEntity
  8
OUTLINE
100
AcDbLine
 10
175.0
 20
0.0
 30
0.0
 11
175.0
 21
5.0
 31
0.0
  0
LINE
  5
32C5B
330
1E
100
AcDbEntity
  8
OUTLINE
100
AcDbLine
 10
172.0000016710728
 20
8.000000000000909
 30
0.0
 11
146.0710678118812
 21
8.000000000001818
 31
0.0
  0
LINE
  5
32C5C
330
1E
100
AcDbEntity
  8
OUTLINE
100
AcDbLine
 10
129.0777115941455
 20
20.96349803176053
 30
0.0
 11
135.8142135623893
 21
27.70000000000436
 31
0.0
  0
ARC
  5
32C5E
330
1E
100
AcDbEntity
  8
OUTLINE
  6
CONTINUOUS
100
AcDbCircle
 10
-138.5999663991642
 20
776.7276725208033
 30
0.0
 40
5.000033600893398
100
AcDbArc
 50
105.6425384906031
 51
179.9997079665842
  0
ARC
  5
32C5F
330
1E
100
AcDbEntity
  8
OUTLINE
  6
CONTINUOUS
100
AcDbCircle
 10
-141.0538635267039
 20
521.0546291355361
 30
0.0
 40
1.44716793836919
100
AcDbArc
 50
92.85565728294248
 51
182.163372108302
  0
ARC
  5
32C60
330
1E
100
AcDbEntity
  8
OUTLINE
  6
CONTINUOUS
100
AcDbCircle
 10
125.412652570827
 20
24.70738687503626
 30
0.0
 40
5.239213806643799
100
AcDbArc
 50
263.6813826938277
 51
314.3904069636223
  0
ARC
  5
32C62
330
1E
100
AcDbEntity
  8
OUTLINE
  6
CONTINUOUS
100
AcDbCircle
 10
157.5635898711552
 20
491.7596761988058
 30
0.0
 40
5.001131945479191
100
AcDbArc
 50
12.46355700912035
 51
88.14729113333646
  0
LINE
  5
32C63
330
1E
100
AcDbEntity
  8
OUTLINE
  6
CONTINUOUS
100
AcDbLine
 10
157.7388984138342
 20
63.24168616082352
 30
0.0
 11
142.5
 21
62.70952461694832
 31
0.0
  0
LINE
  5
32C64
330
1E
100
AcDbEntity
  8
OUTLINE
  6
CONTINUOUS
100
AcDbLine
 10
143.1792235631983
 20
62.73324362643234
 30
0.0
 11
143.1792234216664
 21
497.2667563785135
 31
0.0
  0
LINE
  5
32C65
330
1E
100
AcDbEntity
  8
OUTLINE
  6
CONTINUOUS
100
AcDbLine
 10
151.5636635676128
 20
113.4997767532024
 30
0.0
 11
167.4999999998835
 21
113.4997767532024
 31
0.0
  0
LINE
  5
32C66
330
1E
100
AcDbEntity
  8
OUTLINE
  6
CONTINUOUS
100
AcDbLine
 10
151.5636635676019
 20
446.5002234195044
 30
0.0
 11
167.4999999997926
 21
446.5002234195044
 31
0.0
  0
ARC
  5
32C68
330
1E
100
AcDbEntity
  8
OUTLINE
100
AcDbCircle
 10
-140.4836152935604
 20
29.71053698500418
 30
0.0
 40
2.01899616970444
100
AcDbArc
 50
183.1384264095134
 51
275.2466958244741
  0
ARC
  5
32C69
330
1E
100
AcDbEntity
  8
OUTLINE
100
AcDbCircle
 10
-132.9726957017301
 20
16.36351359484615
 30
0.0
 40
5.027304472649977
100
AcDbArc
 50
180.0150910304503
 51
202.9960288076847
  0
LINE
  5
32C6A
330
1E
100
AcDbEntity
  8
OUTLINE
100
AcDbLine
 10
-138.0000000000036
 20
16.36218946234203
 30
0.0
 11
-137.999999999989
 21
27.69999999999527
 31
0.0
  0
LINE
  5
32C6D
330
1E
100
AcDbEntity
  8
OUTLINE
100
AcDbLine
 10
116.7726418057936
 20
787.5697186333807
 30
0.0
 11
107.0921415084417
 21
788.4228243685823
 31
0.0
  0
LINE
  5
32C6E
330
1E
100
AcDbEntity
  8
OUTLINE
100
AcDbLine
 10
-53.0165807537196
 20
790.5000000000018
 30
0.0
 11
-50.90000000000145
 21
790.5000000000018
 31
0.0
  0
LINE
  5
32C6F
330
1E
100
AcDbEntity
  8
OUTLINE
100
AcDbLine
 10
-135.699999999997
 20
763.5000000000034
 30
0.0
 11
-142.0990001408972
 21
763.5000000000036
 31
0.0
  0
LINE
  5
32C70
330
1E
100
AcDbEntity
  8
OUTLINE
100
AcDbLine
 10
-136.4999999999963
 20
762.5000000000014
 30
0.0
 11
-137.9999999999927
 21
762.5000000000014
 31
0.0
  0
LINE
  5
32C73
330
1E
100
AcDbEntity
  8
OUTLINE
100
AcDbLine
 10
-137.750510257209
 20
524.4999999999982
 30
0.0
 11
-139.5999999999912
 21
524.4999999999982
 31
0.0
  0
LINE
  5
32C74
330
1E
100
AcDbEntity
  8
OUTLINE
100
AcDbLine
 10
-140.1893163249071
 20
522.5
 30
0.0
 11
-141.1259614185073
 21
522.5
 31
0.0
  0
LINE
  5
32C75
330
1E
100
AcDbEntity
  8
OUTLINE
100
AcDbLine
 10
135.8142135623802
 20
27.69999999999527
 30
0.0
 11
139.9999998985051
 21
27.69999999999575
 31
0.0
  0
LINE
  5
32C76
330
1E
100
AcDbEntity
  8
OUTLINE
100
AcDbLine
 10
124.8360389693336
 20
19.49999999999818
 30
0.0
 11
130.4289321881333
 21
19.49999999999818
 31
0.0
  0
LINE
  5
32C77
330
1E
100
AcDbEntity
  8
OUTLINE
100
AcDbLine
 10
-137.6004900055376
 20
14.39950999444922
 30
0.0
 11
-142.5355339058878
 21
9.464466094099861
 31
0.0
  0
LINE
  5
32C78
330
1E
100
AcDbEntity
  8
OUTLINE
100
AcDbLine
 10
-140.2989898207888
 20
27.69999999999618
 30
0.0
 11
-137.999999999989
 21
27.69999999999527
 31
0.0
  0
ENDSEC
  0
SECTION
  2
OBJECTS
  0
DICTIONARY
  5
C
330
0
100
AcDbDictionary
  3
ACAD_COLOR
350
1301
  3
ACAD_GROUP
350
D
  3
ACAD_LAYOUT
350
19
  3
ACAD_MATERIAL
350
1300
  3
ACAD_MLINESTYLE
350
16
  3
ACAD_PLOTSETTINGS
350
18
  3
ACAD_PLOTSTYLENAME
350
E
  3
ACAD_TABLESTYLE
350
1302
  3
ACDBHEADERROUNDTRIPXREC
350
32C7D
  3
ACDBVARIABLEDICTIONARY
350
1307
  3
DWGPROPS
350
32C7B
  0
DICTIONARY
  5
259B5
330
2
100
AcDbDictionary
280
     1
  3
ACAD_LAYERFILTERS
360
31111
  3
ACLYDICTIONARY
360
31110
  0
DICTIONARY
  5
25971
330
1E
100
AcDbDictionary
280
     1
  3
ACAD_LAYOUTSELFREF
360
32CA0
  3
ACAD_SORTENTS
360
25972
  0
DICTIONARY
  5
32C9E
330
1A
100
AcDbDictionary
280
     1
  3
ACAD_LAYOUTSELFREF
360
32C9F
  0
DICTIONARY
  5
1301
102
{ACAD_REACTORS
330
C
102
}
330
C
100
AcDbDictionary
  0
DICTIONARY
  5
D
102
{ACAD_REACTORS
330
C
102
}
330
C
100
AcDbDictionary
  0
DICTIONARY
  5
19
102
{ACAD_REACTORS
330
C
102
}
330
C
100
AcDbDictionary
  0
DICTIONARY
  5
1300
102
{ACAD_REACTORS
330
C
102
}
330
C
100
AcDbDictionary
  0
DICTIONARY
  5
16
102
{ACAD_REACTORS
330
C
102
}
330
C
100
AcDbDictionary
  3
STANDARD
350
17
  0
DICTIONARY
  5
18
102
{ACAD_REACTORS
330
C
102
}
330
C
100
AcDbDictionary
  0
ACDBDICTIONARYWDFLT
  5
E
102
{ACAD_REACTORS
330
C
102
}
330
C
100
AcDbDictionary
281
     1
  3
Normal
350
F
100
AcDbDictionaryWithDefault
340
F
  0
DICTIONARY
  5
1302
102
{ACAD_REACTORS
330
C
102
}
330
C
100
AcDbDictionary
  3
STANDARD
350
1303
  0
DICTIONARY
  5
32C7D
102
{ACAD_REACTORS
330
C
102
}
330
C
100
AcDbDictionary
  3
CEPSNTYPE
350
32C87
  3
DIMSTYLEDATA
350
32C8B
  3
FINGERPRINTGUID
350
32C88
  3
HYPERLINKBASE
350
32C80
  3
INSUNITS
350
32C86
  3
LAYOUTDICT
350
32C82
  3
LWETCUNION
350
32C85
  3
PLOTSETDICT
350
32C83
  3
PLOTSTYLNAMDICT
350
32C84
  3
PSVPSCALE
350
32C8A
  3
PUCSBASE
350
32C8E
  3
PUCSORGBACK
350
32C94
  3
PUCSORGBOTTOM
350
32C90
  3
PUCSORGFRONT
350
32C93
  3
PUCSORGLEFT
350
32C91
  3
PUCSORGRIGHT
350
32C92
  3
PUCSORGTOP
350
32C8F
  3
PUCSORTHOREF
350
32C8C
  3
PUCSORTHOVIEW
350
32C8D
  3
STYLESHEET
350
32C81
  3
TSTACKALIGN
350
32C7E
  3
TSTACKSIZE
350
32C7F
  3
UCSBASE
350
32C97
  3
UCSORGBACK
350
32C9D
  3
UCSORGBOTTOM
350
32C99
  3
UCSORGFRONT
350
32C9C
  3
UCSORGLEFT
350
32C9A
  3
UCSORGRIGHT
350
32C9B
  3
UCSORGTOP
350
32C98
  3
UCSORTHOREF
350
32C95
  3
UCSORTHOVIEW
350
32C96
  3
VERSIONGUID
350
32C89
  0
DICTIONARY
  5
1307
102
{ACAD_REACTORS
330
C
102
}
330
C
100
AcDbDictionary
  3
CTABLESTYLE
350
1308
  3
DIMASSOC
350
25D2C
  3
PROJECTNAME
350
25D2D
  0
XRECORD
  5
32C7B
102
{ACAD_REACTORS
330
C
102
}
330
C
100
AcDbXrecord
  1
DWGPROPS COOKIE
  2

  3

  4

  6

  7

  8

  9

300
=
301
=
302
=
303
=
304
=
305
=
306
=
307
=
308
=
309
=
 40
1.121611145833333
 41
2450330.393205995
 42
2454298.461600833
  1

 90
        0
  0
DICTIONARY
  5
31111
102
{ACAD_REACTORS
330
259B5
102
}
330
259B5
100
AcDbDictionary
  0
DICTIONARY
  5
31110
102
{ACAD_REACTORS
330
259B5
102
}
330
259B5
100
AcDbDictionary
1001
ACAD
1000
<All
  0
XRECORD
  5
32CA0
102
{ACAD_REACTORS
330
25971
102
}
330
25971
100
AcDbXrecord
340
1E
  0
SORTENTSTABLE
  5
25972
102
{ACAD_REACTORS
330
25971
102
}
330
25971
100
AcDbSortentsTable
330
1E
331
3139F
  5
313A5
331
311E0
  5
311E7
331
2B69A
  5
2B69F
331
30B6C
  5
30B84
331
30F1F
  5
30F26
331
2B0CF
  5
2B0D3
331
3095F
  5
309CE
331
311D0
  5
311D9
331
315CB
  5
315D1
331
30BD0
  5
30BE6
331
2B0BF
  5
2B0C3
331
30F83
  5
30FE0
331
315BB
  5
315C1
331
31244
  5
3124F
331
2F7D5
  5
2F7ED
331
30BC0
  5
30BD6
331
30F73
  5
30FDD
331
2F493
  5
2F4AC
331
2E244
  5
2E25A
331
2FCA3
  5
2FCCB
331
3123C
  5
31247
331
30A0B
  5
30A25
331
30C24
  5
30C3A
331
309DB
  5
30A1F
331
32047
  5
3209A
331
312C0
  5
312D5
331
30C1C
  5
30C32
331
2B84A
  5
2B84F
331
2F50F
  5
2F525
331
312B0
  5
312C2
331
2B822
  5
2B827
331
2E2C0
  5
2E2D6
331
30C80
  5
30C96
331
30A4F
  5
30A65
331
30C70
  5
30C86
331
31133
  5
3113B
331
2FFBB
  5
2FFD1
331
31304
  5
31321
331
2F56C
  5
2F582
331
2F8AD
  5
2F8C3
331
3111B
  5
31122
331
2F252
  5
2F268
331
2F55B
  5
2F571
331
2F186
  5
2F19C
331
2FFAB
  5
2FFC1
331
312F4
  5
31309
331
2D0A0
  5
2D0A6
331
30AFB
  5
30B20
331
30A9B
  5
30AB7
331
30AEB
  5
30B04
331
2DB87
  5
2DB9D
331
2F8B6
  5
2F8CC
331
30007
  5
3001D
331
3114F
  5
31156
331
31382
  5
31388
331
2DB77
  5
2DB8D
331
2F1EA
  5
2F200
331
2FFF7
  5
3000D
331
3136A
  5
30EBA
331
30B3F
  5
30B56
331
30EF2
  5
30EF9
331
2F96A
  5
2F984
331
30EE2
  5
30EE9
331
2E093
  5
2E0A9
331
2F94A
  5
2F960
331
3119B
  5
311A5
331
3003A
  5
30050
331
2B6D1
  5
2B6D6
331
30B9B
  5
30BB1
331
2EE35
  5
2EE50
331
30F46
  5
30F4D
331
3002A
  5
30040
331
31207
  5
31213
331
30B8B
  5
30BA4
331
30F3E
  5
30F45
331
2E177
  5
2E18D
331
30BEF
  5
30C06
331
2B106
  5
2B10A
331
30FEA
  5
30FF1
331
31263
  5
31273
331
30BDF
  5
30BF6
331
2F7FC
  5
2F815
331
31253
  5
31260
331
2B7DD
  5
2B7E2
331
30A2A
  5
30A40
331
30C43
  5
30C59
331
2F01D
  5
2F033
331
2B869
  5
2B86E
331
30C33
  5
30C49
331
310EE
  5
310F5
331
2F52E
  5
2F544
331
2F121
  5
2F137
331
2FE56
  5
2FE6C
331
312CF
  5
312E4
331
310DE
  5
310E7
331
2B48E
  5
2B493
331
2F51E
  5
2F534
331
312BF
  5
312D4
331
30A6E
  5
30A99
331
30C8F
  5
30CC7
331
2BA35
  5
2BA3A
331
2FFDA
  5
2FFF0
331
30A5E
  5
30A83
331
30C7F
  5
30C95
331
31323
  5
3133A
331
2F633
  5
2F66E
331
2FFCA
  5
2FFE0
331
31313
  5
3132E
331
2F623
  5
2F639
331
2D722
  5
2D728
331
2B5C8
  5
2B5CD
331
30B0A
  5
30B2C
331
30EBD
  5
30ED8
331
2F36D
  5
2F383
331
2F905
  5
2F91B
331
3116E
  5
31179
331
313A1
  5
313A7
331
30EAD
  5
30EC6
331
2DB96
  5
2DBAC
331
2F8C5
  5
2F8DC
331
3115E
  5
31165
331
31391
  5
31397
331
30B5E
  5
30B74
331
30F11
  5
30F18
331
2E122
  5
2E138
331
2F981
  5
2F99C
331
311C2
  5
311CA
331
2B63C
  5
2B641
331
2F6F3
  5
2F709
331
2C6EE
  5
2C6F4
331
30B4E
  5
30B64
331
30F01
  5
30F08
331
2EF34
  5
2EF4A
331
2E0E2
  5
2E0F8
331
2F979
  5
2F995
331
30059
  5
30960
331
30BB2
  5
30BC8
331
2EEBC
  5
2EED4
331
30F65
  5
30F6C
331
30049
  5
3005F
331
2F747
  5
2F75D
331
30F55
  5
30F5C
331
2E20E
  5
2E224
331
2B215
  5
2B219
331
309CD
  5
30A11
331
2C82A
  5
2C830
331
30C0E
  5
30C24
331
2F45D
  5
2F478
331
2EFC8
  5
2EFDE
331
31059
  5
31060
331
317D9
  5
317DF
331
30BFE
  5
30C18
331
312A2
  5
312BD
331
2B459
  5
2B45E
331
2F4E9
  5
2F4FF
331
30A41
  5
30A57
331
30C62
  5
30C78
331
30A39
  5
30A4F
331
2F89F
  5
2F8B5
331
30C52
  5
30C68
331
3110D
  5
31116
331
2F54D
  5
2F563
331
2FF9D
  5
2FFB3
331
312E6
  5
312FB
331
310FD
  5
31104
331
2F53D
  5
2F553
331
30ADD
  5
30AF4
331
2B49D
  5
2B4A2
331
2FFF9
  5
3000F
331
30A7D
  5
30A9E
331
31141
  5
31151
331
30ACD
  5
30AE3
331
31342
  5
3135A
331
2DB69
  5
2DB7F
331
2F2C8
  5
2F2E0
331
2FFE9
  5
2FFFF
331
31332
  5
31349
331
31354
  5
3121D
331
30B31
  5
30B48
331
2DAE1
  5
2DAE7
331
2F298
  5
2F2B0
331
2B5F7
  5
2B5FC
331
30B29
  5
30B3F
331
30ED4
  5
30EDB
331
3118D
  5
31194
331
2F3A4
  5
2F3BB
331
3117D
  5
31184
331
3001C
  5
30032
331
2F71A
  5
2F734
331
30B7D
  5
30B98
331
30F30
  5
30F37
331
311E1
  5
311E8
331
2B69B
  5
2B6A0
331
30B6D
  5
30B85
331
30F20
  5
30F27
331
2F9A0
  5
2F9B6
331
30960
  5
309CF
331
311D1
  5
311DA
331
315CC
  5
315D2
331
30BD1
  5
30BE7
331
2B0C0
  5
2B0C4
331
2EF6B
  5
2EF81
331
315BC
  5
315C2
331
31245
  5
31250
331
2F7D6
  5
2F7EE
331
30BC1
  5
30BD7
331
30F74
  5
30FDE
331
2E245
  5
2E25B
331
2F00F
  5
2F025
331
3123D
  5
31248
331
30A0C
  5
30A26
331
30C25
  5
30C3B
331
2E21D
  5
2E233
331
2EFFF
  5
2F015
331
310E0
  5
310E9
331
309DC
  5
30A20
331
312C1
  5
312D6
331
30C1D
  5
30C33
331
2B84B
  5
2B850
331
2F0B3
  5
2F0C9
331
30A60
  5
30A85
331
312B1
  5
312C4
331
32114
  5
32142
331
30C81
  5
30C97
331
2E2C1
  5
2E2D7
331
2FD30
  5
2FD46
331
30A50
  5
30A66
331
30C71
  5
30C87
331
31134
  5
3113C
331
2FFBC
  5
2FFD2
331
31305
  5
31322
331
2F56D
  5
2F583
331
2F8AE
  5
2F8C4
331
3111C
  5
31123
331
2D26C
  5
2D272
331
2F55C
  5
2F572
331
2F253
  5
2F269
331
2FFAC
  5
2FFC2
331
312F5
  5
3130A
331
30AAC
  5
30AC6
331
30AFC
  5
30B21
331
2B4C4
  5
2B4C9
331
30A9C
  5
30AB9
331
30AEC
  5
30B05
331
31160
  5
31167
331
2DB88
  5
2DB9E
331
2F8B7
  5
2F8CD
331
30008
  5
3001E
331
31150
  5
31157
331
31383
  5
31389
331
30E87
  5
30EB9
331
2DB78
  5
2DB8E
331
30B50
  5
30B66
331
3136B
  5
3137D
331
30B40
  5
30B57
331
30EF3
  5
30EFA
331
2F6D5
  5
2F6F1
331
30EE3
  5
30EEA
331
2F94B
  5
2F961
331
3119C
  5
311A6
331
3003B
  5
30051
331
2F739
  5
2F74F
331
30B9C
  5
30BB2
331
2EE36
  5
2EE51
331
30F47
  5
30F4E
331
3002B
  5
30041
331
31208
  5
31215
331
30B8C
  5
30BA5
331
30F3F
  5
30F46
331
2EFBA
  5
2EFD0
331
2FC17
  5
2FC2D
331
30BF0
  5
30C07
331
2B107
  5
2B10B
331
2F9E7
  5
2F9FD
331
30FEB
  5
30FF2
331
315DB
  5
315E1
331
31264
  5
31274
331
30BE0
  5
30BF7
331
2B7EE
  5
2B7F3
331
31254
  5
31261
331
2B7DE
  5
2B7E3
331
30A2B
  5
30A41
331
30C44
  5
30C5A
331
312D8
  5
312ED
331
30C34
  5
30C4A
331
310EF
  5
310F6
331
2F52F
  5
2F545
331
312D0
  5
312E5
331
2F869
  5
2F882
331
310DF
  5
310E8
331
2B48F
  5
2B494
331
2F51F
  5
2F535
331
2F0E2
  5
2F0F8
331
30A6F
  5
30A9A
331
32123
  5
3219E
331
2CCC4
  5
2CCCA
331
30C90
  5
30CC8
331
2FFDB
  5
2FFF1
331
30A5F
  5
30A84
331
31324
  5
3133B
331
2B9C6
  5
2B9CB
331
2F634
  5
2F66F
331
2FFCB
  5
2FFE1
331
31314
  5
3132F
331
2F624
  5
2F63B
331
2F262
  5
2F27A
331
30B0B
  5
30B2D
331
30EBE
  5
30ED9
331
2F906
  5
2F91C
331
2B5B9
  5
2B5BE
331
313A2
  5
313A8
331
30EAE
  5
30EC7
331
2DB97
  5
2DBAD
331
3115F
  5
31166
331
31392
  5
31398
331
2B68D
  5
2B692
331
2F704
  5
2F71E
331
30B5F
  5
30B75
331
30F12
  5
30F19
331
2E123
  5
2E139
331
2F982
  5
2F99D
331
2F6F4
  5
2F70A
331
30B4F
  5
30B65
331
30F02
  5
30F09
331
2F97A
  5
2F996
331
322FC
  5
32324
331
3005A
  5
30972
331
2B7B1
  5
2B7B6
331
30BB3
  5
30BC9
331
30F66
  5
30F6D
331
3004A
  5
30060
331
2F748
  5
2F75E
331
30F56
  5
30F5D
331
2E20F
  5
2E225
331
2EFF1
  5
2F007
331
309CE
  5
30A12
331
31ABA
  5
2B098
331
30C0F
  5
30C25
331
2F45E
  5
2F479
331
3105A
  5
31061
331
317DA
  5
317E0
331
312A3
  5
312BE
331
30BFF
  5
30C19
331
2F814
  5
2F82A
331
2E2B3
  5
2E2C9
331
2F4EA
  5
2F500
331
30A42
  5
30A58
331
30C63
  5
30C79
331
30A3A
  5
30A50
331
2B8A1
  5
2B8A6
331
2F8A0
  5
2F8B6
331
30C53
  5
30C69
331
3110E
  5
31117
331
2F54E
  5
2F564
331
2ED57
  5
2ED6D
331
2FF9E
  5
2FFB4
331
312E7
  5
312FC
331
2B891
  5
2B896
331
310FE
  5
31105
331
2B4B6
  5
2B4BB
331
2F53E
  5
2F554
331
30ADE
  5
30AF5
331
2FFFA
  5
30010
331
30ACE
  5
30AE4
331
31343
  5
3135B
331
31142
  5
31152
331
2DB6A
  5
2DB80
331
2FFEA
  5
30000
331
31333
  5
3134A
331
2BAD6
  5
2BADB
331
30B32
  5
30B49
331
2DAE2
  5
2DAE8
331
2F299
  5
2F2B1
331
2B5F8
  5
2B5FD
331
30B2A
  5
30B40
331
30ED5
  5
30EDC
331
3118E
  5
31195
331
3117E
  5
31186
331
3001D
  5
30033
331
2B6AC
  5
2B6B1
331
2F71B
  5
2F735
331
30B7E
  5
30B99
331
30F31
  5
30F38
331
2E15A
  5
2E170
331
2C7BE
  5
2C7C5
331
30B6E
  5
30B86
331
30F21
  5
30F28
331
2B0D9
  5
2B0DD
331
2E152
  5
2E168
331
2F9A1
  5
2F9B7
331
311D2
  5
311DB
331
315CD
  5
315D5
331
30BD2
  5
30BE8
331
2B0C1
  5
2B0C5
331
30951
  5
30982
331
315BD
  5
315C3
331
31246
  5
31251
331
30BC2
  5
30BD8
331
2F7D7
  5
2F7EF
331
2CB42
  5
2CB48
331
2E246
  5
2E25C
331
3123E
  5
31249
331
30C26
  5
30C3C
331
2E21E
  5
2E234
331
2F000
  5
2F016
331
310E1
  5
310EA
331
309DD
  5
30A21
331
30C1E
  5
30C34
331
312C2
  5
312D7
331
2F511
  5
2F527
331
312B2
  5
312C6
331
30A61
  5
30A86
331
30C82
  5
30C98
331
2F501
  5
2F518
331
30A51
  5
30A67
331
30C72
  5
30C88
331
31135
  5
3113D
331
2FFBD
  5
2FFD3
331
31306
  5
31324
331
2F8AF
  5
2F8C5
331
3111D
  5
31124
331
2F55D
  5
2F573
331
2EDBE
  5
2EDD4
331
2FFAD
  5
2FFC3
331
30AAD
  5
30AC7
331
312F6
  5
3130B
331
2D0A2
  5
2D0A8
331
30EB0
  5
30EC9
331
30A9D
  5
30ABB
331
30AED
  5
30B07
331
31161
  5
31168
331
2DB89
  5
2DB9F
331
30009
  5
3001F
331
31384
  5
3138A
331
31151
  5
31158
331
2C66D
  5
2C673
331
2DB79
  5
2DB8F
331
30B51
  5
30B67
331
3136C
  5
3137E
331
2B62F
  5
2B634
331
2F6E6
  5
2F6FC
331
30B41
  5
30B58
331
30EF4
  5
30EFB
331
2E0C5
  5
2E0DB
331
2F6D6
  5
2F6F2
331
31590
  5
3159F
331
30EE4
  5
30EEB
331
2F3E4
  5
2F3FA
331
2F94C
  5
2F962
331
3003C
  5
30052
331
3119D
  5
311A7
331
2C6B9
  5
2C6BF
331
2B6D3
  5
2B6D8
331
2F73A
  5
2F750
331
30B9D
  5
30BB3
331
2EE37
  5
2EE52
331
30F48
  5
30F4F
331
2E1F9
  5
2E20F
331
3002C
  5
30042
331
31209
  5
31218
331
30B8D
  5
30BA6
331
2F72A
  5
2F743
331
2C7FD
  5
2C803
331
2EFBB
  5
2EFD1
331
30BF1
  5
30C08
331
2B108
  5
2B10C
331
30FEC
  5
31057
331
315DC
  5
315E2
331
30BE1
  5
30BF8
331
31265
  5
31275
331
2CBC9
  5
2CBCF
331
31255
  5
31262
331
2B7DF
  5
2B7E4
331
2F7E6
  5
2F800
331
30A2C
  5
30A42
331
30C45
  5
30C5B
331
31100
  5
31107
331
312D9
  5
312EE
331
30C35
  5
30C4B
331
310F0
  5
310F7
331
2F530
  5
2F546
331
2FE58
  5
2FE6E
331
312D1
  5
312E6
331
2CE9D
  5
2CEA3
331
2B490
  5
2B495
331
2F520
  5
2F536
331
30A70
  5
30A9B
331
30AC0
  5
30AD6
331
30C91
  5
30D55
331
2FFDC
  5
2FFF2
331
31325
  5
3133C
331
2F635
  5
2F670
331
2BAC8
  5
2BACF
331
2FFCC
  5
2FFE2
331
2F625
  5
2F63C
331
30B1C
  5
30B32
331
30B0C
  5
30B2E
331
31180
  5
3118A
331
2DBD8
  5
2DBEE
331
31170
  5
3117A
331
313A3
  5
313A9
331
30EAF
  5
30EC8
331
30B70
  5
30B88
331
31393
  5
31399
331
2B68E
  5
2B693
331
2F705
  5
2F71F
331
30B60
  5
30B76
331
30F13
  5
30F1A
331
2F983
  5
2F99E
331
2E124
  5
2E13A
331
311C4
  5
311CB
331
2F6F5
  5
2F70B
331
30F03
  5
30F0A
331
2F97B
  5
2F997
331
2E0E4
  5
2E0FA
331
3005B
  5
30973
331
3159F
  5
315B6
331
30BB4
  5
30BCA
331
30F67
  5
30F6E
331
3004B
  5
30951
331
31230
  5
3123B
331
2B78A
  5
2B78F
331
2F749
  5
2F75F
331
30F57
  5
30F5E
331
309CF
  5
30A13
331
31218
  5
31234
331
31ABB
  5
2B099
331
30C10
  5
30C26
331
2F45F
  5
2F47A
331
2EFCA
  5
2EFE0
331
3105B
  5
31062
331
317DB
  5
317E1
331
30C00
  5
30C1A
331
2F815
  5
2F82B
331
2F4EB
  5
2F501
331
30A43
  5
30A59
331
30C64
  5
30C7A
331
30A3B
  5
30A51
331
312F8
  5
3130D
331
2F560
  5
2F576
331
2F8A1
  5
2F8B7
331
30C54
  5
30C6A
331
3110F
  5
31118
331
2F54F
  5
2F565
331
2FF9F
  5
2FFB5
331
312E8
  5
312FD
331
2B892
  5
2B897
331
310FF
  5
31106
331
2F53F
  5
2F555
331
2F152
  5
2F16B
331
30A8F
  5
30AAA
331
30ADF
  5
30AF6
331
30E8A
  5
30EBB
331
2FFFB
  5
30011
331
31344
  5
3136B
331
31143
  5
31153
331
30ACF
  5
30AE5
331
2BA6E
  5
2BA73
331
2FFEB
  5
30001
331
2DB6B
  5
2DB81
331
31334
  5
3134B
331
31356
  5
3125B
331
30B33
  5
30B4A
331
2DAE3
  5
2DAE9
331
30ED6
  5
30EDD
331
30B2B
  5
30B41
331
3118F
  5
31196
331
2F6B8
  5
2F6D7
331
2EDD1
  5
2EDE7
331
3117F
  5
31187
331
3001E
  5
30034
331
2F71C
  5
2F736
331
30F32
  5
30F39
331
311E3
  5
311EA
331
2B69D
  5
2B6A2
331
2F714
  5
2F72B
331
30F22
  5
30F29
331
32324
  5
3236C
331
30B6F
  5
30B87
331
2F9A2
  5
2F9B8
331
2E153
  5
2E169
331
311D3
  5
311DC
331
315CE
  5
315DB
331
2F7E8
  5
2F802
331
2B0C2
  5
2B0C6
331
30BD3
  5
30BE9
331
30952
  5
30991
331
315BE
  5
315C4
331
31247
  5
31252
331
30BC3
  5
30BD9
331
2B3EE
  5
2B3F3
331
30A0E
  5
30A27
331
3123F
  5
3124A
331
323A0
  5
323B8
331
310E2
  5
310EB
331
2F47E
  5
2F494
331
2FC96
  5
2FCC0
331
30C27
  5
30C3D
331
309DE
  5
30A22
331
312C3
  5
312D8
331
30C1F
  5
30C35
331
2F512
  5
2F528
331
312B3
  5
312C8
331
2B825
  5
2B82A
331
30A62
  5
30A87
331
2F502
  5
2F519
331
30C83
  5
30C99
331
30A52
  5
30A68
331
30C9D
  5
30E87
331
31136
  5
3113E
331
30C73
  5
30C89
331
2FFBE
  5
2FFD4
331
31307
  5
31325
331
2B8B1
  5
2B8B6
331
3111E
  5
31125
331
2F55E
  5
2F574
331
2FFAE
  5
2FFC4
331
2EDBF
  5
2EDD5
331
312F7
  5
3130C
331
30AAE
  5
30AC8
331
30EB1
  5
30ECA
331
30AFE
  5
30B22
331
30A9E
  5
30ABC
331
31162
  5
31169
331
2F8B9
  5
2F8CF
331
2F1FD
  5
2F213
331
3000A
  5
30020
331
2DB8A
  5
2DBA0
331
31385
  5
3138B
331
31152
  5
31159
331
2F66B
  5
2F690
331
2C66E
  5
2C674
331
2DB7A
  5
2DB90
331
30B52
  5
30B68
331
3136D
  5
3137F
331
2F6E7
  5
2F6FD
331
30EF5
  5
30EFC
331
30B42
  5
30B59
331
2E0C6
  5
2E0DC
331
31591
  5
315B1
331
2F6D7
  5
2F6F3
331
2C6D2
  5
2C6D8
331
30EE5
  5
30EEC
331
2F3E5
  5
2F3FB
331
3119E
  5
311AA
331
3003D
  5
30053
331
2F73B
  5
2F751
331
30F49
  5
30F50
331
30B9E
  5
30BB4
331
3002D
  5
30043
331
2E1FA
  5
2E210
331
3120A
  5
31219
331
2F72B
  5
2F744
331
2EFBC
  5
2EFD2
331
2C7F6
  5
2C7FC
331
30FED
  5
31059
331
30BF2
  5
30C09
331
315DD
  5
315E3
331
31266
  5
31276
331
2B7F0
  5
2B7F5
331
2F7FF
  5
2F816
331
30FDD
  5
30FE4
331
30BE2
  5
30BF9
331
2B41D
  5
2B422
331
2F4BD
  5
2F4D3
331
2FCE5
  5
2FCFB
331
31256
  5
31263
331
2F7E7
  5
2F801
331
30A2D
  5
30A43
331
31101
  5
31108
331
30C46
  5
30C5C
331
30A1D
  5
30A33
331
312DA
  5
312EF
331
310F1
  5
310F8
331
30C36
  5
30C4C
331
2F531
  5
2F547
331
312D2
  5
312E7
331
2F86B
  5
2F883
331
2CE9E
  5
2CEA4
331
2B491
  5
2B496
331
30AC1
  5
30AD7
331
30C92
  5
30DCD
331
2FFDD
  5
2FFF3
331
31326
  5
3133D
331
2B9D8
  5
2B9DD
331
2F636
  5
2F671
331
2FFCD
  5
2FFE3
331
2DAB5
  5
2DABB
331
2F626
  5
2F63D
331
30EC8
  5
2DB78
331
30B1D
  5
30B33
331
31181
  5
3118B
331
2F6AA
  5
2F6CB
331
30B0D
  5
30B2F
331
2EDC3
  5
2EDD9
331
2DBD9
  5
2DBEF
331
30010
  5
30026
331
313A4
  5
313DD
331
30B71
  5
30B89
331
31394
  5
3139A
331
2F706
  5
2F721
331
30F14
  5
30F1B
331
30B61
  5
30B77
331
2F41C
  5
2F437
331
2F984
  5
2F9A1
331
311C5
  5
311CC
331
2F6F6
  5
2F70C
331
315C0
  5
315C6
331
30F04
  5
30F0B
331
2F40C
  5
2F422
331
2F97C
  5
2F998
331
3005C
  5
30975
331
2C6E1
  5
2C6E7
331
30F68
  5
30F6F
331
30BB5
  5
30BCB
331
3004C
  5
30952
331
31231
  5
3123C
331
2F74A
  5
2F760
331
30F58
  5
30F5F
331
309D0
  5
30A14
331
31219
  5
31235
331
31ABC
  5
2B09A
331
3105C
  5
31063
331
30C11
  5
30C27
331
317DC
  5
317E2
331
2F816
  5
2F82C
331
30C01
  5
30C1B
331
2F4EC
  5
2F502
331
2F04F
  5
2F065
331
30A44
  5
30A5A
331
31120
  5
31127
331
30C65
  5
30C7B
331
2F047
  5
2F05D
331
2B42C
  5
2B431
331
30A3C
  5
30A52
331
312F9
  5
3130E
331
2F561
  5
2F577
331
2F8A2
  5
2F8B8
331
30C55
  5
30C6B
331
2F550
  5
2F566
331
2FFA0
  5
2FFB6
331
2ED59
  5
2ED6F
331
30AA0
  5
30AC0
331
312E9
  5
312FE
331
2D005
  5
2D00B
331
2F540
  5
2F556
331
30A90
  5
30AAC
331
30AE0
  5
30AF7
331
2FFFC
  5
30012
331
31144
  5
31154
331
31345
  5
3136C
331
2BA6F
  5
2BA74
331
30AD0
  5
30AE6
331
2FFEC
  5
30002
331
2DB6C
  5
2DB82
331
31335
  5
3134C
331
31357
  5
3127A
331
2DAE4
  5
2DAEA
331
30B34
  5
30B4B
331
311A0
  5
311B6
331
30ED7
  5
30EDE
331
30B2C
  5
30B42
331
3152B
  5
31590
331
31190
  5
31197
331
2F6B9
  5
2F6D8
331
2C6AC
  5
2C6B2
331
3001F
  5
30035
331
2F71D
  5
2F737
331
30F33
  5
30F3A
331
30B80
  5
30B9A
331
2FB1B
  5
2FB31
331
311E4
  5
311EB
331
2B69E
  5
2B6A3
331
2F715
  5
2F72C
331
30F23
  5
30F2A
331
2F42B
  5
2F448
331
2F9A3
  5
2F9B9
331
2E154
  5
2E16A
331
315CF
  5
315DC
331
30BD4
  5
30BEA
331
2B0C3
  5
2B0C7
331
30953
  5
309A7
331
315BF
  5
315C5
331
31248
  5
31253
331
30BC4
  5
30BDA
331
2F012
  5
2F028
331
30A0F
  5
30A28
331
310E3
  5
310EC
331
30C28
  5
30C3E
331
312C4
  5
312D9
331
2F513
  5
2F529
331
2B47B
  5
2B480
331
312B4
  5
312C9
331
30A63
  5
30A88
331
2F503
  5
2F51A
331
2FD33
  5
2FD49
331
30C84
  5
30C9D
331
30A53
  5
30A69
331
32107
  5
32123
331
2F628
  5
2F64A
331
30C9E
  5
30E8A
331
31137
  5
3113F
331
30C74
  5
30C8A
331
2FFBF
  5
2FFD5
331
31308
  5
31326
331
2B8B2
  5
2B8B7
331
3111F
  5
31126
331
2F55F
  5
2F575
331
2F18A
  5
2F1A0
331
2FFAF
  5
2FFC5
331
30AAF
  5
30AC9
331
321AB
  5
321DA
331
30EB2
  5
30ECB
331
30A9F
  5
30ABD
331
31163
  5
3116A
331
30AEF
  5
30B08
331
2F8BA
  5
2F8D0
331
3000B
  5
30021
331
2DB8B
  5
2DBA1
331
31153
  5
3115A
331
31386
  5
3138C
331
2DB7B
  5
2DB91
331
30B53
  5
30B69
331
3136E
  5
31380
331
2B631
  5
2B636
331
2F6E8
  5
2F6FE
331
30EF6
  5
30EFD
331
30B43
  5
30B5A
331
2F6D8
  5
2F6F4
331
31592
  5
315B2
331
30EE6
  5
30EED
331
3003E
  5
30054
331
3119F
  5
311B1
331
2C6BB
  5
2C6C1
331
2F73C
  5
2F752
331
30F4A
  5
30F51
331
30B9F
  5
30BB5
331
3002E
  5
30044
331
2E1FB
  5
2E211
331
2F462
  5
2F47C
331
2B6C5
  5
2B6CA
331
2F72C
  5
2F745
331
2EFBD
  5
2EFD3
331
2B1EA
  5
2B1EE
331
316C6
  5
317DA
331
2C7F7
  5
2C7FD
331
2F808
  5
2F81F
331
30FEE
  5
3105A
331
315DE
  5
315E4
331
31267
  5
31277
331
30FDE
  5
30FE5
331
30BE3
  5
30BFA
331
2FCE6
  5
2FCFC
331
2E297
  5
2E2AD
331
2B41E
  5
2B423
331
31257
  5
31264
331
30A2E
  5
30A44
331
31102
  5
31109
331
30C47
  5
30C5D
331
30A1E
  5
30A34
331
3209A
  5
320EF
331
312DB
  5
312F0
331
2F884
  5
2F8A1
331
310F2
  5
310F9
331
30C37
  5
30C4D
331
2B4A2
  5
2B4A7
331
2F532
  5
2F548
331
312D3
  5
312E8
331
2F86C
  5
2F884
331
2ED23
  5
2ED39
331
2B492
  5
2B497
331
30AC2
  5
30AD8
331
30C93
  5
30DCE
331
2FFDE
  5
2FFF4
331
31327
  5
3133E
331
2F637
  5
2F672
331
2B9D9
  5
2B9DE
331
30D55
  5
30EB1
331
2FFCE
  5
2FFE4
331
2F28D
  5
2F2A8
331
2F627
  5
2F63F
331
30EC9
  5
2DB79
331
30B1E
  5
30B34
331
2B4EE
  5
2B4F3
331
31182
  5
3118C
331
2F6AB
  5
2F6CC
331
2DBDA
  5
2DBF0
331
30011
  5
30027
331
313A5
  5
313DE
331
2F20D
  5
2F223
331
30B72
  5
30B8B
331
31395
  5
3139B
331
2C686
  5
2C68C
331
2F707
  5
2F722
331
30F15
  5
30F1C
331
30B62
  5
30B78
331
2EF90
  5
2EFA6
331
2F985
  5
2F9A2
331
311C6
  5
311CD
331
315C1
  5
315C7
331
30F05
  5
30F0C
331
3005D
  5
30976
331
315B1
  5
315B7
331
2F7BB
  5
2F7D4
331
30F69
  5
30F70
331
30BB6
  5
30BCC
331
3004D
  5
30953
331
31232
  5
3123D
331
30F59
  5
30F60
331
2FC49
  5
2FC5F
331
2E212
  5
2E228
331
3121A
  5
31236
331
31ABD
  5
2B09B
331
3105D
  5
31064
331
30C12
  5
30C28
331
317DD
  5
317E3
331
2F817
  5
2F82D
331
2CC62
  5
2CC68
331
30C02
  5
30C1C
331
2F050
  5
2F066
331
2F4ED
  5
2F503
331
30A45
  5
30A5B
331
31121
  5
31128
331
30C66
  5
30C7C
331
2B42D
  5
2B432
331
30A3D
  5
30A53
331
312FA
  5
3130F
331
2F562
  5
2F578
331
2F8A3
  5
2F8B9
331
30C56
  5
30C6C
331
2FFA1
  5
2FFB7
331
2ED5A
  5
2ED70
331
2F551
  5
2F567
331
312EA
  5
312FF
331
2B894
  5
2B899
331
30AA1
  5
30AC1
331
2F154
  5
2F16D
331
2F541
  5
2F557
331
30A91
  5
30AAD
331
2CF76
  5
2CF7C
331
30AE1
  5
30AF8
331
2FFFD
  5
30013
331
31145
  5
31155
331
31346
  5
3136D
331
30AD1
  5
30AE7
331
2FFED
  5
30003
331
2DB6D
  5
2DB83
331
31358
  5
3121E
331
31336
  5
3134D
331
32209
  5
3223E
331
30EE8
  5
30EEF
331
2DAE5
  5
2DAEB
331
30B35
  5
30B4C
331
30ED8
  5
30EDF
331
30B2D
  5
30B43
331
2E071
  5
2E087
331
30030
  5
30046
331
3152C
  5
31591
331
31191
  5
31198
331
2C6AD
  5
2C6B3
331
30B91
  5
30BA7
331
30020
  5
30036
331
2F71E
  5
2F738
331
30F34
  5
30F3B
331
30B81
  5
30B9B
331
2B69F
  5
2B6A4
331
315E0
  5
317D5
331
30F24
  5
30F2B
331
2EF9F
  5
2EFB5
331
2E155
  5
2E16B
331
315D0
  5
315DD
331
2B7E3
  5
2B7E8
331
30F88
  5
30FE1
331
30BD5
  5
30BEB
331
2B0C4
  5
2B0C8
331
30954
  5
309A8
331
31249
  5
31254
331
2F7DA
  5
2F7F2
331
30BC5
  5
30BDB
331
2F013
  5
2F029
331
2FCA8
  5
2FCCC
331
2F498
  5
2F4B1
331
30A10
  5
30A29
331
2F003
  5
2F019
331
30C29
  5
30C3F
331
309E0
  5
30A23
331
312C5
  5
312DA
331
2B84F
  5
2B854
331
2F85E
  5
2F878
331
2E2FD
  5
2E313
331
2B47C
  5
2B481
331
312B5
  5
312CA
331
30A64
  5
30A8F
331
30C85
  5
30C9E
331
2B474
  5
2B479
331
30A54
  5
30A6A
331
31319
  5
31331
331
2F629
  5
2F655
331
2B983
  5
2B988
331
30C9F
  5
30E98
331
30C75
  5
30C8B
331
2FFC0
  5
2FFD6
331
2DA88
  5
2DA8E
331
2B4F8
  5
2B4FD
331
31309
  5
31327
331
2D0F5
  5
2D0FB
331
2BA74
  5
2BA79
331
2FFB0
  5
2FFC6
331
30AB0
  5
30ACA
331
30EB3
  5
30ECC
331
30B00
  5
30B23
331
31164
  5
3116D
331
2B58E
  5
2B593
331
30AF0
  5
30B09
331
3000C
  5
30022
331
2DB8C
  5
2DBA2
331
31387
  5
3138D
331
31154
  5
3115B
331
2B576
  5
2B57B
331
2F66D
  5
2F693
331
2C678
  5
2C67E
331
2DB7C
  5
2DB92
331
30B54
  5
30B6A
331
2B632
  5
2B637
331
2F6E9
  5
2F6FF
331
30EF7
  5
30EFE
331
30B44
  5
30B5B
331
311B0
  5
311C0
331
2F6D9
  5
2F6F5
331
31593
  5
315B3
331
30EE7
  5
30EEE
331
30BA8
  5
30BBE
331
3003F
  5
30055
331
2F73D
  5
2F753
331
30F4B
  5
30F52
331
30BA0
  5
30BB6
331
3002F
  5
30045
331
2E1FC
  5
2E212
331
2F463
  5
2F47D
331
2F72D
  5
2F746
331
2EFBE
  5
2EFD4
331
2B1EB
  5
2B1EF
331
311FC
  5
31205
331
2F809
  5
2F820
331
30FEF
  5
3105B
331
30BF4
  5
30C0E
331
2B10B
  5
2B10F
331
315DF
  5
316C6
331
2E2A0
  5
2E2B6
331
2B7F2
  5
2B7F7
331
30FDF
  5
30FE6
331
30BE4
  5
30BFB
331
2F032
  5
2F048
331
2B41F
  5
2B424
331
2FCE7
  5
2FCFD
331
2F4BF
  5
2F4D5
331
30A2F
  5
30A45
331
31258
  5
31265
331
2CB64
  5
2CB6A
331
31103
  5
3110A
331
30C48
  5
30C5E
331
30A1F
  5
30A35
331
312DC
  5
312F1
331
2F885
  5
2F8A2
331
310F3
  5
310FA
331
30C38
  5
30C4E
331
2B4A3
  5
2B4A8
331
2F533
  5
2F549
331
312D4
  5
312E9
331
2F86D
  5
2F885
331
30A83
  5
30A9F
331
2ED24
  5
2ED3A
331
2B493
  5
2B498
331
31338
  5
3134F
331
30AC3
  5
30AD9
331
30C94
  5
30DCF
331
2F1BA
  5
2F1D0
331
2FFDF
  5
2FFF5
331
31328
  5
3133F
331
2F638
  5
2F673
331
2F1AA
  5
2F1C0
331
2FFCF
  5
2FFE5
331
2F28E
  5
2F2A9
331
2BAA3
  5
2BAA8
331
30ECA
  5
2DB6C
331
30B1F
  5
30B35
331
31183
  5
3118D
331
2F6AC
  5
2F6CD
331
2F91A
  5
2F933
331
2DBDB
  5
2DBF1
331
30012
  5
30028
331
313A6
  5
313DF
331
31173
  5
3117B
331
2C697
  5
2C69D
331
30B73
  5
30B8C
331
31396
  5
3139C
331
2F708
  5
2F723
331
30F16
  5
30F1D
331
30B63
  5
30B79
331
315C2
  5
315C8
331
311C7
  5
311CE
331
2B661
  5
2B666
331
2F6F8
  5
2F70E
331
2C6F3
  5
2C6F9
331
30F06
  5
30F0D
331
2F97E
  5
2F999
331
3005E
  5
3097B
331
315B2
  5
315B8
331
2F7BC
  5
2F7D5
331
30F6A
  5
30F71
331
30BB7
  5
30BCD
331
3004E
  5
30954
331
31233
  5
3123E
331
2C93F
  5
2C945
331
30F5A
  5
30F61
331
309D2
  5
30A15
331
2F848
  5
2F85E
331
3105E
  5
31084
331
30C13
  5
30C29
331
317DE
  5
317E4
331
2F818
  5
2F82E
331
30C03
  5
30C1D
331
2FD1E
  5
2FD35
331
30A46
  5
30A5C
331
31122
  5
31134
331
30C67
  5
30C7D
331
2FD06
  5
2FD1C
331
2B42E
  5
2B433
331
30A3E
  5
30A54
331
312FB
  5
31310
331
2F563
  5
2F579
331
2F8A4
  5
2F8BA
331
31112
  5
31119
331
30C57
  5
30C6D
331
2F175
  5
2F18B
331
2FFA2
  5
2FFB8
331
2F552
  5
2F568
331
2F249
  5
2F25F
331
312EB
  5
31300
331
3219E
  5
321CC
331
2ED4B
  5
2ED61
331
2F542
  5
2F558
331
30A92
  5
30AAE
331
30AE2
  5
30AF9
331
2FFFE
  5
30014
331
31347
  5
3136E
331
2B568
  5
2B56D
331
30E2D
  5
30EB8
331
30AD2
  5
30AE8
331
2F1D1
  5
2F1E8
331
2FFEE
  5
30004
331
2DB6E
  5
2DB84
331
31337
  5
3134E
331
31359
  5
3137B
331
30EE9
  5
30EF0
331
2DAE6
  5
2DAEC
331
30B36
  5
30B4D
331
30ED9
  5
30EE0
331
30B2E
  5
30B44
331
2EEA4
  5
2EEBC
331
30031
  5
30047
331
31192
  5
31199
331
2F6BB
  5
2F6DA
331
3152D
  5
31592
331
30B92
  5
30BA8
331
30021
  5
30037
331
313DD
  5
3152B
331
30F35
  5
30F3C
331
30B82
  5
30B9C
331
2B6A0
  5
2B6A5
331
315E1
  5
317D6
331
30F25
  5
30F2C
331
311D6
  5
311DD
331
315D1
  5
315DE
331
2B7E4
  5
2B7E9
331
30BD6
  5
30BEC
331
30955
  5
309A9
331
3124A
  5
31255
331
2B7D4
  5
2B7D9
331
2F7DB
  5
2F7F3
331
30BC6
  5
30BDC
331
30A11
  5
30A2A
331
2B858
  5
2B85D
331
30C2A
  5
30C40
331
312C6
  5
312DB
331
2E2FE
  5
2E314
331
2F515
  5
2F52B
331
30A65
  5
30A90
331
312B6
  5
312CB
331
2F847
  5
2F85D
331
2CC7A
  5
2CC80
331
30C86
  5
30C9F
331
2F078
  5
2F08E
331
2B475
  5
2B47A
331
2F505
  5
2F51B
331
30A55
  5
30A6B
331
3131A
  5
31332
331
2F62A
  5
2F658
331
31139
  5
31140
331
30CA0
  5
30E99
331
30C76
  5
30C8C
331
2F194
  5
2F1AA
331
2FFC1
  5
2FFD7
331
2DA89
  5
2DA8F
331
2B4F9
  5
2B4FE
331
3130A
  5
31328
331
2FFB1
  5
2FFC7
331
30AB1
  5
30ACB
331
30EB4
  5
30ECD
331
30B01
  5
30B24
331
31165
  5
3116F
331
2B58F
  5
2B594
331
2F686
  5
2F6A6
331
30AF1
  5
30B0A
331
2F8BC
  5
2F8D2
331
2F200
  5
2F216
331
3000D
  5
30023
331
2DB8D
  5
2DBA3
331
31388
  5
3138E
331
31155
  5
3115C
331
2F66E
  5
2F694
331
2C679
  5
2C67F
331
30F08
  5
30F0F
331
2DB7D
  5
2DB93
331
30B55
  5
30B6B
331
2B633
  5
2B638
331
2F6EA
  5
2F700
331
30EF8
  5
30EFF
331
30B45
  5
30B5C
331
30050
  5
30956
331
2F6DA
  5
2F6F6
331
2C6D5
  5
2C6DB
331
30BA9
  5
30BBF
331
30040
  5
30056
331
30F4C
  5
30F53
331
30BA1
  5
30BB7
331
2F464
  5
2F47E
331
317E0
  5
317E6
331
2EFBF
  5
2EFD5
331
311FD
  5
31206
331
2F80A
  5
2F821
331
30FF0
  5
3105C
331
30BF5
  5
30C0F
331
2B10C
  5
2B110
331
2F4D0
  5
2F4E6
331
31269
  5
31278
331
2B7F3
  5
2B7F8
331
2CBCD
  5
2CBD3
331
30FE0
  5
30FE7
331
30BE5
  5
30BFC
331
2B420
  5
2B425
331
2FCE8
  5
2FCFE
331
2F4C8
  5
2F4DE
331
31259
  5
31266
331
30A30
  5
30A46
331
31104
  5
3110B
331
30C49
  5
30C5F
331
30A20
  5
30A36
331
312DD
  5
312F2
331
2B86F
  5
2B874
331
310F4
  5
310FB
331
30C39
  5
30C4F
331
2B4A4
  5
2B4A9
331
2ED35
  5
2ED4B
331
2F534
  5
2F54A
331
312D5
  5
312EA
331
2F86E
  5
2F886
331
30A84
  5
30AA0
331
2B494
  5
2B499
331
31339
  5
31351
331
30AC4
  5
30ADA
331
30C95
  5
30DD0
331
2F1BB
  5
2F1D1
331
2FFE0
  5
2FFF6
331
31329
  5
31340
331
2FFD0
  5
2FFE6
331
321CC
  5
32209
331
30ECB
  5
2DB6D
331
30B20
  5
30B36
331
2F6AD
  5
2F6CE
331
30EC3
  5
2DB73
331
30B10
  5
30B30
331
2F237
  5
2F24D
331
2DBDC
  5
2DBF2
331
30013
  5
30029
331
31174
  5
3117C
331
313A7
  5
313E0
331
30B74
  5
30B8D
331
31397
  5
3139D
331
30F17
  5
30F1E
331
30B64
  5
30B7B
331
311C8
  5
311CF
331
2B662
  5
2B667
331
2F6F9
  5
2F70F
331
315C3
  5
315C9
331
30F07
  5
30F0E
331
2F97F
  5
2F99A
331
30BC8
  5
30BDE
331
3005F
  5
3097C
331
315B3
  5
315B9
331
30F6B
  5
30F72
331
30BB8
  5
30BCE
331
3004F
  5
30955
331
31234
  5
3123F
331
30F5B
  5
30F62
331
2FC4B
  5
2FC61
331
2E214
  5
2E22A
331
309D3
  5
30A16
331
2F849
  5
2F85F
331
3105F
  5
31096
331
30C14
  5
30C2A
331
309C3
  5
309E0
331
317DF
  5
317E5
331
2F819
  5
2F82F
331
31057
  5
3105F
331
30C04
  5
30C1E
331
30A47
  5
30A5D
331
2CC3C
  5
2CC42
331
31123
  5
31135
331
30C68
  5
30C7E
331
30A3F
  5
30A55
331
312FC
  5
31311
331
2F564
  5
2F57A
331
31113
  5
3111A
331
30C58
  5
30C6E
331
2D203
  5
2D209
331
2FFA3
  5
2FFB9
331
2ED5C
  5
2ED72
331
2F553
  5
2F569
331
2F24A
  5
2F260
331
312EC
  5
31301
331
2F543
  5
2F559
331
30A93
  5
30AAF
331
30AE3
  5
30AFA
331
2F1F2
  5
2F208
331
2FFFF
  5
30015
331
31348
  5
312C7
331
2B569
  5
2B56E
331
30AD3
  5
30AE9
331
2FFEF
  5
30005
331
2DB6F
  5
2DB85
331
3135A
  5
3137C
331
30EEA
  5
30EF1
331
30B37
  5
30B4E
331
30EDA
  5
30EE1
331
30B2F
  5
30B45
331
30032
  5
30048
331
31193
  5
3119A
331
3152E
  5
31593
331
30B93
  5
30BA9
331
30022
  5
30038
331
313DE
  5
3152C
331
2F720
  5
2F739
331
30F36
  5
30F3D
331
30B83
  5
30B9D
331
2F436
  5
2F452
331
315E2
  5
317D7
331
2B6A1
  5
2B6A6
331
2C7E3
  5
2C7E9
331
30F26
  5
30F2D
331
315D2
  5
315DF
331
311D7
  5
311DE
331
2C7B3
  5
2C7B9
331
30F8A
  5
30FE2
331
30BD7
  5
30BED
331
2FCBA
  5
2FCD0
331
30956
  5
309C3
331
2E28B
  5
2E2A1
331
3124B
  5
31256
331
2CB47
  5
2CB4D
331
30BC7
  5
30BDD
331
30A12
  5
30A2B
331
2C987
  5
2C98D
331
2F870
  5
2F88A
331
310E6
  5
310ED
331
30C2B
  5
30C41
331
312C7
  5
312DC
331
310D6
  5
310DD
331
2E2FF
  5
2E315
331
2F516
  5
2F52C
331
312B7
  5
312CC
331
30A66
  5
30A91
331
30C87
  5
30CA0
331
30A56
  5
30A6C
331
2F62B
  5
2F659
331
30CA1
  5
30EA7
331
3113A
  5
31141
331
30C77
  5
30C8D
331
2FFC2
  5
2FFD8
331
2DA8A
  5
2DA90
331
2B4FA
  5
2B4FF
331
3130B
  5
31329
331
2B8B5
  5
2B8BA
331
2FFB2
  5
2FFC8
331
30AB2
  5
30ACC
331
30EB5
  5
30ECE
331
30B02
  5
30B25
331
31166
  5
31171
331
30AF2
  5
30B0B
331
2F8BD
  5
2F8D3
331
3000E
  5
30024
331
2DB8E
  5
2DBA4
331
2F33D
  5
2F359
331
31389
  5
3138F
331
31156
  5
3115F
331
2F66F
  5
2F695
331
2C67A
  5
2C680
331
30F09
  5
30F10
331
2DB7E
  5
2DB94
331
30B56
  5
30B6C
331
311BA
  5
311C2
331
2B634
  5
2B639
331
2F6EB
  5
2F701
331
30EF9
  5
30F00
331
2EECC
  5
2EEE2
331
2F6DB
  5
2F6F7
331
30051
  5
30958
331
30BAA
  5
30BC0
331
2EEB4
  5
2EECC
331
30041
  5
30057
331
2C6BE
  5
2C6C4
331
2F73F
  5
2F755
331
30F4D
  5
30F54
331
30BA2
  5
30BB8
331
2F465
  5
2F47F
331
3120E
  5
3121B
331
2F72F
  5
2F747
331
317E1
  5
31ABA
331
2EFC0
  5
2EFD6
331
2B80C
  5
2B811
331
2F80B
  5
2F822
331
30FF1
  5
3105D
331
30BF6
  5
30C10
331
2F4D1
  5
2F4E7
331
3126A
  5
312A7
331
2F803
  5
2F81A
331
30FE1
  5
30FE8
331
30BE6
  5
30BFD
331
2B421
  5
2B426
331
2FCE9
  5
2FCFF
331
2F4C9
  5
2F4DF
331
3125A
  5
31267
331
30A31
  5
30A47
331
31105
  5
3110C
331
30C4A
  5
30C60
331
2F024
  5
2F03A
331
30A21
  5
30A37
331
312DE
  5
312F3
331
310F5
  5
310FC
331
30C3A
  5
30C50
331
2F535
  5
2F54B
331
312D6
  5
312EB
331
2F86F
  5
2F889
331
30A85
  5
30AA1
331
2B495
  5
2B49A
331
2F525
  5
2F53B
331
2F0E8
  5
2F0FE
331
3133A
  5
31352
331
2B55B
  5
2B560
331
30C96
  5
30DD1
331
30AC5
  5
30ADB
331
2FFE1
  5
2FFF7
331
3132A
  5
31341
331
2FFD1
  5
2FFE7
331
30ECC
  5
2DB6E
331
30B21
  5
30B37
331
31185
  5
3118E
331
2F6AE
  5
2F6CF
331
30EC4
  5
2DB74
331
30B11
  5
30B31
331
2DBDD
  5
2DBF3
331
30014
  5
3002A
331
313A8
  5
313E1
331
31175
  5
3117D
331
2C699
  5
2C69F
331
30F28
  5
30F2F
331
30B75
  5
30B91
331
31398
  5
3139E
331
2B693
  5
2B698
331
2F70A
  5
2F725
331
30F18
  5
30F1F
331
30B65
  5
30B7C
331
2E129
  5
2E13F
331
30958
  5
309C4
331
311C9
  5
311D0
331
315C4
  5
315CA
331
30BC9
  5
30BDF
331
2B0B8
  5
2B0BC
331
2E109
  5
2E11F
331
2F410
  5
2F426
331
30060
  5
3097D
331
315B4
  5
315BA
331
30F6C
  5
30F73
331
30BB9
  5
30BCF
331
2E225
  5
2E23B
331
31235
  5
31240
331
30F5C
  5
30F63
331
2EFF7
  5
2F00D
331
309D4
  5
30A17
331
2F84A
  5
2F861
331
31060
  5
31097
331
30C15
  5
30C2B
331
309C4
  5
30A0A
331
2F81A
  5
2F830
331
30C05
  5
30C1F
331
30A48
  5
30A5E
331
31124
  5
31136
331
30C69
  5
30C7F
331
2B430
  5
2B435
331
312FD
  5
31312
331
2B8A7
  5
2B8AC
331
2F565
  5
2F57B
331
31114
  5
3111B
331
30C59
  5
30C6F
331
2F24B
  5
2F261
331
2FFA4
  5
2FFBA
331
2F554
  5
2F56A
331
312ED
  5
31302
331
2F896
  5
2F8AE
331
2B4BC
  5
2B4C1
331
2F544
  5
2F55A
331
30A94
  5
30AB0
331
30AE4
  5
30AFB
331
2DB80
  5
2DB96
331
30000
  5
30016
331
2F1F3
  5
2F209
331
31349
  5
312C5
331
2C664
  5
2C66A
331
30AD4
  5
30AEA
331
2FFF0
  5
30006
331
2DB70
  5
2DB86
331
30EEB
  5
30EF2
331
30B38
  5
30B4F
331
311A4
  5
311BB
331
2B5FE
  5
2B603
331
30EDB
  5
30EE2
331
31194
  5
3119B
331
2B5E6
  5
2B5EB
331
30033
  5
30049
331
30B94
  5
30BAA
331
30023
  5
30039
331
313DF
  5
3152D
331
2B6BA
  5
2B6C2
331
2F721
  5
2F73A
331
30F37
  5
30F3E
331
30B84
  5
30B9E
331
2B6A2
  5
2B6A7
331
315E3
  5
317D8
331
30F27
  5
30F2E
331
30BE8
  5
30BFF
331
30F8B
  5
30FE3
331
30BD8
  5
30BEE
331
2E28C
  5
2E2A2
331
2F4B3
  5
2F4CC
331
3124C
  5
31257
331
2FCAB
  5
2FCCF
331
30A13
  5
30A2C
331
2CB38
  5
2CB3E
331
2F871
  5
2F88B
331
310E7
  5
310EE
331
30C2C
  5
30C42
331
2B3E3
  5
2B3E8
331
312C8
  5
312DD
331
2B852
  5
2B857
331
310D7
  5
310DE
331
2FDCF
  5
2FDE5
331
2F517
  5
2F52D
331
312B8
  5
312CD
331
30A67
  5
30A92
331
30C88
  5
30CA1
331
2F507
  5
2F51D
331
30A57
  5
30A6D
331
3131C
  5
31333
331
2F62C
  5
2F65A
331
30CA2
  5
30EA8
331
3113B
  5
31142
331
30C78
  5
30C8E
331
2DA8B
  5
2DA91
331
2B4FB
  5
2B500
331
2FFC3
  5
2FFD9
331
2F196
  5
2F1AC
331
3130C
  5
3132A
331
2F61C
  5
2F632
331
2FFB3
  5
2FFC9
331
2F18E
  5
2F1A4
331
30AB3
  5
30ACD
331
30EB6
  5
30ECF
331
30B03
  5
30B26
331
31167
  5
31174
331
2C68B
  5
2C691
331
30AF3
  5
30B0C
331
2F8BE
  5
2F8D4
331
3000F
  5
30025
331
2DB8F
  5
2DBA5
331
3138A
  5
31390
331
31157
  5
31160
331
2C67B
  5
2C681
331
30F0A
  5
30F11
331
2DB7F
  5
2DB95
331
30B57
  5
30B6D
331
2B635
  5
2B63A
331
2F6EC
  5
2F702
331
30EFA
  5
30F01
331
30B47
  5
30B5D
331
30052
  5
30959
331
31596
  5
315B4
331
30BAB
  5
30BC1
331
2E0BB
  5
2E0D1
331
2EEB5
  5
2EECD
331
30042
  5
30058
331
2B6D9
  5
2B6DE
331
30F4E
  5
30F55
331
30BA3
  5
30BB9
331
3120F
  5
3121F
331
2F730
  5
2F748
331
317E2
  5
31ABB
331
2B1EE
  5
2B1F2
331
2E1CF
  5
2E1E5
331
2EFC1
  5
2EFD7
331
311FF
  5
31207
331
2F80C
  5
2F823
331
30FF2
  5
3105E
331
30BF7
  5
30C11
331
2F4D2
  5
2F4E8
331
3126B
  5
312A8
331
2F804
  5
2F81B
331
30FE2
  5
30FE9
331
30BE7
  5
30BFE
331
2B422
  5
2B427
331
2FCEA
  5
2FD00
331
2E29B
  5
2E2B1
331
2F035
  5
2F04B
331
3125B
  5
31269
331
30A32
  5
30A48
331
31106
  5
3110D
331
30C4B
  5
30C61
331
30A22
  5
30A38
331
312DF
  5
312F4
331
2F888
  5
2F8A3
331
310F6
  5
310FD
331
30C3B
  5
30C51
331
2F536
  5
2F54C
331
30A86
  5
30AA6
331
32142
  5
321AB
331
312D7
  5
312EC
331
2CEB3
  5
2CEB9
331
2B496
  5
2B49B
331
2FE3E
  5
2FE54
331
2F526
  5
2F53C
331
3133B
  5
31353
331
2B55C
  5
2B561
331
30AC6
  5
30ADC
331
30C97
  5
30DFB
331
2FFE2
  5
2FFF8
331
3132B
  5
31342
331
2BACE
  5
2BAD3
331
2FFD2
  5
2FFE8
331
30ECD
  5
2DB6F
331
30B22
  5
30B38
331
31186
  5
3118F
331
2F6AF
  5
2F6D0
331
30EC5
  5
2DB75
331
2F239
  5
2F24F
331
30015
  5
3002B
331
31176
  5
3117E
331
313A9
  5
313E3
331
30F29
  5
30F30
331
30B76
  5
30B92
331
31399
  5
3139F
331
311DA
  5
311E1
331
2F70B
  5
2F726
331
30F19
  5
30F20
331
30B66
  5
30B7D
331
2E12A
  5
2E140
331
30959
  5
309C5
331
315C5
  5
315CB
331
311CA
  5
311D1
331
2C6F6
  5
2C6FC
331
30BCA
  5
30BE0
331
2B0B9
  5
2B0BD
331
315B5
  5
315BB
331
2B7C8
  5
2B7CD
331
30F6D
  5
30F74
331
30BBA
  5
30BD0
331
2F485
  5
2F49B
331
31236
  5
31241
331
30F5D
  5
30F64
331
2EFF8
  5
2F00E
331
309D5
  5
30A18
331
2F84B
  5
2F862
331
31061
  5
31098
331
30C16
  5
30C2C
331
2FDB9
  5
2FDCF
331
309C5
  5
30A0B
331
2F81B
  5
2F831
331
30C06
  5
30C20
331
2F054
  5
2F06A
331
30A49
  5
30A5F
331
31125
  5
31137
331
30C6A
  5
30C80
331
312FE
  5
31313
331
2F8A7
  5
2F8BD
331
2F566
  5
2F57C
331
31115
  5
3111C
331
30C5A
  5
30C70
331
2F24C
  5
2F262
331
2FFA5
  5
2FFBB
331
2F555
  5
2F56B
331
312EE
  5
31303
331
2B4BD
  5
2B4C2
331
2F545
  5
2F55B
331
30A95
  5
30AB1
331
2F672
  5
2F69A
331
30E98
  5
30EBC
331
30AE5
  5
30AFC
331
2F8B0
  5
2F8C6
331
30001
  5
30017
331
2DB81
  5
2DB97
331
3134A
  5
312C3
331
2F662
  5
2F67D
331
30AD5
  5
30AEB
331
2DB71
  5
2DB87
331
2FFF1
  5
30007
331
2F1D4
  5
2F1EB
331
30EEC
  5
30EF3
331
30B39
  5
30B50
331
311A5
  5
311BD
331
2C6C1
  5
2C6C7
331
30EDC
  5
30EE3
331
31195
  5
3119C
331
30034
  5
3004A
331
30F40
  5
30F47
331
2E045
  5
2E05B
331
30B95
  5
30BAB
331
30024
  5
3003A
331
313E0
  5
3152E
331
2F722
  5
2F73B
331
30F38
  5
30F3F
331
30B85
  5
30B9F
331
31201
  5
31208
331
2B1E0
  5
2B1E4
331
315E4
  5
317D9
331
30BE9
  5
30C00
331
30BD9
  5
30BEF
331
2CB49
  5
2CB4F
331
3124D
  5
31258
331
30A14
  5
30A2D
331
310E8
  5
310EF
331
30C2D
  5
30C43
331
2F528
  5
2F53E
331
2CD8D
  5
2CD93
331
2B853
  5
2B858
331
310D8
  5
310DF
331
312C9
  5
312DE
331
2F518
  5
2F52E
331
30A68
  5
30A93
331
312B9
  5
312CE
331
30C89
  5
30CA2
331
30A58
  5
30A6E
331
2F62D
  5
2F663
331
30CA3
  5
30EA9
331
3113C
  5
31143
331
30C79
  5
30C8F
331
3131D
  5
31334
331
2DA8C
  5
2DA92
331
2B4FC
  5
2B501
331
2F26B
  5
2F286
331
2F197
  5
2F1AD
331
2FFC4
  5
2FFDA
331
2F61D
  5
2F633
331
3130D
  5
3132B
331
2D2A4
  5
2D2AA
331
2FFB4
  5
2FFCA
331
30AB4
  5
30ACE
331
30EB7
  5
30ED0
331
30B04
  5
30B27
331
2DB98
  5
2DBAE
331
2F223
  5
2F239
331
2B592
  5
2B597
331
30EA7
  5
30EBE
331
30AF4
  5
30B0D
331
31168
  5
31175
331
2DB90
  5
2DBA6
331
2F8BF
  5
2F8D5
331
3138B
  5
31391
331
31158
  5
31161
331
30F0B
  5
30F12
331
30B58
  5
30B6E
331
2F2E7
  5
2F303
331
3137B
  5
31381
331
2F6ED
  5
2F703
331
30EFB
  5
30F02
331
30B48
  5
30B5E
331
311BC
  5
311C3
331
2F973
  5
2F992
331
30053
  5
3095A
331
31597
  5
315B5
331
30BAC
  5
30BC2
331
2E0BC
  5
2E0D2
331
2F953
  5
2F969
331
30043
  5
30059
331
3158F
  5
31597
331
2B6DA
  5
2B6DF
331
30F4F
  5
30F56
331
30BA4
  5
30BBA
331
31220
  5
31238
331
2FC2F
  5
2FC45
331
317E3
  5
31ABC
331
2B6CA
  5
2B6CF
331
31210
  5
31223
331
30C08
  5
30C22
331
2B1EF
  5
2B1F3
331
2F457
  5
2F470
331
2EFC2
  5
2EFD8
331
2FC1F
  5
2FC35
331
309A7
  5
309DD
331
2F80D
  5
2F824
331
30BF8
  5
30C12
331
2F4D3
  5
2F4E9
331
2F805
  5
2F81C
331
30FE3
  5
30FEA
331
3126C
  5
312A9
331
30A33
  5
30A49
331
2CB98
  5
2CB9E
331
3125C
  5
3126A
331
2B89A
  5
2B89F
331
31107
  5
3110E
331
30C4C
  5
30C62
331
30A23
  5
30A39
331
2CF8C
  5
2CF92
331
2F889
  5
2F8A4
331
310F7
  5
310FE
331
30C3C
  5
30C52
331
312E0
  5
312F5
331
2ED40
  5
2ED56
331
2F537
  5
2F54D
331
30A87
  5
30AA7
331
2B497
  5
2B49C
331
2F527
  5
2F53D
331
2F0EA
  5
2F100
331
2F654
  5
2F679
331
30AC7
  5
30ADD
331
3133C
  5
31354
331
2FFE3
  5
2FFF9
331
3132C
  5
31343
331
2DABB
  5
2DAC1
331
2F292
  5
2F2AC
331
2FFD3
  5
2FFE9
331
2B5F1
  5
2B5F6
331
2F6C0
  5
2F6DC
331
30ECE
  5
2DB70
331
30B23
  5
30B39
331
2F6B0
  5
2F6D3
331
30EC6
  5
2DB76
331
2B5D1
  5
2B5D6
331
2EDC9
  5
2EDDF
331
30016
  5
3002C
331
30F2A
  5
30F31
331
30B77
  5
30B93
331
2F8EE
  5
2F904
331
3139A
  5
313A0
331
2F70C
  5
2F727
331
30F1A
  5
30F21
331
30B67
  5
30B7E
331
311DB
  5
311E2
331
2E12B
  5
2E141
331
3095A
  5
309C7
331
315C6
  5
315CC
331
311CB
  5
311D2
331
30BCB
  5
30BE1
331
2E10B
  5
2E121
331
2B0BA
  5
2B0BE
331
315B6
  5
315BC
331
2C6E7
  5
2C6ED
331
30F6E
  5
30F7D
331
30BBB
  5
30BD1
331
2E227
  5
2E23D
331
2F486
  5
2F49C
331
2F009
  5
2F01F
331
30F5E
  5
30F65
331
31237
  5
31242
331
32388
  5
323A0
331
3121F
  5
31237
331
2F84C
  5
2F863
331
31062
  5
31099
331
30C17
  5
30C2D
331
30C07
  5
30C21
331
2FD22
  5
2FD39
331
30A4A
  5
30A60
331
31126
  5
31139
331
30C6B
  5
30C81
331
2B432
  5
2B437
331
2F567
  5
2F57D
331
2F8A8
  5
2F8BE
331
31116
  5
3111D
331
30C5B
  5
30C71
331
312FF
  5
31314
331
2F556
  5
2F56C
331
2FFA6
  5
2FFBC
331
30AA6
  5
30AC2
331
312EF
  5
31304
331
2F546
  5
2F55C
331
30A96
  5
30AB2
331
2F673
  5
2F69B
331
30E99
  5
30EBD
331
30AE6
  5
30AFE
331
2B57C
  5
2B581
331
2DB82
  5
2DB98
331
2F1F5
  5
2F20B
331
30002
  5
30018
331
2F8B1
  5
2F8C7
331
30AD6
  5
30AEC
331
2F663
  5
2F67E
331
2DB72
  5
2DB88
331
2FFF2
  5
30008
331
2BADE
  5
2BAE3
331
30EED
  5
30EF4
331
30B3A
  5
30B51
331
311A6
  5
311BE
331
30EDD
  5
30EE4
331
2B600
  5
2B605
331
2F6CF
  5
2F6EE
331
2EEA8
  5
2EEBF
331
30035
  5
3004B
331
2C6B2
  5
2C6B8
331
31196
  5
3119D
331
2F6BF
  5
2F6DB
331
30F41
  5
30F48
331
30B96
  5
30BAC
331
30025
  5
3003B
331
313E1
  5
3153A
331
31202
  5
31209
331
30F39
  5
30F40
331
30B86
  5
30BA0
331
2F723
  5
2F73C
331
2B1E1
  5
2B1E5
331
2F439
  5
2F454
331
311EA
  5
31201
331
30BEA
  5
30C01
331
315D5
  5
315E0
331
30BDA
  5
30BF0
331
2E28E
  5
2E2A4
331
30F7D
  5
30FDF
331
3124E
  5
31259
331
2B3F5
  5
2B3FA
331
30A15
  5
30A2E
331
310E9
  5
310F0
331
30C2E
  5
30C44
331
2B85C
  5
2B866
331
2F529
  5
2F53F
331
310D9
  5
310E0
331
312CA
  5
312DF
331
30A69
  5
30A94
331
312BA
  5
312CF
331
30AB9
  5
30AD2
331
30C8A
  5
30CA3
331
30A59
  5
30A6F
331
30CA4
  5
30EAA
331
3113D
  5
31144
331
30C7A
  5
30C90
331
3131E
  5
31335
331
2F62E
  5
2F664
331
2DA8D
  5
2DA93
331
2F26C
  5
2F287
331
2F198
  5
2F1AE
331
2FFC5
  5
2FFDB
331
2BA79
  5
2BA7E
331
3130E
  5
3132C
331
2F61E
  5
2F634
331
2F25C
  5
2F272
331
2FFB5
  5
2FFCB
331
30AB5
  5
30ACF
331
30EB8
  5
30ED3
331
30B05
  5
30B28
331
2F692
  5
2F6AA
331
2DB99
  5
2DBAF
331
30EA8
  5
30EC1
331
30AF5
  5
30B10
331
31169
  5
31176
331
2F340
  5
2F35C
331
2DB91
  5
2DBA7
331
2F8C0
  5
2F8D7
331
3138C
  5
31392
331
31159
  5
31162
331
30F0C
  5
30F13
331
30B59
  5
30B6F
331
3137C
  5
31382
331
2C6E9
  5
2C6EF
331
311BD
  5
311C5
331
30EFC
  5
30F03
331
30B49
  5
30B5F
331
2F6EE
  5
2F704
331
2EECF
  5
2EEE5
331
30054
  5
3095B
331
311B5
  5
311C1
331
2F6DE
  5
2F6F8
331
30F60
  5
30F67
331
30BAD
  5
30BC3
331
2EEB7
  5
2EECF
331
30044
  5
3005A
331
322B6
  5
322FC
331
30F50
  5
30F57
331
30BA5
  5
30BBB
331
2F468
  5
2F481
331
2FC40
  5
2FC56
331
317E4
  5
31ABD
331
2C805
  5
2C80B
331
30C09
  5
30C23
331
2E1E9
  5
2E1FF
331
2FC20
  5
2FC36
331
309A8
  5
309DE
331
30BF9
  5
30C13
331
2B80F
  5
2B814
331
2F4D4
  5
2F4EA
331
3126D
  5
312AA
331
30FE4
  5
30FEB
331
2F806
  5
2F81D
331
2F4CC
  5
2F4E2
331
30A34
  5
30A4A
331
3125D
  5
3126B
331
31108
  5
3110F
331
30C4D
  5
30C63
331
2B40C
  5
2B411
331
2F027
  5
2F03D
331
30A24
  5
30A3A
331
2F548
  5
2F55E
331
312E1
  5
312F6
331
310F8
  5
310FF
331
30C3D
  5
30C53
331
2F88A
  5
2F8A5
331
2F538
  5
2F54E
331
2F14B
  5
2F164
331
30A88
  5
30AA8
331
30AD8
  5
30AEF
331
30DFB
  5
30EB6
331
3133D
  5
31355
331
30AC8
  5
30ADE
331
2BA4F
  5
2BA54
331
2DB64
  5
2DB7A
331
2FFE4
  5
2FFFA
331
3132D
  5
31344
331
2DABC
  5
2DAC2
331
2FFD4
  5
2FFEA
331
30ECF
  5
2DB71
331
30B24
  5
30B3A
331
2F6C1
  5
2F6DF
331
32291
  5
322A9
331
30EC7
  5
2DB77
331
2F6B1
  5
2F6D4
331
2E020
  5
2E036
331
2F39F
  5
2F3B7
331
2F23B
  5
2F251
331
30017
  5
3002D
331
31178
  5
3117F
331
30F2B
  5
30F32
331
30B78
  5
30B94
331
3139B
  5
313A1
331
311DC
  5
311E3
331
30F1B
  5
30F22
331
30B68
  5
30B80
331
2F70D
  5
2F728
331
3095B
  5
309CA
331
315C7
  5
315CD
331
311CC
  5
311D3
331
30BCC
  5
30BE2
331
2B0BB
  5
2B0BF
331
2E10C
  5
2E122
331
2EF3E
  5
2EF54
331
315B7
  5
315BD
331
30F6F
  5
30F83
331
30BBC
  5
30BD2
331
31240
  5
3124B
331
2FC9F
  5
2FCC7
331
31238
  5
31243
331
30F5F
  5
30F66
331
2F791
  5
2F7A8
331
30C20
  5
30C36
331
2B37F
  5
2B384
331
2F477
  5
2F48D
331
309D7
  5
30A19
331
2C834
  5
2C83A
331
31063
  5
3109A
331
30C18
  5
30C2E
331
2B846
  5
2B84B
331
2F84D
  5
2F864
331
2E2F4
  5
2E30A
331
2F50B
  5
2F521
331
2B463
  5
2B468
331
2E2BC
  5
2E2D2
331
2F4FB
  5
2F512
331
30A4B
  5
30A61
331
31127
  5
3113A
331
30C6C
  5
30C82
331
320EF
  5
32114
331
31300
  5
31315
331
2F568
  5
2F57E
331
31117
  5
3111E
331
30C5C
  5
30C72
331
2B8AA
  5
2B8AF
331
2F8A9
  5
2F8BF
331
2B4CF
  5
2B4D4
331
2F557
  5
2F56D
331
2FFA7
  5
2FFBD
331
30AA7
  5
30AC3
331
312F0
  5
31305
331
2F547
  5
2F55D
331
30A97
  5
30AB3
331
30AE7
  5
30B00
331
2F674
  5
2F69C
331
2F312
  5
2F331
331
2DB83
  5
2DB99
331
2F8B2
  5
2F8C8
331
30003
  5
30019
331
30AD7
  5
30AED
331
2DB73
  5
2DB89
331
2FFF3
  5
30009
331
30EEE
  5
30EF5
331
30B3B
  5
30B52
331
30EDE
  5
30EE5
331
2F3DE
  5
2F3F4
331
2EEA9
  5
2EEC0
331
2F946
  5
2F95D
331
30036
  5
3004C
331
3153A
  5
31596
331
2C6B3
  5
2C6B9
331
31197
  5
3119E
331
30F42
  5
30F49
331
30B97
  5
30BAD
331
30026
  5
3003C
331
30F3A
  5
30F41
331
30B87
  5
30BA1
331
31203
  5
3120A
331
2B1E2
  5
2B1E6
331
311EB
  5
31202
331
30BEB
  5
30C02
331
30972
  5
309D0
331
30BDB
  5
30BF1
331
2F7F8
  5
2F810
331
3124F
  5
3125C
331
2E24F
  5
2E265
331
30A16
  5
30A2F
331
310EA
  5
310F1
331
30C2F
  5
30C45
331
2F52A
  5
2F540
331
310DA
  5
310E1
331
312CB
  5
312E0
331
2E303
  5
2E319
331
2F51A
  5
2F530
331
2F0DD
  5
2F0F3
331
30A6A
  5
30A95
331
312BB
  5
312D0
331
30C8B
  5
30CA4
331
30A5A
  5
30A70
331
30CA5
  5
30EAC
331
3113E
  5
31145
331
30C7B
  5
30C91
331
3131F
  5
31336
331
2F62F
  5
2F666
331
2FFC6
  5
2FFDC
331
2BA7A
  5
2BA7F
331
3130F
  5
3132D
331
2F61F
  5
2F635
331
2FFB6
  5
2FFCC
331
30AB6
  5
30AD0
331
30EB9
  5
30ED4
331
2DB9A
  5
2DBB0
331
2F225
  5
2F23B
331
2C68E
  5
2C694
331
30EA9
  5
30EC2
331
30AF6
  5
30B11
331
2DB92
  5
2DBA8
331
2F341
  5
2F35D
331
2F205
  5
2F21B
331
3138D
  5
31393
331
3115A
  5
31163
331
30F0D
  5
30F14
331
30B5A
  5
30B70
331
3137D
  5
31383
331
311BE
  5
311C6
331
30EFD
  5
30F04
331
30B4A
  5
30B60
331
2B638
  5
2B63D
331
2E0DE
  5
2E0F4
331
30055
  5
3095C
331
2F6DF
  5
2F6F9
331
30F61
  5
30F68
331
30BAE
  5
30BC4
331
30045
  5
3005B
331
31222
  5
31239
331
30F51
  5
30F58
331
30BA6
  5
30BBC
331
2F743
  5
2F759
331
2F469
  5
2F482
331
317E5
  5
32047
331
3237B
  5
32388
331
2F733
  5
2F749
331
2B1F1
  5
2B1F5
331
2F459
  5
2F475
331
2EFC4
  5
2EFDA
331
317D5
  5
317DB
331
30BFA
  5
30C14
331
2F80F
  5
2F826
331
2F4D5
  5
2F4EB
331
2F048
  5
2F05E
331
2FD15
  5
2FD2C
331
2CBF2
  5
2CBF8
331
3126E
  5
312AB
331
30FE5
  5
30FEC
331
2B7F8
  5
2B7FD
331
2F807
  5
2F81E
331
2F4CD
  5
2F4E3
331
30A35
  5
30A4B
331
3125E
  5
3126C
331
31109
  5
31112
331
30C4E
  5
30C64
331
30A25
  5
30A3B
331
2F549
  5
2F55F
331
310F9
  5
31100
331
30C3E
  5
30C54
331
312E2
  5
312F7
331
2F539
  5
2F54F
331
2CEB6
  5
2CEBC
331
30AD9
  5
30AF0
331
2F0EC
  5
2F102
331
30DFC
  5
30EB7
331
30AC9
  5
30ADF
331
3133E
  5
31356
331
2DB65
  5
2DB7B
331
2F1C8
  5
2F1DF
331
2FFE5
  5
2FFFB
331
3132E
  5
31345
331
2FFD5
  5
2FFEB
331
30ED0
  5
2DB72
331
30B25
  5
30B3B
331
2F6C2
  5
2F6E0
331
2F938
  5
2F951
331
2C6A5
  5
2C6AB
331
31189
  5
31190
331
2E021
  5
2E037
331
30018
  5
3002E
331
31179
  5
31180
331
30F2C
  5
30F33
331
30B79
  5
30B95
331
3139C
  5
313A2
331
30F1C
  5
30F23
331
30B69
  5
30B81
331
311DD
  5
311E4
331
2F424
  5
2F443
331
3095C
  5
309CB
331
315C8
  5
315CE
331
2C799
  5
2C79F
331
311CD
  5
311D6
331
2F6FE
  5
2F718
331
30BCD
  5
30BE3
331
2E10D
  5
2E123
331
2F414
  5
2F42C
331
315B8
  5
315BE
331
30F70
  5
30F88
331
30BBD
  5
30BD3
331
31241
  5
3124C
331
2F490
  5
2F4A9
331
2E241
  5
2E257
331
2FCA0
  5
2FCC8
331
31239
  5
31244
331
2F792
  5
2F7A9
331
30C21
  5
30C37
331
2B380
  5
2B385
331
2F478
  5
2F48E
331
309D8
  5
30A1D
331
31064
  5
3109B
331
30C19
  5
30C2F
331
2F84E
  5
2F865
331
2E2F5
  5
2E30B
331
2F50C
  5
2F522
331
312AD
  5
312BF
331
2B81F
  5
2B824
331
2B464
  5
2B469
331
2E2BD
  5
2E2D3
331
2F4FC
  5
2F513
331
30A4C
  5
30A62
331
30C6D
  5
30C83
331
2B96B
  5
2B970
331
2FFB8
  5
2FFCE
331
31301
  5
31319
331
2F569
  5
2F57F
331
31118
  5
3111F
331
30C5D
  5
30C73
331
2F8AA
  5
2F8C0
331
2B4D0
  5
2B4D5
331
2F558
  5
2F56E
331
2FFA8
  5
2FFBE
331
30AA8
  5
30AC4
331
312F1
  5
31306
331
30AF8
  5
30B1D
331
2F15B
  5
2F174
331
30A98
  5
30AB4
331
30AE8
  5
30B01
331
2F675
  5
2F69D
331
2DB84
  5
2DB9A
331
2F1F7
  5
2F20D
331
2F8B3
  5
2F8C9
331
30004
  5
3001A
331
2DB74
  5
2DB8A
331
2F1D7
  5
2F1EE
331
2FFF4
  5
3000A
331
30EEF
  5
30EF6
331
30B3C
  5
30B53
331
2E0C0
  5
2E0D6
331
30EDF
  5
30EE6
331
30037
  5
3004D
331
322A9
  5
322B6
331
31198
  5
3119F
331
30F43
  5
30F4A
331
30B98
  5
30BAE
331
2F3AF
  5
2F3C5
331
2F937
  5
2F950
331
30027
  5
3003D
331
313E3
  5
3158F
331
31204
  5
3120E
331
30F3B
  5
30F42
331
30B88
  5
30BA2
331
2F725
  5
2F73E
331
2E174
  5
2E18A
331
3097B
  5
309D5
331
311EC
  5
31203
331
30BEC
  5
30C03
331
2EFAE
  5
2EFC4
331
30BDC
  5
30BF2
331
31260
  5
3126E
331
2E290
  5
2E2A6
331
31250
  5
3125D
331
2E250
  5
2E266
331
30C40
  5
30C56
331
30A17
  5
30A30
331
310EB
  5
310F2
331
30C30
  5
30C46
331
2F52B
  5
2F541
331
2ED2C
  5
2ED42
331
2FE53
  5
2FE6A
331
310DB
  5
310E2
331
312CC
  5
312E1
331
2E304
  5
2E31A
331
30A6B
  5
30A96
331
312BC
  5
312D1
331
30C8C
  5
30CA5
331
30ABB
  5
30AD3
331
2BA32
  5
2BA37
331
30A5B
  5
30A7B
331
30CA6
  5
30EAD
331
3113F
  5
31146
331
30C7C
  5
30C92
331
31320
  5
31337
331
2F630
  5
2F667
331
2FFC7
  5
2FFDD
331
2D1FC
  5
2D202
331
2F620
  5
2F636
331
2B4E7
  5
2B4EC
331
2F25E
  5
2F274
331
2FFB7
  5
2FFCD
331
30AB7
  5
30AD1
331
30EBA
  5
30ED5
331
30B07
  5
30B29
331
2B5C5
  5
2B5CA
331
2DB9B
  5
2DBB1
331
30EAA
  5
30EC3
331
30AF7
  5
30B1C
331
2F342
  5
2F35E
331
2DB93
  5
2DBA9
331
2F206
  5
2F21C
331
2F8C2
  5
2F8D9
331
3138E
  5
31394
331
2C67F
  5
2C685
331
3115B
  5
31164
331
30F0E
  5
30F15
331
30B5B
  5
30B71
331
2F700
  5
2F71A
331
3137E
  5
31384
331
311BF
  5
311C7
331
30EFE
  5
30F05
331
30B4B
  5
30B61
331
2F6F0
  5
2F706
331
2E0DF
  5
2E0F5
331
30056
  5
3095D
331
30F62
  5
30F69
331
30BAF
  5
30BC5
331
30046
  5
3005C
331
31223
  5
3123A
331
30F52
  5
30F59
331
30BA7
  5
30BBD
331
2F744
  5
2F75A
331
2F46A
  5
2F483
331
2EFE5
  5
2EFFB
331
2FC42
  5
2FC58
331
309CA
  5
30A0E
331
317E6
  5
3208D
331
31213
  5
31225
331
2F734
  5
2F74A
331
2B1F2
  5
2B1F6
331
2EFC5
  5
2EFDB
331
317D6
  5
317DC
331
3236C
  5
3237B
331
30BFB
  5
30C15
331
2F4D6
  5
2F4EC
331
2FD16
  5
2FD2D
331
30FE6
  5
30FED
331
3126F
  5
312B8
331
30A36
  5
30A4C
331
320E2
  5
32107
331
3125F
  5
3126D
331
3110A
  5
31113
331
30C4F
  5
30C65
331
2F89C
  5
2F8B4
331
30A26
  5
30A3C
331
2F54A
  5
2F560
331
312E3
  5
312F8
331
310FA
  5
31101
331
30C3F
  5
30C55
331
2F88C
  5
2F8A7
331
2F53A
  5
2F550
331
30ADA
  5
30AF1
331
30ACA
  5
30AE0
331
3133F
  5
31357
331
2F657
  5
2F67A
331
2DB66
  5
2DB7C
331
2F2B5
  5
2F2CC
331
2FFE6
  5
2FFFC
331
31351
  5
31231
331
2BAD2
  5
2BAD7
331
3132F
  5
31346
331
2B556
  5
2B55B
331
2FFD6
  5
2FFEC
331
2BAB2
  5
2BAB7
331
30B26
  5
30B3C
331
2B5F4
  5
2B5F9
331
2F6C3
  5
2F6E2
331
3118A
  5
31191
331
2F23D
  5
2F253
331
2F929
  5
2F944
331
30019
  5
3002F
331
2C69E
  5
2C6A4
331
3117A
  5
31181
331
30F2D
  5
30F34
331
3139D
  5
313A3
331
311DE
  5
311E5
331
30F1D
  5
30F24
331
30B6A
  5
30B82
331
2B698
  5
2B69D
331
2F70F
  5
2F72A
331
2B0CD
  5
2B0D1
331
2F99D
  5
2F9B5
331
3095D
  5
309CC
331
315C9
  5
315CF
331
2C79A
  5
2C7A0
331
311CE
  5
311D7
331
30BCE
  5
30BE4
331
2E10E
  5
2E124
331
2F415
  5
2F42D
331
315B9
  5
315BF
331
30F71
  5
30F8A
331
30BBE
  5
30BD4
331
31242
  5
3124D
331
2F491
  5
2F4AA
331
2E242
  5
2E258
331
2FCA1
  5
2FCC9
331
2C96E
  5
2C974
331
3123A
  5
31245
331
30C22
  5
30C38
331
2B381
  5
2B386
331
2F479
  5
2F48F
331
30C1A
  5
30C30
331
2F84F
  5
2F866
331
2E2F6
  5
2E30C
331
2F50D
  5
2F523
331
312AE
  5
312C0
331
2B820
  5
2B825
331
2E2BE
  5
2E2D4
331
2F4FD
  5
2F514
331
2F060
  5
2F076
331
30A4D
  5
30A63
331
30C98
  5
30DFC
331
30C6E
  5
30C84
331
2FFB9
  5
2FFCF
331
31302
  5
3131A
331
2F56A
  5
2F580
331
31119
  5
31120
331
30C5E
  5
30C74
331
2F8AB
  5
2F8C1
331
2B4D1
  5
2B4D6
331
2F559
  5
2F56F
331
2FFA9
  5
2FFBF
331
312F2
  5
31307
331
30AF9
  5
30B1E
331
30A99
  5
30AB5
331
30AE9
  5
30B02
331
2F676
  5
2F69E
331
2DB85
  5
2DB9B
331
2F8B4
  5
2F8CA
331
30005
  5
3001B
331
31380
  5
31386
331
3134E
  5
31330
331
2F666
  5
2F68E
331
2DB75
  5
2DB8B
331
2F2D4
  5
2F2EC
331
2FFF5
  5
3000B
331
30EF0
  5
30EF7
331
30B3D
  5
30B54
331
2B62B
  5
2B630
331
2E0C1
  5
2E0D7
331
2F3F0
  5
2F406
331
311A9
  5
311BF
331
30EE0
  5
30EE7
331
2F6D2
  5
2F6EF
331
2F948
  5
2F95E
331
30038
  5
3004E
331
31199
  5
311A0
331
30F44
  5
30F4B
331
30B99
  5
30BAF
331
30028
  5
3003E
331
31205
  5
3120F
331
30F3C
  5
30F43
331
30B89
  5
30BA3
331
2B6BF
  5
2B6C4
331
2EFB7
  5
2EFCD
331
3097C
  5
309D8
331
311ED
  5
31204
331
30FE8
  5
30FEF
331
30BED
  5
30C04
331
30974
  5
309D2
331
30BDD
  5
30BF4
331
31261
  5
3126F
331
2E291
  5
2E2A7
331
30A28
  5
30A3E
331
31251
  5
3125E
331
30C41
  5
30C57
331
2B400
  5
2B405
331
2E251
  5
2E267
331
2F4A0
  5
2F4BD
331
2F01B
  5
2F031
331
30A18
  5
30A31
331
310EC
  5
310F3
331
30C31
  5
30C47
331
2F52C
  5
2F542
331
2ED2D
  5
2ED43
331
2FE54
  5
2FE6B
331
310DC
  5
310E3
331
312CD
  5
312E2
331
2B48C
  5
2B491
331
2E305
  5
2E31B
331
2F51C
  5
2F532
331
30A6C
  5
30A97
331
312BD
  5
312D2
331
30C8D
  5
30CA6
331
30ABC
  5
30AD4
331
2BA33
  5
2BA38
331
30A5C
  5
30A7C
331
2FFD8
  5
2FFEE
331
30CA7
  5
30EAE
331
30C7D
  5
30C93
331
31321
  5
31338
331
2F631
  5
2F66B
331
2FFC8
  5
2FFDE
331
2F621
  5
2F637
331
30EBB
  5
30ED6
331
30B08
  5
30B2A
331
2DB9C
  5
2DBB2
331
2C690
  5
2C696
331
3116C
  5
31178
331
30EAB
  5
30EC4
331
2F68D
  5
2F6A7
331
2DB94
  5
2DBAA
331
2F343
  5
2F35F
331
3138F
  5
31395
331
30F0F
  5
30F16
331
30B5C
  5
30B72
331
3137F
  5
31385
331
2E120
  5
2E136
331
30EFF
  5
30F06
331
30B4C
  5
30B62
331
311C0
  5
311C8
331
2E0E0
  5
2E0F6
331
2F3FF
  5
2F415
331
30057
  5
3095E
331
30F63
  5
30F6A
331
30BB0
  5
30BC6
331
2F3EF
  5
2F405
331
30047
  5
3005D
331
30F53
  5
30F5A
331
2F745
  5
2F75B
331
2B213
  5
2B217
331
2F46B
  5
2F484
331
2FC43
  5
2FC59
331
309CB
  5
30A0F
331
2F735
  5
2F74B
331
2EFC6
  5
2EFDC
331
317D7
  5
317DD
331
312A0
  5
312BB
331
30BFC
  5
30C16
331
2F811
  5
2F828
331
30FE7
  5
30FEE
331
31270
  5
312B9
331
30C60
  5
30C76
331
2F4CF
  5
2F4E5
331
30A37
  5
30A4D
331
3110B
  5
31114
331
30C50
  5
30C66
331
2B89E
  5
2B8A3
331
2F54B
  5
2F561
331
30A27
  5
30A3D
331
2FF9B
  5
2FFB1
331
312E4
  5
312F9
331
310FB
  5
31102
331
2B88E
  5
2B893
331
2F53B
  5
2F551
331
2FE63
  5
2FE79
331
30ADB
  5
30AF2
331
30A7B
  5
30A9C
331
30ACB
  5
30AE1
331
31340
  5
31358
331
2F658
  5
2F67B
331
2DB67
  5
2DB7D
331
2F1CA
  5
2F1E1
331
2FFE7
  5
2FFFD
331
31352
  5
3125A
331
2BAD3
  5
2BAD8
331
30DCE
  5
30EB2
331
31330
  5
31347
331
2B557
  5
2B55C
331
2F1B2
  5
2F1C8
331
2FFD7
  5
2FFED
331
30B27
  5
30B3D
331
2F3CA
  5
2F3E0
331
2C6A7
  5
2C6AD
331
3118B
  5
31192
331
2EDCD
  5
2EDE3
331
2F92A
  5
2F945
331
2C69F
  5
2C6A5
331
32284
  5
32291
331
3117B
  5
31182
331
3001A
  5
30030
331
30F2E
  5
30F35
331
30B7B
  5
30B96
331
2F718
  5
2F730
331
3139E
  5
313A4
331
311DF
  5
311E6
331
30F1E
  5
30F25
331
30B6B
  5
30B83
331
2B699
  5
2B69E
331
2B0CE
  5
2B0D2
331
3095E
  5
309CD
331
311CF
  5
311D8
331
315CA
  5
315D0
331
30BCF
  5
30BE5
331
2E10F
  5
2E125
331
2B0BE
  5
2B0C2
331
315BA
  5
315C0
331
31243
  5
3124E
331
30F72
  5
30F8B
331
30BBF
  5
30BD5
331
2F7D4
  5
2F7EC
331
2E243
  5
2E259
331
2FCA2
  5
2FCCA
331
3123B
  5
31246
331
30A0A
  5
30A24
331
30C23
  5
30C39
331
2B382
  5
2B387
331
2F47A
  5
2F490
331
309DA
  5
30A1E
331
30C1B
  5
30C31
331
2B849
  5
2B84E
331
2E2F7
  5
2E30D
331
2F50E
  5
2F524
331
2CC6B
  5
2CC71
331
312AF
  5
312C1
331
2B821
  5
2B826
331
2F840
  5
2F858
331
2F4FE
  5
2F515
331
2FD26
  5
2FD3C
331
3129F
  5
312BA
331
30A4E
  5
30A64
331
30C99
  5
30E2D
331
30C6F
  5
30C85
331
2FFBA
  5
2FFD0
331
2D0D7
  5
2D0DD
331
31303
  5
31320
331
2F56B
  5
2F581
331
3111A
  5
31121
331
30C5F
  5
30C75
331
2F8AC
  5
2F8C2
331
2F55A
  5
2F570
331
2FFAA
  5
2FFC0
331
2D027
  5
2D02D
331
312F3
  5
31308
331
30AAA
  5
30AC5
331
30AFA
  5
30B1F
331
30A9A
  5
30AB6
331
30AEA
  5
30B03
331
2DB86
  5
2DB9C
331
2F8B5
  5
2F8CB
331
30006
  5
3001C
331
31381
  5
31387
331
2DB76
  5
2DB8C
331
2FFF6
  5
3000C
331
2BAE2
  5
2BAE8
331
30EF1
  5
30EF8
331
30B3E
  5
30B55
331
2B62C
  5
2B631
331
30EE1
  5
30EE8
331
2F949
  5
2F95F
331
3119A
  5
311A1
331
30039
  5
3004F
331
30F45
  5
30F4C
331
30B9A
  5
30BB0
331
2EE34
  5
2EE4F
331
30029
  5
3003F
331
31206
  5
31210
331
30F3D
  5
30F44
331
2F727
  5
2F740
331
2E176
  5
2E18C
331
2EFB8
  5
2EFCE
331
3097D
  5
309DA
331
30FE9
  5
30FF0
331
30BEE
  5
30C05
331
30975
  5
309D3
331
30BDE
  5
30BF5
331
31262
  5
31270
331
2E292
  5
2E2A8
331
2F02C
  5
2F042
331
31252
  5
3125F
331
30A29
  5
30A3F
331
2E252
  5
2E268
331
30C42
  5
30C58
331
30A19
  5
30A32
331
3208D
  5
320E2
331
310ED
  5
310F4
331
30C32
  5
30C48
331
2F877
  5
2F892
331
2ED2E
  5
2ED44
331
2F52D
  5
2F543
331
312CE
  5
312E3
331
310DD
  5
310E6
331
2F867
  5
2F880
331
2B48D
  5
2B492
331
2F51D
  5
2F533
331
2FE0D
  5
2FE23
331
312BE
  5
312D3
331
30A6D
  5
30A98
331
30DD0
  5
30EB4
331
30ABD
  5
30AD5
331
30C8E
  5
30CA7
331
2BA34
  5
2BA39
331
2FFD9
  5
2FFEF
331
30A5D
  5
30A7D
331
30C7E
  5
30C94
331
31322
  5
31339
331
2F632
  5
2F66C
331
2B501
  5
2B506
331
2FFC9
  5
2FFDF
331
2F622
  5
2F638
331
30EBC
  5
30ED7
331
30B09
  5
30B2B
331
2DB9D
  5
2DBB3
331
2F904
  5
2F91A
331
3223E
  5
32284
331
2F68E
  5
2F6A8
331
313A0
  5
313A6
331
30EAC
  5
30EC5
331
2DB95
  5
2DBAB
331
31390
  5
31396
331
2C681
  5
2C687
331
30B5D
  5
30B73
331
30F10
  5
30F17
331
2F418
  5
2F430
331
2E121
  5
2E137
331
2F980
  5
2F99B
331
311C1
  5
311C9
331
2B63B
  5
2B640
331
2F6F2
  5
2F708
331
30B4D
  5
30B63
331
30F00
  5
30F07
331
2E0E1
  5
2E0F7
331
30058
  5
3095F
331
2C6DD
  5
2C6E3
331
30BB1
  5
30BC7
331
30F64
  5
30F6B
331
30048
  5
3005E
331
2F746
  5
2F75C
331
30F54
  5
30F5B
331
2E20D
  5
2E223
331
31215
  5
31232
331
309CC
  5
30A10
331
2E1ED
  5
2E203
331
2EFC7
  5
2EFDD
331
317D8
  5
317DE
331
312A1
  5
312BC
331
30BFD
  5
30C17
331
2B813
  5
2B818
331
2F812
  5
2F829
331
30A40
  5
30A56
331
30C61
  5
30C77
331
30A38
  5
30A4E
331
2B89F
  5
2B8A4
331
30C51
  5
30C67
331
3110C
  5
31115
331
2F54C
  5
2F562
331
2FF9C
  5
2FFB2
331
312E5
  5
312FA
331
310FC
  5
31103
331
2F53C
  5
2F552
331
30ADC
  5
30AF3
331
2B49C
  5
2B4A1
331
2FFF8
  5
3000E
331
30A7C
  5
30A9D
331
31140
  5
31150
331
31341
  5
31359
331
30ACC
  5
30AE2
331
2B562
  5
2B567
331
2F659
  5
2F67C
331
2DB68
  5
2DB7E
331
2F1CB
  5
2F1E2
331
2FFE8
  5
2FFFE
331
31331
  5
31348
331
2F649
  5
2F678
331
31353
  5
31279
331
30DCF
  5
30EB3
331
2DAE0
  5
2DAE6
331
30B30
  5
30B47
331
2F6C5
  5
2F6E3
331
30B28
  5
30B3E
331
30ED3
  5
30EDA
331
2E06C
  5
2E082
331
3118C
  5
31193
331
2F6B5
  5
2F6D6
331
2F23F
  5
2F255
331
3117C
  5
31183
331
3001B
  5
30031
331
2F719
  5
2F731
331
30B7C
  5
30B97
331
30F2F
  5
30F36
  0
XRECORD
  5
32C9F
102
{ACAD_REACTORS
330
32C9E
102
}
330
32C9E
100
AcDbXrecord
340
1A
  0
MLINESTYLE
  5
17
102
{ACAD_REACTORS
330
16
102
}
330
16
100
AcDbMlineStyle
  2
STANDARD
 70
     0
  3

 62
   256
 51
90.0
 52
90.0
 71
     2
 49
0.5
 62
   256
  6
BYLAYER
 49
-0.5
 62
   256
  6
BYLAYER
  0
ACDBPLACEHOLDER
  5
F
102
{ACAD_REACTORS
330
E
102
}
330
E
100
AcDbPlaceHolder
280
     0
  0
ACAD_PROXY_OBJECT
  5
1303
102
{ACAD_REACTORS
330
1302
102
}
330
1302
100
AcDbProxyObject
 90
      499
 91
      506
 93
     1841
310
4214DD185B99185C9928B81E85EB51B8AE3F2E07A17AD46E2B8FC02B5E8DC0F42B1CFD028000000C1008070000C3001FDFF8000000C1003FBFF000000182007F7FE00000030400FEFFC00000060801FDFF8000000C1003FBFF00000018200000000000000681FA0B0000001820100E000186003FBFF000000182007F7FE000
310
00030400FEFFC00000060801FDFF8000000C1003FBFF000000182007F7FE000000304000AD7A3703D0AC73F4160000003040201C00030C007F7FE00000030400FEFFC00000060801FDFF8000000C1003FBFF000000182007F7FE00000030400FEFFC000000608043
340
11
340
11
340
11
 94
        0
1001
ACAD
1000
AcadProxyRoundTripData
1071
      503
1071
   655383
1070
     0
  0
XRECORD
  5
32C87
102
{ACAD_REACTORS
330
32C7D
102
}
330
32C7D
100
AcDbXrecord
 90
        0
  0
XRECORD
  5
32C8B
102
{ACAD_REACTORS
330
32C7D
102
}
330
32C7D
100
AcDbXrecord
1000
DSTYLE
1002
{
1070
   289
 70
     0
1070
   342
340
530
1002
}
  0
XRECORD
  5
32C88
102
{ACAD_REACTORS
330
32C7D
102
}
330
32C7D
100
AcDbXrecord
  1
{C814BBB0-13E5-4952-A5F4-981BF75BEF75}
  0
XRECORD
  5
32C80
102
{ACAD_REACTORS
330
32C7D
102
}
330
32C7D
100
AcDbXrecord
  1

  0
XRECORD
  5
32C86
102
{ACAD_REACTORS
330
32C7D
102
}
330
32C7D
100
AcDbXrecord
 90
        0
  0
XRECORD
  5
32C82
102
{ACAD_REACTORS
330
32C7D
102
}
330
32C7D
100
AcDbXrecord
340
19
  0
XRECORD
  5
32C85
102
{ACAD_REACTORS
330
32C7D
102
}
330
32C7D
100
AcDbXrecord
 90
    10781
  0
XRECORD
  5
32C83
102
{ACAD_REACTORS
330
32C7D
102
}
330
32C7D
100
AcDbXrecord
340
18
  0
XRECORD
  5
32C84
102
{ACAD_REACTORS
330
32C7D
102
}
330
32C7D
100
AcDbXrecord
340
E
  0
XRECORD
  5
32C8A
102
{ACAD_REACTORS
330
32C7D
102
}
330
32C7D
100
AcDbXrecord
 40
0.0
  0
XRECORD
  5
32C8E
102
{ACAD_REACTORS
330
32C7D
102
}
330
32C7D
100
AcDbXrecord
340
0
  0
XRECORD
  5
32C94
102
{ACAD_REACTORS
330
32C7D
102
}
330
32C7D
100
AcDbXrecord
 10
0.0
 20
0.0
 30
0.0
  0
XRECORD
  5
32C90
102
{ACAD_REACTORS
330
32C7D
102
}
330
32C7D
100
AcDbXrecord
 10
0.0
 20
0.0
 30
0.0
  0
XRECORD
  5
32C93
102
{ACAD_REACTORS
330
32C7D
102
}
330
32C7D
100
AcDbXrecord
 10
0.0
 20
0.0
 30
0.0
  0
XRECORD
  5
32C91
102
{ACAD_REACTORS
330
32C7D
102
}
330
32C7D
100
AcDbXrecord
 10
0.0
 20
0.0
 30
0.0
  0
XRECORD
  5
32C92
102
{ACAD_REACTORS
330
32C7D
102
}
330
32C7D
100
AcDbXrecord
 10
0.0
 20
0.0
 30
0.0
  0
XRECORD
  5
32C8F
102
{ACAD_REACTORS
330
32C7D
102
}
330
32C7D
100
AcDbXrecord
 10
0.0
 20
0.0
 30
0.0
  0
XRECORD
  5
32C8C
102
{ACAD_REACTORS
330
32C7D
102
}
330
32C7D
100
AcDbXrecord
340
0
  0
XRECORD
  5
32C8D
102
{ACAD_REACTORS
330
32C7D
102
}
330
32C7D
100
AcDbXrecord
 70
     0
  0
XRECORD
  5
32C81
102
{ACAD_REACTORS
330
32C7D
102
}
330
32C7D
100
AcDbXrecord
  1

  0
XRECORD
  5
32C7E
102
{ACAD_REACTORS
330
32C7D
102
}
330
32C7D
100
AcDbXrecord
 90
        1
  0
XRECORD
  5
32C7F
102
{ACAD_REACTORS
330
32C7D
102
}
330
32C7D
100
AcDbXrecord
 90
       70
  0
XRECORD
  5
32C97
102
{ACAD_REACTORS
330
32C7D
102
}
330
32C7D
100
AcDbXrecord
340
0
  0
XRECORD
  5
32C9D
102
{ACAD_REACTORS
330
32C7D
102
}
330
32C7D
100
AcDbXrecord
 10
0.0
 20
0.0
 30
0.0
  0
XRECORD
  5
32C99
102
{ACAD_REACTORS
330
32C7D
102
}
330
32C7D
100
AcDbXrecord
 10
0.0
 20
0.0
 30
0.0
  0
XRECORD
  5
32C9C
102
{ACAD_REACTORS
330
32C7D
102
}
330
32C7D
100
AcDbXrecord
 10
0.0
 20
0.0
 30
0.0
  0
XRECORD
  5
32C9A
102
{ACAD_REACTORS
330
32C7D
102
}
330
32C7D
100
AcDbXrecord
 10
0.0
 20
0.0
 30
0.0
  0
XRECORD
  5
32C9B
102
{ACAD_REACTORS
330
32C7D
102
}
330
32C7D
100
AcDbXrecord
 10
0.0
 20
0.0
 30
0.0
  0
XRECORD
  5
32C98
102
{ACAD_REACTORS
330
32C7D
102
}
330
32C7D
100
AcDbXrecord
 10
0.0
 20
0.0
 30
0.0
  0
XRECORD
  5
32C95
102
{ACAD_REACTORS
330
32C7D
102
}
330
32C7D
100
AcDbXrecord
340
0
  0
XRECORD
  5
32C96
102
{ACAD_REACTORS
330
32C7D
102
}
330
32C7D
100
AcDbXrecord
 70
     0
  0
XRECORD
  5
32C89
102
{ACAD_REACTORS
330
32C7D
102
}
330
32C7D
100
AcDbXrecord
  1
{3523429D-B65A-4080-9AB7-4B1F4BC0F23F}
  0
DICTIONARYVAR
  5
1308
102
{ACAD_REACTORS
330
1307
102
}
330
1307
100
DictionaryVariables
280
     0
  1
STANDARD
  0
DICTIONARYVAR
  5
25D2C
102
{ACAD_REACTORS
330
1307
102
}
330
1307
100
DictionaryVariables
280
     0
  1
1
  0
DICTIONARYVAR
  5
25D2D
102
{ACAD_REACTORS
330
1307
102
}
330
1307
100
DictionaryVariables
280
     0
  1

  0
ENDSEC
  0
EOF
