  0
SECTION
  2
HEADER
  9
$ACADVER
  1
AC1009
  9
$INSBASE
 10
0.0
 20
0.0
 30
0.0
  9
$EXTMIN
 10
-959.56451579122233
 20
-574.45128846608156
 30
-0.0015258207003583
  9
$EXTMAX
 10
872.05403158770775
 20
880.06340980588357
 30
0.0000000349246037
  9
$LIMMIN
 10
-1046.770216743138
 20
-627.92209805017399
  9
$LIMMAX
 10
907.25845865028157
 20
997.05630980688147
  9
$ORTHOMODE
 70
     1
  9
$REGENMODE
 70
     1
  9
$FILLMODE
 70
     1
  9
$QTEXTMODE
 70
     0
  9
$MIRRTEXT
 70
     0
  9
$DRAGMODE
 70
     2
  9
$LTSCALE
 40
1.0
  9
$OSMODE
 70
   119
  9
$ATTMODE
 70
     1
  9
$TEXTSIZE
 40
0.2
  9
$TRACEWID
 40
1.0
  9
$TEXTSTYLE
  7
STANDARD
  9
$CLAYER
  8
DETAIL
  9
$CELTYPE
  6
ByLayer
  9
$CECOLOR
 62
   256
  9
$DIMSCALE
 40
1.0
  9
$DIMASZ
 40
3.8637029999999992
  9
$DIMEXO
 40
1.0
  9
$DIMDLI
 40
7.5
  9
$DIMRND
 40
0.0
  9
$DIMDLE
 40
0.0
  9
$DIMEXE
 40
2.0
  9
$DIMTP
 40
0.0
  9
$DIMTM
 40
0.0
  9
$DIMTXT
 40
2.7999999999999989
  9
$DIMCEN
 40
0.09
  9
$DIMTSZ
 40
0.0
  9
$DIMTOL
 70
     0
  9
$DIMLIM
 70
     0
  9
$DIMTIH
 70
     1
  9
$DIMTOH
 70
     0
  9
$DIMSE1
 70
     0
  9
$DIMSE2
 70
     0
  9
$DIMTAD
 70
     1
  9
$DIMZIN
 70
     1
  9
$DIMBLK
  1

  9
$DIMASO
 70
     1
  9
$DIMSHO
 70
     1
  9
$DIMPOST
  1

  9
$DIMAPOST
  1

  9
$DIMALT
 70
     0
  9
$DIMALTD
 70
     2
  9
$DIMALTF
 40
0.3939999999999999
  9
$DIMLFAC
 40
1.0
  9
$DIMTOFL
 70
     1
  9
$DIMTVP
 40
0.0
  9
$DIMTIX
 70
     0
  9
$DIMSOXD
 70
     0
  9
$DIMSAH
 70
     0
  9
$DIMBLK1
  1

  9
$DIMBLK2
  1

  9
$DIMSTYLE
  2
STANDARD
  9
$DIMCLRD
 70
     0
  9
$DIMCLRE
 70
     0
  9
$DIMCLRT
 70
     0
  9
$DIMTFAC
 40
1.0
  9
$DIMGAP
 40
0.09
  9
$LUNITS
 70
     2
  9
$LUPREC
 70
     3
  9
$SKETCHINC
 40
1.0
  9
$FILLETRAD
 40
103.0
  9
$AUNITS
 70
     0
  9
$AUPREC
 70
     2
  9
$MENU
  1
acad
  9
$ELEVATION
 40
0.0
  9
$PELEVATION
 40
0.0
  9
$THICKNESS
 40
0.0
  9
$LIMCHECK
 70
     0
  9
$BLIPMODE
 70
     0
  9
$CHAMFERA
 40
0.0
  9
$CHAMFERB
 40
0.0
  9
$SKPOLY
 70
     0
  9
$TDCREATE
 40
2451523.0
  9
$TDUPDATE
 40
2453726.8223113772
  9
$TDINDWG
 40
0.200836956
  9
$TDUSRTIMER
 40
0.2008358681
  9
$USRTIMER
 70
     1
  9
$ANGBASE
 50
0.0
  9
$ANGDIR
 70
     0
  9
$PDMODE
 70
     0
  9
$PDSIZE
 40
0.0
  9
$PLINEWID
 40
0.0
  9
$COORDS
 70
     0
  9
$SPLFRAME
 70
     0
  9
$SPLINETYPE
 70
     6
  9
$SPLINESEGS
 70
    20
  9
$ATTDIA
 70
     0
  9
$ATTREQ
 70
     1
  9
$HANDLING
 70
-16383
  9
$HANDSEED
  5
3216
  9
$SURFTAB1
 70
     6
  9
$SURFTAB2
 70
     6
  9
$SURFTYPE
 70
     6
  9
$SURFU
 70
     6
  9
$SURFV
 70
     6
  9
$UCSNAME
  2

  9
$UCSORG
 10
0.0
 20
0.0
 30
0.0
  9
$UCSXDIR
 10
1.0
 20
0.0
 30
0.0
  9
$UCSYDIR
 10
0.0
 20
1.0
 30
0.0
  9
$PUCSNAME
  2

  9
$PUCSORG
 10
0.0
 20
0.0
 30
0.0
  9
$PUCSXDIR
 10
1.0
 20
0.0
 30
0.0
  9
$PUCSYDIR
 10
0.0
 20
1.0
 30
0.0
  9
$USERI1
 70
     0
  9
$USERI2
 70
     0
  9
$USERI3
 70
     0
  9
$USERI4
 70
     0
  9
$USERI5
 70
     0
  9
$USERR1
 40
0.0
  9
$USERR2
 40
0.0
  9
$USERR3
 40
0.0
  9
$USERR4
 40
0.0
  9
$USERR5
 40
0.0
  9
$WORLDVIEW
 70
     1
  9
$SHADEDGE
 70
     3
  9
$SHADEDIF
 70
    70
  9
$TILEMODE
 70
     1
  9
$MAXACTVP
 70
    64
  9
$PLIMCHECK
 70
     0
  9
$PEXTMIN
 10
1.0000000000000000E+020
 20
1.0000000000000000E+020
 30
1.0000000000000000E+020
  9
$PEXTMAX
 10
-1.0000000000000000E+020
 20
-1.0000000000000000E+020
 30
-1.0000000000000000E+020
  9
$PLIMMIN
 10
0.0
 20
0.0
  9
$PLIMMAX
 10
12.0
 20
9.0
  9
$UNITMODE
 70
     0
  9
$VISRETAIN
 70
     1
  9
$PLINEGEN
 70
     0
  9
$PSLTSCALE
 70
     1
  0
ENDSEC
  0
SECTION
  2
TABLES
  0
TABLE
  2
VPORT
 70
     4
  0
VPORT
  2
*ACTIVE
 70
     0
 10
0.0
 20
0.0
 11
1.0
 21
1.0
 12
57.054236654492797
 22
265.2397925867744
 13
0.0
 23
0.0
 14
5.0
 24
5.0
 15
5.0
 25
5.0
 16
0.0
 26
0.0
 36
1.0
 17
0.0
 27
0.0
 37
0.0
 40
2255.954055774635
 41
1.314578005115089
 42
50.0
 43
0.0
 44
0.0
 50
0.0
 51
0.0
 71
     0
 72
   100
 73
     1
 74
     1
 75
     0
 76
     0
 77
     0
 78
     0
  0
ENDTAB
  0
TABLE
  2
LTYPE
 70
     4
  0
LTYPE
  2
ByBlock
 70
     0
  3

 72
    65
 73
     0
 40
0.0
  0
LTYPE
  2
ByLayer
 70
     0
  3

 72
    65
 73
     0
 40
0.0
  0
LTYPE
  2
CONTINUOUS
 70
     0
  3
CONTINUOUS
 72
    65
 73
     0
 40
0.0
  0
LTYPE
  2
DASHDOT
 70
     0
  3
DASHDOT
 72
    65
 73
     4
 40
1.0
 49
0.5
 49
-0.25
 49
0.0
 49
-0.25
  0
ENDTAB
  0
TABLE
  2
LAYER
 70
    10
  0
LAYER
  2
0
 70
     0
 62
     7
  6
CONTINUOUS
  0
LAYER
  2
OUTLINE
 70
     0
 62
     3
  6
CONTINUOUS
  0
LAYER
  2
DETAIL
 70
     0
 62
     5
  6
CONTINUOUS
  0
LAYER
  2
BASIS
 70
     0
 62
     6
  6
DASHDOT
  0
LAYER
  2
SIZE
 70
     0
 62
    32
  6
CONTINUOUS
  0
LAYER
  2
NOTE
 70
     0
 62
     4
  6
CONTINUOUS
  0
LAYER
  2
ARRANGE
 70
     0
 62
     1
  6
CONTINUOUS
  0
LAYER
  2
FIX
 70
     0
 62
   241
  6
CONTINUOUS
  0
LAYER
  2
ETC
 70
     0
 62
    83
  6
CONTINUOUS
  0
LAYER
  2
DEFPOINTS
 70
     0
 62
     7
  6
CONTINUOUS
  0
ENDTAB
  0
TABLE
  2
STYLE
 70
     1
  0
STYLE
  2
STANDARD
 70
     0
 40
0.0
 41
1.0
 50
0.0
 71
     0
 42
0.2
  3
txt
  4
bigfont.shx
  0
ENDTAB
  0
TABLE
  2
VIEW
 70
     0
  0
ENDTAB
  0
TABLE
  2
UCS
 70
     0
  0
ENDTAB
  0
TABLE
  2
APPID
 70
     1
  0
APPID
  2
ACAD
 70
     0
  0
ENDTAB
  0
TABLE
  2
DIMSTYLE
 70
     1
  0
DIMSTYLE
  2
STANDARD
 70
     0
  3

  4

  5

  6

  7

 40
1.0
 41
0.18
 42
0.0625
 43
0.38
 44
0.18
 45
0.0
 46
0.0
 47
0.0
 48
0.0
140
0.18
141
0.09
142
0.0
143
25.399999999999999
144
1.0
145
0.0
146
1.0
147
0.09
 71
     0
 72
     0
 73
     1
 74
     1
 75
     0
 76
     0
 77
     0
 78
     0
170
     0
171
     2
172
     0
173
     0
174
     0
175
     0
176
     0
177
     0
178
     0
  0
ENDTAB
  0
ENDSEC
  0
SECTION
  2
BLOCKS
  0
BLOCK
  8
0
  2
$MODEL_SPACE
 70
     0
 10
0.0
 20
0.0
 30
0.0
  3
$MODEL_SPACE
  1

  0
ENDBLK
  5
20
  8
0
  0
BLOCK
 67
     1
  8
0
  2
$PAPER_SPACE
 70
     0
 10
0.0
 20
0.0
 30
0.0
  3
$PAPER_SPACE
  1

  0
ENDBLK
  5
1C
 67
     1
  8
0
  0
ENDSEC
  0
SECTION
  2
ENTITIES
  0
LINE
  5
402
  8
NOTE
 10
467.95105999999981
 20
324.98844999999977
 30
0.0
 11
1.5
 21
160.50001999999989
 31
0.0
  0
LINE
  5
403
  8
NOTE
 10
472.21560999999969
 20
189.13880999999989
 30
0.0
 11
0.5
 21
106.50001999999991
 31
0.0
  0
LINE
  5
404
  8
SIZE
 10
125.5
 20
309.87533999999999
 30
0.0
 11
290.26224999999971
 21
309.87533999999999
 31
0.0
  0
TEXT
  5
405
  8
SIZE
 10
146.05223000000021
 20
341.87532999999979
 30
0.0
 40
64.0
  1
126
 41
1.071428571428571
 72
     5
 11
306.05223000000018
 21
341.87532999999979
 31
0.0
  0
LINE
  5
408
  8
NOTE
 10
1.5
 20
180.50001999999989
 30
0.0
 11
1.5
 21
140.50001999999989
 31
0.0
  0
LINE
  5
40B
  8
SIZE
 10
-422.59294681999921
 20
12.0
 30
0.0
 11
-422.59294681999921
 21
278.0
 31
0.0
  0
TEXT
  5
40C
  8
SIZE
 10
-443.85043680905261
 20
70.942860000000096
 30
0.0
 40
64.0
  1
270
 50
90.000003580986117
 72
     5
 11
-443.85044680905219
 21
230.94286000000011
 31
0.0
  0
LINE
  5
40D
  8
SIZE
 10
-555.35796681999909
 20
2.0
 30
0.0
 11
-555.35796681999909
 21
538.0
 31
0.0
  0
LINE
  5
40F
  8
BASIS
 10
0.0
 20
-60.983200000000117
 30
0.0
 11
0.0
 21
585.20061999999996
 31
0.0
  0
LINE
  5
410
  8
DETAIL
 10
39.5
 20
40.0
 30
0.0
 11
39.5
 21
220.0
 31
0.0
  0
LINE
  5
411
  8
DETAIL
 10
-70.5
 20
40.0
 30
0.0
 11
-70.5
 21
381.76116415743138
 31
0.0
  0
LINE
  5
412
  8
DETAIL
 10
127.5
 20
540.0
 30
0.0
 11
127.5
 21
10.0
 31
0.0
  0
LINE
  5
413
  8
DETAIL
 10
-127.5
 20
540.0
 30
0.0
 11
-127.5
 21
10.0
 31
0.0
  0
LINE
  5
417
  8
SIZE
 10
-294.16185681999917
 20
10.0
 30
0.0
 11
-452.59294681999933
 21
10.0
 31
0.0
  0
LINE
  5
418
  8
SIZE
 10
-294.16185681999917
 20
0.0
 30
0.0
 11
-452.59294681999933
 21
0.0
 31
0.0
  0
LINE
  5
419
  8
SIZE
 10
-158.88065748661211
 20
10.0
 30
0.0
 11
-452.59294681999933
 21
10.0
 31
0.0
  0
LINE
  5
41A
  8
SIZE
 10
-164.47642076029109
 20
0.0
 30
0.0
 11
-585.35796681999909
 21
0.0
 31
0.0
  0
LINE
  5
41B
  8
SIZE
 10
-422.59294681999921
 20
2.0
 30
0.0
 11
-422.59294681999921
 21
-134.05447000000001
 31
0.0
  0
TEXT
  5
41C
  8
SIZE
 10
-444.56106242408532
 20
-133.8966199999999
 30
0.0
 40
64.0
  1
10
 50
90.000005371479034
 41
1.428571473214292
 72
     5
 11
-444.56107242408501
 21
-27.229949999999921
 31
0.0
  0
CIRCLE
  5
41E
  8
SIZE
 10
-422.59294681999921
 20
10.0
 30
0.0
 40
6.0
  0
CIRCLE
  5
41F
  8
SIZE
 10
-422.59294681999921
 20
10.0
 30
0.0
 40
6.0
  0
CIRCLE
  5
420
  8
SIZE
 10
-422.59294681999921
 20
0.0
 30
0.0
 40
6.0
  0
LINE
  5
421
  8
SIZE
 10
-422.59294681999921
 20
2.0
 30
0.0
 11
-422.59294681999921
 21
5.0
 31
0.0
  0
LINE
  5
422
  8
SIZE
 10
-422.59294681999921
 20
8.0
 30
0.0
 11
-422.59294681999921
 21
5.0
 31
0.0
  0
LINE
  5
431
  8
DETAIL
 10
-60.5
 20
30.0
 30
0.0
 11
29.5
 21
30.0
 31
0.0
  0
LINE
  5
436
  8
SIZE
 10
-19.5
 20
106.50001999999991
 30
0.0
 11
-229.50921127569561
 21
106.50001999999991
 31
0.0
  0
LINE
  5
438
  8
SIZE
 10
-180.0
 20
0.0
 30
0.0
 11
-242.19653000000011
 21
0.0
 31
0.0
  0
ARC
  5
43E
  8
DETAIL
 10
-60.5
 20
40.0
 30
0.0
 40
10.0
 50
180.0
 51
270.0
  0
CIRCLE
  5
445
  8
ARRANGE
 10
0.0
 20
0.0
 30
0.0
 40
40.0
  0
ARC
  5
446
  8
DETAIL
 10
29.5
 20
40.0
 30
0.0
 40
10.0
 50
270.0
 51
0.0
  0
POINT
  5
447
  8
ARRANGE
 10
0.0
 20
0.0
 30
0.0
  0
LINE
  5
448
  8
NOTE
 10
0.5
 20
106.50001999999991
 30
0.0
 11
40.397009999999682
 21
103.63148
 31
0.0
  0
LINE
  5
449
  8
NOTE
 10
0.5
 20
106.50001999999991
 30
0.0
 11
36.486100000000079
 21
123.96429999999999
 31
0.0
  0
LINE
  5
44A
  8
NOTE
 10
0.5
 20
126.50001999999991
 30
0.0
 11
0.5
 21
86.50001999999995
 31
0.0
  0
LINE
  5
44B
  8
NOTE
 10
-19.5
 20
106.50001999999991
 30
0.0
 11
20.5
 21
106.50001999999991
 31
0.0
  0
LINE
  5
458
  8
SIZE
 10
-145.49997999999999
 20
674.29862999999978
 30
0.0
 11
-335.17497160942543
 21
674.29862999999978
 31
0.0
  0
LINE
  5
459
  8
SIZE
 10
-212.94895719607121
 20
280.0
 30
0.0
 11
-452.59294681999933
 21
280.0
 31
0.0
  0
LINE
  5
45A
  8
SIZE
 10
-139.97609399901009
 20
540.0
 30
0.0
 11
-585.35796681999909
 21
540.0
 31
0.0
  0
TEXT
  5
45B
  8
SIZE
 10
-575.08080252177649
 20
195.94286000000011
 30
0.0
 40
64.0
  1
540
 50
90.000007161972405
 72
     5
 11
-575.08082252177655
 21
355.94286000000011
 31
0.0
  0
CIRCLE
  5
45C
  8
SIZE
 10
-422.59294681999921
 20
280.0
 30
0.0
 40
6.0
  0
CIRCLE
  5
45D
  8
SIZE
 10
-555.35796681999909
 20
540.0
 30
0.0
 40
6.0
  0
LINE
  5
45E
  8
SIZE
 10
127.5
 20
561.00003999999979
 30
0.0
 11
127.5
 21
704.29862999999978
 31
0.0
  0
LINE
  5
45F
  8
SIZE
 10
-127.49997999999999
 20
561.00003999999979
 30
0.0
 11
-127.49997999999999
 21
704.29862999999978
 31
0.0
  0
LINE
  5
460
  8
SIZE
 10
-127.49997999999999
 20
581.00003999999979
 30
0.0
 11
-127.49997999999999
 21
704.29862999999978
 31
0.0
  0
LINE
  5
461
  8
SIZE
 10
-148.29997999999989
 20
512.98208915514488
 30
0.0
 11
-148.29997999999989
 21
704.29862999999978
 31
0.0
  0
LINE
  5
463
  8
DETAIL
 10
-70.5
 20
230.0
 30
0.0
 11
29.5
 21
230.0
 31
0.0
  0
LINE
  5
465
  8
DETAIL
 10
-127.5
 20
540.0
 30
0.0
 11
127.5
 21
540.0
 31
0.0
  0
LINE
  5
466
  8
SIZE
 10
-18.5
 20
160.50001999999989
 30
0.0
 11
-337.68025921833208
 21
160.50001999999989
 31
0.0
  0
LINE
  5
467
  8
BASIS
 10
-201.35116000000011
 20
280.0
 30
0.0
 11
-58.14343000000008
 21
280.0
 31
0.0
  0
LINE
  5
46B
  8
DETAIL
 10
19.5
 20
230.0
 30
0.0
 11
19.5
 21
383.67357567553898
 31
0.0
  0
LINE
  5
46C
  8
SIZE
 10
125.5
 20
309.87533999999999
 30
0.0
 11
58.5
 21
309.87533999999999
 31
0.0
  0
LINE
  5
46D
  8
SIZE
 10
1.5
 20
195.15114643378411
 30
0.0
 11
1.5
 21
340.0264864337841
 31
0.0
  0
LINE
  5
46E
  8
NOTE
 10
1.5
 20
160.50001999999989
 30
0.0
 11
41.460950000000139
 21
162.26696999999959
 31
0.0
  0
LINE
  5
46F
  8
NOTE
 10
1.5
 20
160.50001999999989
 30
0.0
 11
35.223730000000153
 21
182.01072000000019
 31
0.0
  0
LINE
  5
470
  8
NOTE
 10
-18.5
 20
160.50001999999989
 30
0.0
 11
21.499999999999989
 21
160.50001999999989
 31
0.0
  0
ARC
  5
471
  8
DETAIL
 10
29.5
 20
220.0
 30
0.0
 40
10.0
 50
0.0
 51
90.0
  0
LINE
  5
472
  8
SIZE
 10
1.5
 20
309.87533999999982
 30
0.0
 11
58.5
 21
309.87533999999999
 31
0.0
  0
CIRCLE
  5
473
  8
SIZE
 10
1.5
 20
310.0264864337841
 30
0.0
 40
6.0
  0
LINE
  5
474
  8
SIZE
 10
127.5
 20
173.29858999999979
 30
0.0
 11
127.5
 21
465.42458530859801
 31
0.0
  0
CIRCLE
  5
475
  8
SIZE
 10
127.5
 20
309.87533999999999
 30
0.0
 40
6.0
  0
LINE
  5
477
  8
SIZE
 10
-125.49997999999999
 20
674.29862999999978
 30
0.0
 11
0.0000099999997474
 21
674.29862999999978
 31
0.0
  0
TEXT
  5
478
  8
SIZE
 10
-74.057119999999941
 20
706.29863999999986
 30
0.0
 40
64.0
  1
255
 41
0.9375
 72
     5
 11
85.942880000000045
 21
706.29863999999986
 31
0.0
  0
TEXT
  5
479
  8
SIZE
 10
-326.16178372944518
 20
706.29863999999986
 30
0.0
 40
64.0
  1
20.8
 41
0.8987455352726755
 72
     5
 11
-163.1892600000001
 21
706.29863999999986
 31
0.0
  0
LINE
  5
47A
  8
SIZE
 10
-129.49997999999999
 20
674.29862999999978
 30
0.0
 11
-137.49997999999999
 21
674.29862999999978
 31
0.0
  0
CIRCLE
  5
47B
  8
SIZE
 10
-148.29997999999989
 20
674.29862999999978
 30
0.0
 40
6.0
  0
LINE
  5
47C
  8
SIZE
 10
-145.49997999999999
 20
674.29862999999978
 30
0.0
 11
-137.49997999999999
 21
674.29862999999978
 31
0.0
  0
CIRCLE
  5
47D
  8
SIZE
 10
-127.49997999999999
 20
674.29862999999978
 30
0.0
 40
6.0
  0
CIRCLE
  5
47E
  8
SIZE
 10
-127.49997999999999
 20
674.29862999999978
 30
0.0
 40
6.0
  0
LINE
  5
47F
  8
SIZE
 10
125.5
 20
674.29862999999978
 30
0.0
 11
0.0000099999997474
 21
674.29862999999978
 31
0.0
  0
CIRCLE
  5
480
  8
SIZE
 10
127.5
 20
674.29862999999978
 30
0.0
 40
6.0
  0
TEXT
  5
486
  8
NOTE
 10
446.50921999999991
 20
351.22994000000011
 30
0.0
 40
64.0
  1
RL%%C6.35
 41
0.9
  0
TEXT
  5
487
  8
NOTE
 10
458.45377999999982
 20
214.4232999999999
 30
0.0
 40
64.0
  1
RG%%C9.52
 41
0.9
  0
LINE
  5
488
  8
NOTE
 10
467.95105999999981
 20
324.98844999999977
 30
0.0
 11
839.33465999999987
 21
324.98844999999977
 31
0.0
  0
LINE
  5
489
  8
NOTE
 10
472.21560999999969
 20
189.13880999999989
 30
0.0
 11
871.79728999999952
 21
189.13880999999989
 31
0.0
  0
TEXT
  5
48A
  8
ETC
 10
299.6930200000001
 20
815.89251999999976
 30
0.0
 40
64.0
  1
室外機
  0
TEXT
  5
6A4
  8
ETC
 10
269.59572216348619
 20
702.97794890515229
 30
0.0
 40
64.0
  1
SMUZ3424
 41
0.8695652241847827
 72
     5
 11
696.26239216348631
 21
702.97794890515229
 31
0.0
  0
ARC
  5
2D84
  8
DETAIL
 10
-64.18477855400215
 20
444.7255719712075
 30
0.0
 40
4.999999999999968
 50
113.7232161915724
 51
180.0
  0
ARC
  5
2D85
  8
DETAIL
 10
13.184778554027609
 20
444.7255719712075
 30
0.0
 40
4.9999999999998748
 50
0.0
 51
66.27678380847523
  0
ARC
  5
2D86
  8
DETAIL
 10
8.1847785540276163
 20
435.83113895394052
 30
0.0
 40
9.9999999999997122
 50
278.86753551330457
 51
0.0
  0
ARC
  5
2D87
  8
DETAIL
 10
-59.18477855400215
 20
435.83113895394052
 30
0.0
 40
9.9999999999997513
 50
180.0
 51
261.13246448669321
  0
ARC
  5
2D88
  8
DETAIL
 10
-25.499999999988169
 20
268.7841221932344
 30
0.0
 40
164.55401963159011
 50
77.36688088178758
 51
102.63311911821241
  0
ARC
  5
2D89
  8
DETAIL
 10
-25.499999999988169
 20
651.73794026304313
 30
0.0
 40
228.51867462018021
 50
261.13246448669531
 51
278.86753551330457
  0
LINE
  5
2D8A
  8
DETAIL
 10
-69.18477855400215
 20
444.7255719712075
 30
0.0
 11
-69.18477855400215
 21
435.83113895394052
 31
0.0
  0
LINE
  5
2DB4
  8
DETAIL
 10
-65.5
 20
475.02276232349459
 30
0.0
 11
14.5
 21
475.02276232349459
 31
0.0
  0
LINE
  5
2DB6
  8
DETAIL
 10
19.5
 20
470.02276232349482
 30
0.0
 11
19.5
 21
383.67357567553898
 31
0.0
  0
ARC
  5
2DBC
  8
DETAIL
 10
14.5
 20
470.02276232349482
 30
0.0
 40
4.9999999999998748
 50
0.0
 51
90.0
  0
LINE
  5
2DBD
  8
DETAIL
 10
-70.5
 20
470.02276232349482
 30
0.0
 11
-70.5
 21
381.76116415743138
 31
0.0
  0
ARC
  5
2DBE
  8
DETAIL
 10
-65.5
 20
470.02276232349482
 30
0.0
 40
4.9999999999998748
 50
90.0
 51
180.0
  0
ARC
  5
2DD2
  8
DETAIL
 10
-25.499999999988169
 20
752.93028175282711
 30
0.0
 40
289.03823656204497
 50
263.15617066279719
 51
276.84382933720269
  0
ARC
  5
2DD3
  8
DETAIL
 10
-25.499999999988169
 20
999.99846715059891
 30
0.0
 40
555.03461948890151
 50
266.5023580404652
 51
273.49764195953469
  0
ARC
  5
2DD4
  8
DETAIL
 10
7.7511781159091688
 20
455.97907816219481
 30
0.0
 40
9.9999999999997389
 50
273.49764195953469
 51
339.6672924549984
  0
ARC
  5
2DD5
  8
DETAIL
 10
7.7511781159091688
 20
475.88029236903589
 30
0.0
 40
9.9999999999998046
 50
276.84382933720269
 51
339.6672924549984
  0
ARC
  5
2DD6
  8
DETAIL
 10
-58.75117811590917
 20
455.97907816219481
 30
0.0
 40
10.000000000000121
 50
200.33270754500151
 51
266.5023580404652
  0
ARC
  5
2DE6
  8
DETAIL
 10
-58.75117811590917
 20
475.88029236903589
 30
0.0
 40
10.00000000000025
 50
200.33270754500151
 51
263.15617066279719
  0
LINE
  5
2F0E
  8
ARRANGE
 10
-49.999999999999773
 20
-50.0
 30
0.0
 11
49.999999999999318
 21
50.0
 31
0.0
  0
LINE
  5
2F0F
  8
ARRANGE
 10
-49.999999999999773
 20
50.0
 30
0.0
 11
49.999999999999773
 21
-50.0
 31
0.0
  0
LINE
  5
2F6D
  8
NOTE
 10
80.0
 20
10.0
 30
0.0
 11
316.13706999999971
 21
-302.04415000000063
 31
0.0
  0
LINE
  5
2F6E
  8
SIZE
 10
137.25
 20
-40.013774487991668
 30
0.0
 11
137.25
 21
-406.68890448799169
 31
0.0
  0
LINE
  5
2F6F
  8
SIZE
 10
150.0
 20
-20.786192569442839
 30
0.0
 11
150.0
 21
-574.08013256944287
 31
0.0
  0
LINE
  5
2F70
  8
SIZE
 10
-135.0
 20
-40.09640527450528
 30
0.0
 11
-135.0
 21
-406.77153527450531
 31
0.0
  0
LINE
  5
2F71
  8
SIZE
 10
-150.0
 20
-21.105168795912949
 30
0.0
 11
-150.0
 21
-574.39910879591298
 31
0.0
  0
TEXT
  5
2F72
  8
NOTE
 10
314.15547536820031
 20
-152.84600999999969
 30
0.0
 40
64.0
  1
AH 2-Ucut
 41
0.9
  0
LINE
  5
2F73
  8
NOTE
 10
137.25
 20
0.0
 30
0.0
 11
290.22436999999991
 21
-176.2637400000003
 31
0.0
  0
LINE
  5
2F74
  8
NOTE
 10
-135.0
 20
0.0
 30
0.0
 11
-326.89992182173592
 21
-219.60856104800541
 31
0.0
  0
TEXT
  5
2F77
  8
SIZE
 10
-124.53300392561771
 20
-344.67511000000007
 30
0.0
 40
64.0
  1
264～280
 41
0.5747376766061904
 72
     5
 11
121.9145118031165
 21
-344.67511000000007
 31
0.0
  0
LINE
  5
2F78
  8
SIZE
 10
150.0
 20
-544.29390000000012
 30
0.0
 11
-150.0
 21
-544.29390000000012
 31
0.0
  0
LINE
  5
2F79
  8
SIZE
 10
137.25
 20
-376.67512999999963
 30
0.0
 11
-135.0000000000004
 21
-376.67513000000008
 31
0.0
  0
CIRCLE
  5
2F7A
  8
SIZE
 10
150.0
 20
-544.08013256944287
 30
0.0
 40
6.0
  0
LINE
  5
2F7B
  8
NOTE
 10
290.22436999999991
 20
-176.2637400000003
 30
0.0
 11
843.98096833138425
 21
-176.26373999999981
 31
0.0
  0
CIRCLE
  5
2F7C
  8
SIZE
 10
137.25
 20
-376.68890448799169
 30
0.0
 40
6.0
  0
LINE
  5
2F7D
  8
NOTE
 10
605.89321000000007
 20
-302.04415000000063
 30
0.0
 11
316.13706999999971
 21
-302.04415000000063
 31
0.0
  0
TEXT
  5
2F7E
  8
NOTE
 10
367.86622000000028
 20
-286.1919900000002
 30
0.0
 40
64.0
  1
D%%C33
 41
0.9
  0
TEXT
  5
2F7F
  8
SIZE
 10
-85.94284000000016
 20
-512.29388999999992
 30
0.0
 40
64.0
  1
300
 41
1.071428571428571
 72
     5
 11
74.057159999999826
 21
-512.29388999999992
 31
0.0
  0
CIRCLE
  5
2F80
  8
SIZE
 10
-150.0
 20
-544.39910879591298
 30
0.0
 40
6.0
  0
LINE
  5
2F81
  8
NOTE
 10
-958.95205700434178
 20
-219.60856104800581
 30
0.0
 11
-326.89992182173592
 21
-219.60856104800541
 31
0.0
  0
TEXT
  5
2F82
  8
NOTE
 10
-928.17165064914434
 20
-196.19083104800569
 30
0.0
 40
64.0
  1
AH 2-%%C10×16
 41
0.9
  0
CIRCLE
  5
2F83
  8
SIZE
 10
-135.0
 20
-376.77153527450531
 30
0.0
 40
6.0
  0
LINE
  5
2F88
  8
SIZE
 10
348.78659152632548
 20
152.18701346332361
 30
0.0
 11
80.0
 21
152.18701346332361
 31
0.0
  0
CIRCLE
  5
2F89
  8
SIZE
 10
80.0
 20
152.18701346332361
 30
0.0
 40
6.0
  0
LINE
  5
2F8A
  8
NOTE
 10
60.0
 20
10.0
 30
0.0
 11
100.0
 21
10.0
 31
0.0
  0
LINE
  5
2F8B
  8
NOTE
 10
111.6765999999997
 20
-14.42525999999998
 30
0.0
 11
80.0
 21
10.0
 31
0.0
  0
LINE
  5
2F8C
  8
NOTE
 10
80.0
 20
10.0
 30
0.0
 11
95.220110000000204
 21
-26.99118999999973
 31
0.0
  0
LINE
  5
2F8D
  8
DETAIL
 10
-150.0
 20
0.0
 30
0.0
 11
150.0
 21
0.0
 31
0.0
  0
LINE
  5
2F8E
  8
DETAIL
 10
-150.0
 20
10.0
 30
0.0
 11
150.0
 21
10.0
 31
0.0
  0
LINE
  5
2F92
  8
SIZE
 10
127.5
 20
30.0
 30
0.0
 11
127.5
 21
173.29858999999979
 31
0.0
  0
LINE
  5
2F93
  8
NOTE
 10
137.25
 20
0.0
 30
0.0
 11
170.3934600000002
 21
-22.394449999999779
 31
0.0
  0
LINE
  5
2F94
  8
NOTE
 10
154.75585000000001
 20
-35.965889999999938
 30
0.0
 11
137.25
 21
0.0
 31
0.0
  0
LINE
  5
2F95
  8
NOTE
 10
137.25
 20
20.0
 30
0.0
 11
137.25
 21
-20.0
 31
0.0
  0
LINE
  5
2F96
  8
NOTE
 10
117.25
 20
0.0
 30
0.0
 11
157.24999999999989
 21
0.0
 31
0.0
  0
CIRCLE
  5
2F97
  8
FIX
 10
137.25
 20
0.0
 30
0.0
 40
5.0
  0
LINE
  5
2F98
  8
DETAIL
 10
150.0
 20
10.0
 30
0.0
 11
150.0
 21
0.0
 31
0.0
  0
TEXT
  5
2F99
  8
SIZE
 10
150.363812628505
 20
175.47430815900489
 30
0.0
 40
64.0
  1
47.5
 41
0.9550755803691071
 72
     5
 11
333.7383240593735
 21
175.47430815900489
 31
0.0
  0
CIRCLE
  5
2F9A
  8
SIZE
 10
127.5
 20
152.18701346332361
 30
0.0
 40
6.0
  0
LINE
  5
2FA2
  8
SIZE
 10
80.0
 20
30.0
 30
0.0
 11
80.0
 21
173.29858999999979
 31
0.0
  0
LINE
  5
2FA5
  8
NOTE
 10
80.0
 20
30.0
 30
0.0
 11
80.0
 21
-10.0
 31
0.0
  0
LINE
  5
2FA6
  8
NOTE
 10
-135.0
 20
20.0
 30
0.0
 11
-135.0
 21
-20.0
 31
0.0
  0
LINE
  5
2FA7
  8
NOTE
 10
-167.27006948624461
 20
-23.635626692309408
 30
0.0
 11
-135.0
 21
0.0
 31
0.0
  0
LINE
  5
2FA8
  8
NOTE
 10
-135.0
 20
0.0
 30
0.0
 11
-151.12888851622341
 21
-36.604086786488999
 31
0.0
  0
CIRCLE
  5
2FAD
  8
FIX
 10
-135.0
 20
0.0
 30
0.0
 40
5.0
  0
LINE
  5
2FAE
  8
NOTE
 10
-155.0
 20
0.0
 30
0.0
 11
-115.0
 21
0.0
 31
0.0
  0
LINE
  5
2FAF
  8
DETAIL
 10
-150.0
 20
10.0
 30
0.0
 11
-150.0
 21
0.0
 31
0.0
  0
LINE
  5
2FD1
  8
SIZE
 10
-200.58937335766831
 20
0.0
 30
0.0
 11
-200.58937335766851
 21
106.50001999999991
 31
0.0
  0
LINE
  5
2FD2
  8
SIZE
 10
-315.83151124932732
 20
0.0
 30
0.0
 11
-315.83151124932732
 21
160.50002000000009
 31
0.0
  0
CIRCLE
  5
2FD3
  8
SIZE
 10
-315.83151124932732
 20
160.50002000000009
 30
0.0
 40
6.0
  0
CIRCLE
  5
2FD4
  8
SIZE
 10
-200.58937335766851
 20
106.50001999999991
 30
0.0
 40
6.0
  0
CIRCLE
  5
2FD5
  8
SIZE
 10
-315.83151124932732
 20
0.0
 30
0.0
 40
6.0
  0
CIRCLE
  5
2FD6
  8
SIZE
 10
-200.58937335766831
 20
0.0
 30
0.0
 40
6.0
  0
TEXT
  5
2FD9
  8
SIZE
 10
-334.47493867145198
 20
29.351918722130439
 30
0.0
 40
64.0
  1
160.5
 50
90.000002842180194
 41
0.8999595592762052
 72
     5
 11
-334.47494867145173
 21
230.94286000000011
 31
0.0
  0
TEXT
  5
2FDA
  8
SIZE
 10
-230.6374463642405
 20
33.226415299230659
 30
0.0
 40
64.0
  1
106.5
 50
90.000002897876186
 41
0.8826626995570075
 72
     5
 11
-230.63745636424019
 21
230.94286000000011
 31
0.0
  0
LINE
  5
2FDC
  8
SIZE
 10
0.5
 20
141.15114643378411
 30
0.0
 11
0.5
 21
461.75359576204431
 31
0.0
  0
CIRCLE
  5
2FDD
  8
SIZE
 10
127.5
 20
436.15413444442538
 30
0.0
 40
6.0
  0
LINE
  5
2FDE
  8
SIZE
 10
125.5
 20
436.15413444442538
 30
0.0
 11
290.26224999999971
 21
436.15413444442538
 31
0.0
  0
LINE
  5
2FDF
  8
SIZE
 10
125.5
 20
436.15413444442538
 30
0.0
 11
58.5
 21
436.15413444442538
 31
0.0
  0
CIRCLE
  5
2FE0
  8
SIZE
 10
0.5
 20
436.1541344444251
 30
0.0
 40
6.0
  0
LINE
  5
2FE1
  8
SIZE
 10
0.5
 20
436.1541344444251
 30
0.0
 11
58.5
 21
436.15413444442538
 31
0.0
  0
TEXT
  5
2FE2
  8
SIZE
 10
146.05223000000021
 20
450.07804744127219
 30
0.0
 40
64.0
  1
127
 41
1.071428571428571
 72
     5
 11
306.05223000000018
 21
450.07804744127219
 31
0.0
  0
LINE
  5
3157
  8
DETAIL
 10
18.184778554027378
 20
444.7255719712075
 30
0.0
 11
18.184778554027378
 21
435.83113895394052
 31
0.0
  0
LINE
  5
3178
  8
DETAIL
 10
-148.3000000000001
 20
500.0000000000004
 30
0.0
 11
-148.2999999999999
 21
59.999999999999773
 31
0.0
  0
LINE
  5
31BD
  8
DETAIL
 10
-148.3000000000001
 20
500.0000000000004
 30
0.0
 11
-127.5
 21
500.0000000000004
 31
0.0
  0
LINE
  5
31BE
  8
DETAIL
 10
-148.2999999999999
 20
59.999999999999773
 30
0.0
 11
-127.4999999999997
 21
59.999999999999538
 31
0.0
  0
LINE
  5
31EB
  8
OUTLINE
 10
127.5
 20
540.0
 30
0.0
 11
127.5
 21
10.0
 31
0.0
  0
LINE
  5
31EC
  8
OUTLINE
 10
-127.5
 20
540.0
 30
0.0
 11
-127.5
 21
500.0000000000004
 31
0.0
  0
LINE
  5
31EE
  8
OUTLINE
 10
-150.0
 20
0.0
 30
0.0
 11
150.0
 21
0.0
 31
0.0
  0
LINE
  5
31EF
  8
OUTLINE
 10
-150.0
 20
10.0
 30
0.0
 11
150.0
 21
10.0
 31
0.0
  0
LINE
  5
31F0
  8
OUTLINE
 10
-150.0
 20
10.0
 30
0.0
 11
-150.0
 21
0.0
 31
0.0
  0
LINE
  5
31F3
  8
OUTLINE
 10
150.0
 20
10.0
 30
0.0
 11
150.0
 21
0.0
 31
0.0
  0
LINE
  5
31F8
  8
OUTLINE
 10
-148.3000000000001
 20
500.0000000000004
 30
0.0
 11
-148.2999999999999
 21
59.999999999999773
 31
0.0
  0
LINE
  5
31FB
  8
OUTLINE
 10
-148.2999999999999
 20
59.999999999999773
 30
0.0
 11
-127.4999999999997
 21
59.999999999999538
 31
0.0
  0
LINE
  5
3209
  8
OUTLINE
 10
-127.5
 20
540.0
 30
0.0
 11
127.5
 21
540.0
 31
0.0
  0
LINE
  5
320A
  8
OUTLINE
 10
-148.3000000000001
 20
500.0000000000004
 30
0.0
 11
-127.5
 21
500.0000000000004
 31
0.0
  0
LINE
  5
320F
  8
OUTLINE
 10
-127.5
 20
59.999999999999538
 30
0.0
 11
-127.5
 21
10.0
 31
0.0
  0
ENDSEC
  0
EOF
