  0
SECTION
  2
HEADER
  9
$ACADVER
  1
AC1015
  9
$ACADMAINTVER
 70
    10
  9
$DWGCODEPAGE
  3
ANSI_932
  9
$INSBASE
 10
0.0
 20
0.0
 30
0.0
  9
$EXTMIN
 10
-1141.179556488972
 20
-567.6590429390999
 30
0.0
  9
$EXTMAX
 10
977.9412372114462
 20
811.9329798283782
 30
0.0
  9
$LIMMIN
 10
-1246.059824392974
 20
-821.3474008837692
  9
$LIMMAX
 10
1272.760612316811
 20
918.2590373778076
  9
$ORTHOMODE
 70
     1
  9
$REGENMODE
 70
     1
  9
$FILLMODE
 70
     1
  9
$QTEXTMODE
 70
     0
  9
$MIRRTEXT
 70
     0
  9
$LTSCALE
 40
20.0
  9
$ATTMODE
 70
     1
  9
$TEXTSIZE
 40
64.0
  9
$TRACEWID
 40
0.05
  9
$TEXTSTYLE
  7
STANDARD
  9
$CLAYER
  8
0
  9
$CELTYPE
  6
CONTINUOUS
  9
$CECOLOR
 62
   256
  9
$CELTSCALE
 40
1.0
  9
$DISPSILH
 70
     0
  9
$DIMSCALE
 40
1.0
  9
$DIMASZ
 40
10.0
  9
$DIMEXO
 40
20.0
  9
$DIMDLI
 40
200.0
  9
$DIMRND
 40
0.0
  9
$DIMDLE
 40
0.0
  9
$DIMEXE
 40
20.0
  9
$DIMTP
 40
0.0
  9
$DIMTM
 40
0.0
  9
$DIMTXT
 40
50.0
  9
$DIMCEN
 40
0.082
  9
$DIMTSZ
 40
0.0
  9
$DIMTOL
 70
     0
  9
$DIMLIM
 70
     0
  9
$DIMTIH
 70
     0
  9
$DIMTOH
 70
     0
  9
$DIMSE1
 70
     0
  9
$DIMSE2
 70
     0
  9
$DIMTAD
 70
     1
  9
$DIMZIN
 70
     8
  9
$DIMBLK
  1
ORIGIN
  9
$DIMASO
 70
     1
  9
$DIMSHO
 70
     0
  9
$DIMPOST
  1

  9
$DIMAPOST
  1

  9
$DIMALT
 70
     0
  9
$DIMALTD
 70
     2
  9
$DIMALTF
 40
25.4
  9
$DIMLFAC
 40
1.0
  9
$DIMTOFL
 70
     1
  9
$DIMTVP
 40
0.0
  9
$DIMTIX
 70
     0
  9
$DIMSOXD
 70
     0
  9
$DIMSAH
 70
     0
  9
$DIMBLK1
  1

  9
$DIMBLK2
  1

  9
$DIMSTYLE
  2
STANDARD
  9
$DIMCLRD
 70
     0
  9
$DIMCLRE
 70
     0
  9
$DIMCLRT
 70
     0
  9
$DIMTFAC
 40
1.0
  9
$DIMGAP
 40
10.0
  9
$DIMJUST
 70
     0
  9
$DIMSD1
 70
     0
  9
$DIMSD2
 70
     0
  9
$DIMTOLJ
 70
     1
  9
$DIMTZIN
 70
     0
  9
$DIMALTZ
 70
     0
  9
$DIMALTTZ
 70
     0
  9
$DIMUPT
 70
     0
  9
$DIMDEC
 70
     6
  9
$DIMTDEC
 70
     6
  9
$DIMALTU
 70
     2
  9
$DIMALTTD
 70
     2
  9
$DIMTXSTY
  7
STANDARD
  9
$DIMAUNIT
 70
     0
  9
$DIMADEC
 70
     0
  9
$DIMALTRND
 40
0.0
  9
$DIMAZIN
 70
     0
  9
$DIMDSEP
 70
    46
  9
$DIMATFIT
 70
     3
  9
$DIMFRAC
 70
     0
  9
$DIMLDRBLK
  1
ORIGIN
  9
$DIMLUNIT
 70
     2
  9
$DIMLWD
 70
    -2
  9
$DIMLWE
 70
    -2
  9
$DIMTMOVE
 70
     0
  9
$LUNITS
 70
     2
  9
$LUPREC
 70
     4
  9
$SKETCHINC
 40
0.1
  9
$FILLETRAD
 40
10.0
  9
$AUNITS
 70
     1
  9
$AUPREC
 70
     3
  9
$MENU
  1
ACAD
  9
$ELEVATION
 40
0.0
  9
$PELEVATION
 40
0.0
  9
$THICKNESS
 40
0.0
  9
$LIMCHECK
 70
     0
  9
$CHAMFERA
 40
0.0
  9
$CHAMFERB
 40
0.0
  9
$CHAMFERC
 40
0.0
  9
$CHAMFERD
 40
0.0
  9
$SKPOLY
 70
     0
  9
$TDCREATE
 40
2450330.393205995
  9
$TDUCREATE
 40
2450330.018205995
  9
$TDUPDATE
 40
2455513.405177766
  9
$TDUUPDATE
 40
2455513.030177765
  9
$TDINDWG
 40
2.9232335417
  9
$TDUSRTIMER
 40
2.9232329861
  9
$USRTIMER
 70
     1
  9
$ANGBASE
 50
0.0
  9
$ANGDIR
 70
     0
  9
$PDMODE
 70
     3
  9
$PDSIZE
 40
-2.0
  9
$PLINEWID
 40
0.0
  9
$SPLFRAME
 70
     0
  9
$SPLINETYPE
 70
     6
  9
$SPLINESEGS
 70
     8
  9
$HANDSEED
  5
8AC9F
  9
$SURFTAB1
 70
     6
  9
$SURFTAB2
 70
     6
  9
$SURFTYPE
 70
     6
  9
$SURFU
 70
     6
  9
$SURFV
 70
     6
  9
$UCSBASE
  2

  9
$UCSNAME
  2

  9
$UCSORG
 10
0.0
 20
0.0
 30
0.0
  9
$UCSXDIR
 10
1.0
 20
0.0
 30
0.0
  9
$UCSYDIR
 10
0.0
 20
1.0
 30
0.0
  9
$UCSORTHOREF
  2

  9
$UCSORTHOVIEW
 70
     0
  9
$UCSORGTOP
 10
0.0
 20
0.0
 30
0.0
  9
$UCSORGBOTTOM
 10
0.0
 20
0.0
 30
0.0
  9
$UCSORGLEFT
 10
0.0
 20
0.0
 30
0.0
  9
$UCSORGRIGHT
 10
0.0
 20
0.0
 30
0.0
  9
$UCSORGFRONT
 10
0.0
 20
0.0
 30
0.0
  9
$UCSORGBACK
 10
0.0
 20
0.0
 30
0.0
  9
$PUCSBASE
  2

  9
$PUCSNAME
  2

  9
$PUCSORG
 10
0.0
 20
0.0
 30
0.0
  9
$PUCSXDIR
 10
1.0
 20
0.0
 30
0.0
  9
$PUCSYDIR
 10
0.0
 20
1.0
 30
0.0
  9
$PUCSORTHOREF
  2

  9
$PUCSORTHOVIEW
 70
     0
  9
$PUCSORGTOP
 10
0.0
 20
0.0
 30
0.0
  9
$PUCSORGBOTTOM
 10
0.0
 20
0.0
 30
0.0
  9
$PUCSORGLEFT
 10
0.0
 20
0.0
 30
0.0
  9
$PUCSORGRIGHT
 10
0.0
 20
0.0
 30
0.0
  9
$PUCSORGFRONT
 10
0.0
 20
0.0
 30
0.0
  9
$PUCSORGBACK
 10
0.0
 20
0.0
 30
0.0
  9
$USERI1
 70
     0
  9
$USERI2
 70
     0
  9
$USERI3
 70
     0
  9
$USERI4
 70
     0
  9
$USERI5
 70
     0
  9
$USERR1
 40
20.0
  9
$USERR2
 40
0.0
  9
$USERR3
 40
0.0
  9
$USERR4
 40
0.0
  9
$USERR5
 40
0.0
  9
$WORLDVIEW
 70
     1
  9
$SHADEDGE
 70
     3
  9
$SHADEDIF
 70
    70
  9
$TILEMODE
 70
     1
  9
$MAXACTVP
 70
    64
  9
$PINSBASE
 10
0.0
 20
0.0
 30
0.0
  9
$PLIMCHECK
 70
     0
  9
$PEXTMIN
 10
1.000000000000000E+20
 20
1.000000000000000E+20
 30
1.000000000000000E+20
  9
$PEXTMAX
 10
-1.000000000000000E+20
 20
-1.000000000000000E+20
 30
-1.000000000000000E+20
  9
$PLIMMIN
 10
0.0
 20
0.0
  9
$PLIMMAX
 10
12.0
 20
9.0
  9
$UNITMODE
 70
     0
  9
$VISRETAIN
 70
     1
  9
$PLINEGEN
 70
     0
  9
$PSLTSCALE
 70
     1
  9
$TREEDEPTH
 70
  3020
  9
$CMLSTYLE
  2
STANDARD
  9
$CMLJUST
 70
     0
  9
$CMLSCALE
 40
1.0
  9
$PROXYGRAPHICS
 70
     1
  9
$MEASUREMENT
 70
     0
  9
$CELWEIGHT
370
    -1
  9
$ENDCAPS
280
     0
  9
$JOINSTYLE
280
     0
  9
$LWDISPLAY
290
     0
  9
$INSUNITS
 70
     0
  9
$HYPERLINKBASE
  1

  9
$STYLESHEET
  1

  9
$XEDIT
290
     1
  9
$CEPSNTYPE
380
     0
  9
$PSTYLEMODE
290
     1
  9
$FINGERPRINTGUID
  2
{97DA8DB6-C4F0-4C3D-ABEB-53C4FBBC7EFF}
  9
$VERSIONGUID
  2
{9D1A79B5-3D38-439D-9DED-AFE7FB4640A9}
  9
$EXTNAMES
290
     1
  9
$PSVPSCALE
 40
0.0
  9
$OLESTARTUP
290
     0
  0
ENDSEC
  0
SECTION
  2
CLASSES
  0
CLASS
  1
ACDBDICTIONARYWDFLT
  2
AcDbDictionaryWithDefault
  3
AutoCAD 2000
 90
        0
280
     0
281
     0
  0
CLASS
  1
ACDBPLACEHOLDER
  2
AcDbPlaceHolder
  3
AutoCAD 2000
 90
        0
280
     0
281
     0
  0
CLASS
  1
LAYOUT
  2
AcDbLayout
  3
AutoCAD 2000
 90
        0
280
     0
281
     0
  0
CLASS
  1
LONG_TRANSACTION
  2
AcDbLongTransaction
  3
AutoCAD 2000
 90
    32768
280
     0
281
     0
  0
CLASS
  1
LWPOLYLINE
  2
AcDbPolyline
  3
AutoCAD 2000
 90
    32768
280
     0
281
     1
  0
CLASS
  1
HATCH
  2
AcDbHatch
  3
AutoCAD 2000
 90
    32768
280
     0
281
     1
  0
CLASS
  1
XRECORD
  2
AcDbXrecord
  3
AutoCAD 2000
 90
    32768
280
     0
281
     0
  0
CLASS
  1
LONG_TRANSACTION
  2
AcDbLongTransaction
  3
AutoCAD 2000
 90
    32768
280
     0
281
     0
  0
CLASS
  1
LWPOLYLINE
  2
AcDbPolyline
  3
AutoCAD 2000
 90
    32768
280
     0
281
     1
  0
CLASS
  1
HATCH
  2
AcDbHatch
  3
AutoCAD 2000
 90
    32768
280
     0
281
     1
  0
CLASS
  1
XRECORD
  2
AcDbXrecord
  3
AutoCAD 2000
 90
    32768
280
     0
281
     0
  0
CLASS
  1
LONG_TRANSACTION
  2
AcDbLongTransaction
  3
AutoCAD 2000
 90
    32768
280
     0
281
     0
  0
CLASS
  1
LWPOLYLINE
  2
AcDbPolyline
  3
AutoCAD 2000
 90
    32768
280
     0
281
     1
  0
CLASS
  1
HATCH
  2
AcDbHatch
  3
AutoCAD 2000
 90
    32768
280
     0
281
     1
  0
CLASS
  1
XRECORD
  2
AcDbXrecord
  3
AutoCAD 2000
 90
    32768
280
     0
281
     0
  0
ENDSEC
  0
SECTION
  2
TABLES
  0
TABLE
  2
VPORT
  5
8
330
0
100
AcDbSymbolTable
 70
     3
  0
VPORT
  5
8AC9E
330
8
100
AcDbSymbolTableRecord
100
AcDbViewportTableRecord
  2
*Active
 70
     0
 10
0.0
 20
0.0
 11
1.0
 21
1.0
 12
-385.1181475620751
 22
-96.75102005861663
 13
0.0
 23
0.0
 14
50.0
 24
50.0
 15
100.0
 25
100.0
 16
0.0
 26
0.0
 36
1.0
 17
0.0
 27
0.0
 37
0.0
 40
1059.982938221794
 41
1.307486631016042
 42
50.0
 43
0.0
 44
0.0
 50
0.0
 51
0.0
 71
     0
 72
   500
 73
     1
 74
     0
 75
     0
 76
     0
 77
     0
 78
     0
281
     0
 65
     1
110
0.0
120
0.0
130
0.0
111
1.0
121
0.0
131
0.0
112
0.0
122
1.0
132
0.0
 79
     0
146
0.0
  0
ENDTAB
  0
TABLE
  2
LTYPE
  5
5
330
0
100
AcDbSymbolTable
 70
     3
  0
LTYPE
  5
13
330
5
100
AcDbSymbolTableRecord
100
AcDbLinetypeTableRecord
  2
BYBLOCK
 70
     0
  3

 72
    65
 73
     0
 40
0.0
  0
LTYPE
  5
14
330
5
100
AcDbSymbolTableRecord
100
AcDbLinetypeTableRecord
  2
BYLAYER
 70
     0
  3

 72
    65
 73
     0
 40
0.0
  0
LTYPE
  5
15
330
5
100
AcDbSymbolTableRecord
100
AcDbLinetypeTableRecord
  2
CONTINUOUS
 70
     0
  3
実線
 72
    65
 73
     0
 40
0.0
  0
LTYPE
  5
23
330
5
100
AcDbSymbolTableRecord
100
AcDbLinetypeTableRecord
  2
DASHDOT
 70
     0
  3
____ _ ____ _ ____ _ ____ _ ____ _ ____ _ ____
 72
    65
 73
     4
 40
5.5
 49
4.0
 74
     0
 49
-0.6
 74
     0
 49
0.3
 74
     0
 49
-0.6
 74
     0
  0
LTYPE
  5
6ACAA
330
5
100
AcDbSymbolTableRecord
100
AcDbLinetypeTableRecord
  2
DASHED
 70
     0
  3
DASHED
 72
    65
 73
     2
 40
0.75
 49
0.5
 74
     0
 49
-0.25
 74
     0
  0
ENDTAB
  0
TABLE
  2
LAYER
  5
2
330
0
100
AcDbSymbolTable
 70
    11
  0
LAYER
  5
10
330
2
100
AcDbSymbolTableRecord
100
AcDbLayerTableRecord
  2
0
 70
     0
 62
     7
  6
CONTINUOUS
370
    -3
390
F
  0
LAYER
  5
22
330
2
100
AcDbSymbolTableRecord
100
AcDbLayerTableRecord
  2
SIZE
 70
     0
 62
    32
  6
CONTINUOUS
370
    -3
390
F
  0
LAYER
  5
31
330
2
100
AcDbSymbolTableRecord
100
AcDbLayerTableRecord
  2
DETAIL
 70
     0
 62
     5
  6
CONTINUOUS
370
    -3
390
F
  0
LAYER
  5
32
330
2
100
AcDbSymbolTableRecord
100
AcDbLayerTableRecord
  2
OUTLINE
 70
     0
 62
     3
  6
CONTINUOUS
370
    -3
390
F
  0
LAYER
  5
33
330
2
100
AcDbSymbolTableRecord
100
AcDbLayerTableRecord
  2
BASIS
 70
     0
 62
     6
  6
CONTINUOUS
370
    -3
390
F
  0
LAYER
  5
34
330
2
100
AcDbSymbolTableRecord
100
AcDbLayerTableRecord
  2
NOTE
 70
     0
 62
     4
  6
CONTINUOUS
370
    -3
390
F
  0
LAYER
  5
35
330
2
100
AcDbSymbolTableRecord
100
AcDbLayerTableRecord
  2
ARRANGE
 70
     0
 62
     1
  6
CONTINUOUS
370
    -3
390
F
  0
LAYER
  5
37
330
2
100
AcDbSymbolTableRecord
100
AcDbLayerTableRecord
  2
ETC
 70
     0
 62
    83
  6
CONTINUOUS
370
    -3
390
F
  0
LAYER
  5
3A
330
2
100
AcDbSymbolTableRecord
100
AcDbLayerTableRecord
  2
DEFPOINTS
 70
     0
 62
     7
  6
CONTINUOUS
290
     0
370
    -3
390
F
  0
LAYER
  5
6ACAB
330
2
100
AcDbSymbolTableRecord
100
AcDbLayerTableRecord
  2
FIX
 70
     0
 62
   253
  6
CONTINUOUS
370
    -3
390
F
  0
LAYER
  5
6ACAC
330
2
100
AcDbSymbolTableRecord
100
AcDbLayerTableRecord
  2
SERVICE_SPACE
 70
     0
 62
     2
  6
CONTINUOUS
370
    -3
390
F
  0
ENDTAB
  0
TABLE
  2
STYLE
  5
3
330
0
100
AcDbSymbolTable
 70
     4
  0
STYLE
  5
11
330
3
100
AcDbSymbolTableRecord
100
AcDbTextStyleTableRecord
  2
STANDARD
 70
     0
 40
0.0
 41
0.9
 50
0.0
 71
     0
 42
64.0
  3
SIMPLEX
  4
BIGFONT
  0
STYLE
  5
6ACAD
330
3
100
AcDbSymbolTableRecord
100
AcDbTextStyleTableRecord
  2
STANDARD1
 70
     0
 40
0.0
 41
1.0
 50
0.0
 71
     0
 42
64.0
  3
MONOTXT
  4
BIGFONT
  0
STYLE
  5
6ACAE
330
3
100
AcDbSymbolTableRecord
100
AcDbTextStyleTableRecord
  2
ZU_SHPTB00001
 70
     0
 40
0.0
 41
1.0
 50
0.0
 71
     0
 42
0.0
  3
monotxt
  4
bigfont
  0
STYLE
  5
6EC10
330
3
100
AcDbSymbolTableRecord
100
AcDbTextStyleTableRecord
  2
ZU_SHPTB00002
 70
     0
 40
0.0
 41
1.0
 50
0.0
 71
     0
 42
0.0
  3
monotxt
  4
bigfont
  0
ENDTAB
  0
TABLE
  2
VIEW
  5
6
330
0
100
AcDbSymbolTable
 70
     1
  0
VIEW
  5
3C
330
6
100
AcDbSymbolTableRecord
100
AcDbViewTableRecord
  2
ALL
 70
     0
 40
4282.62
 10
0.0
 20
41.30990399999999
 41
5940.0
 11
0.0
 21
0.0
 31
1.0
 12
0.0
 22
0.0
 32
0.0
 42
50.0
 43
0.0
 44
0.0
 50
0.0
 71
     0
281
     0
 72
     0
  0
ENDTAB
  0
TABLE
  2
UCS
  5
7
330
0
100
AcDbSymbolTable
 70
     0
  0
ENDTAB
  0
TABLE
  2
APPID
  5
9
330
0
100
AcDbSymbolTable
 70
     1
  0
APPID
  5
12
330
9
100
AcDbSymbolTableRecord
100
AcDbRegAppTableRecord
  2
ACAD
 70
     0
  0
ENDTAB
  0
TABLE
  2
DIMSTYLE
  5
A
330
0
100
AcDbSymbolTable
 70
     1
100
AcDbDimStyleTable
 71
     1
340
213
  0
DIMSTYLE
105
213
330
A
100
AcDbSymbolTableRecord
100
AcDbDimStyleTableRecord
  2
STANDARD
 70
     0
340
11
  0
ENDTAB
  0
TABLE
  2
BLOCK_RECORD
  5
1
330
0
100
AcDbSymbolTable
 70
     3
  0
BLOCK_RECORD
  5
1E
102
{ACAD_XDICTIONARY
360
66E76
102
}
330
1
100
AcDbSymbolTableRecord
100
AcDbBlockTableRecord
  2
*MODEL_SPACE
340
67C8F
  0
BLOCK_RECORD
  5
1A
102
{ACAD_XDICTIONARY
360
66E74
102
}
330
1
100
AcDbSymbolTableRecord
100
AcDbBlockTableRecord
  2
*PAPER_SPACE
340
67C90
  0
BLOCK_RECORD
  5
46
330
1
100
AcDbSymbolTableRecord
100
AcDbBlockTableRecord
  2
_ORIGIN
340
0
102
{BLKREFS
331
885A9
331
885AA
331
885B4
331
885B5
102
}
  0
ENDTAB
  0
ENDSEC
  0
SECTION
  2
BLOCKS
  0
BLOCK
  5
1F
330
1E
100
AcDbEntity
  8
0
100
AcDbBlockBegin
  2
*MODEL_SPACE
 70
     0
 10
0.0
 20
0.0
 30
0.0
  3
*MODEL_SPACE
  1

  0
ENDBLK
  5
20
330
1E
100
AcDbEntity
  8
0
100
AcDbBlockEnd
  0
BLOCK
  5
1B
330
1A
100
AcDbEntity
 67
     1
  8
0
100
AcDbBlockBegin
  2
*PAPER_SPACE
 70
     0
 10
0.0
 20
0.0
 30
0.0
  3
*PAPER_SPACE
  1

  0
ENDBLK
  5
1C
330
1A
100
AcDbEntity
 67
     1
  8
0
100
AcDbBlockEnd
  0
BLOCK
  5
47
330
46
100
AcDbEntity
  8
0
100
AcDbBlockBegin
  2
_ORIGIN
 70
     0
 10
0.0
 20
0.0
 30
0.0
  3
_ORIGIN
  1

  0
CIRCLE
  5
48
330
46
100
AcDbEntity
  8
0
  6
ByBlock
 62
     0
100
AcDbCircle
 10
0.0
 20
0.0
 30
0.0
 40
0.5
  0
LINE
  5
49
330
46
100
AcDbEntity
  8
0
  6
ByBlock
 62
     0
100
AcDbLine
 10
0.0
 20
0.0
 30
0.0
 11
-1.0
 21
0.0
 31
0.0
  0
ENDBLK
  5
4A
330
46
100
AcDbEntity
  8
0
100
AcDbBlockEnd
  0
ENDSEC
  0
SECTION
  2
ENTITIES
  0
MTEXT
  5
38341
330
1E
100
AcDbEntity
  8
0
  6
Continuous
100
AcDbMText
 10
383.9605305094082
 20
4023.282340837186
 30
0.0
 40
64.0
 41
187.9848
 71
     1
 72
     5
  1

 73
     1
 44
1.0
1001
ACAD
1000
MTEXTBEGIN
1070
    73
1070
     1
1070
    44
1040
1.0
1070
    74
1070
     0
1000
MTEXTEND
1000
MTEXTBEGIN
1070
    73
1070
     1
1070
    44
1040
1.0
1070
    74
1070
     0
1000
MTEXTEND
1000
MTEXTBEGIN
1070
    73
1070
     1
1070
    44
1040
1.0
1070
    74
1070
     0
1000
MTEXTEND
  0
TEXT
  5
6E983
330
1E
100
AcDbEntity
  8
ETC
100
AcDbText
 10
551.2745672114479
 20
647.6806348472173
 30
0.0
 40
64.0
  1
SMUZ5586
 41
0.880503151533016
 72
     5
 11
977.9412372114466
 21
647.6806348472173
 31
0.0
100
AcDbText
  0
POINT
  5
79FB2
330
1E
100
AcDbEntity
  8
ARRANGE
100
AcDbPoint
 10
0.0
 20
0.0
 30
0.0
  0
LINE
  5
79FB3
330
1E
100
AcDbEntity
  8
BASIS
  6
DASHDOT
100
AcDbLine
 10
0.0
 20
161.1979276232095
 30
0.0
 11
0.0
 21
-161.1979276232095
 31
0.0
  0
LINE
  5
79FD7
330
1E
100
AcDbEntity
  8
BASIS
  6
DASHDOT
100
AcDbLine
 10
-412.7975607342087
 20
0.0
 30
0.0
 11
412.7975607342087
 21
0.0
 31
0.0
  0
CIRCLE
  5
7A723
330
1E
100
AcDbEntity
  8
ARRANGE
100
AcDbCircle
 10
0.0
 20
0.0
 30
0.0
 40
40.0
  0
TEXT
  5
7AE63
330
1E
100
AcDbEntity
  8
ETC
100
AcDbText
 10
569.1499000000003
 20
747.9329798283779
 30
0.0
 40
64.0
  1
室外機
100
AcDbText
  0
LINE
  5
7E419
330
1E
100
AcDbEntity
  8
SIZE
100
AcDbLine
 10
-727.4618599999994
 20
226.1526534133154
 30
0.0
 11
-727.4618599999994
 21
0.0000100000002021
 31
0.0
  0
LINE
  5
7E41A
330
1E
100
AcDbEntity
  8
SIZE
100
AcDbLine
 10
-358.299999175002
 20
26.4676691065647
 30
0.0
 11
-358.299999175002
 21
331.7362084414962
 31
0.0
  0
LINE
  5
7E41B
330
1E
100
AcDbEntity
  8
SIZE
100
AcDbLine
 10
-375.7999060499924
 20
-25.22998702583436
 30
0.0
 11
-375.7999060499924
 21
334.5095282474394
 31
0.0
  0
TEXT
  5
7E41C
330
1E
100
AcDbEntity
  8
SIZE
100
AcDbText
 10
774.072372393457
 20
-270.5976628849311
 30
0.0
 40
64.0
  1
264～280
 50
90.00000149960705
 41
0.9006275488191468
 72
     5
 11
774.0723623934573
 21
111.474275539831
 31
0.0
100
AcDbText
  0
LINE
  5
7E41D
330
1E
100
AcDbEntity
  8
SIZE
100
AcDbLine
 10
795.2596549752707
 20
-136.1249659687518
 30
0.0
 11
795.2596549752707
 21
136.1249659687518
 31
0.0
  0
LINE
  5
7E41E
330
1E
100
AcDbEntity
  8
SIZE
100
AcDbLine
 10
920.4566108147773
 20
-151.1249723607597
 30
0.0
 11
920.4566108147773
 21
148.8749627812485
 31
0.0
  0
LINE
  5
7E41F
330
1E
100
AcDbEntity
  8
SERVICE_SPACE
  6
Continuous
100
AcDbLine
 10
328.9999177499894
 20
126.1526534133154
 30
0.0
 11
678.9999177499894
 21
-128.624967843752
 31
0.0
  0
LINE
  5
7E420
330
1E
100
AcDbEntity
  8
SERVICE_SPACE
  6
Continuous
100
AcDbLine
 10
328.9999177499894
 20
-128.624967843752
 30
0.0
 11
678.9999177499894
 21
126.1526534133154
 31
0.0
  0
LINE
  5
7E421
330
1E
100
AcDbEntity
  8
SERVICE_SPACE
  6
Continuous
100
AcDbLine
 10
-454.9999162500012
 20
126.1526534133154
 30
0.0
 11
-354.999917133638
 21
-128.624967843752
 31
0.0
  0
LINE
  5
7E422
330
1E
100
AcDbEntity
  8
SERVICE_SPACE
  6
Continuous
100
AcDbLine
 10
-354.9999162500012
 20
126.1526534133154
 30
0.0
 11
-454.9999162499998
 21
-128.624967843752
 31
0.0
  0
LINE
  5
7E423
330
1E
100
AcDbEntity
  8
SERVICE_SPACE
  6
Continuous
100
AcDbLine
 10
328.9999177499894
 20
-228.624967843752
 30
0.0
 11
328.9999177499894
 21
226.1526534133154
 31
0.0
  0
LINE
  5
7E424
330
1E
100
AcDbEntity
  8
SERVICE_SPACE
  6
Continuous
100
AcDbLine
 10
678.9999177499894
 20
-128.624967843752
 30
0.0
 11
678.9999177499894
 21
126.1526534133154
 31
0.0
  0
LINE
  5
7E425
330
1E
100
AcDbEntity
  8
SERVICE_SPACE
  6
Continuous
100
AcDbLine
 10
-354.9999162500016
 20
226.1526534133154
 30
0.0
 11
-354.9999162499989
 21
-228.624967843752
 31
0.0
  0
LINE
  5
7E426
330
1E
100
AcDbEntity
  8
SERVICE_SPACE
  6
Continuous
100
AcDbLine
 10
-454.9999162500012
 20
126.1526534133154
 30
0.0
 11
-454.9999162499998
 21
-128.624967843752
 31
0.0
  0
LINE
  5
7E42D
330
1E
100
AcDbEntity
  8
BASIS
  6
DASHDOT
370
    -3
100
AcDbLine
 10
26.49999337499048
 20
46.15130846216925
 30
0.0
 11
26.49999337499048
 21
121.2895030109484
 31
0.0
  0
LINE
  5
7E437
330
1E
100
AcDbEntity
  8
NOTE
100
AcDbLine
 10
26.5
 20
78.87498028124809
 30
0.0
 11
27.11443999999938
 21
118.8702602812481
 31
0.0
  0
LINE
  5
7E438
330
1E
100
AcDbEntity
  8
NOTE
100
AcDbLine
 10
7.034480000000257
 20
113.8191302812479
 30
0.0
 11
26.5
 21
78.87498028124809
 31
0.0
  0
TEXT
  5
7E43A
330
1E
100
AcDbEntity
  8
SIZE
100
AcDbText
 10
-587.5003770000002
 20
-40.56729125578567
 30
0.0
 40
64.0
  1
47.5
 50
90.00000375748582
 41
0.7817801112410065
 72
     5
 11
-587.500387
 21
111.917058060555
 31
0.0
100
AcDbText
  0
LINE
  5
7E43B
330
1E
100
AcDbEntity
  8
SIZE
100
AcDbLine
 10
-566.2834399999992
 20
-42.15401202873908
 30
0.0
 11
-566.2834399999992
 21
127.5
 31
0.0
  0
LINE
  5
7E43C
330
1E
100
AcDbEntity
  8
SIZE
100
AcDbLine
 10
-355.0
 20
52.7497958693657
 30
0.0
 11
-355.0
 21
368.9068800000004
 31
0.0
  0
LINE
  5
7E43D
330
1E
100
AcDbEntity
  8
NOTE
100
AcDbLine
 10
26.5
 20
78.87498028124809
 30
0.0
 11
-112.8964595824845
 21
633.0233799999996
 31
0.0
  0
LINE
  5
7E440
330
1E
100
AcDbEntity
  8
SIZE
100
AcDbLine
 10
356.2000000000007
 20
29.98798923474351
 30
0.0
 11
356.2000000000007
 21
368.5856177868318
 31
0.0
  0
LINE
  5
7E441
330
1E
100
AcDbEntity
  8
SIZE
100
AcDbLine
 10
-706.8316306602855
 20
-534.06574
 30
0.0
 11
-0.0000399999989895
 21
-534.06574
 31
0.0
  0
LINE
  5
7E442
330
1E
100
AcDbEntity
  8
SIZE
100
AcDbLine
 10
26.5
 20
-429.3746378663372
 30
0.0
 11
-350.4652399999995
 21
-429.3746378663372
 31
0.0
  0
TEXT
  5
7E443
330
1E
100
AcDbEntity
  8
SIZE
100
AcDbText
 10
-297.51224
 20
-416.4295291512444
 30
0.0
 40
64.0
  1
381.5
 41
0.7540459187201933
 72
     5
 11
-113.6686636263148
 21
-416.4295291512444
 31
0.0
100
AcDbText
  0
LINE
  5
7E444
330
1E
100
AcDbEntity
  8
SIZE
100
AcDbLine
 10
-112.0
 20
-321.0820949327971
 30
0.0
 11
-355.0
 21
-321.0820949327971
 31
0.0
  0
TEXT
  5
7E445
330
1E
100
AcDbEntity
  8
SIZE
100
AcDbText
 10
-297.51224
 20
-309.6135891485382
 30
0.0
 40
64.0
  1
243
 41
0.8730056983482782
 72
     5
 11
-153.8404450718262
 21
-309.6135891485382
 31
0.0
100
AcDbText
  0
LINE
  5
7E446
330
1E
100
AcDbEntity
  8
SERVICE_SPACE
  6
Continuous
100
AcDbLine
 10
-354.9999162499989
 20
-228.624967843752
 30
0.0
 11
328.9999177499894
 21
-128.624967843752
 31
0.0
  0
LINE
  5
7E447
330
1E
100
AcDbEntity
  8
SERVICE_SPACE
  6
Continuous
100
AcDbLine
 10
-354.999917133638
 20
-128.624967843752
 30
0.0
 11
328.9999177499894
 21
-228.624967843752
 31
0.0
  0
LINE
  5
7E448
330
1E
100
AcDbEntity
  8
SERVICE_SPACE
  6
Continuous
100
AcDbLine
 10
-354.9999162499989
 20
-228.624967843752
 30
0.0
 11
328.9999177499894
 21
-228.624967843752
 31
0.0
  0
LINE
  5
7E449
330
1E
100
AcDbEntity
  8
SERVICE_SPACE
  6
Continuous
100
AcDbLine
 10
-454.9999162499998
 20
-128.624967843752
 30
0.0
 11
678.9999177499894
 21
-128.624967843752
 31
0.0
  0
ARC
  5
7E451
330
1E
100
AcDbEntity
  8
DETAIL
  6
Continuous
370
    -3
100
AcDbCircle
 10
-239.9999400000006
 20
-139.4092318143484
 30
0.0
 40
9.999997499999999
100
AcDbArc
 50
289.471220999979
 51
0.0
  0
ARC
  5
7E452
330
1E
100
AcDbEntity
  8
DETAIL
  6
Continuous
370
    -3
100
AcDbCircle
 10
-232.9999417500048
 20
-136.6249658437509
 30
0.0
 40
2.999999249999999
100
AcDbArc
 50
270.0
 51
0.0
  0
LINE
  5
7E45B
330
1E
100
AcDbEntity
  8
SIZE
100
AcDbLine
 10
6.5
 20
78.87498028124809
 30
0.0
 11
-585.4409935299954
 21
78.87498028124809
 31
0.0
  0
TEXT
  5
7E45C
330
1E
100
AcDbEntity
  8
NOTE
100
AcDbText
 10
-1121.443456488972
 20
-402.3709638870241
 30
0.0
 40
64.0
  1
AH 2-%%C10×16
 41
0.9
100
AcDbText
  0
LINE
  5
7E45D
330
1E
100
AcDbEntity
  8
NOTE
100
AcDbLine
 10
-534.6774493569726
 20
-425.7886938870237
 30
0.0
 11
-1141.179556488972
 21
-425.7886938870237
 31
0.0
  0
LINE
  5
7E45E
330
1E
100
AcDbEntity
  8
SIZE
100
AcDbLine
 10
-455.000039999999
 20
-139.3916613067558
 30
0.0
 11
-455.000039999999
 21
-564.0657377486877
 31
0.0
  0
LINE
  5
7E45F
330
1E
100
AcDbEntity
  8
SIZE
100
AcDbLine
 10
-355.0000399999989
 20
-163.5111099999999
 30
0.0
 11
-355.0000399999989
 21
-564.06574
 31
0.0
  0
LINE
  5
7E460
330
1E
100
AcDbEntity
  8
SIZE
100
AcDbLine
 10
-354.9999112499999
 20
-108.6249728437519
 30
0.0
 11
-355.0
 21
-410.3089899999999
 31
0.0
  0
LINE
  5
7E461
330
1E
100
AcDbEntity
  8
NOTE
100
AcDbLine
 10
-250.0
 20
-136.1249659687518
 30
0.0
 11
-534.6774493569726
 21
-425.7886938870237
 31
0.0
  0
TEXT
  5
7E462
330
1E
100
AcDbEntity
  8
SIZE
100
AcDbText
 10
-695.8183612495522
 20
-515.9384466046449
 30
0.0
 40
64.0
  1
100以上
 41
0.7152873752266853
 72
     5
 11
-476.0820795799145
 21
-515.9384466046449
 31
0.0
100
AcDbText
  0
CIRCLE
  5
7E463
330
1E
100
AcDbEntity
  8
SIZE
100
AcDbCircle
 10
-455.000039999999
 20
-534.06574
 30
0.0
 40
6.0
  0
CIRCLE
  5
7E464
330
1E
100
AcDbEntity
  8
SIZE
100
AcDbCircle
 10
-355.0000399999989
 20
-534.06574
 30
0.0
 40
6.0
  0
CIRCLE
  5
7E465
330
1E
100
AcDbEntity
  8
SIZE
100
AcDbCircle
 10
-355.0
 20
-429.3746378663372
 30
0.0
 40
6.0
  0
LINE
  5
7E466
330
1E
100
AcDbEntity
  8
SIZE
100
AcDbLine
 10
-334.9999162499998
 20
-128.624967843752
 30
0.0
 11
-753.9962846326407
 21
-128.624967843752
 31
0.0
  0
LINE
  5
7E468
330
1E
100
AcDbEntity
  8
SIZE
100
AcDbLine
 10
-354.9999162499998
 20
-128.624967843752
 30
0.0
 11
-692.0546462499997
 21
-128.624967843752
 31
0.0
  0
LINE
  5
7E469
330
1E
100
AcDbEntity
  8
SIZE
100
AcDbLine
 10
-727.4618599999994
 20
-129.49998
 30
0.0
 11
-727.4618599999994
 21
0.0000100000002021
 31
0.0
  0
CIRCLE
  5
7E46C
330
1E
100
AcDbEntity
  8
SIZE
100
AcDbCircle
 10
-727.4618599999994
 20
-128.624967843752
 30
0.0
 40
6.0
  0
CIRCLE
  5
7E46E
330
1E
100
AcDbEntity
  8
SIZE
100
AcDbCircle
 10
-727.4618599999994
 20
-128.624967843752
 30
0.0
 40
6.0
  0
LINE
  5
7E470
330
1E
100
AcDbEntity
  8
SIZE
100
AcDbLine
 10
-727.4618599999994
 20
-129.49998
 30
0.0
 11
-727.4618599999994
 21
-137.49998
 31
0.0
  0
TEXT
  5
7E471
330
1E
100
AcDbEntity
  8
SIZE
100
AcDbText
 10
-759.4618499999996
 20
-74.05711999999994
 30
0.0
 40
64.0
  1
255
 50
89.5944719818677
 41
0.8554081836120449
 72
     5
 11
-758.4654758614696
 21
66.71510070600198
 31
0.0
100
AcDbText
  0
TEXT
  5
7E472
330
1E
100
AcDbEntity
  8
NOTE
  6
Continuous
 62
     4
100
AcDbText
 10
-468.9163862190792
 20
-284.495939940376
 30
0.0
 40
50.0
  1
ｻ-ﾋﾞｽｽﾍﾟ-ｽ
 50
90.00000250446868
 41
0.77777773141861
  7
STANDARD1
100
AcDbText
  0
LINE
  5
7E475
330
1E
100
AcDbEntity
  8
NOTE
100
AcDbLine
 10
-250.0
 20
-156.1249659687518
 30
0.0
 11
-250.0
 21
-116.1249659687519
 31
0.0
  0
CIRCLE
  5
7E476
330
1E
100
AcDbEntity
  8
SIZE
100
AcDbCircle
 10
-355.0
 20
-321.0820949327971
 30
0.0
 40
6.0
  0
LINE
  5
7E4FB
330
1E
100
AcDbEntity
  8
DETAIL
  6
Continuous
370
    -3
100
AcDbLine
 10
-266.9999332499946
 20
-139.6249650937497
 30
0.0
 11
-265.9999335000093
 21
-139.6249650937497
 31
0.0
  0
ARC
  5
7E4FC
330
1E
100
AcDbEntity
  8
DETAIL
  6
Continuous
370
    -3
100
AcDbCircle
 10
-265.9999335000093
 20
-135.6249660937528
 30
0.0
 40
3.999998999999999
100
AcDbArc
 50
270.0
 51
0.0
  0
LINE
  5
7E4FD
330
1E
100
AcDbEntity
  8
DETAIL
  6
Continuous
370
    -3
100
AcDbLine
 10
-261.9999344999951
 20
-135.6249660937528
 30
0.0
 11
-261.9999344999951
 21
-133.124966718753
 31
0.0
  0
ARC
  5
7E4FE
330
1E
100
AcDbEntity
  8
DETAIL
  6
Continuous
370
    -3
100
AcDbCircle
 10
-233.9999414999902
 20
-135.6249660937528
 30
0.0
 40
3.999998999999999
100
AcDbArc
 50
180.0
 51
270.0
  0
LINE
  5
7E4FF
330
1E
100
AcDbEntity
  8
DETAIL
  6
Continuous
370
    -3
100
AcDbLine
 10
-232.9999417500048
 20
-139.6249650937497
 30
0.0
 11
-233.9999414999902
 21
-139.6249650937497
 31
0.0
  0
ARC
  5
7E500
330
1E
100
AcDbEntity
  8
DETAIL
  6
Continuous
370
    -3
100
AcDbCircle
 10
-259.9999350000007
 20
-139.4092318143484
 30
0.0
 40
9.999997499999999
100
AcDbArc
 50
180.0
 51
250.5287790000209
  0
ARC
  5
7E501
330
1E
100
AcDbEntity
  8
DETAIL
  6
Continuous
370
    -3
100
AcDbCircle
 10
-249.9999374999997
 20
-133.1249667187512
 30
0.0
 40
11.99999699999989
100
AcDbArc
 50
359.9999999999913
 51
157.975686999999
  0
LINE
  5
7E502
330
1E
100
AcDbEntity
  8
DETAIL
  6
Continuous
370
    -3
100
AcDbLine
 10
-237.9999405000044
 20
-135.6249660937528
 30
0.0
 11
-237.9999405000044
 21
-133.124966718753
 31
0.0
  0
ARC
  5
7E503
330
1E
100
AcDbEntity
  8
DETAIL
  6
Continuous
370
    -3
100
AcDbCircle
 10
-249.9999374999997
 20
-139.1249652187507
 30
0.0
 40
4.999998749999999
100
AcDbArc
 50
180.0
 51
0.0
  0
ARC
  5
7E504
330
1E
100
AcDbEntity
  8
DETAIL
  6
Continuous
370
    -3
100
AcDbCircle
 10
-249.9999374999993
 20
-133.124966718753
 30
0.0
 40
4.999998749999576
100
AcDbArc
 50
0.0
 51
180.0
  0
LINE
  5
7E505
330
1E
100
AcDbEntity
  8
DETAIL
  6
Continuous
370
    -3
100
AcDbLine
 10
-229.9999424999996
 20
0.0192404183944746
 30
0.0
 11
-229.9999424999996
 21
-139.4092318143484
 31
0.0
  0
CIRCLE
  5
7E506
330
1E
100
AcDbEntity
  8
DETAIL
  6
Continuous
370
    -3
100
AcDbCircle
 10
-262.4999343749996
 20
-143.1249642187531
 30
0.0
 40
2.2499994375
  0
CIRCLE
  5
7E507
330
1E
100
AcDbEntity
  8
DETAIL
  6
Continuous
370
    -3
100
AcDbCircle
 10
-237.4999406249999
 20
-143.1249642187531
 30
0.0
 40
2.2499994375
  0
LINE
  5
7E508
330
1E
100
AcDbEntity
  8
DETAIL
  6
Continuous
370
    -3
100
AcDbLine
 10
-244.9999387500001
 20
-139.1249652187507
 30
0.0
 11
-244.9999387500001
 21
-133.124966718753
 31
0.0
  0
LINE
  5
7E509
330
1E
100
AcDbEntity
  8
DETAIL
  6
Continuous
370
    -3
100
AcDbLine
 10
-254.9999362499993
 20
-139.1249652187507
 30
0.0
 11
-254.9999362499993
 21
-133.124966718753
 31
0.0
  0
LINE
  5
7E50A
330
1E
100
AcDbEntity
  8
DETAIL
  6
Continuous
370
    -3
100
AcDbLine
 10
-269.9999324999998
 20
0.0
 30
0.0
 11
-269.9999324999998
 21
-139.4092318143484
 31
0.0
  0
ARC
  5
7E50B
330
1E
100
AcDbEntity
  8
DETAIL
  6
Continuous
370
    -3
100
AcDbCircle
 10
-266.9999332499946
 20
-136.6249658437509
 30
0.0
 40
2.999999249999999
100
AcDbArc
 50
180.0
 51
270.0
  0
ARC
  5
7E50C
330
1E
100
AcDbEntity
  8
DETAIL
  6
Continuous
370
    -3
100
AcDbCircle
 10
-249.9999374999997
 20
-111.1249722187521
 30
0.0
 40
39.99998999999999
100
AcDbArc
 50
250.5287790000209
 51
289.471220999979
  0
ARC
  5
7E50D
330
1E
100
AcDbEntity
  8
DETAIL
  6
Continuous
370
    -3
100
AcDbCircle
 10
-249.9999374999997
 20
-133.124966718753
 30
0.0
 40
11.999997
100
AcDbArc
 50
157.9756869999914
 51
180.0
  0
LINE
  5
7E744
330
1E
100
AcDbEntity
  8
BASIS
  6
DASHDOT
370
    -3
100
AcDbLine
 10
-260.2893907114585
 20
-136.1249659687518
 30
0.0
 11
-239.710484288541
 21
-136.1249659687518
 31
0.0
  0
LINE
  5
7E745
330
1E
100
AcDbEntity
  8
BASIS
  6
DASHDOT
370
    -3
100
AcDbLine
 10
-249.9999374999997
 20
-125.5935086016147
 30
0.0
 11
-249.9999374999997
 21
-146.656423335889
 31
0.0
  0
CIRCLE
  5
7E77C
330
1E
100
AcDbEntity
  8
FIX
100
AcDbCircle
 10
-250.0
 20
-136.1249659687518
 30
0.0
 40
5.0
  0
LINE
  5
7E77D
330
1E
100
AcDbEntity
  8
NOTE
100
AcDbLine
 10
-250.0
 20
-136.1249659687518
 30
0.0
 11
-284.4660800000001
 21
-156.4249459687521
 31
0.0
  0
LINE
  5
7E77E
330
1E
100
AcDbEntity
  8
NOTE
100
AcDbLine
 10
-269.6985100000001
 20
-170.938305968752
 30
0.0
 11
-250.0
 21
-136.1249659687518
 31
0.0
  0
LINE
  5
7E77F
330
1E
100
AcDbEntity
  8
NOTE
100
AcDbLine
 10
-270.0
 20
-136.1249659687518
 30
0.0
 11
-230.0
 21
-136.1249659687518
 31
0.0
  0
LINE
  5
7E780
330
1E
100
AcDbEntity
  8
NOTE
  6
Continuous
 62
     4
100
AcDbLine
 10
-427.1310409798616
 20
-11.99142104768134
 30
0.0
 11
-387.0132539972591
 21
28.20996006832547
 31
0.0
  0
LINE
  5
7E781
330
1E
100
AcDbEntity
  8
NOTE
  6
Continuous
 62
     4
100
AcDbLine
 10
-387.0132539972591
 20
28.20996006832547
 30
0.0
 11
-427.1310409798616
 21
68.41134118433592
 31
0.0
  0
LINE
  5
7E782
330
1E
100
AcDbEntity
  8
NOTE
  6
Continuous
 62
     4
100
AcDbLine
 10
-427.1310409798616
 20
-11.99142104768134
 30
0.0
 11
-427.1310409798616
 21
13.05918623976731
 31
0.0
  0
TEXT
  5
7E783
330
1E
100
AcDbEntity
  8
NOTE
  6
Continuous
 62
     4
100
AcDbText
 10
-535.4709708914715
 20
3.953979920810979
 30
0.0
 40
49.33042665836238
  1
OA
 41
0.57
  7
ZU_SHPTB00001
100
AcDbText
  0
CIRCLE
  5
7E784
330
1E
100
AcDbEntity
  8
SIZE
100
AcDbCircle
 10
-566.2834399999992
 20
78.87498028124809
 30
0.0
 40
6.0
  0
LINE
  5
7E785
330
1E
100
AcDbEntity
  8
NOTE
  6
Continuous
 62
     4
100
AcDbLine
 10
-427.1310409798616
 20
43.36073389688727
 30
0.0
 11
-427.1310409798616
 21
68.41134118433592
 31
0.0
  0
LINE
  5
7E786
330
1E
100
AcDbEntity
  8
NOTE
  6
Continuous
 62
     4
100
AcDbLine
 10
-467.8994937982979
 20
43.36073389688727
 30
0.0
 11
-467.8994937982979
 21
13.05918623976731
 31
0.0
  0
LINE
  5
7E787
330
1E
100
AcDbEntity
  8
NOTE
  6
Continuous
 62
     4
100
AcDbLine
 10
-427.1310409798616
 20
43.36073389688727
 30
0.0
 11
-467.8994937982979
 21
43.36073389688727
 31
0.0
  0
LINE
  5
7E788
330
1E
100
AcDbEntity
  8
NOTE
  6
Continuous
 62
     4
100
AcDbLine
 10
-427.1310409798616
 20
13.05918623976731
 30
0.0
 11
-467.8994937982979
 21
13.05918623976731
 31
0.0
  0
TEXT
  5
7E7BD
330
1E
100
AcDbEntity
  8
SIZE
100
AcDbText
 10
501.3903800000007
 20
-357.8715015625903
 30
0.0
 40
64.0
  1
22.5
 50
90.00000699283935
 41
0.8401530556617002
 72
     5
 11
501.3903600000012
 21
-194.0016484201951
 31
0.0
100
AcDbText
  0
TEXT
  5
7E7BE
330
1E
100
AcDbEntity
  8
SIZE
100
AcDbText
 10
431.7679047416931
 20
-515.9384466046449
 30
0.0
 40
64.0
  1
350以上
 41
0.687986330370705
 72
     5
 11
651.5041864113308
 21
-515.9384466046449
 31
0.0
100
AcDbText
  0
LINE
  5
7E7BF
330
1E
100
AcDbEntity
  8
SIZE
100
AcDbLine
 10
352.999960000001
 20
-534.06574
 30
0.0
 11
678.5000152499805
 21
-534.0535176433222
 31
0.0
  0
TEXT
  5
7E7C0
330
1E
100
AcDbEntity
  8
NOTE
  6
Continuous
 62
     4
100
AcDbText
 10
405.5347289863066
 20
-121.3431928338504
 30
0.0
 40
50.0
  1
ｻ-ﾋﾞｽｽﾍﾟ-ｽ
 50
0.0000025044687019
 41
0.77777773141861
  7
STANDARD1
100
AcDbText
  0
LINE
  5
7E7C1
330
1E
100
AcDbEntity
  8
SIZE
100
AcDbLine
 10
269.9999325000053
 20
-136.1249659687518
 30
0.0
 11
823.3366366474482
 21
-136.1249659687518
 31
0.0
  0
LINE
  5
7E7C2
330
1E
100
AcDbEntity
  8
SIZE
100
AcDbLine
 10
250.0000001804237
 20
-151.1249723607597
 30
0.0
 11
946.4854205134662
 21
-151.1249723607597
 31
0.0
  0
LINE
  5
7E7C4
330
1E
100
AcDbEntity
  8
SIZE
100
AcDbLine
 10
308.9999227499911
 20
-128.6249678437516
 30
0.0
 11
546.3482252809744
 21
-128.6249678437516
 31
0.0
  0
LINE
  5
7E7C6
330
1E
100
AcDbEntity
  8
SIZE
100
AcDbLine
 10
26.5
 20
-449.0761207600844
 30
0.0
 11
26.5
 21
52.78449319252832
 31
0.0
  0
LINE
  5
7E7C7
330
1E
100
AcDbEntity
  8
SIZE
100
AcDbLine
 10
328.999960000001
 20
-183.5111099999999
 30
0.0
 11
328.999960000001
 21
-564.06574
 31
0.0
  0
LINE
  5
7E7C8
330
1E
100
AcDbEntity
  8
SIZE
100
AcDbLine
 10
389.4999999999999
 20
-56.40264900000011
 30
0.0
 11
389.4999999999999
 21
-564.2469099999998
 31
0.0
  0
LINE
  5
7E7C9
330
1E
100
AcDbEntity
  8
SIZE
100
AcDbLine
 10
328.9999177499912
 20
-108.6249728437519
 30
0.0
 11
329.0
 21
-564.2469099999998
 31
0.0
  0
LINE
  5
7E7CA
330
1E
100
AcDbEntity
  8
SIZE
100
AcDbLine
 10
352.999960000001
 20
-534.06574
 30
0.0
 11
-0.0000399999989895
 21
-534.06574
 31
0.0
  0
TEXT
  5
7E7CB
330
1E
100
AcDbEntity
  8
SIZE
100
AcDbText
 10
-68.57146999999895
 20
-525.6639858739017
 30
0.0
 40
64.0
  1
684
 41
0.9545454545454546
 72
     5
 11
91.42853000000105
 21
-525.6639858739017
 31
0.0
100
AcDbText
  0
CIRCLE
  5
7E7CC
330
1E
100
AcDbEntity
  8
SIZE
100
AcDbCircle
 10
26.5
 20
-429.3746378663372
 30
0.0
 40
6.0
  0
LINE
  5
7E7CD
330
1E
100
AcDbEntity
  8
SIZE
100
AcDbLine
 10
255.2375100583676
 20
-492.5811857939752
 30
0.0
 11
389.4999999999999
 21
-492.577308757809
 31
0.0
  0
TEXT
  5
7E7CE
330
1E
100
AcDbEntity
  8
SIZE
100
AcDbText
 10
220.6019306672387
 20
-476.5775710554772
 30
0.0
 40
64.0
  1
61
 41
1.081639172972402
 72
     5
 11
303.0125343222789
 21
-476.5775710554772
 31
0.0
100
AcDbText
  0
CIRCLE
  5
7E7CF
330
1E
100
AcDbEntity
  8
SIZE
100
AcDbCircle
 10
328.9999254483818
 20
-492.5790557896362
 30
0.0
 40
6.0
  0
CIRCLE
  5
7E7D0
330
1E
100
AcDbEntity
  8
SIZE
100
AcDbCircle
 10
328.999960000001
 20
-534.06574
 30
0.0
 40
6.0
  0
CIRCLE
  5
7E7D1
330
1E
100
AcDbEntity
  8
SIZE
100
AcDbCircle
 10
389.4999999999999
 20
-492.762355793975
 30
0.0
 40
6.0
  0
CIRCLE
  5
7E7D2
330
1E
100
AcDbEntity
  8
SIZE
100
AcDbCircle
 10
389.4999999999999
 20
-534.2469099999998
 30
0.0
 40
6.0
  0
TEXT
  5
7E7D3
330
1E
100
AcDbEntity
  8
NOTE
  6
Continuous
 62
     4
100
AcDbText
 10
47.9998140652724
 20
-283.6997884822508
 30
0.0
 40
50.0
  1
ｻ-ﾋﾞｽｽﾍﾟ-ｽ
 50
0.0000025044687019
 41
0.77777773141861
  7
STANDARD1
100
AcDbText
  0
LINE
  5
7E7DC
330
1E
100
AcDbEntity
  8
BASIS
  6
DASHDOT
370
    -3
100
AcDbLine
 10
-111.999971999995
 20
-75.22529541276163
 30
0.0
 11
-111.999971999995
 21
-213.1996667000721
 31
0.0
  0
TEXT
  5
7E7DD
330
1E
100
AcDbEntity
  8
NOTE
  6
Continuous
 62
     4
100
AcDbText
 10
-92.36942727966289
 20
-309.3180317890223
 30
0.0
 40
49.33042665836238
  1
EA
 41
0.57
  7
ZU_SHPTB00001
100
AcDbText
  0
LINE
  5
7E7DE
330
1E
100
AcDbEntity
  8
NOTE
  6
Continuous
 62
     4
100
AcDbLine
 10
-74.80791535781737
 20
-248.6064217016723
 30
0.0
 11
-34.60653424180691
 21
-208.4886347190736
 31
0.0
  0
LINE
  5
7E7DF
330
1E
100
AcDbEntity
  8
NOTE
  6
Continuous
 62
     4
100
AcDbLine
 10
-59.65714152925556
 20
-208.4886347190736
 30
0.0
 11
-34.60653424180691
 21
-208.4886347190736
 31
0.0
  0
LINE
  5
7E7E4
330
1E
100
AcDbEntity
  8
NOTE
  6
Continuous
 62
     4
100
AcDbLine
 10
-115.0092964738241
 20
-208.4886347190736
 30
0.0
 11
-74.80791535781737
 21
-248.6064217016723
 31
0.0
  0
LINE
  5
7E7E5
330
1E
100
AcDbEntity
  8
SIZE
100
AcDbLine
 10
-112.0
 20
-336.1246438727175
 30
0.0
 11
-111.999971999995
 21
-213.1996667000721
 31
0.0
  0
CIRCLE
  5
7E7E6
330
1E
100
AcDbEntity
  8
SIZE
100
AcDbCircle
 10
-112.0
 20
-321.0820949327971
 30
0.0
 40
6.0
  0
LINE
  5
7EAAD
330
1E
100
AcDbEntity
  8
NOTE
  6
Continuous
 62
     4
100
AcDbLine
 10
-115.0092964738241
 20
-208.4886347190736
 30
0.0
 11
-89.95868918637553
 21
-208.4886347190736
 31
0.0
  0
LINE
  5
7EAAE
330
1E
100
AcDbEntity
  8
NOTE
  6
Continuous
 62
     4
100
AcDbLine
 10
-59.65714152925556
 20
-208.4886347190736
 30
0.0
 11
-59.65714152925556
 21
-167.7201819006372
 31
0.0
  0
LINE
  5
7EAAF
330
1E
100
AcDbEntity
  8
NOTE
  6
Continuous
 62
     4
100
AcDbLine
 10
-89.95868918637553
 20
-208.4886347190736
 30
0.0
 11
-89.95868918637553
 21
-167.7201819006372
 31
0.0
  0
LINE
  5
7EAB0
330
1E
100
AcDbEntity
  8
NOTE
  6
Continuous
 62
     4
100
AcDbLine
 10
-59.65714152925556
 20
-167.7201819006372
 30
0.0
 11
-89.95868918637553
 21
-167.7201819006372
 31
0.0
  0
CIRCLE
  5
7F233
330
1E
100
AcDbEntity
  8
DETAIL
  6
DASHED
370
    -3
100
AcDbCircle
 10
26.49999337499048
 20
78.87498028124809
 30
0.0
 40
16.49999587499999
  0
LINE
  5
7F234
330
1E
100
AcDbEntity
  8
BASIS
  6
DASHDOT
370
    -3
100
AcDbLine
 10
-6.708931656098684
 20
78.87498028124809
 30
0.0
 11
61.06087806811865
 21
78.87498028124809
 31
0.0
  0
LINE
  5
7F235
330
1E
100
AcDbEntity
  8
NOTE
100
AcDbLine
 10
6.5
 20
78.87498028124809
 30
0.0
 11
46.5
 21
78.87498028124809
 31
0.0
  0
LINE
  5
7F239
330
1E
100
AcDbEntity
  8
NOTE
100
AcDbLine
 10
26.5
 20
58.87498028124809
 30
0.0
 11
26.5
 21
98.87498028124809
 31
0.0
  0
LINE
  5
7F23C
330
1E
100
AcDbEntity
  8
NOTE
100
AcDbLine
 10
250.0
 20
-156.1249659687518
 30
0.0
 11
250.0
 21
-116.1249659687519
 31
0.0
  0
ARC
  5
7F23D
330
1E
100
AcDbEntity
  8
DETAIL
  6
Continuous
370
    -3
100
AcDbCircle
 10
266.9999332499946
 20
-136.6249658437509
 30
0.0
 40
2.999999249999999
100
AcDbArc
 50
270.0
 51
0.0
  0
LINE
  5
7F23E
330
1E
100
AcDbEntity
  8
DETAIL
  6
Continuous
370
    -3
100
AcDbLine
 10
254.9999362499993
 20
-139.1249652187507
 30
0.0
 11
254.9999362499993
 21
-133.124966718753
 31
0.0
  0
CIRCLE
  5
7F23F
330
1E
100
AcDbEntity
  8
DETAIL
  6
Continuous
370
    -3
100
AcDbCircle
 10
262.4999343749996
 20
-143.1249642187531
 30
0.0
 40
2.2499994375
  0
LINE
  5
7F240
330
1E
100
AcDbEntity
  8
DETAIL
  6
Continuous
370
    -3
100
AcDbLine
 10
269.9999324999998
 20
0.0
 30
0.0
 11
269.9999324999998
 21
-139.4092318143484
 31
0.0
  0
ARC
  5
7F241
330
1E
100
AcDbEntity
  8
DETAIL
  6
Continuous
370
    -3
100
AcDbCircle
 10
249.9999374999997
 20
-133.1249667187526
 30
0.0
 40
4.999998750000031
100
AcDbArc
 50
359.9999999999948
 51
180.0000000000052
  0
LINE
  5
7F242
330
1E
100
AcDbEntity
  8
DETAIL
  6
Continuous
370
    -3
100
AcDbLine
 10
261.9999344999951
 20
-135.6249660937528
 30
0.0
 11
261.9999344999951
 21
-133.124966718753
 31
0.0
  0
ARC
  5
7F243
330
1E
100
AcDbEntity
  8
DETAIL
  6
Continuous
370
    -3
100
AcDbCircle
 10
249.9999374999997
 20
-133.1249667187521
 30
0.0
 40
11.99999699999989
100
AcDbArc
 50
359.9999999999957
 51
157.975686999995
  0
ARC
  5
7F244
330
1E
100
AcDbEntity
  8
DETAIL
  6
Continuous
370
    -3
100
AcDbCircle
 10
259.9999350000007
 20
-139.4092318143484
 30
0.0
 40
9.999997499999999
100
AcDbArc
 50
289.471220999979
 51
0.0
  0
LINE
  5
7F245
330
1E
100
AcDbEntity
  8
DETAIL
  6
Continuous
370
    -3
100
AcDbLine
 10
266.9999332499946
 20
-139.6249650937497
 30
0.0
 11
265.9999335000093
 21
-139.6249650937497
 31
0.0
  0
ARC
  5
7F246
330
1E
100
AcDbEntity
  8
DETAIL
  6
Continuous
370
    -3
100
AcDbCircle
 10
265.9999335000093
 20
-135.6249660937528
 30
0.0
 40
3.999998999999999
100
AcDbArc
 50
180.0
 51
270.0
  0
ARC
  5
7F247
330
1E
100
AcDbEntity
  8
DETAIL
  6
Continuous
370
    -3
100
AcDbCircle
 10
232.9999417500048
 20
-136.6249658437509
 30
0.0
 40
2.999999249999999
100
AcDbArc
 50
180.0
 51
270.0
  0
LINE
  5
7F248
330
1E
100
AcDbEntity
  8
DETAIL
  6
Continuous
370
    -3
100
AcDbLine
 10
229.9999424999996
 20
-0.057107552067464
 30
0.0
 11
229.9999424999996
 21
-139.4092318143484
 31
0.0
  0
LINE
  5
7F249
330
1E
100
AcDbEntity
  8
DETAIL
  6
Continuous
370
    -3
100
AcDbLine
 10
244.9999387500001
 20
-139.1249652187507
 30
0.0
 11
244.9999387500001
 21
-133.124966718753
 31
0.0
  0
CIRCLE
  5
7F24A
330
1E
100
AcDbEntity
  8
DETAIL
  6
Continuous
370
    -3
100
AcDbCircle
 10
237.4999406249999
 20
-143.1249642187531
 30
0.0
 40
2.2499994375
  0
ARC
  5
7F24B
330
1E
100
AcDbEntity
  8
DETAIL
  6
Continuous
370
    -3
100
AcDbCircle
 10
239.9999400000006
 20
-139.4092318143484
 30
0.0
 40
9.999997499999999
100
AcDbArc
 50
180.0
 51
250.5287790000209
  0
LINE
  5
7F24C
330
1E
100
AcDbEntity
  8
DETAIL
  6
Continuous
370
    -3
100
AcDbLine
 10
237.9999405000044
 20
-135.6249660937528
 30
0.0
 11
237.9999405000044
 21
-133.124966718753
 31
0.0
  0
ARC
  5
7F24D
330
1E
100
AcDbEntity
  8
DETAIL
  6
Continuous
370
    -3
100
AcDbCircle
 10
233.9999414999902
 20
-135.6249660937528
 30
0.0
 40
3.999998999999999
100
AcDbArc
 50
270.0
 51
0.0
  0
LINE
  5
7F24E
330
1E
100
AcDbEntity
  8
DETAIL
  6
Continuous
370
    -3
100
AcDbLine
 10
232.9999417500048
 20
-139.6249650937497
 30
0.0
 11
233.9999414999902
 21
-139.6249650937497
 31
0.0
  0
ARC
  5
7F24F
330
1E
100
AcDbEntity
  8
DETAIL
  6
Continuous
370
    -3
100
AcDbCircle
 10
249.9999374999997
 20
-133.124966718753
 30
0.0
 40
11.999997
100
AcDbArc
 50
157.9756869999914
 51
180.0
  0
LINE
  5
7F251
330
1E
100
AcDbEntity
  8
BASIS
  6
DASHDOT
370
    -3
100
AcDbLine
 10
249.9999374999997
 20
-125.5935086016147
 30
0.0
 11
249.9999374999997
 21
-146.656423335889
 31
0.0
  0
ARC
  5
7F252
330
1E
100
AcDbEntity
  8
DETAIL
  6
Continuous
370
    -3
100
AcDbCircle
 10
249.9999374999997
 20
-139.1249652187507
 30
0.0
 40
4.999998749999999
100
AcDbArc
 50
180.0
 51
0.0
  0
ARC
  5
7F253
330
1E
100
AcDbEntity
  8
DETAIL
  6
Continuous
370
    -3
100
AcDbCircle
 10
249.9999374999997
 20
-111.1249722187521
 30
0.0
 40
39.99998999999999
100
AcDbArc
 50
250.5287790000209
 51
289.471220999979
  0
LINE
  5
7F254
330
1E
100
AcDbEntity
  8
BASIS
  6
DASHDOT
370
    -3
100
AcDbLine
 10
239.3425772083091
 20
-136.1249659687518
 30
0.0
 11
260.6572977916903
 21
-136.1249659687518
 31
0.0
  0
LINE
  5
7F255
330
1E
100
AcDbEntity
  8
NOTE
100
AcDbLine
 10
230.0
 20
-136.1249659687518
 30
0.0
 11
270.0
 21
-136.1249659687518
 31
0.0
  0
CIRCLE
  5
7F256
330
1E
100
AcDbEntity
  8
FIX
100
AcDbCircle
 10
250.0
 20
-136.1249659687518
 30
0.0
 40
5.0
  0
LINE
  5
7F29A
330
1E
100
AcDbEntity
  8
SIZE
100
AcDbLine
 10
678.5000152499805
 20
-162.3662091757732
 30
0.0
 11
678.5000152499805
 21
-567.6590429390999
 31
0.0
  0
LINE
  5
7F29B
330
1E
100
AcDbEntity
  8
SIZE
100
AcDbLine
 10
528.0431700000008
 20
-410.5
 30
0.0
 11
528.0431700000008
 21
-128.6249678437516
 31
0.0
  0
CIRCLE
  5
7F29C
330
1E
100
AcDbEntity
  8
SIZE
100
AcDbCircle
 10
678.5000152499805
 20
-534.0535176433222
 30
0.0
 40
6.0
  0
CIRCLE
  5
7F29D
330
1E
100
AcDbEntity
  8
SIZE
100
AcDbCircle
 10
528.0431700000008
 20
-151.1249723607597
 30
0.0
 40
6.0
  0
CIRCLE
  5
7F29E
330
1E
100
AcDbEntity
  8
SIZE
100
AcDbCircle
 10
528.0431700000008
 20
-128.6249678437516
 30
0.0
 40
6.0
  0
CIRCLE
  5
7F29F
330
1E
100
AcDbEntity
  8
SIZE
100
AcDbCircle
 10
795.2596549752707
 20
-136.1249659687518
 30
0.0
 40
6.0
  0
CIRCLE
  5
7F2A2
330
1E
100
AcDbEntity
  8
SIZE
100
AcDbCircle
 10
920.4566108147773
 20
-151.1249723607597
 30
0.0
 40
6.0
  0
TEXT
  5
7F2A3
330
1E
100
AcDbEntity
  8
SIZE
100
AcDbText
 10
903.0668704596683
 20
-74.05713999999989
 30
0.0
 40
64.0
  1
300
 50
90.00000358098612
 41
0.972222222222224
 72
     5
 11
903.0668604596685
 21
85.9428600000001
 31
0.0
100
AcDbText
  0
LINE
  5
7F2A4
330
1E
100
AcDbEntity
  8
SERVICE_SPACE
  6
Continuous
100
AcDbLine
 10
328.9999177499894
 20
126.1526534133154
 30
0.0
 11
-354.9999162500016
 21
226.1526534133154
 31
0.0
  0
LINE
  5
7F2A5
330
1E
100
AcDbEntity
  8
SERVICE_SPACE
  6
Continuous
100
AcDbLine
 10
-354.9999162500012
 20
126.1526534133154
 30
0.0
 11
328.9999177499894
 21
226.1526534133154
 31
0.0
  0
LINE
  5
7F2A6
330
1E
100
AcDbEntity
  8
SERVICE_SPACE
  6
Continuous
100
AcDbLine
 10
-354.9999162500016
 20
226.1526534133154
 30
0.0
 11
328.9999177499894
 21
226.1526534133154
 31
0.0
  0
LINE
  5
7F2A7
330
1E
100
AcDbEntity
  8
SERVICE_SPACE
  6
Continuous
100
AcDbLine
 10
-454.9999162500012
 20
126.1526534133154
 30
0.0
 11
678.9999177499894
 21
126.1526534133154
 31
0.0
  0
ARC
  5
7F2A8
330
1E
100
AcDbEntity
  8
DETAIL
  6
Continuous
370
    -3
100
AcDbCircle
 10
-232.9999417500048
 20
134.374966406247
 30
0.0
 40
2.999999249999999
100
AcDbArc
 50
0.0
 51
90.0
  0
LINE
  5
7F2AB
330
1E
100
AcDbEntity
  8
NOTE
100
AcDbLine
 10
-112.8964595824845
 20
633.0233799999996
 30
0.0
 11
-438.1727099999989
 21
633.0233799999996
 31
0.0
  0
TEXT
  5
7F2AC
330
1E
100
AcDbEntity
  8
NOTE
100
AcDbText
 10
-389.5935399999998
 20
656.4410999999999
 30
0.0
 40
64.0
  1
D%%C33
 41
0.9
100
AcDbText
  0
LINE
  5
7F2AD
330
1E
100
AcDbEntity
  8
SIZE
100
AcDbLine
 10
-248.0
 20
338.9068800000004
 30
0.0
 11
248.0
 21
338.9068800000004
 31
0.0
  0
LINE
  5
7F2AE
330
1E
100
AcDbEntity
  8
NOTE
100
AcDbLine
 10
-488.860382008784
 20
426.4148710839108
 30
0.0
 11
-1016.965382870967
 21
426.4148710839108
 31
0.0
  0
TEXT
  5
7F2AF
330
1E
100
AcDbEntity
  8
NOTE
100
AcDbText
 10
-1006.989248473901
 20
449.8326010839109
 30
0.0
 40
64.0
  1
AH 2-Ucut
 41
0.9
100
AcDbText
  0
LINE
  5
7F2B0
330
1E
100
AcDbEntity
  8
SIZE
100
AcDbLine
 10
-361.6041594628323
 20
226.1526534133154
 30
0.0
 11
-776.7713236007103
 21
226.1526534133154
 31
0.0
  0
LINE
  5
7F2B1
330
1E
100
AcDbEntity
  8
SIZE
100
AcDbLine
 10
-358.299999175002
 20
310.4728884965093
 30
0.0
 11
-593.385129662758
 21
310.4728884965093
 31
0.0
  0
TEXT
  5
7F2B2
330
1E
100
AcDbEntity
  8
SIZE
100
AcDbText
 10
-584.6880527982757
 20
325.2269142149416
 30
0.0
 40
64.0
  1
17.5
 50
0.2936552542249792
 41
0.7934758043919525
 72
     5
 11
-439.5972399388729
 21
325.9705475675
 31
0.0
100
AcDbText
  0
LINE
  5
7F2B3
330
1E
100
AcDbEntity
  8
SIZE
100
AcDbLine
 10
-284.710120934732
 20
126.1526534133154
 30
0.0
 11
-778.5406439707466
 21
126.1526534133154
 31
0.0
  0
TEXT
  5
7F2B4
330
1E
100
AcDbEntity
  8
SIZE
100
AcDbText
 10
-768.6870854803083
 20
142.5239994671646
 30
0.0
 40
64.0
  1
100以上
 50
88.8258403845324
 41
0.7287252541368752
 72
     5
 11
-764.0997643860746
 21
366.3413920192215
 31
0.0
100
AcDbText
  0
CIRCLE
  5
7F2B5
330
1E
100
AcDbEntity
  8
SIZE
100
AcDbCircle
 10
-727.4618599999994
 20
226.1526534133154
 30
0.0
 40
6.0
  0
CIRCLE
  5
7F2B6
330
1E
100
AcDbEntity
  8
SIZE
100
AcDbCircle
 10
-727.4618599999994
 20
126.1526534133154
 30
0.0
 40
6.0
  0
LINE
  5
7F2B7
330
1E
100
AcDbEntity
  8
NOTE
100
AcDbLine
 10
-250.0000618040835
 20
136.1249791404989
 30
0.0
 11
-488.860382008784
 21
426.4148710839108
 31
0.0
  0
CIRCLE
  5
7F2B8
330
1E
100
AcDbEntity
  8
SIZE
100
AcDbCircle
 10
-250.0
 20
338.9068800000004
 30
0.0
 40
6.0
  0
CIRCLE
  5
7F2B9
330
1E
100
AcDbEntity
  8
SIZE
100
AcDbCircle
 10
-250.0
 20
338.9068800000004
 30
0.0
 40
6.0
  0
CIRCLE
  5
7F2BA
330
1E
100
AcDbEntity
  8
SIZE
100
AcDbCircle
 10
-355.0
 20
338.9068800000004
 30
0.0
 40
6.0
  0
LINE
  5
7F2BB
330
1E
100
AcDbEntity
  8
SIZE
100
AcDbLine
 10
-250.0
 20
202.4999999999999
 30
0.0
 11
-250.0
 21
368.9068800000004
 31
0.0
  0
LINE
  5
7F2BC
330
1E
100
AcDbEntity
  8
SIZE
100
AcDbLine
 10
-250.0000625000002
 20
164.9147823543171
 30
0.0
 11
-250.0
 21
368.9068800000004
 31
0.0
  0
CIRCLE
  5
7F2BD
330
1E
100
AcDbEntity
  8
SIZE
100
AcDbCircle
 10
-566.2834399999992
 20
125.8749685312495
 30
0.0
 40
6.0
  0
LINE
  5
7F2BE
330
1E
100
AcDbEntity
  8
NOTE
100
AcDbLine
 10
-282.5438739527103
 20
159.3822409958984
 30
0.0
 11
-250.0000618040835
 21
136.1249791404989
 31
0.0
  0
LINE
  5
7F2BF
330
1E
100
AcDbEntity
  8
NOTE
100
AcDbLine
 10
-250.0000618040835
 20
136.1249791404989
 30
0.0
 11
-266.555197120771
 21
172.538264534884
 31
0.0
  0
LINE
  5
7F2C0
330
1E
100
AcDbEntity
  8
BASIS
  6
DASHDOT
370
    -3
100
AcDbLine
 10
-249.9999374999997
 20
153.2844283455506
 30
0.0
 11
-249.9999374999997
 21
118.9655035919531
 31
0.0
  0
LINE
  5
7F2C1
330
1E
100
AcDbEntity
  8
BASIS
  6
DASHDOT
370
    -3
100
AcDbLine
 10
-266.8932293187635
 20
136.1249659687518
 30
0.0
 11
-233.1066456812359
 21
136.1249659687518
 31
0.0
  0
LINE
  5
7F2C2
330
1E
100
AcDbEntity
  8
DETAIL
  6
Continuous
370
    -3
100
AcDbLine
 10
-261.9999344999951
 20
133.3749666562489
 30
0.0
 11
-261.9999344999951
 21
130.8749672812491
 31
0.0
  0
LINE
  5
7F2C3
330
1E
100
AcDbEntity
  8
DETAIL
  6
Continuous
370
    -3
100
AcDbLine
 10
-266.9999332499946
 20
137.3749656562518
 30
0.0
 11
-265.9999335000093
 21
137.3749656562518
 31
0.0
  0
ARC
  5
7F2C4
330
1E
100
AcDbEntity
  8
DETAIL
  6
Continuous
370
    -3
100
AcDbCircle
 10
-265.9999335000093
 20
133.3749666562489
 30
0.0
 40
3.999998999999999
100
AcDbArc
 50
0.0
 51
90.0
  0
LINE
  5
7F2C5
330
1E
100
AcDbEntity
  8
DETAIL
  6
Continuous
370
    -3
100
AcDbLine
 10
-254.9999362499993
 20
141.3749646562482
 30
0.0
 11
-254.9999362499993
 21
130.8749672812491
 31
0.0
  0
LINE
  5
7F2C6
330
1E
100
AcDbEntity
  8
DETAIL
  6
Continuous
370
    -3
100
AcDbLine
 10
-232.9999417500048
 20
137.3749656562518
 30
0.0
 11
-233.9999414999902
 21
137.3749656562518
 31
0.0
  0
ARC
  5
7F2C7
330
1E
100
AcDbEntity
  8
DETAIL
  6
Continuous
370
    -3
100
AcDbCircle
 10
-249.9999374999997
 20
130.8749672812491
 30
0.0
 40
4.999998749999999
100
AcDbArc
 50
180.0
 51
0.0
  0
LINE
  5
7F2C8
330
1E
100
AcDbEntity
  8
DETAIL
  6
Continuous
370
    -3
100
AcDbLine
 10
-244.9999387500001
 20
141.3749646562482
 30
0.0
 11
-244.9999387500001
 21
130.8749672812491
 31
0.0
  0
ARC
  5
7F2C9
330
1E
100
AcDbEntity
  8
DETAIL
  6
Continuous
370
    -3
100
AcDbCircle
 10
-249.9999374999997
 20
130.8749672812491
 30
0.0
 40
11.999997
100
AcDbArc
 50
180.0
 51
204.624317999986
  0
LINE
  5
7F2CA
330
1E
100
AcDbEntity
  8
DETAIL
  6
Continuous
370
    -3
100
AcDbLine
 10
-237.9999405000044
 20
133.3749666562489
 30
0.0
 11
-237.9999405000044
 21
130.8749672812491
 31
0.0
  0
ARC
  5
7F2CB
330
1E
100
AcDbEntity
  8
DETAIL
  6
Continuous
370
    -3
100
AcDbCircle
 10
-233.9999414999902
 20
133.3749666562489
 30
0.0
 40
3.999998999999999
100
AcDbArc
 50
90.0
 51
180.0
  0
LINE
  5
7F2CC
330
1E
100
AcDbEntity
  8
DETAIL
  6
Continuous
370
    -3
100
AcDbLine
 10
-269.9999324999998
 20
0.0
 30
0.0
 11
-269.9999324999998
 21
141.3749646562482
 31
0.0
  0
ARC
  5
7F2CD
330
1E
100
AcDbEntity
  8
DETAIL
  6
Continuous
370
    -3
100
AcDbCircle
 10
-266.9999332499946
 20
134.374966406247
 30
0.0
 40
2.999999249999999
100
AcDbArc
 50
90.0
 51
180.0
  0
LINE
  5
7F2CE
330
1E
100
AcDbEntity
  8
DETAIL
  6
Continuous
370
    -3
100
AcDbLine
 10
-229.9999424999996
 20
0.0192404183944746
 30
0.0
 11
-229.9999424999996
 21
141.3749646562482
 31
0.0
  0
ARC
  5
7F2CF
330
1E
100
AcDbEntity
  8
DETAIL
  6
Continuous
370
    -3
100
AcDbCircle
 10
-237.4999406249999
 20
141.3749646562482
 30
0.0
 40
7.499998124999999
100
AcDbArc
 50
0.0
 51
180.0
  0
ARC
  5
7F2D0
330
1E
100
AcDbEntity
  8
DETAIL
  6
Continuous
370
    -3
100
AcDbCircle
 10
-262.4999343749996
 20
141.3749646562482
 30
0.0
 40
7.499998124999999
100
AcDbArc
 50
0.0
 51
180.0
  0
CIRCLE
  5
7F2D1
330
1E
100
AcDbEntity
  8
DETAIL
  6
Continuous
370
    -3
100
AcDbCircle
 10
-237.4999406249999
 20
141.8749645312468
 30
0.0
 40
2.2499994375
  0
CIRCLE
  5
7F2D2
330
1E
100
AcDbEntity
  8
DETAIL
  6
Continuous
370
    -3
100
AcDbCircle
 10
-262.4999343749996
 20
141.8749645312468
 30
0.0
 40
2.2499994375
  0
ARC
  5
7F2D3
330
1E
100
AcDbEntity
  8
DETAIL
  6
Continuous
370
    -3
100
AcDbCircle
 10
-249.9999374999997
 20
130.8749672812491
 30
0.0
 40
11.99999700000001
100
AcDbArc
 50
204.624317999987
 51
0.0
  0
CIRCLE
  5
7F2DA
330
1E
100
AcDbEntity
  8
FIX
100
AcDbCircle
 10
-250.0000625000002
 20
136.1249659687518
 30
0.0
 40
5.0
  0
LINE
  5
7F2DB
330
1E
100
AcDbEntity
  8
NOTE
100
AcDbLine
 10
-250.0000625000002
 20
116.1249659687519
 30
0.0
 11
-250.0000625000002
 21
156.1249659687518
 31
0.0
  0
LINE
  5
7F2DC
330
1E
100
AcDbEntity
  8
NOTE
100
AcDbLine
 10
-230.0000625000002
 20
136.1249659687518
 30
0.0
 11
-270.0000625000002
 21
136.1249659687518
 31
0.0
  0
LINE
  5
7F2DD
330
1E
100
AcDbEntity
  8
SIZE
100
AcDbLine
 10
-250.0
 20
338.9068800000004
 30
0.0
 11
-355.0
 21
338.9068800000004
 31
0.0
  0
CIRCLE
  5
7F2DE
330
1E
100
AcDbEntity
  8
SIZE
100
AcDbCircle
 10
-375.7999060499924
 20
310.4728884965093
 30
0.0
 40
6.0
  0
CIRCLE
  5
7F2DF
330
1E
100
AcDbEntity
  8
SIZE
100
AcDbCircle
 10
-358.299999175002
 20
310.4728884965093
 30
0.0
 40
6.0
  0
LINE
  5
7F2E0
330
1E
100
AcDbEntity
  8
SIZE
100
AcDbLine
 10
-357.0
 20
338.9068800000004
 30
0.0
 11
-359.0
 21
338.9068800000004
 31
0.0
  0
LINE
  5
7F2E1
330
1E
100
AcDbEntity
  8
SIZE
100
AcDbLine
 10
-248.0
 20
338.9068800000004
 30
0.0
 11
-246.0
 21
338.9068800000004
 31
0.0
  0
TEXT
  5
7F2E2
330
1E
100
AcDbEntity
  8
SIZE
100
AcDbText
 10
-371.0714399999996
 20
370.9068900000001
 30
0.0
 40
64.0
  1
105
 41
0.8796340656683925
 72
     5
 11
-237.0319633267208
 21
370.9068900000001
 31
0.0
100
AcDbText
  0
LINE
  5
7F2E3
330
1E
100
AcDbEntity
  8
SIZE
100
AcDbLine
 10
270.0
 20
136.1249659687518
 30
0.0
 11
819.3895519299012
 21
136.1249659687518
 31
0.0
  0
LINE
  5
7F2E4
330
1E
100
AcDbEntity
  8
SIZE
100
AcDbLine
 10
262.4999343749996
 20
148.8749627812485
 30
0.0
 11
944.9065760418971
 21
148.8749627812485
 31
0.0
  0
TEXT
  5
7F2E5
330
1E
100
AcDbEntity
  8
SIZE
100
AcDbText
 10
371.5830475139118
 20
370.9068900000001
 30
0.0
 40
64.0
  1
27
 41
0.9253770165228797
 72
     5
 11
467.4697326545683
 21
370.9068900000001
 31
0.0
100
AcDbText
  0
TEXT
  5
7F2E7
330
1E
100
AcDbEntity
  8
NOTE
  6
Continuous
 62
     4
100
AcDbText
 10
-10.48895238791647
 20
233.207710679102
 30
0.0
 40
50.0
  1
ｻ-ﾋﾞｽｽﾍﾟ-ｽ
 50
0.0000025044687019
 41
0.77777773141861
  7
STANDARD1
100
AcDbText
  0
TEXT
  5
7F2EA
330
1E
100
AcDbEntity
  8
SIZE
100
AcDbText
 10
-26.58051223454822
 20
370.9068900000001
 30
0.0
 40
64.0
  1
500
 41
0.9722222222222223
 72
     5
 11
133.4194877654517
 21
370.9068900000001
 31
0.0
100
AcDbText
  0
LINE
  5
7F2EB
330
1E
100
AcDbEntity
  8
NOTE
  6
Continuous
 62
     4
100
AcDbLine
 10
-69.86024494261346
 20
169.0373743040654
 30
0.0
 11
-44.8096376551648
 21
169.0373743040654
 31
0.0
  0
LINE
  5
7F2EC
330
1E
100
AcDbEntity
  8
NOTE
  6
Continuous
 62
     4
100
AcDbLine
 10
-85.01101877117525
 20
128.9195873214666
 30
0.0
 11
-44.8096376551648
 21
169.0373743040654
 31
0.0
  0
LINE
  5
7F2F2
330
1E
100
AcDbEntity
  8
NOTE
  6
Continuous
 62
     4
100
AcDbLine
 10
-125.212399887182
 20
169.0373743040654
 30
0.0
 11
-100.1617925997334
 21
169.0373743040654
 31
0.0
  0
LINE
  5
7F2F3
330
1E
100
AcDbEntity
  8
NOTE
  6
Continuous
 62
     4
100
AcDbLine
 10
-125.212399887182
 20
169.0373743040654
 30
0.0
 11
-85.01101877117525
 21
128.9195873214666
 31
0.0
  0
LINE
  5
7F2F4
330
1E
100
AcDbEntity
  8
NOTE
  6
Continuous
 62
     4
100
AcDbLine
 10
-69.86024494261346
 20
209.8058271225017
 30
0.0
 11
-100.1617925997334
 21
209.8058271225017
 31
0.0
  0
LINE
  5
7F2F5
330
1E
100
AcDbEntity
  8
NOTE
  6
Continuous
 62
     4
100
AcDbLine
 10
-100.1617925997334
 20
169.0373743040654
 30
0.0
 11
-100.1617925997334
 21
209.8058271225017
 31
0.0
  0
LINE
  5
7F2F6
330
1E
100
AcDbEntity
  8
NOTE
  6
Continuous
 62
     4
100
AcDbLine
 10
-69.86024494261346
 20
169.0373743040654
 30
0.0
 11
-69.86024494261346
 21
209.8058271225017
 31
0.0
  0
TEXT
  5
7F2FF
330
1E
100
AcDbEntity
  8
NOTE
  6
Continuous
 62
     4
100
AcDbText
 10
-107.7494456530103
 20
243.7321565633646
 30
0.0
 40
49.33042665836238
  1
OA
 41
0.57
  7
ZU_SHPTB00001
100
AcDbText
  0
CIRCLE
  5
7F301
330
1E
100
AcDbEntity
  8
SIZE
100
AcDbCircle
 10
250.0
 20
338.9068800000004
 30
0.0
 40
6.0
  0
CIRCLE
  5
7F302
330
1E
100
AcDbEntity
  8
SIZE
100
AcDbCircle
 10
329.0
 20
338.9068800000004
 30
0.0
 40
6.0
  0
CIRCLE
  5
7F303
330
1E
100
AcDbEntity
  8
SIZE
100
AcDbCircle
 10
356.2000000000007
 20
338.9068800000004
 30
0.0
 40
6.0
  0
LINE
  5
7F304
330
1E
100
AcDbEntity
  8
SIZE
100
AcDbLine
 10
250.0
 20
161.6220660921244
 30
0.0
 11
250.0
 21
368.9068800000004
 31
0.0
  0
LINE
  5
7F305
330
1E
100
AcDbEntity
  8
SIZE
100
AcDbLine
 10
329.0
 20
134.5216533287693
 30
0.0
 11
329.0
 21
368.8791670045848
 31
0.0
  0
ARC
  5
7F30B
330
1E
100
AcDbEntity
  8
DETAIL
  6
Continuous
370
    -3
100
AcDbCircle
 10
266.9999332499946
 20
134.374966406247
 30
0.0
 40
2.999999249999999
100
AcDbArc
 50
0.0
 51
90.0
  0
ARC
  5
7F30C
330
1E
100
AcDbEntity
  8
DETAIL
  6
Continuous
370
    -3
100
AcDbCircle
 10
262.4999343749996
 20
141.3749646562482
 30
0.0
 40
7.499998124999999
100
AcDbArc
 50
0.0
 51
180.0
  0
LINE
  5
7F30D
330
1E
100
AcDbEntity
  8
DETAIL
  6
Continuous
370
    -3
100
AcDbLine
 10
269.9999324999998
 20
0.0
 30
0.0
 11
269.9999324999998
 21
141.3749646562482
 31
0.0
  0
ARC
  5
7F30E
330
1E
100
AcDbEntity
  8
DETAIL
  6
Continuous
370
    -3
100
AcDbCircle
 10
265.9999335000093
 20
133.3749666562489
 30
0.0
 40
3.999998999999999
100
AcDbArc
 50
90.0
 51
180.0
  0
LINE
  5
7F30F
330
1E
100
AcDbEntity
  8
DETAIL
  6
Continuous
370
    -3
100
AcDbLine
 10
261.9999344999951
 20
133.3749666562489
 30
0.0
 11
261.9999344999951
 21
130.8749672812491
 31
0.0
  0
LINE
  5
7F310
330
1E
100
AcDbEntity
  8
DETAIL
  6
Continuous
370
    -3
100
AcDbLine
 10
254.9999362499993
 20
141.3749646562482
 30
0.0
 11
254.9999362499993
 21
130.8749672812491
 31
0.0
  0
CIRCLE
  5
7F311
330
1E
100
AcDbEntity
  8
DETAIL
  6
Continuous
370
    -3
100
AcDbCircle
 10
262.4999343749996
 20
141.8749645312468
 30
0.0
 40
2.2499994375
  0
LINE
  5
7F312
330
1E
100
AcDbEntity
  8
DETAIL
  6
Continuous
370
    -3
100
AcDbLine
 10
266.9999332499946
 20
137.3749656562518
 30
0.0
 11
265.9999335000093
 21
137.3749656562518
 31
0.0
  0
ARC
  5
7F313
330
1E
100
AcDbEntity
  8
DETAIL
  6
Continuous
370
    -3
100
AcDbCircle
 10
249.9999375000006
 20
130.8749672812486
 30
0.0
 40
4.999998750000486
100
AcDbArc
 50
179.9999999999947
 51
0.000000000005211
  0
ARC
  5
7F314
330
1E
100
AcDbEntity
  8
DETAIL
  6
Continuous
370
    -3
100
AcDbCircle
 10
249.9999374999997
 20
130.8749672812496
 30
0.0
 40
11.99999700000022
100
AcDbArc
 50
202.024313000011
 51
359.9999999999977
  0
ARC
  5
7F318
330
1E
100
AcDbEntity
  8
DETAIL
  6
Continuous
370
    -3
100
AcDbCircle
 10
232.9999417500048
 20
134.374966406247
 30
0.0
 40
2.999999249999999
100
AcDbArc
 50
90.0
 51
180.0
  0
ARC
  5
7F319
330
1E
100
AcDbEntity
  8
DETAIL
  6
Continuous
370
    -3
100
AcDbCircle
 10
237.4999406249999
 20
141.3749646562482
 30
0.0
 40
7.499998124999999
100
AcDbArc
 50
0.0
 51
180.0
  0
LINE
  5
7F31A
330
1E
100
AcDbEntity
  8
DETAIL
  6
Continuous
370
    -3
100
AcDbLine
 10
229.9999424999996
 20
-0.057107552067464
 30
0.0
 11
229.9999424999996
 21
141.3749646562482
 31
0.0
  0
ARC
  5
7F31B
330
1E
100
AcDbEntity
  8
DETAIL
  6
Continuous
370
    -3
100
AcDbCircle
 10
249.9999374999997
 20
130.8749672812491
 30
0.0
 40
11.999997
100
AcDbArc
 50
180.0
 51
202.0243130000086
  0
LINE
  5
7F31D
330
1E
100
AcDbEntity
  8
DETAIL
  6
Continuous
370
    -3
100
AcDbLine
 10
244.9999387500001
 20
141.3749646562482
 30
0.0
 11
244.9999387500001
 21
130.8749672812491
 31
0.0
  0
CIRCLE
  5
7F31E
330
1E
100
AcDbEntity
  8
DETAIL
  6
Continuous
370
    -3
100
AcDbCircle
 10
237.4999406249999
 20
141.8749645312468
 30
0.0
 40
2.2499994375
  0
ARC
  5
7F31F
330
1E
100
AcDbEntity
  8
DETAIL
  6
Continuous
370
    -3
100
AcDbCircle
 10
233.9999414999902
 20
133.3749666562489
 30
0.0
 40
3.999998999999999
100
AcDbArc
 50
0.0
 51
90.0
  0
LINE
  5
7F320
330
1E
100
AcDbEntity
  8
DETAIL
  6
Continuous
370
    -3
100
AcDbLine
 10
232.9999417500048
 20
137.3749656562518
 30
0.0
 11
233.9999414999902
 21
137.3749656562518
 31
0.0
  0
LINE
  5
7F321
330
1E
100
AcDbEntity
  8
DETAIL
  6
Continuous
370
    -3
100
AcDbLine
 10
237.9999405000044
 20
133.3749666562489
 30
0.0
 11
237.9999405000044
 21
130.8749672812491
 31
0.0
  0
LINE
  5
7F328
330
1E
100
AcDbEntity
  8
BASIS
  6
DASHDOT
370
    -3
100
AcDbLine
 10
249.9999374999997
 20
153.2844283455506
 30
0.0
 11
249.9999374999997
 21
118.9655035919531
 31
0.0
  0
LINE
  5
7F32F
330
1E
100
AcDbEntity
  8
BASIS
  6
DASHDOT
370
    -3
100
AcDbLine
 10
233.1066456812359
 20
136.1249659687518
 30
0.0
 11
266.8932293187635
 21
136.1249659687518
 31
0.0
  0
LINE
  5
7F330
330
1E
100
AcDbEntity
  8
NOTE
100
AcDbLine
 10
230.0
 20
136.1249659687518
 30
0.0
 11
270.0
 21
136.1249659687518
 31
0.0
  0
CIRCLE
  5
7F331
330
1E
100
AcDbEntity
  8
FIX
100
AcDbCircle
 10
250.0
 20
136.1249659687518
 30
0.0
 40
5.0
  0
LINE
  5
7F332
330
1E
100
AcDbEntity
  8
NOTE
100
AcDbLine
 10
250.0
 20
116.1249659687519
 30
0.0
 11
250.0
 21
156.1249659687518
 31
0.0
  0
LINE
  5
7F333
330
1E
100
AcDbEntity
  8
SIZE
100
AcDbLine
 10
329.0
 20
338.9068800000004
 30
0.0
 11
440.3936229412902
 21
338.9068800000004
 31
0.0
  0
CIRCLE
  5
7F33B
330
1E
100
AcDbEntity
  8
SIZE
100
AcDbCircle
 10
795.2596549752707
 20
136.1249659687518
 30
0.0
 40
6.0
  0
CIRCLE
  5
7F33C
330
1E
100
AcDbEntity
  8
SIZE
100
AcDbCircle
 10
920.4569728646811
 20
148.9504844933526
 30
0.0
 40
6.0
  0
SPLINE
  5
885DF
330
1E
100
AcDbEntity
  8
DETAIL
  6
Continuous
100
AcDbSpline
210
0.0
220
0.0
230
1.0
 70
    24
 71
     3
 72
    11
 73
     7
 74
     5
 42
0.0000000001
 43
0.0000000001
 44
0.00000001
 40
0.0
 40
0.0
 40
0.0
 40
0.0
 40
34.03605368990293
 40
49.37556025241474
 40
64.71506681492655
 40
80.05457337743838
 40
80.05457337743838
 40
80.05457337743838
 40
80.05457337743838
 10
-354.2499374999823
 20
31.47039390381678
 30
0.0
 10
-354.2499374999714
 20
42.81574513378443
 30
0.0
 10
-354.2499374999688
 20
59.27426521792268
 30
0.0
 10
-354.2499374999747
 20
80.84595415623153
 30
0.0
 10
-354.2499374999806
 20
96.18546071874336
 30
0.0
 10
-354.249937499983
 20
106.4117984270845
 30
0.0
 10
-354.2499374999834
 20
111.5249672812551
 30
0.0
 11
-354.2499374999823
 21
31.47039390381678
 31
0.0
 11
-354.2499374999688
 21
65.50644759371971
 31
0.0
 11
-354.2499374999834
 21
80.84595415623153
 31
0.0
 11
-354.2499374999834
 21
96.18546071874334
 31
0.0
 11
-354.2499374999834
 21
111.5249672812551
 31
0.0
  0
LINE
  5
885E0
330
1E
100
AcDbEntity
  8
DETAIL
  6
Continuous
100
AcDbLine
 10
-357.2497113987438
 20
28.32539320935529
 30
0.0
 11
-357.2499374999706
 21
111.5249672812533
 31
0.0
  0
LINE
  5
885E5
330
1E
100
AcDbEntity
  8
DETAIL
  6
Continuous
370
    -3
100
AcDbLine
 10
320.3391999151745
 20
98.46958871592688
 30
0.0
 11
269.9999324999998
 21
121.9431718887012
 31
0.0
  0
LINE
  5
885E6
330
1E
100
AcDbEntity
  8
DETAIL
  6
Continuous
370
    -3
100
AcDbLine
 10
319.9165733541604
 20
97.56328227584072
 30
0.0
 11
269.9999324999998
 21
120.839796930722
 31
0.0
  0
ARC
  5
885ED
330
1E
100
AcDbEntity
  8
DETAIL
  6
Continuous
370
    -3
100
AcDbCircle
 10
-255.9999360000101
 20
27.37499315625155
 30
0.0
 40
97.99997549999998
100
AcDbArc
 50
98.21321070173212
 51
176.9391909999995
  0
LINE
  5
885FA
330
1E
100
AcDbEntity
  8
DETAIL
  6
Continuous
370
    -3
100
AcDbLine
 10
-116.0138643298678
 20
-128.6249678437516
 30
0.0
 11
-229.9999424999996
 21
-128.6249678437511
 31
0.0
  0
LINE
  5
885FC
330
1E
100
AcDbEntity
  8
DETAIL
  6
Continuous
370
    -3
100
AcDbLine
 10
308.9999227499911
 20
-127.624968093748
 30
0.0
 11
269.9999324999998
 21
-127.624968093748
 31
0.0
  0
ARC
  5
885FE
330
1E
100
AcDbEntity
  8
DETAIL
  6
Continuous
100
AcDbCircle
 10
-329.1500624998525
 20
-115.3759742133279
 30
0.0
 40
24.99999999999369
100
AcDbArc
 50
193.2762907811031
 51
202.5482453081216
  0
ARC
  5
88600
330
1E
100
AcDbEntity
  8
DETAIL
  6
Continuous
370
    -3
100
AcDbCircle
 10
-334.9999162499998
 20
-108.6249728437519
 30
0.0
 40
19.99999499999999
100
AcDbArc
 50
180.0
 51
270.0
  0
ARC
  5
88601
330
1E
100
AcDbEntity
  8
DETAIL
  6
Continuous
370
    -3
100
AcDbCircle
 10
-334.9999162499998
 20
-108.6249728437519
 30
0.0
 40
18.99999524999999
100
AcDbArc
 50
180.0
 51
270.0
  0
LINE
  5
88602
330
1E
100
AcDbEntity
  8
DETAIL
  6
Continuous
370
    -3
100
AcDbLine
 10
-306.6999233250071
 20
-143.424968468752
 30
0.0
 11
-316.2999209249983
 21
-143.424968468752
 31
0.0
  0
ARC
  5
88603
330
1E
100
AcDbEntity
  8
DETAIL
  6
Continuous
100
AcDbCircle
 10
-319.8279889231589
 20
-93.45543928974985
 30
0.0
 40
48.81952597487767
100
AcDbArc
 50
246.9646001079795
 51
252.1121175998546
  0
ARC
  5
88604
330
1E
100
AcDbEntity
  8
DETAIL
  6
Continuous
100
AcDbCircle
 10
-329.1508657670028
 20
-115.375164162343
 30
0.0
 40
24.999568782487
100
AcDbArc
 50
202.5506658674997
 51
246.9699115526949
  0
LINE
  5
88605
330
1E
100
AcDbEntity
  8
DETAIL
  6
Continuous
370
    -3
100
AcDbLine
 10
-328.4482512212552
 20
-141.674968906253
 30
0.0
 11
-328.4482512212552
 21
-144.6749681562514
 31
0.0
  0
LINE
  5
88606
330
1E
100
AcDbEntity
  8
DETAIL
  6
Continuous
370
    -3
100
AcDbLine
 10
-325.9482518462545
 20
-141.8898123956746
 30
0.0
 11
-325.9482518462545
 21
-144.6749681562514
 31
0.0
  0
LINE
  5
88607
330
1E
100
AcDbEntity
  8
DETAIL
  6
Continuous
370
    -3
100
AcDbLine
 10
-328.4482512248989
 20
-141.5078814156286
 30
0.0
 11
-328.4482512212552
 21
-141.674968906253
 31
0.0
  0
LINE
  5
88608
330
1E
100
AcDbEntity
  8
DETAIL
  6
Continuous
370
    -3
100
AcDbLine
 10
-318.0999204750014
 20
-143.424968468752
 30
0.0
 11
-325.9482518462545
 21
-143.424968468752
 31
0.0
  0
LINE
  5
88609
330
1E
100
AcDbEntity
  8
DETAIL
  6
Continuous
370
    -3
100
AcDbLine
 10
-316.2999209249983
 20
-142.2749652187549
 30
0.0
 11
-316.2999209249983
 21
-144.3249682437531
 31
0.0
  0
LINE
  5
8860A
330
1E
100
AcDbEntity
  8
DETAIL
  6
Continuous
370
    -3
100
AcDbLine
 10
-318.0999204750014
 20
-142.2749652187549
 30
0.0
 11
-318.0999204750014
 21
-144.3249682437531
 31
0.0
  0
ARC
  5
8860B
330
1E
100
AcDbEntity
  8
DETAIL
  6
Continuous
370
    -3
100
AcDbCircle
 10
-327.1982515337558
 20
-144.6749681562514
 30
0.0
 40
1.249999687499999
100
AcDbArc
 50
180.0
 51
0.0
  0
ARC
  5
8860C
330
1E
100
AcDbEntity
  8
DETAIL
  6
Continuous
370
    -3
100
AcDbCircle
 10
-317.1999206999871
 20
-144.3249682437531
 30
0.0
 40
0.8999997749999998
100
AcDbArc
 50
180.0
 51
0.0
  0
LINE
  5
8860D
330
1E
100
AcDbEntity
  8
DETAIL
  6
Continuous
370
    -3
100
AcDbLine
 10
-331.7885037195401
 20
-140.9249690937504
 30
0.0
 11
-331.7946237179958
 21
-140.9249690937504
 31
0.0
  0
LINE
  5
8860E
330
1E
100
AcDbEntity
  8
DETAIL
  6
Continuous
370
    -3
100
AcDbLine
 10
-334.7853616729007
 20
-140.6605153609211
 30
0.0
 11
-334.8231678188384
 21
-139.9149994071067
 31
0.0
  0
ARC
  5
8860F
330
1E
100
AcDbEntity
  8
DETAIL
  6
Continuous
370
    -3
100
AcDbCircle
 10
-331.7946237179958
 20
-140.4249692187518
 30
0.0
 40
0.499999875
100
AcDbArc
 50
209.8529708686531
 51
270.0
  0
ARC
  5
88610
330
1E
100
AcDbEntity
  8
DETAIL
  6
Continuous
370
    -3
100
AcDbCircle
 10
-331.7946237179958
 20
-140.4249692187518
 30
0.0
 40
2.999999249999999
100
AcDbArc
 50
184.5032360000062
 51
270.0
  0
ARC
  5
88611
330
1E
100
AcDbEntity
  8
DETAIL
  6
Continuous
370
    -3
100
AcDbCircle
 10
-331.7885037195401
 20
-140.4249692187518
 30
0.0
 40
0.499999875
100
AcDbArc
 50
210.1034558392938
 51
270.0
  0
LINE
  5
88612
330
1E
100
AcDbEntity
  8
DETAIL
  6
Continuous
370
    -3
100
AcDbLine
 10
-331.4482504712604
 20
-128.6249678437516
 30
0.0
 11
-322.9482525962512
 21
-128.6249678437516
 31
0.0
  0
LINE
  5
88613
330
1E
100
AcDbEntity
  8
DETAIL
  6
Continuous
370
    -3
100
AcDbLine
 10
-328.4482512212552
 20
-143.424968468752
 30
0.0
 11
-331.8007437164514
 21
-143.424968468752
 31
0.0
  0
LINE
  5
88614
330
1E
100
AcDbEntity
  8
DETAIL
  6
Continuous
370
    -3
100
AcDbLine
 10
-331.2292983479001
 20
-140.9249690937517
 30
0.0
 11
-331.7946237179958
 21
-140.9249690937517
 31
0.0
  0
LINE
  5
88626
330
1E
100
AcDbEntity
  8
DETAIL
  6
Continuous
370
    -3
100
AcDbLine
 10
-306.6999233250071
 20
-144.3249682437531
 30
0.0
 11
-306.6999233250071
 21
-142.2749652187549
 31
0.0
  0
LINE
  5
88627
330
1E
100
AcDbEntity
  8
DETAIL
  6
Continuous
370
    -3
100
AcDbLine
 10
-304.899923775004
 20
-144.3249682437531
 30
0.0
 11
-304.899923775004
 21
-142.2749652187549
 31
0.0
  0
LINE
  5
8862C
330
1E
100
AcDbEntity
  8
DETAIL
  6
Continuous
370
    -3
100
AcDbLine
 10
-295.2999261749892
 20
-143.424968468752
 30
0.0
 11
-304.899923775004
 21
-143.424968468752
 31
0.0
  0
ARC
  5
88634
330
1E
100
AcDbEntity
  8
DETAIL
  6
Continuous
370
    -3
100
AcDbCircle
 10
-305.7999235499928
 20
-144.3249682437531
 30
0.0
 40
0.8999997749999998
100
AcDbArc
 50
180.0
 51
0.0
  0
LINE
  5
88637
330
1E
100
AcDbEntity
  8
DETAIL
  6
Continuous
370
    -3
100
AcDbLine
 10
-358.2999104249929
 20
-35.45920446853051
 30
0.0
 11
-358.2999104249929
 21
25.09286039344715
 31
0.0
  0
ARC
  5
88638
330
1E
100
AcDbEntity
  8
DETAIL
  6
Continuous
370
    -3
100
AcDbCircle
 10
-363.2999091749925
 20
-15.0007695831382
 30
0.0
 40
12.49999687499999
100
AcDbArc
 50
116.3878000000279
 51
180.0
  0
ARC
  5
8863B
330
1E
100
AcDbEntity
  8
DETAIL
  6
Continuous
100
AcDbCircle
 10
-329.1500624998525
 20
-115.3759742133279
 30
0.0
 40
24.99999999999375
100
AcDbArc
 50
180.0
 51
191.309704989426
  0
ARC
  5
8863C
330
1E
100
AcDbEntity
  8
DETAIL
  6
Continuous
100
AcDbCircle
 10
-329.1500624998525
 20
-115.3759742133279
 30
0.0
 40
24.99999999999382
100
AcDbArc
 50
191.309704989426
 51
193.2762907811031
  0
LINE
  5
8863D
330
1E
100
AcDbEntity
  8
DETAIL
  6
Continuous
100
AcDbLine
 10
-354.1500624998452
 20
-115.3759742133279
 30
0.0
 11
-354.1500624998452
 21
-114.3931353422913
 31
0.0
  0
LINE
  5
88640
330
1E
100
AcDbEntity
  8
DETAIL
  6
Continuous
370
    -3
100
AcDbLine
 10
-375.7999060499924
 20
-35.45920446853051
 30
0.0
 11
-375.7999060499924
 21
-15.0007695831382
 31
0.0
  0
LINE
  5
88641
330
1E
100
AcDbEntity
  8
DETAIL
  6
Continuous
370
    -3
100
AcDbLine
 10
-354.9999112499999
 20
-101.589441269301
 30
0.0
 11
-354.9999112499999
 21
-108.6249728437519
 31
0.0
  0
LINE
  5
88642
330
1E
100
AcDbEntity
  8
DETAIL
  6
Continuous
370
    -3
100
AcDbLine
 10
-358.5999103500062
 20
-94.83553629111156
 30
0.0
 11
-358.2999104249929
 21
-94.83553629111156
 31
0.0
  0
ARC
  5
88643
330
1E
100
AcDbEntity
  8
DETAIL
  6
Continuous
370
    -3
100
AcDbCircle
 10
-354.67945799678
 20
-90.1355374661116
 30
0.0
 40
6.120451803219999
100
AcDbArc
 50
129.8327709999957
 51
230.1672120000374
  0
LINE
  5
88644
330
1E
100
AcDbEntity
  8
DETAIL
  6
Continuous
370
    -3
100
AcDbLine
 10
-358.5999103500062
 20
-85.43553864111254
 30
0.0
 11
-358.5999103500062
 21
-94.83553629111156
 31
0.0
  0
LINE
  5
88645
330
1E
100
AcDbEntity
  8
DETAIL
  6
Continuous
370
    -3
100
AcDbLine
 10
-358.2999104249929
 20
-85.43553864111254
 30
0.0
 11
-358.2999104249929
 21
-94.83553629111156
 31
0.0
  0
LINE
  5
88646
330
1E
100
AcDbEntity
  8
DETAIL
  6
Continuous
370
    -3
100
AcDbLine
 10
-358.5999103500062
 20
-85.43553864111254
 30
0.0
 11
-358.2999104249929
 21
-85.43553864111254
 31
0.0
  0
LINE
  5
88647
330
1E
100
AcDbEntity
  8
DETAIL
  6
Continuous
370
    -3
100
AcDbLine
 10
-354.6442713389051
 20
-101.945081180389
 30
0.0
 11
-356.6889908277271
 21
-99.90036169156837
 31
0.0
  0
ARC
  5
88648
330
1E
100
AcDbEntity
  8
DETAIL
  6
Continuous
370
    -3
100
AcDbCircle
 10
-377.2999056750077
 20
-84.13553896610848
 30
0.0
 40
18.99999524999999
100
AcDbArc
 50
0.0
 51
63.61219999997202
  0
ARC
  5
88649
330
1E
100
AcDbEntity
  8
DETAIL
  6
Continuous
370
    -3
100
AcDbCircle
 10
-363.2999091749925
 20
-55.91763935392236
 30
0.0
 40
12.49999687499999
100
AcDbArc
 50
180.0
 51
243.6121999999719
  0
LINE
  5
8864A
330
1E
100
AcDbEntity
  8
DETAIL
  6
Continuous
370
    -3
100
AcDbLine
 10
-353.9999114999909
 20
-103.5007074581503
 30
0.0
 11
-353.9999114999909
 21
-108.6249728437519
 31
0.0
  0
ARC
  5
8864B
330
1E
100
AcDbEntity
  8
DETAIL
  6
Continuous
370
    -3
100
AcDbCircle
 10
-356.199910950002
 20
-103.5007074581503
 30
0.0
 40
2.199999449999999
100
AcDbArc
 50
0.0
 51
45.0
  0
ARC
  5
8864C
330
1E
100
AcDbEntity
  8
DETAIL
  6
Continuous
370
    -3
100
AcDbCircle
 10
-352.7999117999888
 20
-96.01126933050819
 30
0.0
 40
5.499998624999999
100
AcDbArc
 50
180.0
 51
225.0
  0
LINE
  5
8864D
330
1E
100
AcDbEntity
  8
DETAIL
  6
Continuous
370
    -3
100
AcDbLine
 10
-358.2999104249929
 20
-35.45920446853051
 30
0.0
 11
-358.2999104249929
 21
-96.01126933050819
 31
0.0
  0
LINE
  5
8864E
330
1E
100
AcDbEntity
  8
DETAIL
  6
Continuous
370
    -3
100
AcDbLine
 10
-375.7999060499924
 20
-35.45920446853051
 30
0.0
 11
-375.7999060499924
 21
-55.91763935392236
 31
0.0
  0
ARC
  5
88659
330
1E
100
AcDbEntity
  8
DETAIL
  6
Continuous
370
    -3
100
AcDbCircle
 10
-354.67945799678
 20
19.21712852905147
 30
0.0
 40
6.120451803219999
100
AcDbArc
 50
129.8327709999957
 51
230.1672120000374
  0
LINE
  5
8865A
330
1E
100
AcDbEntity
  8
DETAIL
  6
Continuous
370
    -3
100
AcDbLine
 10
-358.5999103500062
 20
14.51712970405151
 30
0.0
 11
-358.2999104249929
 21
14.51712970405151
 31
0.0
  0
LINE
  5
8865B
330
1E
100
AcDbEntity
  8
DETAIL
  6
Continuous
370
    -3
100
AcDbLine
 10
-358.5999103500062
 20
23.91712735405053
 30
0.0
 11
-358.5999103500062
 21
14.51712970405151
 31
0.0
  0
LINE
  5
8865C
330
1E
100
AcDbEntity
  8
DETAIL
  6
Continuous
370
    -3
100
AcDbLine
 10
-358.2999104249929
 20
23.91712735405053
 30
0.0
 11
-358.2999104249929
 21
14.51712970405151
 31
0.0
  0
ARC
  5
88660
330
1E
100
AcDbEntity
  8
DETAIL
  6
Continuous
370
    -3
100
AcDbCircle
 10
-377.2999056750077
 20
13.21713002904743
 30
0.0
 40
18.99999524999999
100
AcDbArc
 50
296.387800000028
 51
0.0
  0
LINE
  5
8866F
330
1E
100
AcDbEntity
  8
DETAIL
  6
Continuous
370
    -3
100
AcDbLine
 10
308.9999227499911
 20
-128.6249678437516
 30
0.0
 11
269.9999324999998
 21
-128.6249678437516
 31
0.0
  0
LINE
  5
88670
330
1E
100
AcDbEntity
  8
DETAIL
  6
Continuous
370
    -3
100
AcDbLine
 10
-55.89998602498872
 20
-143.424968468752
 30
0.0
 11
-65.49998362500537
 21
-143.424968468752
 31
0.0
  0
LINE
  5
88671
330
1E
100
AcDbEntity
  8
DETAIL
  6
Continuous
370
    -3
100
AcDbLine
 10
-135.6999660749979
 20
-143.424968468752
 30
0.0
 11
-145.2999636749891
 21
-143.424968468752
 31
0.0
  0
LINE
  5
88672
330
1E
100
AcDbEntity
  8
DETAIL
  6
Continuous
370
    -3
100
AcDbLine
 10
-179.4999551249957
 20
-144.3249682437531
 30
0.0
 11
-179.4999551249957
 21
-142.2749652187549
 31
0.0
  0
LINE
  5
88673
330
1E
100
AcDbEntity
  8
DETAIL
  6
Continuous
370
    -3
100
AcDbLine
 10
-181.2999546749988
 20
-144.3249682437531
 30
0.0
 11
-181.2999546749988
 21
-142.2749652187549
 31
0.0
  0
LINE
  5
88674
330
1E
100
AcDbEntity
  8
DETAIL
  6
Continuous
370
    -3
100
AcDbLine
 10
-202.2999494250079
 20
-144.3249682437531
 30
0.0
 11
-202.2999494250079
 21
-142.2749652187549
 31
0.0
  0
LINE
  5
88675
330
1E
100
AcDbEntity
  8
DETAIL
  6
Continuous
370
    -3
100
AcDbLine
 10
-204.0999489749856
 20
-144.3249682437531
 30
0.0
 11
-204.0999489749856
 21
-142.2749652187549
 31
0.0
  0
LINE
  5
88676
330
1E
100
AcDbEntity
  8
DETAIL
  6
Continuous
370
    -3
100
AcDbLine
 10
-168.0999579750014
 20
-144.3249682437531
 30
0.0
 11
-168.0999579750014
 21
-142.2749652187549
 31
0.0
  0
LINE
  5
88677
330
1E
100
AcDbEntity
  8
DETAIL
  6
Continuous
370
    -3
100
AcDbLine
 10
-169.8999575250045
 20
-144.3249682437531
 30
0.0
 11
-169.8999575250045
 21
-142.2749652187549
 31
0.0
  0
LINE
  5
88678
330
1E
100
AcDbEntity
  8
DETAIL
  6
Continuous
370
    -3
100
AcDbLine
 10
-147.0999632249904
 20
-144.3249682437531
 30
0.0
 11
-147.0999632249904
 21
-142.2749652187549
 31
0.0
  0
LINE
  5
88679
330
1E
100
AcDbEntity
  8
DETAIL
  6
Continuous
370
    -3
100
AcDbLine
 10
-145.2999636749891
 20
-144.3249682437531
 30
0.0
 11
-145.2999636749891
 21
-142.2749652187549
 31
0.0
  0
LINE
  5
8867A
330
1E
100
AcDbEntity
  8
DETAIL
  6
Continuous
370
    -3
100
AcDbLine
 10
-156.6999608250071
 20
-144.3249682437531
 30
0.0
 11
-156.6999608250071
 21
-142.2749652187549
 31
0.0
  0
LINE
  5
8867B
330
1E
100
AcDbEntity
  8
DETAIL
  6
Continuous
370
    -3
100
AcDbLine
 10
-158.4999603750102
 20
-144.3249682437531
 30
0.0
 11
-158.4999603750102
 21
-142.2749652187549
 31
0.0
  0
LINE
  5
8867C
330
1E
100
AcDbEntity
  8
DETAIL
  6
Continuous
370
    -3
100
AcDbLine
 10
-192.6999518249931
 20
-144.3249682437531
 30
0.0
 11
-192.6999518249931
 21
-142.2749652187549
 31
0.0
  0
LINE
  5
8867D
330
1E
100
AcDbEntity
  8
DETAIL
  6
Continuous
370
    -3
100
AcDbLine
 10
-190.89995227499
 20
-144.3249682437531
 30
0.0
 11
-190.89995227499
 21
-142.2749652187549
 31
0.0
  0
LINE
  5
8867E
330
1E
100
AcDbEntity
  8
DETAIL
  6
Continuous
370
    -3
100
AcDbLine
 10
-169.8999575250045
 20
-143.424968468752
 30
0.0
 11
-179.4999551249957
 21
-143.424968468752
 31
0.0
  0
LINE
  5
8867F
330
1E
100
AcDbEntity
  8
DETAIL
  6
Continuous
370
    -3
100
AcDbLine
 10
-158.4999603750102
 20
-143.424968468752
 30
0.0
 11
-168.0999579750014
 21
-143.424968468752
 31
0.0
  0
LINE
  5
88680
330
1E
100
AcDbEntity
  8
DETAIL
  6
Continuous
370
    -3
100
AcDbLine
 10
-147.0999632249904
 20
-143.424968468752
 30
0.0
 11
-156.6999608250071
 21
-143.424968468752
 31
0.0
  0
LINE
  5
88681
330
1E
100
AcDbEntity
  8
DETAIL
  6
Continuous
370
    -3
100
AcDbLine
 10
-181.2999546749988
 20
-143.424968468752
 30
0.0
 11
-190.89995227499
 21
-143.424968468752
 31
0.0
  0
LINE
  5
88682
330
1E
100
AcDbEntity
  8
DETAIL
  6
Continuous
370
    -3
100
AcDbLine
 10
-192.6999518249931
 20
-143.424968468752
 30
0.0
 11
-202.2999494250079
 21
-143.424968468752
 31
0.0
  0
ARC
  5
88683
330
1E
100
AcDbEntity
  8
DETAIL
  6
Continuous
370
    -3
100
AcDbCircle
 10
-180.3999549000081
 20
-144.3249682437531
 30
0.0
 40
0.8999997749999998
100
AcDbArc
 50
180.0
 51
0.0
  0
ARC
  5
88684
330
1E
100
AcDbEntity
  8
DETAIL
  6
Continuous
370
    -3
100
AcDbCircle
 10
-203.1999491999968
 20
-144.3249682437531
 30
0.0
 40
0.8999997749999998
100
AcDbArc
 50
180.0
 51
0.0
  0
ARC
  5
88685
330
1E
100
AcDbEntity
  8
DETAIL
  6
Continuous
370
    -3
100
AcDbCircle
 10
-168.9999577499902
 20
-144.3249682437531
 30
0.0
 40
0.8999997749999998
100
AcDbArc
 50
180.0
 51
0.0
  0
ARC
  5
88686
330
1E
100
AcDbEntity
  8
DETAIL
  6
Continuous
370
    -3
100
AcDbCircle
 10
-146.1999634500016
 20
-144.3249682437531
 30
0.0
 40
0.8999997749999998
100
AcDbArc
 50
180.0
 51
0.0
  0
ARC
  5
88687
330
1E
100
AcDbEntity
  8
DETAIL
  6
Continuous
370
    -3
100
AcDbCircle
 10
-157.5999605999959
 20
-144.3249682437531
 30
0.0
 40
0.8999997749999998
100
AcDbArc
 50
180.0
 51
0.0
  0
ARC
  5
88688
330
1E
100
AcDbEntity
  8
DETAIL
  6
Continuous
370
    -3
100
AcDbCircle
 10
-191.7999520500025
 20
-144.3249682437531
 30
0.0
 40
0.8999997749999998
100
AcDbArc
 50
180.0
 51
0.0
  0
LINE
  5
88689
330
1E
100
AcDbEntity
  8
DETAIL
  6
Continuous
370
    -3
100
AcDbLine
 10
-213.6999465639453
 20
-142.2749652187549
 30
0.0
 11
-213.6999465750022
 21
-144.3249682437531
 31
0.0
  0
LINE
  5
8868A
330
1E
100
AcDbEntity
  8
DETAIL
  6
Continuous
370
    -3
100
AcDbLine
 10
-215.4987078549527
 20
-142.2749652187549
 30
0.0
 11
-215.4999461250054
 21
-144.3249682437531
 31
0.0
  0
LINE
  5
8868B
330
1E
100
AcDbEntity
  8
DETAIL
  6
Continuous
370
    -3
100
AcDbLine
 10
-225.0999437249965
 20
-144.3249682437531
 30
0.0
 11
-225.0999437249965
 21
-142.2749652187549
 31
0.0
  0
LINE
  5
8868D
330
1E
100
AcDbEntity
  8
DETAIL
  6
Continuous
370
    -3
100
AcDbLine
 10
-215.4999461250054
 20
-143.424968468752
 30
0.0
 11
-225.0999437249965
 21
-143.424968468752
 31
0.0
  0
ARC
  5
8868E
330
1E
100
AcDbEntity
  8
DETAIL
  6
Continuous
370
    -3
100
AcDbCircle
 10
-214.5999463499911
 20
-144.3249682437531
 30
0.0
 40
0.8999997749999998
100
AcDbArc
 50
180.0
 51
0.0
  0
ARC
  5
8868F
330
1E
100
AcDbEntity
  8
DETAIL
  6
Continuous
370
    -3
100
AcDbCircle
 10
-225.999943500009
 20
-144.3249682437531
 30
0.0
 40
0.8999997749999998
100
AcDbArc
 50
180.0
 51
0.0
  0
LINE
  5
88690
330
1E
100
AcDbEntity
  8
DETAIL
  6
Continuous
370
    -3
100
AcDbLine
 10
-204.0999489749856
 20
-143.424968468752
 30
0.0
 11
-213.6999465750022
 21
-143.424968468752
 31
0.0
  0
LINE
  5
88691
330
1E
100
AcDbEntity
  8
DETAIL
  6
Continuous
370
    -3
100
AcDbLine
 10
-65.49998362500537
 20
-144.3249682437531
 30
0.0
 11
-65.49998362500537
 21
-142.2749652187549
 31
0.0
  0
LINE
  5
88692
330
1E
100
AcDbEntity
  8
DETAIL
  6
Continuous
370
    -3
100
AcDbLine
 10
-67.29998317500849
 20
-144.3249682437531
 30
0.0
 11
-67.29998317500849
 21
-142.2749652187549
 31
0.0
  0
LINE
  5
88693
330
1E
100
AcDbEntity
  8
DETAIL
  6
Continuous
370
    -3
100
AcDbLine
 10
-78.6999803250028
 20
-144.3249682437531
 30
0.0
 11
-78.6999803250028
 21
-142.2749652187549
 31
0.0
  0
LINE
  5
88694
330
1E
100
AcDbEntity
  8
DETAIL
  6
Continuous
370
    -3
100
AcDbLine
 10
-76.89998077499968
 20
-144.3249682437531
 30
0.0
 11
-76.89998077499968
 21
-142.2749652187549
 31
0.0
  0
LINE
  5
88695
330
1E
100
AcDbEntity
  8
DETAIL
  6
Continuous
370
    -3
100
AcDbLine
 10
-90.09997747499529
 20
-144.3249682437531
 30
0.0
 11
-90.09997747499529
 21
-142.2749652187549
 31
0.0
  0
LINE
  5
88696
330
1E
100
AcDbEntity
  8
DETAIL
  6
Continuous
370
    -3
100
AcDbLine
 10
-88.29997792499398
 20
-144.3249682437531
 30
0.0
 11
-88.29997792499398
 21
-142.2749652187549
 31
0.0
  0
LINE
  5
88697
330
1E
100
AcDbEntity
  8
DETAIL
  6
Continuous
370
    -3
100
AcDbLine
 10
-67.29998317500849
 20
-143.424968468752
 30
0.0
 11
-76.89998077499968
 21
-143.424968468752
 31
0.0
  0
LINE
  5
88698
330
1E
100
AcDbEntity
  8
DETAIL
  6
Continuous
370
    -3
100
AcDbLine
 10
-78.6999803250028
 20
-143.424968468752
 30
0.0
 11
-88.29997792499398
 21
-143.424968468752
 31
0.0
  0
ARC
  5
88699
330
1E
100
AcDbEntity
  8
DETAIL
  6
Continuous
370
    -3
100
AcDbCircle
 10
-66.3999833999942
 20
-144.3249682437531
 30
0.0
 40
0.8999997749999998
100
AcDbArc
 50
180.0
 51
0.0
  0
ARC
  5
8869A
330
1E
100
AcDbEntity
  8
DETAIL
  6
Continuous
370
    -3
100
AcDbCircle
 10
-77.7999805499885
 20
-144.3249682437531
 30
0.0
 40
0.8999997749999998
100
AcDbArc
 50
180.0
 51
0.0
  0
ARC
  5
8869B
330
1E
100
AcDbEntity
  8
DETAIL
  6
Continuous
370
    -3
100
AcDbCircle
 10
-89.19997770000646
 20
-144.3249682437531
 30
0.0
 40
0.8999997749999998
100
AcDbArc
 50
180.0
 51
0.0
  0
LINE
  5
8869C
330
1E
100
AcDbEntity
  8
DETAIL
  6
Continuous
370
    -3
100
AcDbLine
 10
-101.4999746249895
 20
-128.6249678437516
 30
0.0
 11
-121.9989695002468
 21
-128.6249678437516
 31
0.0
  0
LINE
  5
8869D
330
1E
100
AcDbEntity
  8
DETAIL
  6
Continuous
370
    -3
100
AcDbLine
 10
-135.6999660749979
 20
-144.3249682437531
 30
0.0
 11
-135.6999660749979
 21
-142.2749652187549
 31
0.0
  0
LINE
  5
8869E
330
1E
100
AcDbEntity
  8
DETAIL
  6
Continuous
370
    -3
100
AcDbLine
 10
-133.8999665249948
 20
-144.3249682437531
 30
0.0
 11
-133.8999665249948
 21
-142.2749652187549
 31
0.0
  0
LINE
  5
8869F
330
1E
100
AcDbEntity
  8
DETAIL
  6
Continuous
370
    -3
100
AcDbLine
 10
-124.2999689250036
 20
-144.3249682437531
 30
0.0
 11
-124.2999689250036
 21
-142.2749652187549
 31
0.0
  0
LINE
  5
886A0
330
1E
100
AcDbEntity
  8
DETAIL
  6
Continuous
370
    -3
100
AcDbLine
 10
-122.4999693750005
 20
-144.3249682437531
 30
0.0
 11
-122.4999693750005
 21
-142.2749652187549
 31
0.0
  0
LINE
  5
886A1
330
1E
100
AcDbEntity
  8
DETAIL
  6
Continuous
370
    -3
100
AcDbLine
 10
-111.0999722250062
 20
-144.3249682437531
 30
0.0
 11
-111.0999722250062
 21
-142.2749652187549
 31
0.0
  0
LINE
  5
886A2
330
1E
100
AcDbEntity
  8
DETAIL
  6
Continuous
370
    -3
100
AcDbLine
 10
-112.8999717750093
 20
-144.3249682437531
 30
0.0
 11
-112.8999717750093
 21
-142.2749652187549
 31
0.0
  0
LINE
  5
886A3
330
1E
100
AcDbEntity
  8
DETAIL
  6
Continuous
370
    -3
100
AcDbLine
 10
-99.69997507498829
 20
-144.3249682437531
 30
0.0
 11
-99.69997507498829
 21
-142.2749652187549
 31
0.0
  0
LINE
  5
886A4
330
1E
100
AcDbEntity
  8
DETAIL
  6
Continuous
370
    -3
100
AcDbLine
 10
-101.4999746249895
 20
-144.3249682437531
 30
0.0
 11
-101.4999746249895
 21
-142.2749652187549
 31
0.0
  0
LINE
  5
886A5
330
1E
100
AcDbEntity
  8
DETAIL
  6
Continuous
370
    -3
100
AcDbLine
 10
-101.4999746249895
 20
-143.424968468752
 30
0.0
 11
-111.0999722250062
 21
-143.424968468752
 31
0.0
  0
LINE
  5
886A6
330
1E
100
AcDbEntity
  8
DETAIL
  6
Continuous
370
    -3
100
AcDbLine
 10
-112.8999717750093
 20
-143.424968468752
 30
0.0
 11
-122.4999693750005
 21
-143.424968468752
 31
0.0
  0
LINE
  5
886A7
330
1E
100
AcDbEntity
  8
DETAIL
  6
Continuous
370
    -3
100
AcDbLine
 10
-124.2999689250036
 20
-143.424968468752
 30
0.0
 11
-133.8999665249948
 21
-143.424968468752
 31
0.0
  0
ARC
  5
886A8
330
1E
100
AcDbEntity
  8
DETAIL
  6
Continuous
370
    -3
100
AcDbCircle
 10
-134.7999663000073
 20
-144.3249682437531
 30
0.0
 40
0.8999997749999998
100
AcDbArc
 50
180.0
 51
0.0
  0
ARC
  5
886A9
330
1E
100
AcDbEntity
  8
DETAIL
  6
Continuous
370
    -3
100
AcDbCircle
 10
-123.3999691499893
 20
-144.3249682437531
 30
0.0
 40
0.8999997749999998
100
AcDbArc
 50
180.0
 51
0.0
  0
ARC
  5
886AA
330
1E
100
AcDbEntity
  8
DETAIL
  6
Continuous
370
    -3
100
AcDbCircle
 10
-111.999971999995
 20
-144.3249682437531
 30
0.0
 40
0.8999997749999998
100
AcDbArc
 50
180.0
 51
0.0
  0
ARC
  5
886AB
330
1E
100
AcDbEntity
  8
DETAIL
  6
Continuous
370
    -3
100
AcDbCircle
 10
-100.5999748500007
 20
-144.3249682437531
 30
0.0
 40
0.8999997749999998
100
AcDbArc
 50
180.0
 51
0.0
  0
LINE
  5
886AC
330
1E
100
AcDbEntity
  8
DETAIL
  6
Continuous
370
    -3
100
AcDbLine
 10
-90.09997747499529
 20
-143.424968468752
 30
0.0
 11
-99.69997507498829
 21
-143.424968468752
 31
0.0
  0
LINE
  5
886AD
330
1E
100
AcDbEntity
  8
DETAIL
  6
Continuous
370
    -3
100
AcDbLine
 10
35.29999117501302
 20
-143.424968468752
 30
0.0
 11
25.69999357499637
 21
-143.424968468752
 31
0.0
  0
LINE
  5
886AE
330
1E
100
AcDbEntity
  8
DETAIL
  6
Continuous
370
    -3
100
AcDbLine
 10
25.69999357499637
 20
-144.3249682437531
 30
0.0
 11
25.69999357499637
 21
-142.2749652187549
 31
0.0
  0
LINE
  5
886AF
330
1E
100
AcDbEntity
  8
DETAIL
  6
Continuous
370
    -3
100
AcDbLine
 10
23.89999402499324
 20
-144.3249682437531
 30
0.0
 11
23.89999402499324
 21
-142.2749652187549
 31
0.0
  0
ARC
  5
886B0
330
1E
100
AcDbEntity
  8
DETAIL
  6
Continuous
370
    -3
100
AcDbCircle
 10
24.79999380000754
 20
-144.3249682437531
 30
0.0
 40
0.8999997749999998
100
AcDbArc
 50
180.0
 51
0.0
  0
LINE
  5
886B1
330
1E
100
AcDbEntity
  8
DETAIL
  6
Continuous
370
    -3
100
AcDbLine
 10
14.29999642500206
 20
-144.3249682437531
 30
0.0
 11
14.29999642500206
 21
-142.2749652187549
 31
0.0
  0
LINE
  5
886B2
330
1E
100
AcDbEntity
  8
DETAIL
  6
Continuous
370
    -3
100
AcDbLine
 10
12.49999687500076
 20
-144.3249682437531
 30
0.0
 11
12.49999687500076
 21
-142.2749652187549
 31
0.0
  0
LINE
  5
886B3
330
1E
100
AcDbEntity
  8
DETAIL
  6
Continuous
370
    -3
100
AcDbLine
 10
2.899999275009577
 20
-144.3249682437531
 30
0.0
 11
2.899999275009577
 21
-142.2749652187549
 31
0.0
  0
LINE
  5
886B4
330
1E
100
AcDbEntity
  8
DETAIL
  6
Continuous
370
    -3
100
AcDbLine
 10
1.099999725006455
 20
-144.3249682437531
 30
0.0
 11
1.099999725006455
 21
-142.2749652187549
 31
0.0
  0
LINE
  5
886B5
330
1E
100
AcDbEntity
  8
DETAIL
  6
Continuous
370
    -3
100
AcDbLine
 10
-33.09999172500011
 20
-144.3249682437531
 30
0.0
 11
-33.09999172500016
 21
-142.2749652187549
 31
0.0
  0
LINE
  5
886B6
330
1E
100
AcDbEntity
  8
DETAIL
  6
Continuous
370
    -3
100
AcDbLine
 10
-31.2999921749988
 20
-144.3249682437531
 30
0.0
 11
-31.2999921749988
 21
-142.2749652187549
 31
0.0
  0
LINE
  5
886B7
330
1E
100
AcDbEntity
  8
DETAIL
  6
Continuous
370
    -3
100
AcDbLine
 10
-42.69998932499311
 20
-144.3249682437531
 30
0.0
 11
-42.69998932499311
 21
-142.2749652187549
 31
0.0
  0
LINE
  5
886B8
330
1E
100
AcDbEntity
  8
DETAIL
  6
Continuous
370
    -3
100
AcDbLine
 10
-44.49998887499441
 20
-144.3249682437531
 30
0.0
 11
-44.49998887499441
 21
-142.2749652187549
 31
0.0
  0
LINE
  5
886B9
330
1E
100
AcDbEntity
  8
DETAIL
  6
Continuous
370
    -3
100
AcDbLine
 10
-8.499997875010137
 20
-142.2749652187549
 30
0.0
 11
-8.499997875010194
 21
-144.3249682437531
 31
0.0
  0
LINE
  5
886BA
330
1E
100
AcDbEntity
  8
DETAIL
  6
Continuous
370
    -3
100
AcDbLine
 10
-10.29999742498785
 20
-142.2749652187549
 30
0.0
 11
-10.29999742498785
 21
-144.3249682437531
 31
0.0
  0
LINE
  5
886BB
330
1E
100
AcDbEntity
  8
DETAIL
  6
Continuous
370
    -3
100
AcDbLine
 10
-21.69999457500762
 20
-144.3249682437531
 30
0.0
 11
-21.69999457500762
 21
-142.2749652187549
 31
0.0
  0
LINE
  5
886BC
330
1E
100
AcDbEntity
  8
DETAIL
  6
Continuous
370
    -3
100
AcDbLine
 10
-19.8999950250045
 20
-144.3249682437531
 30
0.0
 11
-19.8999950250045
 21
-142.2749652187549
 31
0.0
  0
LINE
  5
886BD
330
1E
100
AcDbEntity
  8
DETAIL
  6
Continuous
370
    -3
100
AcDbLine
 10
-54.0999864749856
 20
-144.3249682437531
 30
0.0
 11
-54.0999864749856
 21
-142.2749652187549
 31
0.0
  0
LINE
  5
886BE
330
1E
100
AcDbEntity
  8
DETAIL
  6
Continuous
370
    -3
100
AcDbLine
 10
-55.89998602498872
 20
-144.3249682437531
 30
0.0
 11
-55.89998602498872
 21
-142.2749652187549
 31
0.0
  0
LINE
  5
886BF
330
1E
100
AcDbEntity
  8
DETAIL
  6
Continuous
370
    -3
100
AcDbLine
 10
1.099999725006455
 20
-143.424968468752
 30
0.0
 11
-8.499997875010194
 21
-143.424968468752
 31
0.0
  0
LINE
  5
886C0
330
1E
100
AcDbEntity
  8
DETAIL
  6
Continuous
370
    -3
100
AcDbLine
 10
-10.29999742498785
 20
-143.424968468752
 30
0.0
 11
-19.8999950250045
 21
-143.424968468752
 31
0.0
  0
LINE
  5
886C1
330
1E
100
AcDbEntity
  8
DETAIL
  6
Continuous
370
    -3
100
AcDbLine
 10
-33.09999172500011
 20
-143.424968468752
 30
0.0
 11
-42.69998932499311
 21
-143.424968468752
 31
0.0
  0
LINE
  5
886C2
330
1E
100
AcDbEntity
  8
DETAIL
  6
Continuous
370
    -3
100
AcDbLine
 10
-44.49998887499441
 20
-143.424968468752
 30
0.0
 11
-54.0999864749856
 21
-143.424968468752
 31
0.0
  0
LINE
  5
886C3
330
1E
100
AcDbEntity
  8
DETAIL
  6
Continuous
370
    -3
100
AcDbLine
 10
-21.69999457500762
 20
-143.424968468752
 30
0.0
 11
-31.2999921749988
 21
-143.424968468752
 31
0.0
  0
LINE
  5
886C4
330
1E
100
AcDbEntity
  8
DETAIL
  6
Continuous
370
    -3
100
AcDbLine
 10
12.49999687500076
 20
-143.424968468752
 30
0.0
 11
2.899999275009577
 21
-143.424968468752
 31
0.0
  0
ARC
  5
886C5
330
1E
100
AcDbEntity
  8
DETAIL
  6
Continuous
370
    -3
100
AcDbCircle
 10
13.39999665001323
 20
-144.3249682437531
 30
0.0
 40
0.8999997749999998
100
AcDbArc
 50
180.0
 51
0.0
  0
ARC
  5
886C6
330
1E
100
AcDbEntity
  8
DETAIL
  6
Continuous
370
    -3
100
AcDbCircle
 10
1.999999499995283
 20
-144.3249682437531
 30
0.0
 40
0.8999997749999998
100
AcDbArc
 50
180.0
 51
0.0
  0
ARC
  5
886C7
330
1E
100
AcDbEntity
  8
DETAIL
  6
Continuous
370
    -3
100
AcDbCircle
 10
-32.19999194998763
 20
-144.3249682437531
 30
0.0
 40
0.8999997749999998
100
AcDbArc
 50
180.0
 51
0.0
  0
ARC
  5
886C8
330
1E
100
AcDbEntity
  8
DETAIL
  6
Continuous
370
    -3
100
AcDbCircle
 10
-43.59998910000558
 20
-144.3249682437531
 30
0.0
 40
0.8999997749999998
100
AcDbArc
 50
180.0
 51
0.0
  0
ARC
  5
886C9
330
1E
100
AcDbEntity
  8
DETAIL
  6
Continuous
370
    -3
100
AcDbCircle
 10
-9.399997649999022
 20
-144.3249682437531
 30
0.0
 40
0.8999997749999998
100
AcDbArc
 50
180.0
 51
0.0
  0
ARC
  5
886CA
330
1E
100
AcDbEntity
  8
DETAIL
  6
Continuous
370
    -3
100
AcDbCircle
 10
-20.79999479999333
 20
-144.3249682437531
 30
0.0
 40
0.8999997749999998
100
AcDbArc
 50
180.0
 51
0.0
  0
ARC
  5
886CB
330
1E
100
AcDbEntity
  8
DETAIL
  6
Continuous
370
    -3
100
AcDbCircle
 10
-54.99998624999989
 20
-144.3249682437531
 30
0.0
 40
0.8999997749999998
100
AcDbArc
 50
180.0
 51
0.0
  0
LINE
  5
886CC
330
1E
100
AcDbEntity
  8
DETAIL
  6
Continuous
370
    -3
100
AcDbLine
 10
23.89999402499324
 20
-143.424968468752
 30
0.0
 11
14.29999642500206
 21
-143.424968468752
 31
0.0
  0
LINE
  5
886CD
330
1E
100
AcDbEntity
  8
DETAIL
  6
Continuous
370
    -3
100
AcDbLine
 10
80.89997977501388
 20
-144.3249682437531
 30
0.0
 11
80.89997977501388
 21
-142.2749652187549
 31
0.0
  0
LINE
  5
886CE
330
1E
100
AcDbEntity
  8
DETAIL
  6
Continuous
370
    -3
100
AcDbLine
 10
82.69997932499155
 20
-144.3249682437531
 30
0.0
 11
82.6999793249916
 21
-142.2749652187549
 31
0.0
  0
LINE
  5
886CF
330
1E
100
AcDbEntity
  8
DETAIL
  6
Continuous
370
    -3
100
AcDbLine
 10
58.09998547500163
 20
-144.3249682437531
 30
0.0
 11
58.09998547500168
 21
-142.2749652187549
 31
0.0
  0
LINE
  5
886D0
330
1E
100
AcDbEntity
  8
DETAIL
  6
Continuous
370
    -3
100
AcDbLine
 10
59.89998502500475
 20
-144.3249682437531
 30
0.0
 11
59.89998502500475
 21
-142.2749652187549
 31
0.0
  0
LINE
  5
886D1
330
1E
100
AcDbEntity
  8
DETAIL
  6
Continuous
370
    -3
100
AcDbLine
 10
71.29998217499724
 20
-144.3249682437531
 30
0.0
 11
71.29998217499724
 21
-142.2749652187549
 31
0.0
  0
LINE
  5
886D2
330
1E
100
AcDbEntity
  8
DETAIL
  6
Continuous
370
    -3
100
AcDbLine
 10
69.49998262499594
 20
-144.3249682437531
 30
0.0
 11
69.49998262499594
 21
-142.2749652187549
 31
0.0
  0
LINE
  5
886D3
330
1E
100
AcDbEntity
  8
DETAIL
  6
Continuous
370
    -3
100
AcDbLine
 10
46.69998832500732
 20
-144.3249682437531
 30
0.0
 11
46.69998832500732
 21
-142.2749652187549
 31
0.0
  0
LINE
  5
886D4
330
1E
100
AcDbEntity
  8
DETAIL
  6
Continuous
370
    -3
100
AcDbLine
 10
48.49998787501045
 20
-144.3249682437531
 30
0.0
 11
48.49998787501045
 21
-142.2749652187549
 31
0.0
  0
LINE
  5
886D5
330
1E
100
AcDbEntity
  8
DETAIL
  6
Continuous
370
    -3
100
AcDbLine
 10
37.09999072499067
 20
-144.3249682437531
 30
0.0
 11
37.09999072499073
 21
-142.2749652187549
 31
0.0
  0
LINE
  5
886D6
330
1E
100
AcDbEntity
  8
DETAIL
  6
Continuous
370
    -3
100
AcDbLine
 10
35.29999117501302
 20
-144.3249682437531
 30
0.0
 11
35.29999117501307
 21
-142.2749652187549
 31
0.0
  0
LINE
  5
886D7
330
1E
100
AcDbEntity
  8
DETAIL
  6
Continuous
370
    -3
100
AcDbLine
 10
94.09997647501132
 20
-142.2749652187549
 30
0.0
 11
94.09997647501132
 21
-144.3249682437531
 31
0.0
  0
LINE
  5
886D8
330
1E
100
AcDbEntity
  8
DETAIL
  6
Continuous
370
    -3
100
AcDbLine
 10
92.2999769250082
 20
-142.2749652187549
 30
0.0
 11
92.2999769250082
 21
-144.3249682437531
 31
0.0
  0
LINE
  5
886D9
330
1E
100
AcDbEntity
  8
DETAIL
  6
Continuous
370
    -3
100
AcDbLine
 10
104.4499738874974
 20
-141.674968906253
 30
0.0
 11
104.4499738874974
 21
-144.6749681562514
 31
0.0
  0
LINE
  5
886DA
330
1E
100
AcDbEntity
  8
DETAIL
  6
Continuous
370
    -3
100
AcDbLine
 10
101.9499745124967
 20
-141.674968906253
 30
0.0
 11
101.9499745124967
 21
-144.6749681562514
 31
0.0
  0
LINE
  5
886DB
330
1E
100
AcDbEntity
  8
DETAIL
  6
Continuous
370
    -3
100
AcDbLine
 10
101.9499747688172
 20
-141.5798710246822
 30
0.0
 11
101.9499745124967
 21
-145.0749689062531
 31
0.0
  0
LINE
  5
886DC
330
1E
100
AcDbEntity
  8
DETAIL
  6
Continuous
370
    -3
100
AcDbLine
 10
104.4499741987224
 20
-140.9180296643739
 30
0.0
 11
104.4499738874974
 21
-145.0749689062531
 31
0.0
  0
LINE
  5
886DD
330
1E
100
AcDbEntity
  8
DETAIL
  6
Continuous
370
    -3
100
AcDbLine
 10
110.9504679464253
 20
-138.0080907366432
 30
0.0
 11
110.7915510047005
 21
-140.6605153609225
 31
0.0
  0
LINE
  5
886DE
330
1E
100
AcDbEntity
  8
DETAIL
  6
Continuous
370
    -3
100
AcDbLine
 10
107.8008130497955
 20
-143.424968468752
 30
0.0
 11
104.4499738874974
 21
-143.424968468752
 31
0.0
  0
LINE
  5
886DF
330
1E
100
AcDbEntity
  8
DETAIL
  6
Continuous
370
    -3
100
AcDbLine
 10
107.8008130497955
 20
-140.9249690937517
 30
0.0
 11
107.7946930513162
 21
-140.9249690937517
 31
0.0
  0
LINE
  5
886E0
330
1E
100
AcDbEntity
  8
DETAIL
  6
Continuous
370
    -3
100
AcDbLine
 10
107.7946930513162
 20
-140.9249690937517
 30
0.0
 11
104.4499738874974
 21
-140.9249690937517
 31
0.0
  0
LINE
  5
886E1
330
1E
100
AcDbEntity
  8
DETAIL
  6
Continuous
370
    -3
100
AcDbLine
 10
101.9499745124967
 20
-143.424968468752
 30
0.0
 11
94.09997647501132
 21
-143.424968468752
 31
0.0
  0
LINE
  5
886E2
330
1E
100
AcDbEntity
  8
DETAIL
  6
Continuous
370
    -3
100
AcDbLine
 10
92.2999769250082
 20
-143.424968468752
 30
0.0
 11
82.69997932499155
 21
-143.424968468752
 31
0.0
  0
LINE
  5
886E3
330
1E
100
AcDbEntity
  8
DETAIL
  6
Continuous
370
    -3
100
AcDbLine
 10
46.69998832500732
 20
-143.424968468752
 30
0.0
 11
37.09999072499067
 21
-143.424968468752
 31
0.0
  0
LINE
  5
886E4
330
1E
100
AcDbEntity
  8
DETAIL
  6
Continuous
370
    -3
100
AcDbLine
 10
58.09998547500163
 20
-143.424968468752
 30
0.0
 11
48.49998787501045
 21
-143.424968468752
 31
0.0
  0
LINE
  5
886E5
330
1E
100
AcDbEntity
  8
DETAIL
  6
Continuous
370
    -3
100
AcDbLine
 10
80.89997977501388
 20
-143.424968468752
 30
0.0
 11
71.29998217499724
 21
-143.424968468752
 31
0.0
  0
LINE
  5
886E6
330
1E
100
AcDbEntity
  8
DETAIL
  6
Continuous
370
    -3
100
AcDbLine
 10
69.49998262499594
 20
-143.424968468752
 30
0.0
 11
59.89998502500475
 21
-143.424968468752
 31
0.0
  0
LINE
  5
886E7
330
1E
100
AcDbEntity
  8
DETAIL
  6
Continuous
370
    -3
100
AcDbLine
 10
108.4009263877249
 20
-139.3734224414561
 30
0.0
 11
108.2992662585065
 21
-140.6642181672709
 31
0.0
  0
LINE
  5
886E8
330
1E
100
AcDbEntity
  8
DETAIL
  6
Continuous
370
    -3
100
AcDbLine
 10
108.3044432029147
 20
-139.419040580778
 30
0.0
 11
108.2992693756132
 21
-140.464226909115
 31
0.0
  0
ARC
  5
886E9
330
1E
100
AcDbEntity
  8
DETAIL
  6
Continuous
370
    -3
100
AcDbCircle
 10
81.79997955000272
 20
-144.3249682437531
 30
0.0
 40
0.8999997749999998
100
AcDbArc
 50
180.0
 51
0.0
  0
ARC
  5
886EA
330
1E
100
AcDbEntity
  8
DETAIL
  6
Continuous
370
    -3
100
AcDbCircle
 10
58.99998524999046
 20
-144.3249682437531
 30
0.0
 40
0.8999997749999998
100
AcDbArc
 50
180.0
 51
0.0
  0
ARC
  5
886EB
330
1E
100
AcDbEntity
  8
DETAIL
  6
Continuous
370
    -3
100
AcDbCircle
 10
70.39998240000841
 20
-144.3249682437531
 30
0.0
 40
0.8999997749999998
100
AcDbArc
 50
180.0
 51
0.0
  0
ARC
  5
886EC
330
1E
100
AcDbEntity
  8
DETAIL
  6
Continuous
370
    -3
100
AcDbCircle
 10
47.59998809999615
 20
-144.3249682437531
 30
0.0
 40
0.8999997749999998
100
AcDbArc
 50
180.0
 51
0.0
  0
ARC
  5
886ED
330
1E
100
AcDbEntity
  8
DETAIL
  6
Continuous
370
    -3
100
AcDbCircle
 10
36.19999095000185
 20
-144.3249682437531
 30
0.0
 40
0.8999997749999998
100
AcDbArc
 50
180.0
 51
0.0
  0
ARC
  5
886EE
330
1E
100
AcDbEntity
  8
DETAIL
  6
Continuous
370
    -3
100
AcDbCircle
 10
93.19997669999702
 20
-144.3249682437531
 30
0.0
 40
0.8999997749999998
100
AcDbArc
 50
180.0
 51
0.0
  0
ARC
  5
886EF
330
1E
100
AcDbEntity
  8
DETAIL
  6
Continuous
370
    -3
100
AcDbCircle
 10
103.199974199998
 20
-144.6749681562514
 30
0.0
 40
1.249999687499999
100
AcDbArc
 50
180.0
 51
0.0
  0
ARC
  5
886F0
330
1E
100
AcDbEntity
  8
DETAIL
  6
Continuous
370
    -3
100
AcDbCircle
 10
107.8008130497955
 20
-140.4249692187531
 30
0.0
 40
0.499999875
100
AcDbArc
 50
270.0
 51
355.4967639999937
  0
ARC
  5
886F1
330
1E
100
AcDbEntity
  8
DETAIL
  6
Continuous
370
    -3
100
AcDbCircle
 10
107.8008130497955
 20
-140.4249692187531
 30
0.0
 40
2.999999249999999
100
AcDbArc
 50
270.0
 51
355.4967639999937
  0
ARC
  5
886F2
330
1E
100
AcDbEntity
  8
DETAIL
  6
Continuous
370
    -3
100
AcDbCircle
 10
107.7946930513162
 20
-140.4249692187531
 30
0.0
 40
0.499999875
100
AcDbArc
 50
270.0
 51
353.9278049999993
  0
ARC
  5
8870B
330
1E
100
AcDbEntity
  8
DETAIL
  6
Continuous
370
    -3
100
AcDbCircle
 10
308.9999227499911
 20
-108.6249728437519
 30
0.0
 40
19.99999499999999
100
AcDbArc
 50
270.0
 51
0.0
  0
ARC
  5
8870C
330
1E
100
AcDbEntity
  8
DETAIL
  6
Continuous
370
    -3
100
AcDbCircle
 10
308.9999227499911
 20
-108.6249728437519
 30
0.0
 40
18.99999524999999
100
AcDbArc
 50
270.0
 51
0.0
  0
LINE
  5
8870D
330
1E
100
AcDbEntity
  8
DETAIL
  6
Continuous
100
AcDbLine
 10
116.7427034785205
 20
-133.488168654354
 30
0.0
 11
121.6059018915113
 21
-128.6249678437516
 31
0.0
  0
ARC
  5
88739
330
1E
100
AcDbEntity
  8
DETAIL
  6
Continuous
370
    -3
100
AcDbCircle
 10
242.4097927308621
 20
-19.12499521875088
 30
0.0
 40
113.5901182691299
100
AcDbArc
 50
343.3318970000108
 51
16.66810299998915
  0
ARC
  5
8873A
330
1E
100
AcDbEntity
  8
DETAIL
  6
Continuous
370
    -3
100
AcDbCircle
 10
355.9999110000089
 20
-15.58858276952287
 30
0.0
 40
33.99999149999999
100
AcDbArc
 50
0.0
 51
75.00000000000555
  0
LINE
  5
8873B
330
1E
100
AcDbEntity
  8
DETAIL
  6
Continuous
370
    -3
100
AcDbLine
 10
328.9999177499894
 20
-5.138892048612433
 30
0.0
 11
328.9999177499894
 21
-91.62497709375065
 31
0.0
  0
LINE
  5
8873C
330
1E
100
AcDbEntity
  8
DETAIL
  6
Continuous
370
    -3
100
AcDbLine
 10
327.999918000004
 20
84.87497878125168
 30
0.0
 11
327.999918000004
 21
-108.6249728437519
 31
0.0
  0
LINE
  5
8873E
330
1E
100
AcDbEntity
  8
DETAIL
  6
Continuous
370
    -3
100
AcDbLine
 10
330.9999172500092
 20
-65.12498371874835
 30
0.0
 11
330.9999172500092
 21
29.37499265624683
 31
0.0
  0
ARC
  5
8873F
330
1E
100
AcDbEntity
  8
DETAIL
  6
Continuous
370
    -3
100
AcDbCircle
 10
355.9999110000089
 20
-22.66140766797889
 30
0.0
 40
33.99999149999999
100
AcDbArc
 50
284.9999999999944
 51
0.0
  0
ARC
  5
88742
330
1E
100
AcDbEntity
  8
DETAIL
  6
Continuous
370
    -3
100
AcDbCircle
 10
327.999918000004
 20
-91.62497709375065
 30
0.0
 40
0.9999997499999999
100
AcDbArc
 50
270.0
 51
0.0
  0
ARC
  5
88743
330
1E
100
AcDbEntity
  8
DETAIL
  6
Continuous
370
    -3
100
AcDbCircle
 10
327.999918000004
 20
-105.6249735937531
 30
0.0
 40
0.9999997499999999
100
AcDbArc
 50
0.0
 51
90.0
  0
LINE
  5
88744
330
1E
100
AcDbEntity
  8
DETAIL
  6
Continuous
370
    -3
100
AcDbLine
 10
328.9999177499894
 20
-108.6249728437519
 30
0.0
 11
328.9999177499894
 21
-105.6249735937531
 31
0.0
  0
ARC
  5
88745
330
1E
100
AcDbEntity
  8
DETAIL
  6
Continuous
370
    -3
100
AcDbCircle
 10
323.3794658217821
 20
-98.62497534375188
 30
0.0
 40
6.120451803219999
100
AcDbArc
 50
319.0184219999964
 51
40.98157800000354
  0
ARC
  5
88746
330
1E
100
AcDbEntity
  8
DETAIL
  6
Continuous
370
    -3
100
AcDbCircle
 10
330.4999173750047
 20
-67.62498309374859
 30
0.0
 40
0.499999875
100
AcDbArc
 50
270.0
 51
0.0
  0
ARC
  5
88747
330
1E
100
AcDbEntity
  8
DETAIL
  6
Continuous
370
    -3
100
AcDbCircle
 10
331.4999171249901
 20
-63.60782409804142
 30
0.0
 40
0.499999875
100
AcDbArc
 50
92.00000000000395
 51
180.0
  0
LINE
  5
88748
330
1E
100
AcDbEntity
  8
DETAIL
  6
Continuous
370
    -3
100
AcDbLine
 10
330.9999172500092
 20
-63.62498409375167
 30
0.0
 11
330.9999172500092
 21
-67.62498309374859
 31
0.0
  0
LINE
  5
88749
330
1E
100
AcDbEntity
  8
DETAIL
  6
Continuous
370
    -3
100
AcDbLine
 10
330.4999173750047
 20
-68.1249829687531
 30
0.0
 11
328.9999177499894
 21
-68.1249829687531
 31
0.0
  0
LINE
  5
8874A
330
1E
100
AcDbEntity
  8
DETAIL
  6
Continuous
370
    -3
100
AcDbLine
 10
342.658634335331
 20
-61.43557130777299
 30
0.0
 11
364.799762133377
 21
-55.5028794576092
 31
0.0
  0
ARC
  5
8874B
330
1E
100
AcDbEntity
  8
DETAIL
  6
Continuous
370
    -3
100
AcDbCircle
 10
329.7176775705693
 20
-13.13930338184218
 30
0.0
 40
49.99998749999999
100
AcDbArc
 50
272.0000000000039
 51
284.9999999999944
  0
ARC
  5
8874D
330
1E
100
AcDbEntity
  8
DETAIL
  6
Continuous
370
    -3
100
AcDbCircle
 10
336.8573824523055
 20
-47.40333481583002
 30
0.0
 40
14.99999625
100
AcDbArc
 50
281.77048300003
 51
343.3318970000108
  0
LINE
  5
8874E
330
1E
100
AcDbEntity
  8
DETAIL
  6
Continuous
370
    -3
100
AcDbLine
 10
389.9999025000006
 20
-15.58858276952287
 30
0.0
 11
389.9999025000006
 21
-22.66140766797889
 31
0.0
  0
ARC
  5
88752
330
1E
100
AcDbEntity
  8
DETAIL
  6
Continuous
370
    -3
100
AcDbCircle
 10
371.7999070500036
 20
15.64215608945778
 30
0.0
 40
0.9999997499999999
100
AcDbArc
 50
180.0
 51
243.1646229999916
  0
ARC
  5
88753
330
1E
100
AcDbEntity
  8
DETAIL
  6
Continuous
370
    -3
100
AcDbCircle
 10
369.7999075500074
 20
23.92436735224237
 30
0.0
 40
0.9999997499999999
100
AcDbArc
 50
0.0
 51
87.10023499997365
  0
LINE
  5
88754
330
1E
100
AcDbEntity
  8
DETAIL
  6
Continuous
370
    -3
100
AcDbLine
 10
370.7999072999928
 20
23.92436735224237
 30
0.0
 11
370.7999072999928
 21
15.64215608945778
 31
0.0
  0
LINE
  5
88755
330
1E
100
AcDbEntity
  8
DETAIL
  6
Continuous
370
    -3
100
AcDbLine
 10
328.9999177499894
 20
55.95571934439703
 30
0.0
 11
328.9999177499894
 21
84.87497878125168
 31
0.0
  0
ARC
  5
88756
330
1E
100
AcDbEntity
  8
DETAIL
  6
Continuous
370
    -3
100
AcDbCircle
 10
313.9999214999907
 20
84.87497878125168
 30
0.0
 40
14.99999625
100
AcDbArc
 50
0.0
 51
65.00000000001286
  0
ARC
  5
88757
330
1E
100
AcDbEntity
  8
DETAIL
  6
Continuous
370
    -3
100
AcDbCircle
 10
313.9999214999907
 20
84.87497878125168
 30
0.0
 40
13.99999649999999
100
AcDbArc
 50
0.0
 51
65.00000000001286
  0
LINE
  5
88758
330
1E
100
AcDbEntity
  8
DETAIL
  6
Continuous
370
    -3
100
AcDbLine
 10
328.9999177499894
 20
11.27499718125182
 30
0.0
 11
328.9999177499894
 21
2.888892611108531
 31
0.0
  0
ARC
  5
88759
330
1E
100
AcDbEntity
  8
DETAIL
  6
Continuous
370
    -3
100
AcDbCircle
 10
324.3794655717911
 20
-1.124999718751951
 30
0.0
 40
6.120451803219999
100
AcDbArc
 50
309.8327879999625
 51
50.16722900000424
  0
LINE
  5
8875A
330
1E
100
AcDbEntity
  8
DETAIL
  6
Continuous
370
    -3
100
AcDbLine
 10
328.2999179249936
 20
-5.824998543751462
 30
0.0
 11
327.999918000004
 21
-5.824998543751462
 31
0.0
  0
LINE
  5
8875B
330
1E
100
AcDbEntity
  8
DETAIL
  6
Continuous
370
    -3
100
AcDbLine
 10
328.2999179249936
 20
3.57499910624756
 30
0.0
 11
327.999918000004
 21
3.57499910624756
 31
0.0
  0
LINE
  5
8875C
330
1E
100
AcDbEntity
  8
DETAIL
  6
Continuous
370
    -3
100
AcDbLine
 10
327.999918000004
 20
3.57499910624756
 30
0.0
 11
327.999918000004
 21
-5.824998543751462
 31
0.0
  0
LINE
  5
8875D
330
1E
100
AcDbEntity
  8
DETAIL
  6
Continuous
370
    -3
100
AcDbLine
 10
328.2999179249936
 20
3.57499910624756
 30
0.0
 11
328.2999179249936
 21
-5.824998543751462
 31
0.0
  0
ARC
  5
8875E
330
1E
100
AcDbEntity
  8
DETAIL
  6
Continuous
370
    -3
100
AcDbCircle
 10
330.4999173750047
 20
29.37499265624683
 30
0.0
 40
0.499999875
100
AcDbArc
 50
0.0
 51
90.0
  0
LINE
  5
8875F
330
1E
100
AcDbEntity
  8
DETAIL
  6
DASHED
370
    -3
100
AcDbLine
 10
330.9999172500092
 20
-2.912945938428947
 30
0.0
 11
330.9999172500092
 21
9.966850841618906
 31
0.0
  0
ARC
  5
88760
330
1E
100
AcDbEntity
  8
DETAIL
  6
Continuous
370
    -3
100
AcDbCircle
 10
331.4999171249901
 20
25.35783366053965
 30
0.0
 40
0.499999875
100
AcDbArc
 50
180.0
 51
267.999999999996
  0
LINE
  5
88761
330
1E
100
AcDbEntity
  8
DETAIL
  6
Continuous
370
    -3
100
AcDbLine
 10
330.4999173750047
 20
29.87499253125179
 30
0.0
 11
328.9999177499894
 21
29.87499253125179
 31
0.0
  0
LINE
  5
88762
330
1E
100
AcDbEntity
  8
DETAIL
  6
Continuous
370
    -3
100
AcDbLine
 10
342.658634335331
 20
23.18558087027122
 30
0.0
 11
364.799762133377
 21
17.25288902010743
 31
0.0
  0
ARC
  5
88763
330
1E
100
AcDbEntity
  8
DETAIL
  6
Continuous
370
    -3
100
AcDbCircle
 10
329.7176775705693
 20
-25.11070038898788
 30
0.0
 40
49.99998749999999
100
AcDbArc
 50
75.00000000000555
 51
87.99999999999604
  0
ARC
  5
88764
330
1E
100
AcDbEntity
  8
DETAIL
  6
Continuous
370
    -3
100
AcDbCircle
 10
331.4999171249901
 20
27.35903316024087
 30
0.0
 40
0.499999875
100
AcDbArc
 50
180.0
 51
268.0545820000093
  0
ARC
  5
88765
330
1E
100
AcDbEntity
  8
DETAIL
  6
Continuous
370
    -3
100
AcDbCircle
 10
336.8573824523055
 20
9.153331045000413
 30
0.0
 40
14.99999625
100
AcDbArc
 50
16.66810299998915
 51
78.2295169999699
  0
ARC
  5
88766
330
1E
100
AcDbEntity
  8
DETAIL
  6
Continuous
370
    -3
100
AcDbCircle
 10
329.7176775705693
 20
-25.11070038898788
 30
0.0
 40
51.99998699999999
100
AcDbArc
 50
87.10023499997365
 51
87.99999999999604
  0
LINE
  5
88767
330
1E
100
AcDbEntity
  8
DETAIL
  6
Continuous
370
    -3
100
AcDbLine
 10
328.9999177499894
 20
55.95571934439703
 30
0.0
 11
328.9999177499894
 21
11.27499718125182
 31
0.0
  0
LINE
  5
88769
330
1E
100
AcDbEntity
  8
DETAIL
  6
Continuous
370
    -3
100
AcDbLine
 10
369.8504942040299
 20
24.92308710255702
 30
0.0
 11
332.3483035795625
 21
26.82271329431705
 31
0.0
  0
SPLINE
  5
8876D
330
1E
100
AcDbEntity
  8
DETAIL
  6
Continuous
100
AcDbSpline
210
0.0
220
0.0
230
1.0
 70
     8
 71
     3
 72
    11
 73
     7
 74
     5
 42
0.0000000001
 43
0.0000000001
 44
0.00000001
 40
0.0
 40
0.0
 40
0.0
 40
0.0
 40
6.055799982683506
 40
10.87190307181383
 40
15.68800616104966
 40
20.50410925029179
 40
20.50410925029179
 40
20.50410925029179
 40
20.50410925029179
 10
-302.1228848374939
 20
113.8427257999123
 30
0.0
 10
-304.0742684601213
 20
114.3593831072502
 30
0.0
 10
-307.5775634211796
 20
115.2869316257289
 30
0.0
 10
-312.6165062584005
 20
116.6853564563096
 30
0.0
 10
-317.2608007438487
 20
117.9602229104978
 30
0.0
 10
-320.356407270748
 20
118.8123092479436
 30
0.0
 10
-321.9042105358321
 20
119.2383524107335
 30
0.0
 11
-302.1228848374939
 21
113.8427257999123
 31
0.0
 11
-307.9735388044291
 21
115.4055954649538
 31
0.0
 11
-312.6170960482204
 21
116.6831811135434
 31
0.0
 11
-317.2606532920408
 21
117.9607667621439
 31
0.0
 11
-321.9042105358321
 21
119.2383524107335
 31
0.0
  0
LINE
  5
8876E
330
1E
100
AcDbEntity
  8
DETAIL
  6
Continuous
100
AcDbLine
 10
-298.1940128269252
 20
115.8264209498433
 30
0.0
 11
-321.108389334583
 21
122.1308718342875
 31
0.0
  0
LINE
  5
8876F
330
1E
100
AcDbEntity
  8
DETAIL
  6
Continuous
100
AcDbLine
 10
-346.2499374999761
 20
122.5249672812506
 30
0.0
 11
-324.0264004058162
 21
122.5249672812506
 31
0.0
  0
ARC
  5
88770
330
1E
100
AcDbEntity
  8
DETAIL
  6
Continuous
100
AcDbCircle
 10
-324.0264004058162
 20
111.524967281256
 30
0.0
 40
10.99999999999531
100
AcDbArc
 50
74.61678126870016
 51
89.99999999994789
  0
SPLINE
  5
88771
330
1E
100
AcDbEntity
  8
DETAIL
  6
Continuous
100
AcDbSpline
210
0.0
220
0.0
230
1.0
 70
    24
 71
     3
 72
    15
 73
    11
 74
     9
 42
0.0000000001
 43
0.0000000001
 44
0.00000001
 40
0.0
 40
0.0
 40
0.0
 40
0.0
 40
2.777942136774072
 40
5.555884273533536
 40
8.333826410307551
 40
11.11176854709611
 40
13.88971068385564
 40
16.66765282062971
 40
19.44559495738928
 40
22.22353709416347
 40
22.22353709416347
 40
22.22353709416347
 40
22.22353709416347
 10
-346.2499374999834
 20
119.5249672812515
 30
0.0
 10
-345.3239567877253
 20
119.5249672812515
 30
0.0
 10
-343.4719953632141
 20
119.5249672812514
 30
0.0
 10
-340.694053226445
 20
119.5249672812515
 30
0.0
 10
-337.9161110896709
 20
119.5249672812515
 30
0.0
 10
-335.1381689528969
 20
119.5249672812515
 30
0.0
 10
-332.3602268161229
 20
119.5249672812515
 30
0.0
 10
-329.5822846793584
 20
119.5249672812515
 30
0.0
 10
-326.8043425425892
 20
119.5249672812515
 30
0.0
 10
-324.952381118078
 20
119.5249672812515
 30
0.0
 10
-324.0264004058199
 20
119.5249672812515
 30
0.0
 11
-346.2499374999834
 21
119.5249672812515
 31
0.0
 11
-343.4719953632093
 21
119.5249672812515
 31
0.0
 11
-340.6940532264497
 21
119.5249672812515
 31
0.0
 11
-337.9161110896757
 21
119.5249672812515
 31
0.0
 11
-335.1381689528871
 21
119.5249672812515
 31
0.0
 11
-332.3602268161276
 21
119.5249672812515
 31
0.0
 11
-329.5822846793535
 21
119.5249672812515
 31
0.0
 11
-326.8043425425939
 21
119.5249672812515
 31
0.0
 11
-324.0264004058199
 21
119.5249672812515
 31
0.0
  0
SPLINE
  5
88772
330
1E
100
AcDbEntity
  8
DETAIL
  6
Continuous
100
AcDbSpline
210
0.0
220
0.0
230
1.0
 70
    24
 71
     3
 72
    16
 73
    12
 74
    10
 42
0.0000000001
 43
0.0000000001
 44
0.00000001
 40
0.0
 40
0.0
 40
0.0
 40
0.0
 40
0.4510692469485776
 40
0.8919118038031683
 40
1.551765755983467
 40
2.121311809649739
 40
2.423550884588962
 40
2.657564454959583
 40
2.864315397237191
 40
2.93215769861132
 40
2.999999999985448
 40
2.999999999985448
 40
2.999999999985448
 40
2.999999999985448
 10
-354.2499374999834
 20
111.5249672812551
 30
0.0
 10
-354.4002939156329
 20
111.5249672812551
 30
0.0
 10
-354.697597850234
 20
111.5249672812551
 30
0.0
 10
-355.2148531022285
 20
111.5249672812549
 30
0.0
 10
-355.7716006231287
 20
111.5249672812548
 30
0.0
 10
-356.2821469833909
 20
111.5249672812548
 30
0.0
 10
-356.650746549716
 20
111.5249672812548
 30
0.0
 10
-356.8984144122453
 20
111.524967281255
 30
0.0
 10
-357.0679500169193
 20
111.524967281255
 30
0.0
 10
-357.1820951985947
 20
111.5249672812551
 30
0.0
 10
-357.2273233995108
 20
111.5249672812551
 30
0.0
 10
-357.2499374999688
 20
111.5249672812551
 30
0.0
 11
-354.2499374999834
 21
111.5249672812551
 31
0.0
 11
-354.7010067469318
 21
111.5249672812551
 31
0.0
 11
-355.1418493037863
 21
111.5249672812551
 31
0.0
 11
-355.8017032559664
 21
111.5249672812551
 31
0.0
 11
-356.3712493096327
 21
111.5249672812551
 31
0.0
 11
-356.673488384572
 21
111.5249672812551
 31
0.0
 11
-356.9075019549427
 21
111.5249672812551
 31
0.0
 11
-357.1142528972204
 21
111.5249672812551
 31
0.0
 11
-357.1820951985946
 21
111.5249672812551
 31
0.0
 11
-357.2499374999688
 21
111.5249672812551
 31
0.0
  0
SPLINE
  5
88773
330
1E
100
AcDbEntity
  8
DETAIL
  6
Continuous
100
AcDbSpline
210
0.0
220
0.0
230
1.0
 70
     8
 71
     3
 72
     9
 73
     5
 74
     3
 42
0.0000000001
 43
0.0000000001
 44
0.00000001
 40
0.0
 40
0.0
 40
0.0
 40
0.0
 40
6.077400937580134
 40
12.15480187515877
 40
12.15480187515877
 40
12.15480187515877
 40
12.15480187515877
 10
-354.2499374999834
 20
111.5249672812551
 30
0.0
 10
-353.7020023303759
 20
113.6436987767106
 30
0.0
 10
-352.6061319765027
 20
117.8811617577742
 30
0.0
 10
-348.3686689954386
 20
118.9770321116452
 30
0.0
 10
-346.2499374999834
 20
119.5249672812515
 30
0.0
 11
-354.2499374999834
 21
111.5249672812551
 31
0.0
 11
-351.8207338267757
 21
117.0957636080474
 31
0.0
 11
-346.2499374999834
 21
119.5249672812515
 31
0.0
  0
ARC
  5
88774
330
1E
100
AcDbEntity
  8
DETAIL
  6
Continuous
100
AcDbCircle
 10
-324.0264004058162
 20
111.524967281256
 30
0.0
 40
7.999999999995764
100
AcDbArc
 50
74.61678126870016
 51
89.99999999994789
  0
SPLINE
  5
88775
330
1E
100
AcDbEntity
  8
DETAIL
  6
Continuous
100
AcDbSpline
210
0.0
220
0.0
230
1.0
 70
    24
 71
     3
 72
    18
 73
    14
 74
    12
 42
0.0000000001
 43
0.0000000001
 44
0.00000001
 40
0.0
 40
0.0
 40
0.0
 40
0.0
 40
0.4335449296849703
 40
0.8997463426421177
 40
1.294801162475721
 40
1.685688356541461
 40
2.121303275765939
 40
2.410649155070117
 40
2.598194804078943
 40
2.732474378448387
 40
2.862022033838002
 40
2.931011016917182
 40
3.0
 40
3.0
 40
3.0
 40
3.0
 10
-346.2499374999834
 20
119.5249672812515
 30
0.0
 10
-346.2499374999833
 20
119.6694822578131
 30
0.0
 10
-346.2499374999832
 20
119.9693977053605
 30
0.0
 10
-346.2499374999832
 20
120.4009980928524
 30
0.0
 10
-346.2499374999832
 20
120.8183792351379
 30
0.0
 10
-346.2499374999832
 20
121.2255648795125
 30
0.0
 10
-346.2499374999834
 20
121.5975142103773
 30
0.0
 10
-346.2499374999832
 20
121.9016830262231
 30
0.0
 10
-346.2499374999834
 20
122.1054067271173
 30
0.0
 10
-346.2499374999833
 20
122.2558643533732
 30
0.0
 10
-346.2499374999834
 20
122.366803090986
 30
0.0
 10
-346.2499374999833
 20
122.4559782981698
 30
0.0
 10
-346.2499374999834
 20
122.5019709535572
 30
0.0
 10
-346.2499374999834
 20
122.5249672812515
 30
0.0
 11
-346.2499374999834
 21
119.5249672812515
 31
0.0
 11
-346.2499374999834
 21
119.9585122109365
 31
0.0
 11
-346.2499374999834
 21
120.4247136238936
 31
0.0
 11
-346.2499374999834
 21
120.8197684437273
 31
0.0
 11
-346.2499374999834
 21
121.210655637793
 31
0.0
 11
-346.2499374999834
 21
121.6462705570174
 31
0.0
 11
-346.2499374999834
 21
121.9356164363216
 31
0.0
 11
-346.2499374999834
 21
122.1231620853304
 31
0.0
 11
-346.2499374999834
 21
122.2574416596999
 31
0.0
 11
-346.2499374999834
 21
122.3869893150895
 31
0.0
 11
-346.2499374999834
 21
122.4559782981686
 31
0.0
 11
-346.2499374999834
 21
122.5249672812515
 31
0.0
  0
ARC
  5
88776
330
1E
100
AcDbEntity
  8
DETAIL
  6
Continuous
100
AcDbCircle
 10
-346.2499374999761
 20
111.5249672812496
 30
0.0
 40
10.99999999999915
100
AcDbArc
 50
90.0
 51
179.9999999999869
  0
SPLINE
  5
88777
330
1E
100
AcDbEntity
  8
DETAIL
  6
Continuous
100
AcDbSpline
210
0.0
220
0.0
230
1.0
 70
    24
 71
     3
 72
    16
 73
    12
 74
    10
 42
0.0000000001
 43
0.0000000001
 44
0.00000001
 40
0.0
 40
0.0
 40
0.0
 40
0.0
 40
0.2417827263285642
 40
0.536182654582794
 40
0.8997463426474535
 40
1.512279789944918
 40
2.121303275763695
 40
2.565395209856392
 40
2.862022033836437
 40
2.931011016916432
 40
3.000000000000287
 40
3.000000000000287
 40
3.000000000000287
 40
3.000000000000287
 10
-321.9042105358321
 20
119.2383524107335
 30
0.0
 10
-321.8828310003087
 20
119.3160592143096
 30
0.0
 10
-321.835419275393
 20
119.4883835190828
 30
0.0
 10
-321.755859584822
 20
119.7775539382388
 30
0.0
 10
-321.6435164182488
 20
120.1858803198091
 30
0.0
 10
-321.5033527964038
 20
120.6953238959776
 30
0.0
 10
-321.3560684983773
 20
121.2306485294508
 30
0.0
 10
-321.2367181101488
 20
121.6644436024739
 30
0.0
 10
-321.1651200448752
 20
121.9246764212097
 30
0.0
 10
-321.126690299727
 20
122.0643545097667
 30
0.0
 10
-321.1144896563003
 20
122.1086993927817
 30
0.0
 10
-321.1083893345867
 20
122.1308718342897
 30
0.0
 11
-321.9042105358321
 21
119.2383524107335
 31
0.0
 11
-321.8400719292631
 21
119.4714728214621
 31
0.0
 11
-321.7619753610861
 21
119.7553253250534
 31
0.0
 11
-321.6655314641038
 21
120.1058636681973
 31
0.0
 11
-321.5030424294754
 21
120.6964519661541
 31
0.0
 11
-321.3414844954613
 21
121.2836560535342
 31
0.0
 11
-321.2236785699724
 21
121.7118375686022
 31
0.0
 11
-321.1449912648467
 21
121.9978371852393
 31
0.0
 11
-321.126690299724
 21
122.0643545097646
 31
0.0
 11
-321.1083893345867
 21
122.1308718342897
 31
0.0
  0
SPLINE
  5
88778
330
1E
100
AcDbEntity
  8
DETAIL
  6
Continuous
100
AcDbSpline
210
0.0
220
0.0
230
1.0
 70
    24
 71
     3
 72
    15
 73
    11
 74
     9
 42
0.0000000001
 43
0.0000000001
 44
0.00000001
 40
0.0
 40
0.0
 40
0.0
 40
0.0
 40
0.0676082153150048
 40
0.1352164306300096
 40
0.4320058309823623
 40
0.8786881903399148
 40
1.448967850767203
 40
2.109730224689016
 40
2.549782521258748
 40
3.0
 40
3.0
 40
3.0
 40
3.0
 10
-324.0264004058199
 20
122.5249672812515
 30
0.0
 10
-324.0264004058199
 20
122.5024312094798
 30
0.0
 10
-324.0264004058199
 20
122.4573590659365
 30
0.0
 10
-324.0264004058198
 20
122.3133571222756
 30
0.0
 10
-324.0264004058199
 20
122.0429971306007
 30
0.0
 10
-324.0264004058198
 20
121.605079990555
 30
0.0
 10
-324.0264004058197
 20
121.0458385259861
 30
0.0
 10
-324.0264004058197
 20
120.4888070823465
 30
0.0
 10
-324.0264004058198
 20
119.9717963659356
 30
0.0
 10
-324.0264004058198
 20
119.6750397741652
 30
0.0
 10
-324.0264004058199
 20
119.5249672812515
 30
0.0
 11
-324.0264004058199
 21
122.5249672812515
 31
0.0
 11
-324.0264004058199
 21
122.4573590659365
 31
0.0
 11
-324.0264004058199
 21
122.3897508506215
 31
0.0
 11
-324.0264004058199
 21
122.0929614502692
 31
0.0
 11
-324.0264004058199
 21
121.6462790909117
 31
0.0
 11
-324.0264004058199
 21
121.0759994304844
 31
0.0
 11
-324.0264004058199
 21
120.4152370565625
 31
0.0
 11
-324.0264004058199
 21
119.9751847599927
 31
0.0
 11
-324.0264004058199
 21
119.5249672812515
 31
0.0
  0
ARC
  5
8878B
330
1E
100
AcDbEntity
  8
DETAIL
  6
Continuous
370
    -3
100
AcDbCircle
 10
-263.7041385082521
 20
51.47127330866715
 30
0.0
 40
74.40462832810195
100
AcDbArc
 50
94.85392206948645
 51
119.3020257156612
  0
LINE
  5
8878C
330
1E
100
AcDbEntity
  8
DETAIL
  6
Continuous
370
    -3
100
AcDbLine
 10
0.0000000000009095
 20
125.3749686562505
 30
0.0
 11
176.2514226038119
 21
125.3749686562505
 31
0.0
  0
LINE
  5
8878D
330
1E
100
AcDbEntity
  8
DETAIL
  6
Continuous
370
    -3
100
AcDbLine
 10
-3.499999125010617
 20
125.8749685312495
 30
0.0
 11
176.999955749995
 21
125.8749685312495
 31
0.0
  0
LINE
  5
8878F
330
1E
100
AcDbEntity
  8
DETAIL
  6
Continuous
370
    -3
100
AcDbLine
 10
0.0000000000009095
 20
125.3749686562505
 30
0.0
 11
-93.25144335380628
 21
125.3749686562505
 31
0.0
  0
LINE
  5
88790
330
1E
100
AcDbEntity
  8
DETAIL
  6
Continuous
370
    -3
100
AcDbLine
 10
-93.99997649999113
 20
125.8749685312495
 30
0.0
 11
-3.499999125010617
 21
125.8749685312495
 31
0.0
  0
ARC
  5
88793
330
1E
100
AcDbEntity
  8
DETAIL
  6
Continuous
370
    -3
100
AcDbCircle
 10
-93.25144335380628
 20
125.9749685062515
 30
0.0
 40
0.5999998499999999
100
AcDbArc
 50
225.0
 51
270.0
  0
LINE
  5
88794
330
1E
100
AcDbEntity
  8
DETAIL
  6
Continuous
370
    -3
100
AcDbLine
 10
-95.94556268026735
 20
127.8205547115198
 30
0.0
 11
-93.67570991440789
 21
125.5507019456495
 31
0.0
  0
LINE
  5
88795
330
1E
100
AcDbEntity
  8
DETAIL
  6
Continuous
370
    -3
100
AcDbLine
 10
-111.999971999995
 20
128.8749677812479
 30
0.0
 11
-98.49114871054462
 21
128.8749677812479
 31
0.0
  0
LINE
  5
88796
330
1E
100
AcDbEntity
  8
DETAIL
  6
Continuous
370
    -3
100
AcDbLine
 10
-128.0543813197227
 20
127.8205547115198
 30
0.0
 11
-130.3242340856058
 21
125.5507019456495
 31
0.0
  0
ARC
  5
88797
330
1E
100
AcDbEntity
  8
DETAIL
  6
Continuous
370
    -3
100
AcDbCircle
 10
-125.5087952894691
 20
125.2749686812485
 30
0.0
 40
3.599999099999999
100
AcDbArc
 50
90.0
 51
135.0
  0
LINE
  5
88798
330
1E
100
AcDbEntity
  8
DETAIL
  6
Continuous
370
    -3
100
AcDbLine
 10
-111.999971999995
 20
128.8749677812479
 30
0.0
 11
-125.5087952894691
 21
128.8749677812479
 31
0.0
  0
ARC
  5
88799
330
1E
100
AcDbEntity
  8
DETAIL
  6
Continuous
370
    -3
100
AcDbCircle
 10
-130.7485006462075
 20
125.9749685062515
 30
0.0
 40
0.5999998499999999
100
AcDbArc
 50
270.0
 51
315.0
  0
ARC
  5
8879A
330
1E
100
AcDbEntity
  8
DETAIL
  6
Continuous
370
    -3
100
AcDbCircle
 10
-98.49114871054462
 20
125.2749686812485
 30
0.0
 40
3.599999099999999
100
AcDbArc
 50
45.0
 51
90.0
  0
ARC
  5
8879C
330
1E
100
AcDbEntity
  8
DETAIL
  6
Continuous
370
    -3
100
AcDbCircle
 10
198.5087770394502
 20
125.2749686812485
 30
0.0
 40
3.599999099999999
100
AcDbArc
 50
45.0
 51
90.0
  0
ARC
  5
8879D
330
1E
100
AcDbEntity
  8
DETAIL
  6
Continuous
370
    -3
100
AcDbCircle
 10
181.4911279605503
 20
125.2749686812485
 30
0.0
 40
3.599999099999999
100
AcDbArc
 50
90.0
 51
135.0
  0
ARC
  5
8879E
330
1E
100
AcDbEntity
  8
DETAIL
  6
Continuous
370
    -3
100
AcDbCircle
 10
176.2514226038119
 20
125.9749685062515
 30
0.0
 40
0.5999998499999999
100
AcDbArc
 50
270.0
 51
315.0
  0
LINE
  5
8879F
330
1E
100
AcDbEntity
  8
DETAIL
  6
Continuous
370
    -3
100
AcDbLine
 10
178.9455419302712
 20
127.8205547115198
 30
0.0
 11
176.6756891644136
 21
125.5507019456495
 31
0.0
  0
LINE
  5
887A0
330
1E
100
AcDbEntity
  8
DETAIL
  6
Continuous
370
    -3
100
AcDbLine
 10
181.4911279605503
 20
128.8749677812479
 30
0.0
 11
198.5087770394502
 21
128.8749677812479
 31
0.0
  0
ARC
  5
887B8
330
1E
100
AcDbEntity
  8
DETAIL
  6
Continuous
370
    -3
100
AcDbCircle
 10
227.9074230231244
 20
125.3749686562505
 30
0.0
 40
0.499999875
100
AcDbArc
 50
90.0
 51
149.9999999999896
  0
ARC
  5
887B9
330
1E
100
AcDbEntity
  8
DETAIL
  6
Continuous
370
    -3
100
AcDbCircle
 10
227.9074230231244
 20
125.3749686562505
 30
0.0
 40
0.9999997499999999
100
AcDbArc
 50
90.0
 51
149.9999999999896
  0
LINE
  5
887BA
330
1E
100
AcDbEntity
  8
DETAIL
  6
Continuous
370
    -3
100
AcDbLine
 10
226.7527166451372
 20
125.3749686562505
 30
0.0
 11
227.0413965729794
 21
125.8749685312495
 31
0.0
  0
ARC
  5
887BC
330
1E
100
AcDbEntity
  8
DETAIL
  6
Continuous
370
    -3
100
AcDbCircle
 10
203.7484823962122
 20
125.9749685062515
 30
0.0
 40
0.5999998499999999
100
AcDbArc
 50
225.0
 51
270.0
  0
LINE
  5
887BD
330
1E
100
AcDbEntity
  8
DETAIL
  6
Continuous
370
    -3
100
AcDbLine
 10
201.0543630697275
 20
127.8205547115198
 30
0.0
 11
203.3242158356106
 21
125.5507019456495
 31
0.0
  0
LINE
  5
887BE
330
1E
100
AcDbEntity
  8
DETAIL
  6
Continuous
370
    -3
100
AcDbLine
 10
202.9999492500055
 20
125.8749685312495
 30
0.0
 11
227.0413965729794
 21
125.8749685312495
 31
0.0
  0
LINE
  5
887BF
330
1E
100
AcDbEntity
  8
DETAIL
  6
Continuous
370
    -3
100
AcDbLine
 10
229.9999424999997
 20
126.3749684062472
 30
0.0
 11
227.9074230231244
 21
126.3749684062481
 31
0.0
  0
ARC
  5
887C0
330
1E
100
AcDbEntity
  8
DETAIL
  6
Continuous
370
    -3
100
AcDbCircle
 10
251.9999369999959
 20
122.7545159780284
 30
0.0
 40
6.120451803219999
100
AcDbArc
 50
67.4389198459675
 51
140.1672290000042
  0
LINE
  5
887C1
330
1E
100
AcDbEntity
  8
DETAIL
  6
Continuous
370
    -3
100
AcDbLine
 10
247.8204885730923
 20
126.3749684062481
 30
0.0
 11
252.1793864269088
 21
126.3749684062481
 31
0.0
  0
LINE
  5
887C2
330
1E
100
AcDbEntity
  8
DETAIL
  6
Continuous
370
    -3
100
AcDbLine
 10
247.2999381750077
 20
126.6749683312482
 30
0.0
 11
252.7128688150179
 21
126.6749683312482
 31
0.0
  0
LINE
  5
887C3
330
1E
100
AcDbEntity
  8
DETAIL
  6
Continuous
370
    -3
100
AcDbLine
 10
203.7484823962122
 20
125.3749686562505
 30
0.0
 11
229.9999424999996
 21
125.3749686562505
 31
0.0
  0
LINE
  5
887C4
330
1E
100
AcDbEntity
  8
DETAIL
  6
Continuous
370
    -3
100
AcDbLine
 10
229.9999424999996
 20
-127.624968093748
 30
0.0
 11
-229.9999424999996
 21
-127.624968093748
 31
0.0
  0
LINE
  5
887C5
330
1E
100
AcDbEntity
  8
DETAIL
  6
Continuous
370
    -3
100
AcDbLine
 10
229.9999424999996
 20
-128.6249678437516
 30
0.0
 11
-113.0690117327367
 21
-128.6249678437516
 31
0.0
  0
LINE
  5
887C7
330
1E
100
AcDbEntity
  8
DETAIL
  6
Continuous
370
    -3
100
AcDbLine
 10
-269.9999324999998
 20
-127.6249680937485
 30
0.0
 11
-334.9999162499998
 21
-127.624968093748
 31
0.0
  0
LINE
  5
887C8
330
1E
100
AcDbEntity
  8
DETAIL
  6
Continuous
370
    -3
100
AcDbLine
 10
-269.9999324999998
 20
-128.6249678437516
 30
0.0
 11
-334.9999162499998
 21
-128.6249678437516
 31
0.0
  0
LINE
  5
887CA
330
1E
100
AcDbEntity
  8
DETAIL
  6
Continuous
370
    -3
100
AcDbLine
 10
-229.9999424999996
 20
125.8749685312495
 30
0.0
 11
-129.9999675000008
 21
125.8749685312495
 31
0.0
  0
LINE
  5
887CB
330
1E
100
AcDbEntity
  8
DETAIL
  6
Continuous
370
    -3
100
AcDbLine
 10
-229.9999424999996
 20
125.3749686562505
 30
0.0
 11
-130.7485006462075
 21
125.3749686562505
 31
0.0
  0
LINE
  5
887D7
330
1E
100
AcDbEntity
  8
DETAIL
  6
Continuous
370
    -3
100
AcDbLine
 10
-269.1581995256893
 20
-143.424968468752
 30
0.0
 11
-270.6999323249974
 21
-143.424968468752
 31
0.0
  0
LINE
  5
887D8
330
1E
100
AcDbEntity
  8
DETAIL
  6
Continuous
370
    -3
100
AcDbLine
 10
-272.4999318750005
 20
-144.3249682437531
 30
0.0
 11
-272.4999318750005
 21
-142.2749652187549
 31
0.0
  0
LINE
  5
887D9
330
1E
100
AcDbEntity
  8
DETAIL
  6
Continuous
370
    -3
100
AcDbLine
 10
-270.6999323249974
 20
-144.3249682437531
 30
0.0
 11
-270.6999323249974
 21
-142.2749652187549
 31
0.0
  0
LINE
  5
887DA
330
1E
100
AcDbEntity
  8
DETAIL
  6
Continuous
370
    -3
100
AcDbLine
 10
-272.4999318750005
 20
-143.424968468752
 30
0.0
 11
-282.0999294749917
 21
-143.424968468752
 31
0.0
  0
ARC
  5
887DB
330
1E
100
AcDbEntity
  8
DETAIL
  6
Continuous
370
    -3
100
AcDbCircle
 10
-271.5999320999862
 20
-144.3249682437531
 30
0.0
 40
0.8999997749999998
100
AcDbArc
 50
180.0
 51
0.0
  0
LINE
  5
887DC
330
1E
100
AcDbEntity
  8
DETAIL
  6
Continuous
370
    -3
100
AcDbLine
 10
-282.0999294749917
 20
-144.3249682437531
 30
0.0
 11
-282.0999294749917
 21
-142.2749652187549
 31
0.0
  0
LINE
  5
887DD
330
1E
100
AcDbEntity
  8
DETAIL
  6
Continuous
370
    -3
100
AcDbLine
 10
-283.8999290249948
 20
-144.3249682437531
 30
0.0
 11
-283.8999290249948
 21
-142.2749652187549
 31
0.0
  0
LINE
  5
887DE
330
1E
100
AcDbEntity
  8
DETAIL
  6
Continuous
370
    -3
100
AcDbLine
 10
-283.8999290249948
 20
-143.424968468752
 30
0.0
 11
-295.2999261749892
 21
-143.424968468752
 31
0.0
  0
ARC
  5
887DF
330
1E
100
AcDbEntity
  8
DETAIL
  6
Continuous
370
    -3
100
AcDbCircle
 10
-282.9999292500042
 20
-144.3249682437531
 30
0.0
 40
0.8999997749999998
100
AcDbArc
 50
180.0
 51
0.0
  0
LINE
  5
887E0
330
1E
100
AcDbEntity
  8
DETAIL
  6
Continuous
370
    -3
100
AcDbLine
 10
-226.8987050049563
 20
-142.2749652187549
 30
0.0
 11
-226.899943275009
 21
-144.3249682437531
 31
0.0
  0
LINE
  5
887E1
330
1E
100
AcDbEntity
  8
DETAIL
  6
Continuous
370
    -3
100
AcDbLine
 10
-226.899943275009
 20
-143.424968468752
 30
0.0
 11
-230.841675474312
 21
-143.424968468752
 31
0.0
  0
LINE
  5
887E7
330
1E
100
AcDbEntity
  8
SIZE
100
AcDbLine
 10
-361.6041594628295
 20
-228.624967843752
 30
0.0
 11
-776.7713236007075
 21
-228.624967843752
 31
0.0
  0
TEXT
  5
887E8
330
1E
100
AcDbEntity
  8
SIZE
100
AcDbText
 10
-768.6870854803083
 20
-321.7710979956209
 30
0.0
 40
64.0
  1
100以上
 50
88.8258403845324
 41
0.7287252541368753
 72
     5
 11
-764.0997643860746
 21
-97.9537054435641
 31
0.0
100
AcDbText
  0
TEXT
  5
887E9
330
1E
100
AcDbEntity
  8
SIZE
100
AcDbText
 10
-630.7642965910709
 20
-301.2511315236138
 30
0.0
 40
64.0
  1
17.3
 50
89.88366377868914
 41
0.7213197315122168
 72
     5
 11
-630.4964835230958
 21
-169.3529382234373
 31
0.0
100
AcDbText
  0
LINE
  5
887EA
330
1E
100
AcDbEntity
  8
SIZE
100
AcDbLine
 10
-612.6194852463632
 20
-145.49998
 30
0.0
 11
-612.6194852463632
 21
-279.5826400000001
 31
0.0
  0
LINE
  5
887EB
330
1E
100
AcDbEntity
  8
SIZE
100
AcDbLine
 10
-727.4618599999994
 20
-145.49998
 30
0.0
 11
-727.461872956444
 21
-228.624967843752
 31
0.0
  0
CIRCLE
  5
887EC
330
1E
100
AcDbEntity
  8
SIZE
100
AcDbCircle
 10
-727.461872956444
 20
-228.624967843752
 30
0.0
 40
6.0
  0
LINE
  5
887ED
330
1E
100
AcDbEntity
  8
SIZE
100
AcDbLine
 10
-327.1982515337558
 20
-145.9249678437517
 30
0.0
 11
-632.4930246237445
 21
-145.9249678437517
 31
0.0
  0
LINE
  5
887EE
330
1E
100
AcDbEntity
  8
SIZE
100
AcDbLine
 10
-612.6194852463632
 20
-145.49998
 30
0.0
 11
-612.6194852463632
 21
-137.49998
 31
0.0
  0
CIRCLE
  5
887EF
330
1E
100
AcDbEntity
  8
SIZE
100
AcDbCircle
 10
-612.6194982028078
 20
-145.9249678437517
 30
0.0
 40
6.0
  0
LINE
  5
887F0
330
1E
100
AcDbEntity
  8
SIZE
100
AcDbLine
 10
-612.6194852463632
 20
-129.49998
 30
0.0
 11
-612.6194852463632
 21
-137.49998
 31
0.0
  0
CIRCLE
  5
887F1
330
1E
100
AcDbEntity
  8
SIZE
100
AcDbCircle
 10
-612.6194852463632
 20
-128.624967843752
 30
0.0
 40
6.0
  0
LINE
  5
887F2
330
1E
100
AcDbEntity
  8
SIZE
100
AcDbLine
 10
-727.4618599999994
 20
-145.49998
 30
0.0
 11
-727.4618599999994
 21
-137.49998
 31
0.0
  0
LINE
  5
887F3
330
1E
100
AcDbEntity
  8
SIZE
100
AcDbLine
 10
-727.4618599999994
 20
-129.49998
 30
0.0
 11
-727.4618599999994
 21
-137.49998
 31
0.0
  0
TEXT
  5
887F4
330
1E
100
AcDbEntity
  8
SIZE
100
AcDbText
 10
577.4443431242325
 20
-38.16275064994124
 30
0.0
 40
64.0
  1
125
 50
90.00000358098612
 41
1.050000000000001
 72
     5
 11
577.4443331242328
 21
121.8372493500587
 31
0.0
100
AcDbText
  0
TEXT
  5
887F5
330
1E
100
AcDbEntity
  8
SIZE
100
AcDbText
 10
472.2629784754462
 20
-38.16275064994124
 30
0.0
 40
64.0
  1
123
 50
90.00000358098612
 41
1.050000000000001
 72
     5
 11
472.2629684754465
 21
121.8372493500587
 31
0.0
100
AcDbText
  0
LINE
  5
887F6
330
1E
100
AcDbEntity
  8
SIZE
100
AcDbLine
 10
589.6205023209367
 20
-0.8473465866845799
 30
0.0
 11
589.6205023209367
 21
126.1526534133154
 31
0.0
  0
LINE
  5
887F7
330
1E
100
AcDbEntity
  8
SIZE
100
AcDbLine
 10
480.6394697506948
 20
0.15265341331542
 30
0.0
 11
480.6394697506948
 21
126.1526534133154
 31
0.0
  0
LINE
  5
887F8
330
1E
100
AcDbEntity
  8
SIZE
100
AcDbLine
 10
383.7114076272155
 20
1.15265341331542
 30
0.0
 11
612.0568583350977
 21
1.15265341331542
 31
0.0
  0
LINE
  5
887F9
330
1E
100
AcDbEntity
  8
SIZE
100
AcDbLine
 10
383.7114076272155
 20
3.15265341331542
 30
0.0
 11
502.8796088097333
 21
3.15265341331542
 31
0.0
  0
CIRCLE
  5
887FA
330
1E
100
AcDbEntity
  8
SIZE
100
AcDbCircle
 10
480.6155780527988
 20
3.15265341331542
 30
0.0
 40
6.0
  0
CIRCLE
  5
887FB
330
1E
100
AcDbEntity
  8
SIZE
100
AcDbCircle
 10
589.5966106230408
 20
1.77765341331542
 30
0.0
 40
6.0
  0
LINE
  5
887FC
330
1E
100
AcDbEntity
  8
SIZE
100
AcDbLine
 10
344.6005822266561
 20
126.1526534133154
 30
0.0
 11
607.7984927600446
 21
126.1526534133154
 31
0.0
  0
CIRCLE
  5
887FD
330
1E
100
AcDbEntity
  8
SIZE
100
AcDbCircle
 10
480.6155780527988
 20
126.1526534133154
 30
0.0
 40
6.0
  0
CIRCLE
  5
887FE
330
1E
100
AcDbEntity
  8
SIZE
100
AcDbCircle
 10
589.5966106230408
 20
126.1526534133154
 30
0.0
 40
6.0
  0
LINE
  5
887FF
330
1E
100
AcDbEntity
  8
NOTE
100
AcDbLine
 10
356.2000000000007
 20
1.15265341331542
 30
0.0
 11
464.8111601785306
 21
272.6092600000001
 31
0.0
  0
LINE
  5
88800
330
1E
100
AcDbEntity
  8
NOTE
100
AcDbLine
 10
356.2000000000007
 20
3.15265341331542
 30
0.0
 11
482.5394396048294
 21
398.1569900000004
 31
0.0
  0
TEXT
  5
88801
330
1E
100
AcDbEntity
  8
NOTE
100
AcDbText
 10
518.557850000001
 20
291.7437399999998
 30
0.0
 40
64.0
  1
RG%%C9.52
 41
0.9
100
AcDbText
  0
LINE
  5
88802
330
1E
100
AcDbEntity
  8
NOTE
100
AcDbLine
 10
873.322930000002
 20
272.6092600000001
 30
0.0
 11
464.8111601785306
 21
272.6092600000001
 31
0.0
  0
TEXT
  5
88803
330
1E
100
AcDbEntity
  8
NOTE
100
AcDbText
 10
534.4722800000018
 20
416.8439600000001
 30
0.0
 40
64.0
  1
RL%%C6.35
 41
0.9
100
AcDbText
  0
LINE
  5
88804
330
1E
100
AcDbEntity
  8
NOTE
100
AcDbLine
 10
874.5603699999993
 20
398.1569900000004
 30
0.0
 11
482.5394396048294
 21
398.1569900000004
 31
0.0
  0
LINE
  5
88805
330
1E
100
AcDbEntity
  8
NOTE
100
AcDbLine
 10
356.2000000000007
 20
-18.84734658668458
 30
0.0
 11
356.2000000000007
 21
21.15265341331542
 31
0.0
  0
LINE
  5
88806
330
1E
100
AcDbEntity
  8
NOTE
100
AcDbLine
 10
356.2000000000007
 20
23.15265341331542
 30
0.0
 11
356.2000000000007
 21
-16.84734658668458
 31
0.0
  0
LINE
  5
88807
330
1E
100
AcDbEntity
  8
NOTE
100
AcDbLine
 10
356.2000000000007
 20
20.15265341331542
 30
0.0
 11
356.2000000000007
 21
-19.84734658668457
 31
0.0
  0
LINE
  5
88808
330
1E
100
AcDbEntity
  8
NOTE
100
AcDbLine
 10
356.2000000000007
 20
1.15265341331542
 30
0.0
 11
380.1646299999993
 21
33.17914341331561
 31
0.0
  0
LINE
  5
88809
330
1E
100
AcDbEntity
  8
NOTE
100
AcDbLine
 10
336.2000000000007
 20
1.15265341331542
 30
0.0
 11
376.2000000000007
 21
1.15265341331542
 31
0.0
  0
LINE
  5
8880A
330
1E
100
AcDbEntity
  8
NOTE
100
AcDbLine
 10
356.2000000000007
 20
3.15265341331542
 30
0.0
 11
377.8310600000004
 21
36.79930341331555
 31
0.0
  0
LINE
  5
8880B
330
1E
100
AcDbEntity
  8
NOTE
100
AcDbLine
 10
336.2000000000007
 20
3.15265341331542
 30
0.0
 11
376.2000000000007
 21
3.15265341331542
 31
0.0
  0
LINE
  5
8880C
330
1E
100
AcDbEntity
  8
NOTE
100
AcDbLine
 10
360.9407300000002
 20
40.87072341331531
 30
0.0
 11
356.2000000000007
 21
1.15265341331542
 31
0.0
  0
LINE
  5
8880D
330
1E
100
AcDbEntity
  8
NOTE
100
AcDbLine
 10
358.1097300000001
 20
43.10704341331529
 30
0.0
 11
356.2000000000007
 21
3.15265341331542
 31
0.0
  0
LINE
  5
88824
330
1E
100
AcDbEntity
  8
DETAIL
  6
Continuous
100
AcDbLine
 10
-325.9482518462545
 20
-141.8898123956746
 30
0.0
 11
-325.9482518462545
 21
-129.0068988237981
 31
0.0
  0
LINE
  5
88825
330
1E
100
AcDbEntity
  8
DETAIL
  6
Continuous
100
AcDbLine
 10
-328.4482512212552
 20
-141.674968906253
 30
0.0
 11
-328.4482512212552
 21
-128.7920553343765
 31
0.0
  0
LINE
  5
88826
330
1E
100
AcDbEntity
  8
DETAIL
  6
Continuous
100
AcDbLine
 10
-334.8231678188384
 20
-140.0820868970777
 30
0.0
 11
-334.8231678188384
 21
-128.6249678437516
 31
0.0
  0
LINE
  5
88827
330
1E
100
AcDbEntity
  8
DETAIL
  6
Continuous
100
AcDbLine
 10
-332.2282764206679
 20
-140.6738571623436
 30
0.0
 11
-332.2282764206679
 21
-128.6249678437516
 31
0.0
  0
LINE
  5
88828
330
1E
100
AcDbEntity
  8
DETAIL
  6
Continuous
100
AcDbLine
 10
-331.2292983479001
 20
-140.9249690937517
 30
0.0
 11
-328.4482512212552
 21
-140.9249690937517
 31
0.0
  0
LINE
  5
88829
330
1E
100
AcDbEntity
  8
DETAIL
  6
Continuous
100
AcDbLine
 10
104.4499741982029
 20
-140.9249690937517
 30
0.0
 11
104.4499741982029
 21
-128.6249678437516
 31
0.0
  0
LINE
  5
8882A
330
1E
100
AcDbEntity
  8
DETAIL
  6
Continuous
100
AcDbLine
 10
101.9499747688172
 20
-141.5798710246822
 30
0.0
 11
101.9499747688172
 21
-128.6249678437516
 31
0.0
  0
LINE
  5
8882B
330
1E
100
AcDbEntity
  8
DETAIL
  6
Continuous
100
AcDbLine
 10
110.9504679464253
 20
-138.0080907366432
 30
0.0
 11
110.9504679464254
 21
-128.624967843752
 31
0.0
  0
LINE
  5
8882C
330
1E
100
AcDbEntity
  8
DETAIL
  6
Continuous
100
AcDbLine
 10
108.4009263877248
 20
-139.3734224414556
 30
0.0
 11
108.4009263877249
 21
-128.624967843752
 31
0.0
  0
LINE
  5
8882D
330
1E
100
AcDbEntity
  8
DETAIL
  6
Continuous
100
AcDbLine
 10
94.09997647501132
 20
-142.2749652187549
 30
0.0
 11
94.09997647501132
 21
-128.6249678437516
 31
0.0
  0
LINE
  5
8882E
330
1E
100
AcDbEntity
  8
DETAIL
  6
Continuous
100
AcDbLine
 10
92.2999769250082
 20
-142.2749652187549
 30
0.0
 11
92.29997692500814
 21
-128.624967843752
 31
0.0
  0
LINE
  5
8882F
330
1E
100
AcDbEntity
  8
DETAIL
  6
Continuous
100
AcDbLine
 10
82.6999793249916
 20
-142.2749652187549
 30
0.0
 11
82.69997932499155
 21
-128.6249678437516
 31
0.0
  0
LINE
  5
88830
330
1E
100
AcDbEntity
  8
DETAIL
  6
Continuous
100
AcDbLine
 10
80.89997977501388
 20
-142.2749652187549
 30
0.0
 11
80.89997977501388
 21
-128.624967843752
 31
0.0
  0
LINE
  5
88831
330
1E
100
AcDbEntity
  8
DETAIL
  6
Continuous
100
AcDbLine
 10
71.29998217499724
 20
-142.2749652187549
 30
0.0
 11
71.29998217499724
 21
-128.6249678437516
 31
0.0
  0
LINE
  5
88832
330
1E
100
AcDbEntity
  8
DETAIL
  6
Continuous
100
AcDbLine
 10
69.49998262499594
 20
-142.2749652187549
 30
0.0
 11
69.49998262499588
 21
-128.624967843752
 31
0.0
  0
LINE
  5
88833
330
1E
100
AcDbEntity
  8
DETAIL
  6
Continuous
100
AcDbLine
 10
59.89998502500475
 20
-142.2749652187549
 30
0.0
 11
59.89998502500475
 21
-128.624967843752
 31
0.0
  0
LINE
  5
88834
330
1E
100
AcDbEntity
  8
DETAIL
  6
Continuous
100
AcDbLine
 10
58.09998547500168
 20
-142.2749652187549
 30
0.0
 11
58.09998547500175
 21
-128.624967843752
 31
0.0
  0
LINE
  5
88835
330
1E
100
AcDbEntity
  8
DETAIL
  6
Continuous
100
AcDbLine
 10
46.69998832500738
 20
-142.2749652187549
 30
0.0
 11
46.69998832500744
 21
-128.624967843752
 31
0.0
  0
LINE
  5
88836
330
1E
100
AcDbEntity
  8
DETAIL
  6
Continuous
100
AcDbLine
 10
48.49998787501045
 20
-142.2749652187549
 30
0.0
 11
48.49998787501045
 21
-128.624967843752
 31
0.0
  0
LINE
  5
88837
330
1E
100
AcDbEntity
  8
DETAIL
  6
Continuous
100
AcDbLine
 10
37.09999072499073
 20
-142.2749652187549
 30
0.0
 11
37.09999072499067
 21
-128.624967843752
 31
0.0
  0
LINE
  5
88838
330
1E
100
AcDbEntity
  8
DETAIL
  6
Continuous
100
AcDbLine
 10
35.29999117498766
 20
-142.2749652187549
 30
0.0
 11
35.29999117498766
 21
-128.624967843752
 31
0.0
  0
LINE
  5
88839
330
1E
100
AcDbEntity
  8
DETAIL
  6
Continuous
100
AcDbLine
 10
23.8999940249933
 20
-142.2749652187549
 30
0.0
 11
23.89999402499336
 21
-128.624967843752
 31
0.0
  0
LINE
  5
8883A
330
1E
100
AcDbEntity
  8
DETAIL
  6
Continuous
100
AcDbLine
 10
25.69999357499637
 20
-142.2749652187549
 30
0.0
 11
25.69999357499637
 21
-128.624967843752
 31
0.0
  0
LINE
  5
8883B
330
1E
100
AcDbEntity
  8
DETAIL
  6
Continuous
100
AcDbLine
 10
14.29999642500206
 20
-142.2749652187549
 30
0.0
 11
14.299996425002
 21
-128.624967843752
 31
0.0
  0
LINE
  5
8883C
330
1E
100
AcDbEntity
  8
DETAIL
  6
Continuous
100
AcDbLine
 10
12.49999687499899
 20
-142.2749652187549
 30
0.0
 11
12.49999687499905
 21
-128.624967843752
 31
0.0
  0
LINE
  5
8883D
330
1E
100
AcDbEntity
  8
DETAIL
  6
Continuous
100
AcDbLine
 10
1.099999725006512
 20
-142.2749652187549
 30
0.0
 11
1.099999725006568
 21
-128.624967843752
 31
0.0
  0
LINE
  5
8883E
330
1E
100
AcDbEntity
  8
DETAIL
  6
Continuous
100
AcDbLine
 10
2.899999275009577
 20
-142.2749652187549
 30
0.0
 11
2.89999927500952
 21
-128.624967843752
 31
0.0
  0
LINE
  5
8883F
330
1E
100
AcDbEntity
  8
DETAIL
  6
Continuous
100
AcDbLine
 10
-8.499997875010137
 20
-142.2749652187549
 30
0.0
 11
-8.499997875010137
 21
-128.624967843752
 31
0.0
  0
LINE
  5
88840
330
1E
100
AcDbEntity
  8
DETAIL
  6
Continuous
100
AcDbLine
 10
-10.2999974250132
 20
-142.2749652187549
 30
0.0
 11
-10.2999974250132
 21
-128.624967843752
 31
0.0
  0
LINE
  5
88841
330
1E
100
AcDbEntity
  8
DETAIL
  6
Continuous
100
AcDbLine
 10
-21.69999457500756
 20
-142.2749652187549
 30
0.0
 11
-21.69999457500756
 21
-128.624967843752
 31
0.0
  0
LINE
  5
88842
330
1E
100
AcDbEntity
  8
DETAIL
  6
Continuous
100
AcDbLine
 10
-19.8999950250045
 20
-142.2749652187549
 30
0.0
 11
-19.89999502500444
 21
-128.624967843752
 31
0.0
  0
LINE
  5
88843
330
1E
100
AcDbEntity
  8
DETAIL
  6
Continuous
100
AcDbLine
 10
-31.2999921749988
 20
-142.2749652187549
 30
0.0
 11
-31.2999921749988
 21
-128.624967843752
 31
0.0
  0
LINE
  5
88844
330
1E
100
AcDbEntity
  8
DETAIL
  6
Continuous
100
AcDbLine
 10
-33.09999172500187
 20
-142.2749652187549
 30
0.0
 11
-33.09999172500181
 21
-128.624967843752
 31
0.0
  0
LINE
  5
88845
330
1E
100
AcDbEntity
  8
DETAIL
  6
Continuous
100
AcDbLine
 10
-44.49998887499617
 20
-142.2749652187549
 30
0.0
 11
-44.49998887499617
 21
-128.624967843752
 31
0.0
  0
LINE
  5
88846
330
1E
100
AcDbEntity
  8
DETAIL
  6
Continuous
100
AcDbLine
 10
-42.69998932499311
 20
-142.2749652187549
 30
0.0
 11
-42.69998932499311
 21
-128.624967843752
 31
0.0
  0
LINE
  5
88847
330
1E
100
AcDbEntity
  8
DETAIL
  6
Continuous
100
AcDbLine
 10
-54.0999864749856
 20
-142.2749652187549
 30
0.0
 11
-54.0999864749856
 21
-128.624967843752
 31
0.0
  0
LINE
  5
88848
330
1E
100
AcDbEntity
  8
DETAIL
  6
Continuous
100
AcDbLine
 10
-55.89998602498866
 20
-142.2749652187549
 30
0.0
 11
-55.89998602498866
 21
-128.624967843752
 31
0.0
  0
LINE
  5
88849
330
1E
100
AcDbEntity
  8
DETAIL
  6
Continuous
100
AcDbLine
 10
-67.29998317500843
 20
-142.2749652187549
 30
0.0
 11
-67.29998317500843
 21
-128.624967843752
 31
0.0
  0
LINE
  5
8884A
330
1E
100
AcDbEntity
  8
DETAIL
  6
Continuous
100
AcDbLine
 10
-65.49998362500537
 20
-142.2749652187549
 30
0.0
 11
-65.4999836250054
 21
-128.624967843752
 31
0.0
  0
LINE
  5
8884B
330
1E
100
AcDbEntity
  8
DETAIL
  6
Continuous
100
AcDbLine
 10
-76.89998077499968
 20
-142.2749652187549
 30
0.0
 11
-76.8999807749997
 21
-128.624967843752
 31
0.0
  0
LINE
  5
8884C
330
1E
100
AcDbEntity
  8
DETAIL
  6
Continuous
100
AcDbLine
 10
-78.69998032500274
 20
-142.2749652187549
 30
0.0
 11
-78.69998032500271
 21
-128.624967843752
 31
0.0
  0
LINE
  5
8884D
330
1E
100
AcDbEntity
  8
DETAIL
  6
Continuous
100
AcDbLine
 10
-90.09997747499705
 20
-142.2749652187549
 30
0.0
 11
-90.09997747499705
 21
-128.624967843752
 31
0.0
  0
LINE
  5
8884E
330
1E
100
AcDbEntity
  8
DETAIL
  6
Continuous
100
AcDbLine
 10
-88.29997792499398
 20
-142.2749652187549
 30
0.0
 11
-88.29997792499398
 21
-128.624967843752
 31
0.0
  0
LINE
  5
8884F
330
1E
100
AcDbEntity
  8
DETAIL
  6
Continuous
100
AcDbLine
 10
-99.69997507498829
 20
-142.2749652187549
 30
0.0
 11
-99.69997507498831
 21
-128.624967843752
 31
0.0
  0
LINE
  5
88850
330
1E
100
AcDbEntity
  8
DETAIL
  6
Continuous
100
AcDbLine
 10
-101.4999746249913
 20
-142.2749652187549
 30
0.0
 11
-101.4999746249913
 21
-128.624967843752
 31
0.0
  0
LINE
  5
88851
330
1E
100
AcDbEntity
  8
DETAIL
  6
Continuous
100
AcDbLine
 10
-112.8999717750093
 20
-142.2749652187549
 30
0.0
 11
-112.8999717750092
 21
-128.624967843752
 31
0.0
  0
LINE
  5
88852
330
1E
100
AcDbEntity
  8
DETAIL
  6
Continuous
100
AcDbLine
 10
-111.0999722250062
 20
-142.2749652187549
 30
0.0
 11
-111.0999722250062
 21
-128.624967843752
 31
0.0
  0
LINE
  5
88853
330
1E
100
AcDbEntity
  8
DETAIL
  6
Continuous
100
AcDbLine
 10
-122.4999693750005
 20
-142.2749652187549
 30
0.0
 11
-122.4999693750005
 21
-128.624967843752
 31
0.0
  0
LINE
  5
88854
330
1E
100
AcDbEntity
  8
DETAIL
  6
Continuous
100
AcDbLine
 10
-124.2999689250036
 20
-142.2749652187549
 30
0.0
 11
-124.2999689250036
 21
-128.624967843752
 31
0.0
  0
LINE
  5
88855
330
1E
100
AcDbEntity
  8
DETAIL
  6
Continuous
100
AcDbLine
 10
-135.6999660749979
 20
-142.2749652187549
 30
0.0
 11
-135.6999660749979
 21
-128.624967843752
 31
0.0
  0
LINE
  5
88856
330
1E
100
AcDbEntity
  8
DETAIL
  6
Continuous
100
AcDbLine
 10
-133.8999665249948
 20
-142.2749652187549
 30
0.0
 11
-133.8999665249948
 21
-128.624967843752
 31
0.0
  0
LINE
  5
88857
330
1E
100
AcDbEntity
  8
DETAIL
  6
Continuous
100
AcDbLine
 10
-145.2999636749891
 20
-142.2749652187549
 30
0.0
 11
-145.2999636749891
 21
-128.624967843752
 31
0.0
  0
LINE
  5
88858
330
1E
100
AcDbEntity
  8
DETAIL
  6
Continuous
100
AcDbLine
 10
-147.0999632249922
 20
-142.2749652187549
 30
0.0
 11
-147.0999632249921
 21
-128.624967843752
 31
0.0
  0
LINE
  5
88859
330
1E
100
AcDbEntity
  8
DETAIL
  6
Continuous
100
AcDbLine
 10
-158.4999603750101
 20
-142.2749652187549
 30
0.0
 11
-158.4999603750101
 21
-128.624967843752
 31
0.0
  0
LINE
  5
8885A
330
1E
100
AcDbEntity
  8
DETAIL
  6
Continuous
100
AcDbLine
 10
-156.6999608250071
 20
-142.2749652187549
 30
0.0
 11
-156.6999608250071
 21
-128.624967843752
 31
0.0
  0
LINE
  5
8885B
330
1E
100
AcDbEntity
  8
DETAIL
  6
Continuous
100
AcDbLine
 10
-168.0999579750014
 20
-142.2749652187549
 30
0.0
 11
-168.0999579750014
 21
-128.624967843752
 31
0.0
  0
LINE
  5
8885C
330
1E
100
AcDbEntity
  8
DETAIL
  6
Continuous
100
AcDbLine
 10
-169.8999575250044
 20
-142.2749652187549
 30
0.0
 11
-169.8999575250044
 21
-128.624967843752
 31
0.0
  0
LINE
  5
8885D
330
1E
100
AcDbEntity
  8
DETAIL
  6
Continuous
100
AcDbLine
 10
-181.2999546749987
 20
-142.2749652187549
 30
0.0
 11
-181.2999546749987
 21
-128.624967843752
 31
0.0
  0
LINE
  5
8885E
330
1E
100
AcDbEntity
  8
DETAIL
  6
Continuous
100
AcDbLine
 10
-179.4999551249957
 20
-142.2749652187549
 30
0.0
 11
-179.4999551249957
 21
-128.624967843752
 31
0.0
  0
LINE
  5
8885F
330
1E
100
AcDbEntity
  8
DETAIL
  6
Continuous
100
AcDbLine
 10
-190.89995227499
 20
-142.2749652187549
 30
0.0
 11
-190.89995227499
 21
-128.624967843752
 31
0.0
  0
LINE
  5
88860
330
1E
100
AcDbEntity
  8
DETAIL
  6
Continuous
100
AcDbLine
 10
-192.699951824993
 20
-142.2749652187549
 30
0.0
 11
-192.699951824993
 21
-128.624967843752
 31
0.0
  0
LINE
  5
88861
330
1E
100
AcDbEntity
  8
DETAIL
  6
Continuous
100
AcDbLine
 10
-204.099948975011
 20
-142.2749652187549
 30
0.0
 11
-204.099948975011
 21
-128.624967843752
 31
0.0
  0
LINE
  5
88862
330
1E
100
AcDbEntity
  8
DETAIL
  6
Continuous
100
AcDbLine
 10
-202.2999494250079
 20
-142.2749652187549
 30
0.0
 11
-202.2999494250079
 21
-128.624967843752
 31
0.0
  0
LINE
  5
88863
330
1E
100
AcDbEntity
  8
DETAIL
  6
Continuous
100
AcDbLine
 10
-213.6999465639453
 20
-142.2749652187549
 30
0.0
 11
-213.6999465639453
 21
-128.624967843752
 31
0.0
  0
LINE
  5
88864
330
1E
100
AcDbEntity
  8
DETAIL
  6
Continuous
100
AcDbLine
 10
-215.4999461139484
 20
-142.2749652187549
 30
0.0
 11
-215.4999461139484
 21
-128.624967843752
 31
0.0
  0
LINE
  5
88865
330
1E
100
AcDbEntity
  8
DETAIL
  6
Continuous
100
AcDbLine
 10
-226.8999432749996
 20
-142.2749652187549
 30
0.0
 11
-226.8999432749996
 21
-128.624967843752
 31
0.0
  0
LINE
  5
88866
330
1E
100
AcDbEntity
  8
DETAIL
  6
Continuous
100
AcDbLine
 10
-225.0999437249965
 20
-142.2749652187549
 30
0.0
 11
-225.0999437249965
 21
-128.624967843752
 31
0.0
  0
LINE
  5
88867
330
1E
100
AcDbEntity
  8
DETAIL
  6
Continuous
100
AcDbLine
 10
-270.6999323249974
 20
-142.2749652187549
 30
0.0
 11
-270.6999323249974
 21
-128.624967843752
 31
0.0
  0
LINE
  5
88868
330
1E
100
AcDbEntity
  8
DETAIL
  6
Continuous
100
AcDbLine
 10
-272.4999318750005
 20
-142.2749652187549
 30
0.0
 11
-272.4999318750005
 21
-128.624967843752
 31
0.0
  0
LINE
  5
88869
330
1E
100
AcDbEntity
  8
DETAIL
  6
Continuous
100
AcDbLine
 10
-282.0999294749917
 20
-142.2749652187549
 30
0.0
 11
-282.0999294749917
 21
-128.624967843752
 31
0.0
  0
LINE
  5
8886A
330
1E
100
AcDbEntity
  8
DETAIL
  6
Continuous
100
AcDbLine
 10
-283.8999290249948
 20
-142.2749652187549
 30
0.0
 11
-283.8999290249948
 21
-128.624967843752
 31
0.0
  0
LINE
  5
8886B
330
1E
100
AcDbEntity
  8
DETAIL
  6
Continuous
100
AcDbLine
 10
-306.699923325007
 20
-142.2749652187549
 30
0.0
 11
-306.699923325007
 21
-128.624967843752
 31
0.0
  0
LINE
  5
8886C
330
1E
100
AcDbEntity
  8
DETAIL
  6
Continuous
100
AcDbLine
 10
-304.899923775004
 20
-142.2749652187549
 30
0.0
 11
-304.899923775004
 21
-128.624967843752
 31
0.0
  0
LINE
  5
8886D
330
1E
100
AcDbEntity
  8
DETAIL
  6
Continuous
100
AcDbLine
 10
-316.2999209249983
 20
-142.2749652187549
 30
0.0
 11
-316.2999209249983
 21
-128.624967843752
 31
0.0
  0
LINE
  5
8886E
330
1E
100
AcDbEntity
  8
DETAIL
  6
Continuous
100
AcDbLine
 10
-318.0999204750014
 20
-142.2749652187549
 30
0.0
 11
-318.0999204750014
 21
-128.624967843752
 31
0.0
  0
CIRCLE
  5
8886F
330
1E
100
AcDbEntity
  8
DETAIL
  6
Continuous
100
AcDbCircle
 10
112.3018098494083
 20
-137.6222293884138
 30
0.0
 40
1.248888283776426
  0
ARC
  5
88870
330
1E
100
AcDbEntity
  8
DETAIL
  6
Continuous
100
AcDbCircle
 10
95.52950004293325
 20
-112.2749652187621
 30
0.0
 40
29.9999999999925
100
AcDbArc
 50
305.7414772049848
 51
315.0
  0
LINE
  5
88871
330
1E
100
AcDbEntity
  8
DETAIL
  6
Continuous
100
AcDbLine
 10
-230.1154829840672
 20
-140.9249690937517
 30
0.0
 11
-226.8999432749996
 21
-140.9249690937517
 31
0.0
  0
LINE
  5
88872
330
1E
100
AcDbEntity
  8
DETAIL
  6
Continuous
100
AcDbLine
 10
-325.9482518462545
 20
-140.9249690937517
 30
0.0
 11
-318.0999204750014
 21
-140.9249690937513
 31
0.0
  0
LINE
  5
88873
330
1E
100
AcDbEntity
  8
DETAIL
  6
Continuous
100
AcDbLine
 10
-316.2999209249983
 20
-140.9249690937513
 30
0.0
 11
-306.699923325007
 21
-140.9249690937508
 31
0.0
  0
LINE
  5
88874
330
1E
100
AcDbEntity
  8
DETAIL
  6
Continuous
100
AcDbLine
 10
-304.899923775004
 20
-140.9249690937513
 30
0.0
 11
-283.8999290249948
 21
-140.9249690937513
 31
0.0
  0
LINE
  5
88875
330
1E
100
AcDbEntity
  8
DETAIL
  6
Continuous
100
AcDbLine
 10
-282.0999294749917
 20
-140.9249690937513
 30
0.0
 11
-272.4999318750005
 21
-140.9249690937517
 31
0.0
  0
LINE
  5
88876
330
1E
100
AcDbEntity
  8
DETAIL
  6
Continuous
100
AcDbLine
 10
-270.6999323249974
 20
-140.9249690937522
 30
0.0
 11
-269.884392015934
 21
-140.9249690937517
 31
0.0
  0
LINE
  5
88877
330
1E
100
AcDbEntity
  8
DETAIL
  6
Continuous
100
AcDbLine
 10
-225.0999437249965
 20
-140.9249690937517
 30
0.0
 11
-215.4999461139484
 21
-140.9249690937517
 31
0.0
  0
LINE
  5
88878
330
1E
100
AcDbEntity
  8
DETAIL
  6
Continuous
100
AcDbLine
 10
-213.6999465639453
 20
-140.9249690937517
 30
0.0
 11
-204.099948975011
 21
-140.9249690937517
 31
0.0
  0
LINE
  5
88879
330
1E
100
AcDbEntity
  8
DETAIL
  6
Continuous
100
AcDbLine
 10
-202.2999494250079
 20
-140.9249690937517
 30
0.0
 11
-192.699951824993
 21
-140.9249690937517
 31
0.0
  0
LINE
  5
8887A
330
1E
100
AcDbEntity
  8
DETAIL
  6
Continuous
100
AcDbLine
 10
-190.89995227499
 20
-140.9249690937517
 30
0.0
 11
-181.2999546749987
 21
-140.9249690937522
 31
0.0
  0
LINE
  5
8887B
330
1E
100
AcDbEntity
  8
DETAIL
  6
Continuous
100
AcDbLine
 10
-179.4999551249957
 20
-140.9249690937513
 30
0.0
 11
-169.8999575250044
 21
-140.9249690937522
 31
0.0
  0
LINE
  5
8887C
330
1E
100
AcDbEntity
  8
DETAIL
  6
Continuous
100
AcDbLine
 10
-168.0999579750014
 20
-140.9249690937517
 30
0.0
 11
-158.4999603750101
 21
-140.9249690937513
 31
0.0
  0
LINE
  5
8887D
330
1E
100
AcDbEntity
  8
DETAIL
  6
Continuous
100
AcDbLine
 10
-156.6999608250071
 20
-140.9249690937513
 30
0.0
 11
-147.0999632249921
 21
-140.9249690937513
 31
0.0
  0
LINE
  5
8887E
330
1E
100
AcDbEntity
  8
DETAIL
  6
Continuous
100
AcDbLine
 10
-145.2999636749891
 20
-140.9249690937513
 30
0.0
 11
-135.6999660749979
 21
-140.9249690937504
 31
0.0
  0
LINE
  5
8887F
330
1E
100
AcDbEntity
  8
DETAIL
  6
Continuous
100
AcDbLine
 10
-133.8999665249948
 20
-140.9249690937513
 30
0.0
 11
-124.2999689250036
 21
-140.9249690937508
 31
0.0
  0
LINE
  5
88880
330
1E
100
AcDbEntity
  8
DETAIL
  6
Continuous
100
AcDbLine
 10
-122.4999693750005
 20
-140.9249690937513
 30
0.0
 11
-112.8999717750092
 21
-140.9249690937517
 31
0.0
  0
LINE
  5
88881
330
1E
100
AcDbEntity
  8
DETAIL
  6
Continuous
100
AcDbLine
 10
-111.0999722250062
 20
-140.9249690937513
 30
0.0
 11
-101.4999746249913
 21
-140.9249690937508
 31
0.0
  0
LINE
  5
88882
330
1E
100
AcDbEntity
  8
DETAIL
  6
Continuous
100
AcDbLine
 10
-99.69997507498829
 20
-140.9249690937513
 30
0.0
 11
-90.09997747499705
 21
-140.9249690937508
 31
0.0
  0
LINE
  5
88883
330
1E
100
AcDbEntity
  8
DETAIL
  6
Continuous
100
AcDbLine
 10
-88.29997792499398
 20
-140.9249690937508
 30
0.0
 11
-78.69998032500271
 21
-140.9249690937513
 31
0.0
  0
LINE
  5
88884
330
1E
100
AcDbEntity
  8
DETAIL
  6
Continuous
100
AcDbLine
 10
-76.89998077499968
 20
-140.9249690937508
 30
0.0
 11
-67.29998317500843
 21
-140.9249690937508
 31
0.0
  0
LINE
  5
88885
330
1E
100
AcDbEntity
  8
DETAIL
  6
Continuous
100
AcDbLine
 10
-65.49998362500537
 20
-140.9249690937508
 30
0.0
 11
-55.89998602498866
 21
-140.9249690937508
 31
0.0
  0
LINE
  5
88886
330
1E
100
AcDbEntity
  8
DETAIL
  6
Continuous
100
AcDbLine
 10
-54.0999864749856
 20
-140.9249690937508
 30
0.0
 11
-44.49998887499617
 21
-140.9249690937504
 31
0.0
  0
LINE
  5
88887
330
1E
100
AcDbEntity
  8
DETAIL
  6
Continuous
100
AcDbLine
 10
-42.69998932499311
 20
-140.9249690937508
 30
0.0
 11
-33.09999172500187
 21
-140.9249690937517
 31
0.0
  0
LINE
  5
88888
330
1E
100
AcDbEntity
  8
DETAIL
  6
Continuous
100
AcDbLine
 10
-31.2999921749988
 20
-140.9249690937508
 30
0.0
 11
-21.69999457500756
 21
-140.9249690937508
 31
0.0
  0
LINE
  5
88889
330
1E
100
AcDbEntity
  8
DETAIL
  6
Continuous
100
AcDbLine
 10
-19.8999950250045
 20
-140.9249690937508
 30
0.0
 11
-10.2999974250132
 21
-140.9249690937513
 31
0.0
  0
LINE
  5
8888A
330
1E
100
AcDbEntity
  8
DETAIL
  6
Continuous
100
AcDbLine
 10
-8.499997875010137
 20
-140.9249690937508
 30
0.0
 11
1.099999725006512
 21
-140.9249690937508
 31
0.0
  0
LINE
  5
8888B
330
1E
100
AcDbEntity
  8
DETAIL
  6
Continuous
100
AcDbLine
 10
2.899999275009577
 20
-140.9249690937508
 30
0.0
 11
12.49999687499905
 21
-140.9249690937508
 31
0.0
  0
LINE
  5
8888C
330
1E
100
AcDbEntity
  8
DETAIL
  6
Continuous
100
AcDbLine
 10
14.29999642500206
 20
-140.9249690937508
 30
0.0
 11
23.89999402499336
 21
-140.9249690937508
 31
0.0
  0
LINE
  5
8888D
330
1E
100
AcDbEntity
  8
DETAIL
  6
Continuous
100
AcDbLine
 10
25.69999357499637
 20
-140.9249690937508
 30
0.0
 11
35.29999117498761
 21
-140.9249690937508
 31
0.0
  0
LINE
  5
8888E
330
1E
100
AcDbEntity
  8
DETAIL
  6
Continuous
100
AcDbLine
 10
37.09999072499073
 20
-140.9249690937513
 30
0.0
 11
46.69998832500738
 21
-140.9249690937508
 31
0.0
  0
LINE
  5
8888F
330
1E
100
AcDbEntity
  8
DETAIL
  6
Continuous
100
AcDbLine
 10
48.49998787501045
 20
-140.9249690937513
 30
0.0
 11
58.09998547500175
 21
-140.9249690937513
 31
0.0
  0
LINE
  5
88890
330
1E
100
AcDbEntity
  8
DETAIL
  6
Continuous
100
AcDbLine
 10
59.89998502500475
 20
-140.9249690937513
 30
0.0
 11
69.49998262499594
 21
-140.9249690937513
 31
0.0
  0
LINE
  5
88891
330
1E
100
AcDbEntity
  8
DETAIL
  6
Continuous
100
AcDbLine
 10
71.29998217499718
 20
-140.9249690937513
 30
0.0
 11
80.89997977501388
 21
-140.9249690937517
 31
0.0
  0
LINE
  5
88892
330
1E
100
AcDbEntity
  8
DETAIL
  6
Continuous
100
AcDbLine
 10
82.6999793249916
 20
-140.9249690937513
 30
0.0
 11
92.29997692500825
 21
-140.9249690937517
 31
0.0
  0
LINE
  5
88893
330
1E
100
AcDbEntity
  8
DETAIL
  6
Continuous
100
AcDbLine
 10
94.09997647501132
 20
-140.9249690937513
 30
0.0
 11
101.9499747688171
 21
-140.9249690937522
 31
0.0
  0
LINE
  5
8AAAF
330
1E
100
AcDbEntity
  8
OUTLINE
  6
Continuous
370
    -3
100
AcDbLine
 10
327.999918000005
 20
84.87497878125077
 30
0.0
 11
327.999918000005
 21
-108.6249728437528
 31
0.0
  0
LINE
  5
8AAB0
330
1E
100
AcDbEntity
  8
OUTLINE
  6
Continuous
370
    -3
100
AcDbLine
 10
328.9999177499903
 20
55.95571934439613
 30
0.0
 11
328.9999177499903
 21
84.87497878125077
 31
0.0
  0
LINE
  5
8AAB2
330
1E
100
AcDbEntity
  8
OUTLINE
  6
Continuous
370
    -3
100
AcDbLine
 10
269.9999325000007
 20
-0.0000000000009095
 30
0.0
 11
269.9999325000007
 21
141.3749646562473
 31
0.0
  0
LINE
  5
8AAB3
330
1E
100
AcDbEntity
  8
OUTLINE
  6
Continuous
370
    -3
100
AcDbLine
 10
229.9999425000005
 20
-0.0571075520683735
 30
0.0
 11
229.9999425000005
 21
141.3749646562473
 31
0.0
  0
LINE
  5
8AAB4
330
1E
100
AcDbEntity
  8
OUTLINE
  6
Continuous
370
    -3
100
AcDbLine
 10
-269.9999324999989
 20
-0.0000000000009095
 30
0.0
 11
-269.9999324999989
 21
141.3749646562473
 31
0.0
  0
LINE
  5
8AAB5
330
1E
100
AcDbEntity
  8
OUTLINE
  6
Continuous
370
    -3
100
AcDbLine
 10
-229.9999424999987
 20
0.0192404183935651
 30
0.0
 11
-229.9999424999987
 21
141.3749646562473
 31
0.0
  0
SPLINE
  5
8AAB6
330
1E
100
AcDbEntity
  8
OUTLINE
  6
Continuous
100
AcDbSpline
210
0.0
220
0.0
230
1.0
 70
    24
 71
     3
 72
    11
 73
     7
 74
     5
 42
0.0000000001
 43
0.0000000001
 44
0.00000001
 40
0.0
 40
0.0
 40
0.0
 40
0.0
 40
34.03605368990293
 40
49.37556025241474
 40
64.71506681492655
 40
80.05457337743838
 40
80.05457337743838
 40
80.05457337743838
 40
80.05457337743838
 10
-354.2499374999815
 20
31.47039390381587
 30
0.0
 10
-354.2499374999705
 20
42.81574513378352
 30
0.0
 10
-354.2499374999678
 20
59.27426521792177
 30
0.0
 10
-354.2499374999738
 20
80.84595415623061
 30
0.0
 10
-354.2499374999795
 20
96.18546071874247
 30
0.0
 10
-354.249937499982
 20
106.4117984270836
 30
0.0
 10
-354.2499374999824
 20
111.5249672812542
 30
0.0
 11
-354.2499374999815
 21
31.47039390381587
 31
0.0
 11
-354.2499374999679
 21
65.50644759371881
 31
0.0
 11
-354.2499374999824
 21
80.84595415623061
 31
0.0
 11
-354.2499374999824
 21
96.18546071874243
 31
0.0
 11
-354.2499374999824
 21
111.5249672812542
 31
0.0
  0
LINE
  5
8AAB7
330
1E
100
AcDbEntity
  8
OUTLINE
  6
Continuous
100
AcDbLine
 10
-357.2497113987428
 20
28.32539320935438
 30
0.0
 11
-357.2499374999697
 21
111.5249672812524
 31
0.0
  0
ARC
  5
8AAB8
330
1E
100
AcDbEntity
  8
OUTLINE
  6
Continuous
370
    -3
100
AcDbCircle
 10
-255.9999360000092
 20
27.37499315625063
 30
0.0
 40
97.99997549999998
100
AcDbArc
 50
98.21321070173212
 51
176.9391909999995
  0
LINE
  5
8AAB9
330
1E
100
AcDbEntity
  8
OUTLINE
  6
Continuous
370
    -3
100
AcDbLine
 10
-204.0999489749847
 20
-143.4249684687529
 30
0.0
 11
-213.6999465750013
 21
-143.4249684687529
 31
0.0
  0
LINE
  5
8AABA
330
1E
100
AcDbEntity
  8
OUTLINE
  6
Continuous
100
AcDbLine
 10
-213.6999465639444
 20
-140.9249690937526
 30
0.0
 11
-204.0999489750102
 21
-140.9249690937526
 31
0.0
  0
LINE
  5
8AABB
330
1E
100
AcDbEntity
  8
OUTLINE
  6
Continuous
370
    -3
100
AcDbLine
 10
-116.0138643298669
 20
-128.6249678437525
 30
0.0
 11
-229.9999424999987
 21
-128.624967843752
 31
0.0
  0
LINE
  5
8AABC
330
1E
100
AcDbEntity
  8
OUTLINE
  6
Continuous
370
    -3
100
AcDbLine
 10
229.9999425000005
 20
-127.6249680937489
 30
0.0
 11
-229.9999424999987
 21
-127.6249680937489
 31
0.0
  0
LINE
  5
8AABD
330
1E
100
AcDbEntity
  8
OUTLINE
  6
Continuous
370
    -3
100
AcDbLine
 10
-229.9999424999987
 20
0.0192404183935651
 30
0.0
 11
-229.9999424999987
 21
-139.4092318143493
 31
0.0
  0
LINE
  5
8AABE
330
1E
100
AcDbEntity
  8
OUTLINE
  6
Continuous
370
    -3
100
AcDbLine
 10
-269.9999324999989
 20
-0.0000000000009095
 30
0.0
 11
-269.9999324999989
 21
-139.4092318143493
 31
0.0
  0
LINE
  5
8AABF
330
1E
100
AcDbEntity
  8
OUTLINE
  6
Continuous
370
    -3
100
AcDbLine
 10
-375.7999060499914
 20
-35.45920446853142
 30
0.0
 11
-375.7999060499914
 21
-55.91763935392328
 31
0.0
  0
LINE
  5
8AAC0
330
1E
100
AcDbEntity
  8
OUTLINE
  6
Continuous
370
    -3
100
AcDbLine
 10
-358.299910424992
 20
-35.45920446853142
 30
0.0
 11
-358.299910424992
 21
-96.0112693305091
 31
0.0
  0
LINE
  5
8AAC1
330
1E
100
AcDbEntity
  8
OUTLINE
  6
Continuous
370
    -3
100
AcDbLine
 10
-306.6999233250062
 20
-143.4249684687529
 30
0.0
 11
-316.2999209249974
 21
-143.4249684687529
 31
0.0
  0
LINE
  5
8AAC2
330
1E
100
AcDbEntity
  8
OUTLINE
  6
Continuous
100
AcDbLine
 10
-316.2999209249974
 20
-140.9249690937522
 30
0.0
 11
-306.6999233250062
 21
-140.9249690937517
 31
0.0
  0
LINE
  5
8AAC3
330
1E
100
AcDbEntity
  8
OUTLINE
  6
Continuous
370
    -3
100
AcDbLine
 10
-269.9999324999989
 20
-127.6249680937494
 30
0.0
 11
-334.9999162499989
 21
-127.6249680937489
 31
0.0
  0
LINE
  5
8AAC4
330
1E
100
AcDbEntity
  8
OUTLINE
  6
Continuous
370
    -3
100
AcDbLine
 10
-269.9999324999989
 20
-128.6249678437525
 30
0.0
 11
-334.9999162499989
 21
-128.6249678437525
 31
0.0
  0
LINE
  5
8AAC5
330
1E
100
AcDbEntity
  8
OUTLINE
  6
Continuous
370
    -3
100
AcDbLine
 10
-325.9482518462537
 20
-141.8898123956755
 30
0.0
 11
-325.9482518462537
 21
-144.6749681562523
 31
0.0
  0
LINE
  5
8AAC6
330
1E
100
AcDbEntity
  8
OUTLINE
  6
Continuous
370
    -3
100
AcDbLine
 10
-318.0999204750005
 20
-143.4249684687529
 30
0.0
 11
-325.9482518462537
 21
-143.4249684687529
 31
0.0
  0
LINE
  5
8AAC7
330
1E
100
AcDbEntity
  8
OUTLINE
  6
Continuous
370
    -3
100
AcDbLine
 10
-316.2999209249974
 20
-142.2749652187558
 30
0.0
 11
-316.2999209249974
 21
-144.324968243754
 31
0.0
  0
LINE
  5
8AAC8
330
1E
100
AcDbEntity
  8
OUTLINE
  6
Continuous
370
    -3
100
AcDbLine
 10
-318.0999204750005
 20
-142.2749652187558
 30
0.0
 11
-318.0999204750005
 21
-144.324968243754
 31
0.0
  0
ARC
  5
8AAC9
330
1E
100
AcDbEntity
  8
OUTLINE
  6
Continuous
370
    -3
100
AcDbCircle
 10
-317.1999206999862
 20
-144.324968243754
 30
0.0
 40
0.8999997749999998
100
AcDbArc
 50
180.0
 51
0.0
  0
LINE
  5
8AACA
330
1E
100
AcDbEntity
  8
OUTLINE
  6
Continuous
100
AcDbLine
 10
-325.9482518462537
 20
-141.8898123956755
 30
0.0
 11
-325.9482518462537
 21
-129.006898823799
 31
0.0
  0
LINE
  5
8AACB
330
1E
100
AcDbEntity
  8
OUTLINE
  6
Continuous
100
AcDbLine
 10
-316.2999209249974
 20
-142.2749652187558
 30
0.0
 11
-316.2999209249974
 21
-128.6249678437529
 31
0.0
  0
LINE
  5
8AACC
330
1E
100
AcDbEntity
  8
OUTLINE
  6
Continuous
100
AcDbLine
 10
-318.0999204750005
 20
-142.2749652187558
 30
0.0
 11
-318.0999204750005
 21
-128.6249678437529
 31
0.0
  0
LINE
  5
8AACD
330
1E
100
AcDbEntity
  8
OUTLINE
  6
Continuous
100
AcDbLine
 10
-325.9482518462537
 20
-140.9249690937526
 30
0.0
 11
-318.0999204750005
 21
-140.9249690937522
 31
0.0
  0
ARC
  5
8AACE
330
1E
100
AcDbEntity
  8
OUTLINE
  6
Continuous
100
AcDbCircle
 10
-329.1500624998516
 20
-115.3759742133288
 30
0.0
 40
24.99999999999369
100
AcDbArc
 50
193.2762907811031
 51
202.5482453081216
  0
ARC
  5
8AACF
330
1E
100
AcDbEntity
  8
OUTLINE
  6
Continuous
370
    -3
100
AcDbCircle
 10
-334.9999162499989
 20
-108.6249728437528
 30
0.0
 40
19.99999499999999
100
AcDbArc
 50
180.0
 51
270.0
  0
ARC
  5
8AAD0
330
1E
100
AcDbEntity
  8
OUTLINE
  6
Continuous
370
    -3
100
AcDbCircle
 10
-334.9999162499989
 20
-108.6249728437528
 30
0.0
 40
18.99999524999999
100
AcDbArc
 50
180.0
 51
270.0
  0
ARC
  5
8AAD1
330
1E
100
AcDbEntity
  8
OUTLINE
  6
Continuous
100
AcDbCircle
 10
-319.827988923158
 20
-93.45543928975075
 30
0.0
 40
48.81952597487767
100
AcDbArc
 50
246.9646001079795
 51
252.1121175998546
  0
ARC
  5
8AAD2
330
1E
100
AcDbEntity
  8
OUTLINE
  6
Continuous
100
AcDbCircle
 10
-329.1508657670019
 20
-115.3751641623439
 30
0.0
 40
24.999568782487
100
AcDbArc
 50
202.5506658674997
 51
246.9699115526949
  0
LINE
  5
8AAD3
330
1E
100
AcDbEntity
  8
OUTLINE
  6
Continuous
370
    -3
100
AcDbLine
 10
-328.4482512212544
 20
-141.6749689062539
 30
0.0
 11
-328.4482512212544
 21
-144.6749681562523
 31
0.0
  0
LINE
  5
8AAD4
330
1E
100
AcDbEntity
  8
OUTLINE
  6
Continuous
370
    -3
100
AcDbLine
 10
-328.448251224898
 20
-141.5078814156295
 30
0.0
 11
-328.4482512212544
 21
-141.6749689062539
 31
0.0
  0
LINE
  5
8AAD5
330
1E
100
AcDbEntity
  8
OUTLINE
  6
Continuous
370
    -3
100
AcDbLine
 10
-331.7885037195392
 20
-140.9249690937513
 30
0.0
 11
-331.7946237179949
 21
-140.9249690937513
 31
0.0
  0
LINE
  5
8AAD6
330
1E
100
AcDbEntity
  8
OUTLINE
  6
Continuous
370
    -3
100
AcDbLine
 10
-334.7853616728998
 20
-140.6605153609221
 30
0.0
 11
-334.8231678188376
 21
-139.9149994071076
 31
0.0
  0
ARC
  5
8AAD7
330
1E
100
AcDbEntity
  8
OUTLINE
  6
Continuous
370
    -3
100
AcDbCircle
 10
-331.7946237179949
 20
-140.4249692187527
 30
0.0
 40
0.499999875
100
AcDbArc
 50
209.8529708686531
 51
270.0
  0
ARC
  5
8AAD8
330
1E
100
AcDbEntity
  8
OUTLINE
  6
Continuous
370
    -3
100
AcDbCircle
 10
-331.7946237179949
 20
-140.4249692187527
 30
0.0
 40
2.999999249999999
100
AcDbArc
 50
184.5032360000062
 51
270.0
  0
ARC
  5
8AAD9
330
1E
100
AcDbEntity
  8
OUTLINE
  6
Continuous
370
    -3
100
AcDbCircle
 10
-331.7885037195392
 20
-140.4249692187527
 30
0.0
 40
0.499999875
100
AcDbArc
 50
210.1034558392938
 51
270.0
  0
LINE
  5
8AADA
330
1E
100
AcDbEntity
  8
OUTLINE
  6
Continuous
370
    -3
100
AcDbLine
 10
-328.4482512212544
 20
-143.4249684687529
 30
0.0
 11
-331.8007437164506
 21
-143.4249684687529
 31
0.0
  0
LINE
  5
8AADB
330
1E
100
AcDbEntity
  8
OUTLINE
  6
Continuous
370
    -3
100
AcDbLine
 10
-331.2292983478992
 20
-140.9249690937526
 30
0.0
 11
-331.7946237179949
 21
-140.9249690937526
 31
0.0
  0
ARC
  5
8AADC
330
1E
100
AcDbEntity
  8
OUTLINE
  6
Continuous
100
AcDbCircle
 10
-329.1500624998516
 20
-115.3759742133288
 30
0.0
 40
24.99999999999375
100
AcDbArc
 50
180.0
 51
191.309704989426
  0
ARC
  5
8AADD
330
1E
100
AcDbEntity
  8
OUTLINE
  6
Continuous
100
AcDbCircle
 10
-329.1500624998516
 20
-115.3759742133288
 30
0.0
 40
24.99999999999382
100
AcDbArc
 50
191.309704989426
 51
193.2762907811031
  0
LINE
  5
8AADE
330
1E
100
AcDbEntity
  8
OUTLINE
  6
Continuous
100
AcDbLine
 10
-354.1500624998443
 20
-115.3759742133288
 30
0.0
 11
-354.1500624998443
 21
-114.3931353422922
 31
0.0
  0
LINE
  5
8AADF
330
1E
100
AcDbEntity
  8
OUTLINE
  6
Continuous
370
    -3
100
AcDbLine
 10
-354.999911249999
 20
-101.5894412693019
 30
0.0
 11
-354.999911249999
 21
-108.6249728437528
 31
0.0
  0
LINE
  5
8AAE0
330
1E
100
AcDbEntity
  8
OUTLINE
  6
Continuous
370
    -3
100
AcDbLine
 10
-358.5999103500053
 20
-94.83553629111247
 30
0.0
 11
-358.299910424992
 21
-94.83553629111247
 31
0.0
  0
ARC
  5
8AAE1
330
1E
100
AcDbEntity
  8
OUTLINE
  6
Continuous
370
    -3
100
AcDbCircle
 10
-354.679457996779
 20
-90.1355374661125
 30
0.0
 40
6.120451803219999
100
AcDbArc
 50
129.8327709999957
 51
230.1672120000374
  0
LINE
  5
8AAE2
330
1E
100
AcDbEntity
  8
OUTLINE
  6
Continuous
370
    -3
100
AcDbLine
 10
-358.5999103500053
 20
-85.43553864111345
 30
0.0
 11
-358.5999103500053
 21
-94.83553629111247
 31
0.0
  0
LINE
  5
8AAE3
330
1E
100
AcDbEntity
  8
OUTLINE
  6
Continuous
370
    -3
100
AcDbLine
 10
-358.299910424992
 20
-85.43553864111345
 30
0.0
 11
-358.299910424992
 21
-94.83553629111247
 31
0.0
  0
LINE
  5
8AAE4
330
1E
100
AcDbEntity
  8
OUTLINE
  6
Continuous
370
    -3
100
AcDbLine
 10
-358.5999103500053
 20
-85.43553864111345
 30
0.0
 11
-358.299910424992
 21
-85.43553864111345
 31
0.0
  0
LINE
  5
8AAE5
330
1E
100
AcDbEntity
  8
OUTLINE
  6
Continuous
370
    -3
100
AcDbLine
 10
-354.6442713389042
 20
-101.9450811803899
 30
0.0
 11
-356.6889908277262
 21
-99.9003616915693
 31
0.0
  0
ARC
  5
8AAE6
330
1E
100
AcDbEntity
  8
OUTLINE
  6
Continuous
370
    -3
100
AcDbCircle
 10
-377.2999056750068
 20
-84.13553896610938
 30
0.0
 40
18.99999524999999
100
AcDbArc
 50
0.0
 51
63.61219999997202
  0
LINE
  5
8AAE7
330
1E
100
AcDbEntity
  8
OUTLINE
  6
Continuous
370
    -3
100
AcDbLine
 10
-353.99991149999
 20
-103.5007074581512
 30
0.0
 11
-353.99991149999
 21
-108.6249728437528
 31
0.0
  0
ARC
  5
8AAE8
330
1E
100
AcDbEntity
  8
OUTLINE
  6
Continuous
370
    -3
100
AcDbCircle
 10
-356.1999109500011
 20
-103.5007074581512
 30
0.0
 40
2.199999449999999
100
AcDbArc
 50
0.0
 51
45.0
  0
ARC
  5
8AAE9
330
1E
100
AcDbEntity
  8
OUTLINE
  6
Continuous
370
    -3
100
AcDbCircle
 10
-352.7999117999879
 20
-96.0112693305091
 30
0.0
 40
5.499998624999999
100
AcDbArc
 50
180.0
 51
225.0
  0
LINE
  5
8AAEA
330
1E
100
AcDbEntity
  8
OUTLINE
  6
Continuous
100
AcDbLine
 10
-328.4482512212544
 20
-141.6749689062539
 30
0.0
 11
-328.4482512212544
 21
-128.7920553343774
 31
0.0
  0
LINE
  5
8AAEB
330
1E
100
AcDbEntity
  8
OUTLINE
  6
Continuous
100
AcDbLine
 10
-334.8231678188376
 20
-140.0820868970786
 30
0.0
 11
-334.8231678188376
 21
-128.6249678437525
 31
0.0
  0
LINE
  5
8AAEC
330
1E
100
AcDbEntity
  8
OUTLINE
  6
Continuous
100
AcDbLine
 10
-332.228276420667
 20
-140.6738571623445
 30
0.0
 11
-332.228276420667
 21
-128.6249678437525
 31
0.0
  0
LINE
  5
8AAED
330
1E
100
AcDbEntity
  8
OUTLINE
  6
Continuous
100
AcDbLine
 10
-331.2292983478992
 20
-140.9249690937526
 30
0.0
 11
-328.4482512212544
 21
-140.9249690937526
 31
0.0
  0
ARC
  5
8AAEE
330
1E
100
AcDbEntity
  8
OUTLINE
  6
Continuous
370
    -3
100
AcDbCircle
 10
-363.2999091749916
 20
-55.91763935392328
 30
0.0
 40
12.49999687499999
100
AcDbArc
 50
180.0
 51
243.6121999999719
  0
ARC
  5
8AAEF
330
1E
100
AcDbEntity
  8
OUTLINE
  6
Continuous
370
    -3
100
AcDbCircle
 10
-327.1982515337549
 20
-144.6749681562523
 30
0.0
 40
1.249999687499999
100
AcDbArc
 50
180.0
 51
0.0
  0
LINE
  5
8AAF0
330
1E
100
AcDbEntity
  8
OUTLINE
  6
Continuous
370
    -3
100
AcDbLine
 10
-331.4482504712596
 20
-128.6249678437525
 30
0.0
 11
-322.9482525962503
 21
-128.6249678437525
 31
0.0
  0
LINE
  5
8AAF1
330
1E
100
AcDbEntity
  8
OUTLINE
  6
Continuous
370
    -3
100
AcDbLine
 10
-213.6999465639444
 20
-142.2749652187558
 30
0.0
 11
-213.6999465750013
 21
-144.324968243754
 31
0.0
  0
LINE
  5
8AAF2
330
1E
100
AcDbEntity
  8
OUTLINE
  6
Continuous
370
    -3
100
AcDbLine
 10
-215.4987078549518
 20
-142.2749652187558
 30
0.0
 11
-215.4999461250044
 21
-144.324968243754
 31
0.0
  0
LINE
  5
8AAF3
330
1E
100
AcDbEntity
  8
OUTLINE
  6
Continuous
370
    -3
100
AcDbLine
 10
-225.0999437249956
 20
-144.324968243754
 30
0.0
 11
-225.0999437249956
 21
-142.2749652187558
 31
0.0
  0
LINE
  5
8AAF4
330
1E
100
AcDbEntity
  8
OUTLINE
  6
Continuous
370
    -3
100
AcDbLine
 10
-215.4999461250044
 20
-143.4249684687529
 30
0.0
 11
-225.0999437249956
 21
-143.4249684687529
 31
0.0
  0
ARC
  5
8AAF5
330
1E
100
AcDbEntity
  8
OUTLINE
  6
Continuous
370
    -3
100
AcDbCircle
 10
-214.5999463499902
 20
-144.324968243754
 30
0.0
 40
0.8999997749999998
100
AcDbArc
 50
180.0
 51
0.0
  0
LINE
  5
8AAF6
330
1E
100
AcDbEntity
  8
OUTLINE
  6
Continuous
100
AcDbLine
 10
-213.6999465639444
 20
-142.2749652187558
 30
0.0
 11
-213.6999465639444
 21
-128.6249678437529
 31
0.0
  0
LINE
  5
8AAF7
330
1E
100
AcDbEntity
  8
OUTLINE
  6
Continuous
100
AcDbLine
 10
-215.4999461139475
 20
-142.2749652187558
 30
0.0
 11
-215.4999461139475
 21
-128.6249678437529
 31
0.0
  0
LINE
  5
8AAF8
330
1E
100
AcDbEntity
  8
OUTLINE
  6
Continuous
100
AcDbLine
 10
-225.0999437249956
 20
-142.2749652187558
 30
0.0
 11
-225.0999437249956
 21
-128.6249678437529
 31
0.0
  0
LINE
  5
8AAF9
330
1E
100
AcDbEntity
  8
OUTLINE
  6
Continuous
100
AcDbLine
 10
-225.0999437249956
 20
-140.9249690937526
 30
0.0
 11
-215.4999461139475
 21
-140.9249690937526
 31
0.0
  0
ARC
  5
8AAFA
330
1E
100
AcDbEntity
  8
OUTLINE
  6
Continuous
370
    -3
100
AcDbCircle
 10
-239.9999399999996
 20
-139.4092318143493
 30
0.0
 40
9.999997499999999
100
AcDbArc
 50
289.471220999979
 51
0.0
  0
ARC
  5
8AAFB
330
1E
100
AcDbEntity
  8
OUTLINE
  6
Continuous
370
    -3
100
AcDbCircle
 10
-232.9999417500039
 20
-136.6249658437518
 30
0.0
 40
2.999999249999999
100
AcDbArc
 50
270.0
 51
0.0
  0
LINE
  5
8AAFC
330
1E
100
AcDbEntity
  8
OUTLINE
  6
Continuous
370
    -3
100
AcDbLine
 10
-266.9999332499937
 20
-139.6249650937506
 30
0.0
 11
-265.9999335000084
 21
-139.6249650937506
 31
0.0
  0
ARC
  5
8AAFD
330
1E
100
AcDbEntity
  8
OUTLINE
  6
Continuous
370
    -3
100
AcDbCircle
 10
-265.9999335000084
 20
-135.6249660937537
 30
0.0
 40
3.999998999999999
100
AcDbArc
 50
270.0
 51
0.0
  0
LINE
  5
8AAFE
330
1E
100
AcDbEntity
  8
OUTLINE
  6
Continuous
370
    -3
100
AcDbLine
 10
-261.9999344999941
 20
-135.6249660937537
 30
0.0
 11
-261.9999344999941
 21
-133.1249667187539
 31
0.0
  0
ARC
  5
8AAFF
330
1E
100
AcDbEntity
  8
OUTLINE
  6
Continuous
370
    -3
100
AcDbCircle
 10
-233.9999414999892
 20
-135.6249660937537
 30
0.0
 40
3.999998999999999
100
AcDbArc
 50
180.0
 51
270.0
  0
LINE
  5
8AB00
330
1E
100
AcDbEntity
  8
OUTLINE
  6
Continuous
370
    -3
100
AcDbLine
 10
-232.9999417500039
 20
-139.6249650937506
 30
0.0
 11
-233.9999414999892
 21
-139.6249650937506
 31
0.0
  0
ARC
  5
8AB01
330
1E
100
AcDbEntity
  8
OUTLINE
  6
Continuous
370
    -3
100
AcDbCircle
 10
-259.9999349999998
 20
-139.4092318143493
 30
0.0
 40
9.999997499999999
100
AcDbArc
 50
180.0
 51
250.5287790000209
  0
ARC
  5
8AB02
330
1E
100
AcDbEntity
  8
OUTLINE
  6
Continuous
370
    -3
100
AcDbCircle
 10
-249.9999374999988
 20
-133.1249667187521
 30
0.0
 40
11.99999699999989
100
AcDbArc
 50
359.9999999999913
 51
157.975686999999
  0
LINE
  5
8AB03
330
1E
100
AcDbEntity
  8
OUTLINE
  6
Continuous
370
    -3
100
AcDbLine
 10
-237.9999405000035
 20
-135.6249660937537
 30
0.0
 11
-237.9999405000035
 21
-133.1249667187539
 31
0.0
  0
ARC
  5
8AB04
330
1E
100
AcDbEntity
  8
OUTLINE
  6
Continuous
370
    -3
100
AcDbCircle
 10
-249.9999374999988
 20
-139.1249652187516
 30
0.0
 40
4.999998749999999
100
AcDbArc
 50
180.0
 51
0.0
  0
ARC
  5
8AB05
330
1E
100
AcDbEntity
  8
OUTLINE
  6
Continuous
370
    -3
100
AcDbCircle
 10
-249.9999374999983
 20
-133.1249667187539
 30
0.0
 40
4.999998749999576
100
AcDbArc
 50
0.0
 51
180.0
  0
CIRCLE
  5
8AB06
330
1E
100
AcDbEntity
  8
OUTLINE
  6
Continuous
370
    -3
100
AcDbCircle
 10
-262.4999343749987
 20
-143.124964218754
 30
0.0
 40
2.2499994375
  0
CIRCLE
  5
8AB07
330
1E
100
AcDbEntity
  8
OUTLINE
  6
Continuous
370
    -3
100
AcDbCircle
 10
-237.4999406249989
 20
-143.124964218754
 30
0.0
 40
2.2499994375
  0
LINE
  5
8AB08
330
1E
100
AcDbEntity
  8
OUTLINE
  6
Continuous
370
    -3
100
AcDbLine
 10
-244.9999387499992
 20
-139.1249652187516
 30
0.0
 11
-244.9999387499992
 21
-133.1249667187539
 31
0.0
  0
LINE
  5
8AB09
330
1E
100
AcDbEntity
  8
OUTLINE
  6
Continuous
370
    -3
100
AcDbLine
 10
-254.9999362499984
 20
-139.1249652187516
 30
0.0
 11
-254.9999362499984
 21
-133.1249667187539
 31
0.0
  0
ARC
  5
8AB0A
330
1E
100
AcDbEntity
  8
OUTLINE
  6
Continuous
370
    -3
100
AcDbCircle
 10
-266.9999332499937
 20
-136.6249658437518
 30
0.0
 40
2.999999249999999
100
AcDbArc
 50
180.0
 51
270.0
  0
ARC
  5
8AB0B
330
1E
100
AcDbEntity
  8
OUTLINE
  6
Continuous
370
    -3
100
AcDbCircle
 10
-249.9999374999988
 20
-111.1249722187531
 30
0.0
 40
39.99998999999999
100
AcDbArc
 50
250.5287790000209
 51
289.471220999979
  0
ARC
  5
8AB0C
330
1E
100
AcDbEntity
  8
OUTLINE
  6
Continuous
370
    -3
100
AcDbCircle
 10
-249.9999374999988
 20
-133.1249667187539
 30
0.0
 40
11.999997
100
AcDbArc
 50
157.9756869999914
 51
180.0
  0
LINE
  5
8AB0D
330
1E
100
AcDbEntity
  8
OUTLINE
  6
Continuous
370
    -3
100
AcDbLine
 10
-306.6999233250062
 20
-144.324968243754
 30
0.0
 11
-306.6999233250062
 21
-142.2749652187558
 31
0.0
  0
LINE
  5
8AB0E
330
1E
100
AcDbEntity
  8
OUTLINE
  6
Continuous
370
    -3
100
AcDbLine
 10
-304.8999237750031
 20
-144.324968243754
 30
0.0
 11
-304.8999237750031
 21
-142.2749652187558
 31
0.0
  0
LINE
  5
8AB0F
330
1E
100
AcDbEntity
  8
OUTLINE
  6
Continuous
370
    -3
100
AcDbLine
 10
-295.2999261749882
 20
-143.4249684687529
 30
0.0
 11
-304.8999237750031
 21
-143.4249684687529
 31
0.0
  0
ARC
  5
8AB10
330
1E
100
AcDbEntity
  8
OUTLINE
  6
Continuous
370
    -3
100
AcDbCircle
 10
-305.7999235499919
 20
-144.324968243754
 30
0.0
 40
0.8999997749999998
100
AcDbArc
 50
180.0
 51
0.0
  0
LINE
  5
8AB11
330
1E
100
AcDbEntity
  8
OUTLINE
  6
Continuous
370
    -3
100
AcDbLine
 10
-269.1581995256883
 20
-143.4249684687529
 30
0.0
 11
-270.6999323249965
 21
-143.4249684687529
 31
0.0
  0
LINE
  5
8AB12
330
1E
100
AcDbEntity
  8
OUTLINE
  6
Continuous
370
    -3
100
AcDbLine
 10
-272.4999318749997
 20
-144.324968243754
 30
0.0
 11
-272.4999318749997
 21
-142.2749652187558
 31
0.0
  0
LINE
  5
8AB13
330
1E
100
AcDbEntity
  8
OUTLINE
  6
Continuous
370
    -3
100
AcDbLine
 10
-270.6999323249965
 20
-144.324968243754
 30
0.0
 11
-270.6999323249965
 21
-142.2749652187558
 31
0.0
  0
LINE
  5
8AB14
330
1E
100
AcDbEntity
  8
OUTLINE
  6
Continuous
370
    -3
100
AcDbLine
 10
-272.4999318749997
 20
-143.4249684687529
 30
0.0
 11
-282.0999294749908
 21
-143.4249684687529
 31
0.0
  0
ARC
  5
8AB15
330
1E
100
AcDbEntity
  8
OUTLINE
  6
Continuous
370
    -3
100
AcDbCircle
 10
-271.5999320999853
 20
-144.324968243754
 30
0.0
 40
0.8999997749999998
100
AcDbArc
 50
180.0
 51
0.0
  0
LINE
  5
8AB16
330
1E
100
AcDbEntity
  8
OUTLINE
  6
Continuous
370
    -3
100
AcDbLine
 10
-282.0999294749908
 20
-144.324968243754
 30
0.0
 11
-282.0999294749908
 21
-142.2749652187558
 31
0.0
  0
LINE
  5
8AB17
330
1E
100
AcDbEntity
  8
OUTLINE
  6
Continuous
370
    -3
100
AcDbLine
 10
-283.8999290249939
 20
-144.324968243754
 30
0.0
 11
-283.8999290249939
 21
-142.2749652187558
 31
0.0
  0
LINE
  5
8AB18
330
1E
100
AcDbEntity
  8
OUTLINE
  6
Continuous
370
    -3
100
AcDbLine
 10
-283.8999290249939
 20
-143.4249684687529
 30
0.0
 11
-295.2999261749882
 21
-143.4249684687529
 31
0.0
  0
ARC
  5
8AB19
330
1E
100
AcDbEntity
  8
OUTLINE
  6
Continuous
370
    -3
100
AcDbCircle
 10
-282.9999292500033
 20
-144.324968243754
 30
0.0
 40
0.8999997749999998
100
AcDbArc
 50
180.0
 51
0.0
  0
LINE
  5
8AB1A
330
1E
100
AcDbEntity
  8
OUTLINE
  6
Continuous
370
    -3
100
AcDbLine
 10
-226.8987050049554
 20
-142.2749652187558
 30
0.0
 11
-226.8999432750081
 21
-144.324968243754
 31
0.0
  0
LINE
  5
8AB1B
330
1E
100
AcDbEntity
  8
OUTLINE
  6
Continuous
370
    -3
100
AcDbLine
 10
-226.8999432750081
 20
-143.4249684687529
 30
0.0
 11
-230.8416754743111
 21
-143.4249684687529
 31
0.0
  0
LINE
  5
8AB1C
330
1E
100
AcDbEntity
  8
OUTLINE
  6
Continuous
100
AcDbLine
 10
-226.8999432749988
 20
-142.2749652187558
 30
0.0
 11
-226.8999432749988
 21
-128.6249678437529
 31
0.0
  0
LINE
  5
8AB1D
330
1E
100
AcDbEntity
  8
OUTLINE
  6
Continuous
100
AcDbLine
 10
-270.6999323249965
 20
-142.2749652187558
 30
0.0
 11
-270.6999323249965
 21
-128.6249678437529
 31
0.0
  0
LINE
  5
8AB1E
330
1E
100
AcDbEntity
  8
OUTLINE
  6
Continuous
100
AcDbLine
 10
-272.4999318749997
 20
-142.2749652187558
 30
0.0
 11
-272.4999318749997
 21
-128.6249678437529
 31
0.0
  0
LINE
  5
8AB1F
330
1E
100
AcDbEntity
  8
OUTLINE
  6
Continuous
100
AcDbLine
 10
-282.0999294749908
 20
-142.2749652187558
 30
0.0
 11
-282.0999294749908
 21
-128.6249678437529
 31
0.0
  0
LINE
  5
8AB20
330
1E
100
AcDbEntity
  8
OUTLINE
  6
Continuous
100
AcDbLine
 10
-283.8999290249939
 20
-142.2749652187558
 30
0.0
 11
-283.8999290249939
 21
-128.6249678437529
 31
0.0
  0
LINE
  5
8AB21
330
1E
100
AcDbEntity
  8
OUTLINE
  6
Continuous
100
AcDbLine
 10
-306.6999233250062
 20
-142.2749652187558
 30
0.0
 11
-306.6999233250062
 21
-128.6249678437529
 31
0.0
  0
LINE
  5
8AB22
330
1E
100
AcDbEntity
  8
OUTLINE
  6
Continuous
100
AcDbLine
 10
-304.8999237750031
 20
-142.2749652187558
 30
0.0
 11
-304.8999237750031
 21
-128.6249678437529
 31
0.0
  0
LINE
  5
8AB23
330
1E
100
AcDbEntity
  8
OUTLINE
  6
Continuous
100
AcDbLine
 10
-230.1154829840663
 20
-140.9249690937526
 30
0.0
 11
-226.8999432749988
 21
-140.9249690937526
 31
0.0
  0
LINE
  5
8AB24
330
1E
100
AcDbEntity
  8
OUTLINE
  6
Continuous
100
AcDbLine
 10
-304.8999237750031
 20
-140.9249690937522
 30
0.0
 11
-283.8999290249939
 21
-140.9249690937522
 31
0.0
  0
LINE
  5
8AB25
330
1E
100
AcDbEntity
  8
OUTLINE
  6
Continuous
100
AcDbLine
 10
-282.0999294749908
 20
-140.9249690937522
 30
0.0
 11
-272.4999318749997
 21
-140.9249690937526
 31
0.0
  0
LINE
  5
8AB26
330
1E
100
AcDbEntity
  8
OUTLINE
  6
Continuous
100
AcDbLine
 10
-270.6999323249965
 20
-140.9249690937531
 30
0.0
 11
-269.8843920159331
 21
-140.9249690937526
 31
0.0
  0
ARC
  5
8AB27
330
1E
100
AcDbEntity
  8
OUTLINE
  6
Continuous
370
    -3
100
AcDbCircle
 10
-225.9999435000081
 20
-144.324968243754
 30
0.0
 40
0.8999997749999998
100
AcDbArc
 50
180.0
 51
0.0
  0
LINE
  5
8AB28
330
1E
100
AcDbEntity
  8
OUTLINE
  6
Continuous
370
    -3
100
AcDbLine
 10
-358.299910424992
 20
-35.45920446853142
 30
0.0
 11
-358.299910424992
 21
25.09286039344624
 31
0.0
  0
ARC
  5
8AB29
330
1E
100
AcDbEntity
  8
OUTLINE
  6
Continuous
370
    -3
100
AcDbCircle
 10
-363.2999091749916
 20
-15.00076958313911
 30
0.0
 40
12.49999687499999
100
AcDbArc
 50
116.3878000000279
 51
180.0
  0
LINE
  5
8AB2A
330
1E
100
AcDbEntity
  8
OUTLINE
  6
Continuous
370
    -3
100
AcDbLine
 10
-375.7999060499914
 20
-35.45920446853142
 30
0.0
 11
-375.7999060499914
 21
-15.00076958313911
 31
0.0
  0
ARC
  5
8AB2B
330
1E
100
AcDbEntity
  8
OUTLINE
  6
Continuous
370
    -3
100
AcDbCircle
 10
-354.679457996779
 20
19.21712852905057
 30
0.0
 40
6.120451803219999
100
AcDbArc
 50
129.8327709999957
 51
230.1672120000374
  0
LINE
  5
8AB2C
330
1E
100
AcDbEntity
  8
OUTLINE
  6
Continuous
370
    -3
100
AcDbLine
 10
-358.5999103500053
 20
14.5171297040506
 30
0.0
 11
-358.299910424992
 21
14.5171297040506
 31
0.0
  0
LINE
  5
8AB2D
330
1E
100
AcDbEntity
  8
OUTLINE
  6
Continuous
370
    -3
100
AcDbLine
 10
-358.5999103500053
 20
23.91712735404962
 30
0.0
 11
-358.5999103500053
 21
14.5171297040506
 31
0.0
  0
LINE
  5
8AB2E
330
1E
100
AcDbEntity
  8
OUTLINE
  6
Continuous
370
    -3
100
AcDbLine
 10
-358.299910424992
 20
23.91712735404962
 30
0.0
 11
-358.299910424992
 21
14.5171297040506
 31
0.0
  0
ARC
  5
8AB2F
330
1E
100
AcDbEntity
  8
OUTLINE
  6
Continuous
370
    -3
100
AcDbCircle
 10
-377.2999056750068
 20
13.21713002904653
 30
0.0
 40
18.99999524999999
100
AcDbArc
 50
296.387800000028
 51
0.0
  0
LINE
  5
8AB30
330
1E
100
AcDbEntity
  8
OUTLINE
  6
Continuous
370
    -3
100
AcDbLine
 10
229.9999425000005
 20
-128.6249678437525
 30
0.0
 11
-113.0690117327358
 21
-128.6249678437525
 31
0.0
  0
LINE
  5
8AB31
330
1E
100
AcDbEntity
  8
OUTLINE
  6
Continuous
370
    -3
100
AcDbLine
 10
1.099999725007364
 20
-143.4249684687529
 30
0.0
 11
-8.499997875009285
 21
-143.4249684687529
 31
0.0
  0
LINE
  5
8AB32
330
1E
100
AcDbEntity
  8
OUTLINE
  6
Continuous
100
AcDbLine
 10
-8.499997875009285
 20
-140.9249690937517
 30
0.0
 11
1.099999725007364
 21
-140.9249690937517
 31
0.0
  0
LINE
  5
8AB33
330
1E
100
AcDbEntity
  8
OUTLINE
  6
Continuous
370
    -3
100
AcDbLine
 10
-101.4999746249886
 20
-128.6249678437525
 30
0.0
 11
-121.9989695002459
 21
-128.6249678437525
 31
0.0
  0
LINE
  5
8AB34
330
1E
100
AcDbEntity
  8
OUTLINE
  6
Continuous
370
    -3
100
AcDbLine
 10
-101.4999746249886
 20
-143.4249684687529
 30
0.0
 11
-111.0999722250053
 21
-143.4249684687529
 31
0.0
  0
LINE
  5
8AB35
330
1E
100
AcDbEntity
  8
OUTLINE
  6
Continuous
100
AcDbLine
 10
-111.0999722250053
 20
-140.9249690937522
 30
0.0
 11
-101.4999746249904
 21
-140.9249690937517
 31
0.0
  0
LINE
  5
8AB36
330
1E
100
AcDbEntity
  8
OUTLINE
  6
Continuous
370
    -3
100
AcDbLine
 10
-124.2999689250027
 20
-144.324968243754
 30
0.0
 11
-124.2999689250027
 21
-142.2749652187558
 31
0.0
  0
LINE
  5
8AB37
330
1E
100
AcDbEntity
  8
OUTLINE
  6
Continuous
370
    -3
100
AcDbLine
 10
-122.4999693749996
 20
-144.324968243754
 30
0.0
 11
-122.4999693749996
 21
-142.2749652187558
 31
0.0
  0
LINE
  5
8AB38
330
1E
100
AcDbEntity
  8
OUTLINE
  6
Continuous
370
    -3
100
AcDbLine
 10
-111.0999722250053
 20
-144.324968243754
 30
0.0
 11
-111.0999722250053
 21
-142.2749652187558
 31
0.0
  0
LINE
  5
8AB39
330
1E
100
AcDbEntity
  8
OUTLINE
  6
Continuous
370
    -3
100
AcDbLine
 10
-112.8999717750084
 20
-144.324968243754
 30
0.0
 11
-112.8999717750084
 21
-142.2749652187558
 31
0.0
  0
LINE
  5
8AB3A
330
1E
100
AcDbEntity
  8
OUTLINE
  6
Continuous
370
    -3
100
AcDbLine
 10
-112.8999717750084
 20
-143.4249684687529
 30
0.0
 11
-122.4999693749996
 21
-143.4249684687529
 31
0.0
  0
ARC
  5
8AB3B
330
1E
100
AcDbEntity
  8
OUTLINE
  6
Continuous
370
    -3
100
AcDbCircle
 10
-123.3999691499884
 20
-144.324968243754
 30
0.0
 40
0.8999997749999998
100
AcDbArc
 50
180.0
 51
0.0
  0
ARC
  5
8AB3C
330
1E
100
AcDbEntity
  8
OUTLINE
  6
Continuous
370
    -3
100
AcDbCircle
 10
-111.9999719999941
 20
-144.324968243754
 30
0.0
 40
0.8999997749999998
100
AcDbArc
 50
180.0
 51
0.0
  0
LINE
  5
8AB3D
330
1E
100
AcDbEntity
  8
OUTLINE
  6
Continuous
100
AcDbLine
 10
-112.8999717750084
 20
-142.2749652187558
 30
0.0
 11
-112.8999717750084
 21
-128.6249678437529
 31
0.0
  0
LINE
  5
8AB3E
330
1E
100
AcDbEntity
  8
OUTLINE
  6
Continuous
100
AcDbLine
 10
-111.0999722250053
 20
-142.2749652187558
 30
0.0
 11
-111.0999722250053
 21
-128.6249678437529
 31
0.0
  0
LINE
  5
8AB3F
330
1E
100
AcDbEntity
  8
OUTLINE
  6
Continuous
100
AcDbLine
 10
-122.4999693749996
 20
-142.2749652187558
 30
0.0
 11
-122.4999693749996
 21
-128.6249678437529
 31
0.0
  0
LINE
  5
8AB40
330
1E
100
AcDbEntity
  8
OUTLINE
  6
Continuous
100
AcDbLine
 10
-124.2999689250027
 20
-142.2749652187558
 30
0.0
 11
-124.2999689250027
 21
-128.6249678437529
 31
0.0
  0
LINE
  5
8AB41
330
1E
100
AcDbEntity
  8
OUTLINE
  6
Continuous
100
AcDbLine
 10
-122.4999693749996
 20
-140.9249690937522
 30
0.0
 11
-112.8999717750084
 21
-140.9249690937526
 31
0.0
  0
LINE
  5
8AB42
330
1E
100
AcDbEntity
  8
OUTLINE
  6
Continuous
370
    -3
100
AcDbLine
 10
-135.699966074997
 20
-143.4249684687529
 30
0.0
 11
-145.2999636749882
 21
-143.4249684687529
 31
0.0
  0
LINE
  5
8AB43
330
1E
100
AcDbEntity
  8
OUTLINE
  6
Continuous
370
    -3
100
AcDbLine
 10
-179.4999551249948
 20
-144.324968243754
 30
0.0
 11
-179.4999551249948
 21
-142.2749652187558
 31
0.0
  0
LINE
  5
8AB44
330
1E
100
AcDbEntity
  8
OUTLINE
  6
Continuous
370
    -3
100
AcDbLine
 10
-181.2999546749979
 20
-144.324968243754
 30
0.0
 11
-181.2999546749979
 21
-142.2749652187558
 31
0.0
  0
LINE
  5
8AB45
330
1E
100
AcDbEntity
  8
OUTLINE
  6
Continuous
370
    -3
100
AcDbLine
 10
-202.299949425007
 20
-144.324968243754
 30
0.0
 11
-202.299949425007
 21
-142.2749652187558
 31
0.0
  0
LINE
  5
8AB46
330
1E
100
AcDbEntity
  8
OUTLINE
  6
Continuous
370
    -3
100
AcDbLine
 10
-204.0999489749847
 20
-144.324968243754
 30
0.0
 11
-204.0999489749847
 21
-142.2749652187558
 31
0.0
  0
LINE
  5
8AB47
330
1E
100
AcDbEntity
  8
OUTLINE
  6
Continuous
370
    -3
100
AcDbLine
 10
-168.0999579750005
 20
-144.324968243754
 30
0.0
 11
-168.0999579750005
 21
-142.2749652187558
 31
0.0
  0
LINE
  5
8AB48
330
1E
100
AcDbEntity
  8
OUTLINE
  6
Continuous
370
    -3
100
AcDbLine
 10
-169.8999575250036
 20
-144.324968243754
 30
0.0
 11
-169.8999575250036
 21
-142.2749652187558
 31
0.0
  0
LINE
  5
8AB49
330
1E
100
AcDbEntity
  8
OUTLINE
  6
Continuous
370
    -3
100
AcDbLine
 10
-147.0999632249895
 20
-144.324968243754
 30
0.0
 11
-147.0999632249895
 21
-142.2749652187558
 31
0.0
  0
LINE
  5
8AB4A
330
1E
100
AcDbEntity
  8
OUTLINE
  6
Continuous
370
    -3
100
AcDbLine
 10
-145.2999636749882
 20
-144.324968243754
 30
0.0
 11
-145.2999636749882
 21
-142.2749652187558
 31
0.0
  0
LINE
  5
8AB4B
330
1E
100
AcDbEntity
  8
OUTLINE
  6
Continuous
370
    -3
100
AcDbLine
 10
-156.6999608250062
 20
-144.324968243754
 30
0.0
 11
-156.6999608250062
 21
-142.2749652187558
 31
0.0
  0
LINE
  5
8AB4C
330
1E
100
AcDbEntity
  8
OUTLINE
  6
Continuous
370
    -3
100
AcDbLine
 10
-158.4999603750093
 20
-144.324968243754
 30
0.0
 11
-158.4999603750093
 21
-142.2749652187558
 31
0.0
  0
LINE
  5
8AB4D
330
1E
100
AcDbEntity
  8
OUTLINE
  6
Continuous
370
    -3
100
AcDbLine
 10
-192.6999518249922
 20
-144.324968243754
 30
0.0
 11
-192.6999518249922
 21
-142.2749652187558
 31
0.0
  0
LINE
  5
8AB4E
330
1E
100
AcDbEntity
  8
OUTLINE
  6
Continuous
370
    -3
100
AcDbLine
 10
-190.8999522749891
 20
-144.324968243754
 30
0.0
 11
-190.8999522749891
 21
-142.2749652187558
 31
0.0
  0
LINE
  5
8AB4F
330
1E
100
AcDbEntity
  8
OUTLINE
  6
Continuous
370
    -3
100
AcDbLine
 10
-169.8999575250036
 20
-143.4249684687529
 30
0.0
 11
-179.4999551249948
 21
-143.4249684687529
 31
0.0
  0
LINE
  5
8AB50
330
1E
100
AcDbEntity
  8
OUTLINE
  6
Continuous
370
    -3
100
AcDbLine
 10
-158.4999603750093
 20
-143.4249684687529
 30
0.0
 11
-168.0999579750005
 21
-143.4249684687529
 31
0.0
  0
LINE
  5
8AB51
330
1E
100
AcDbEntity
  8
OUTLINE
  6
Continuous
370
    -3
100
AcDbLine
 10
-147.0999632249895
 20
-143.4249684687529
 30
0.0
 11
-156.6999608250062
 21
-143.4249684687529
 31
0.0
  0
LINE
  5
8AB52
330
1E
100
AcDbEntity
  8
OUTLINE
  6
Continuous
370
    -3
100
AcDbLine
 10
-181.2999546749979
 20
-143.4249684687529
 30
0.0
 11
-190.8999522749891
 21
-143.4249684687529
 31
0.0
  0
LINE
  5
8AB53
330
1E
100
AcDbEntity
  8
OUTLINE
  6
Continuous
370
    -3
100
AcDbLine
 10
-192.6999518249922
 20
-143.4249684687529
 30
0.0
 11
-202.299949425007
 21
-143.4249684687529
 31
0.0
  0
ARC
  5
8AB54
330
1E
100
AcDbEntity
  8
OUTLINE
  6
Continuous
370
    -3
100
AcDbCircle
 10
-180.3999549000072
 20
-144.324968243754
 30
0.0
 40
0.8999997749999998
100
AcDbArc
 50
180.0
 51
0.0
  0
ARC
  5
8AB55
330
1E
100
AcDbEntity
  8
OUTLINE
  6
Continuous
370
    -3
100
AcDbCircle
 10
-203.1999491999958
 20
-144.324968243754
 30
0.0
 40
0.8999997749999998
100
AcDbArc
 50
180.0
 51
0.0
  0
ARC
  5
8AB56
330
1E
100
AcDbEntity
  8
OUTLINE
  6
Continuous
370
    -3
100
AcDbCircle
 10
-168.9999577499893
 20
-144.324968243754
 30
0.0
 40
0.8999997749999998
100
AcDbArc
 50
180.0
 51
0.0
  0
ARC
  5
8AB57
330
1E
100
AcDbEntity
  8
OUTLINE
  6
Continuous
370
    -3
100
AcDbCircle
 10
-146.1999634500007
 20
-144.324968243754
 30
0.0
 40
0.8999997749999998
100
AcDbArc
 50
180.0
 51
0.0
  0
ARC
  5
8AB58
330
1E
100
AcDbEntity
  8
OUTLINE
  6
Continuous
370
    -3
100
AcDbCircle
 10
-157.599960599995
 20
-144.324968243754
 30
0.0
 40
0.8999997749999998
100
AcDbArc
 50
180.0
 51
0.0
  0
ARC
  5
8AB59
330
1E
100
AcDbEntity
  8
OUTLINE
  6
Continuous
370
    -3
100
AcDbCircle
 10
-191.7999520500016
 20
-144.324968243754
 30
0.0
 40
0.8999997749999998
100
AcDbArc
 50
180.0
 51
0.0
  0
LINE
  5
8AB5A
330
1E
100
AcDbEntity
  8
OUTLINE
  6
Continuous
370
    -3
100
AcDbLine
 10
-135.699966074997
 20
-144.324968243754
 30
0.0
 11
-135.699966074997
 21
-142.2749652187558
 31
0.0
  0
LINE
  5
8AB5B
330
1E
100
AcDbEntity
  8
OUTLINE
  6
Continuous
370
    -3
100
AcDbLine
 10
-133.8999665249939
 20
-144.324968243754
 30
0.0
 11
-133.8999665249939
 21
-142.2749652187558
 31
0.0
  0
ARC
  5
8AB5C
330
1E
100
AcDbEntity
  8
OUTLINE
  6
Continuous
370
    -3
100
AcDbCircle
 10
-134.7999663000064
 20
-144.324968243754
 30
0.0
 40
0.8999997749999998
100
AcDbArc
 50
180.0
 51
0.0
  0
LINE
  5
8AB5D
330
1E
100
AcDbEntity
  8
OUTLINE
  6
Continuous
100
AcDbLine
 10
-135.699966074997
 20
-142.2749652187558
 30
0.0
 11
-135.699966074997
 21
-128.6249678437529
 31
0.0
  0
LINE
  5
8AB5E
330
1E
100
AcDbEntity
  8
OUTLINE
  6
Continuous
100
AcDbLine
 10
-133.8999665249939
 20
-142.2749652187558
 30
0.0
 11
-133.8999665249939
 21
-128.6249678437529
 31
0.0
  0
LINE
  5
8AB5F
330
1E
100
AcDbEntity
  8
OUTLINE
  6
Continuous
100
AcDbLine
 10
-145.2999636749882
 20
-142.2749652187558
 30
0.0
 11
-145.2999636749882
 21
-128.6249678437529
 31
0.0
  0
LINE
  5
8AB60
330
1E
100
AcDbEntity
  8
OUTLINE
  6
Continuous
100
AcDbLine
 10
-147.0999632249913
 20
-142.2749652187558
 30
0.0
 11
-147.0999632249913
 21
-128.6249678437529
 31
0.0
  0
LINE
  5
8AB61
330
1E
100
AcDbEntity
  8
OUTLINE
  6
Continuous
100
AcDbLine
 10
-158.4999603750093
 20
-142.2749652187558
 30
0.0
 11
-158.4999603750093
 21
-128.6249678437529
 31
0.0
  0
LINE
  5
8AB62
330
1E
100
AcDbEntity
  8
OUTLINE
  6
Continuous
100
AcDbLine
 10
-156.6999608250062
 20
-142.2749652187558
 30
0.0
 11
-156.6999608250062
 21
-128.6249678437529
 31
0.0
  0
LINE
  5
8AB63
330
1E
100
AcDbEntity
  8
OUTLINE
  6
Continuous
100
AcDbLine
 10
-168.0999579750005
 20
-142.2749652187558
 30
0.0
 11
-168.0999579750005
 21
-128.6249678437529
 31
0.0
  0
LINE
  5
8AB64
330
1E
100
AcDbEntity
  8
OUTLINE
  6
Continuous
100
AcDbLine
 10
-169.8999575250036
 20
-142.2749652187558
 30
0.0
 11
-169.8999575250036
 21
-128.6249678437529
 31
0.0
  0
LINE
  5
8AB65
330
1E
100
AcDbEntity
  8
OUTLINE
  6
Continuous
100
AcDbLine
 10
-181.2999546749979
 20
-142.2749652187558
 30
0.0
 11
-181.2999546749979
 21
-128.6249678437529
 31
0.0
  0
LINE
  5
8AB66
330
1E
100
AcDbEntity
  8
OUTLINE
  6
Continuous
100
AcDbLine
 10
-179.4999551249948
 20
-142.2749652187558
 30
0.0
 11
-179.4999551249948
 21
-128.6249678437529
 31
0.0
  0
LINE
  5
8AB67
330
1E
100
AcDbEntity
  8
OUTLINE
  6
Continuous
100
AcDbLine
 10
-190.8999522749891
 20
-142.2749652187558
 30
0.0
 11
-190.8999522749891
 21
-128.6249678437529
 31
0.0
  0
LINE
  5
8AB68
330
1E
100
AcDbEntity
  8
OUTLINE
  6
Continuous
100
AcDbLine
 10
-192.6999518249922
 20
-142.2749652187558
 30
0.0
 11
-192.6999518249922
 21
-128.6249678437529
 31
0.0
  0
LINE
  5
8AB69
330
1E
100
AcDbEntity
  8
OUTLINE
  6
Continuous
100
AcDbLine
 10
-204.0999489750102
 20
-142.2749652187558
 30
0.0
 11
-204.0999489750102
 21
-128.6249678437529
 31
0.0
  0
LINE
  5
8AB6A
330
1E
100
AcDbEntity
  8
OUTLINE
  6
Continuous
100
AcDbLine
 10
-202.299949425007
 20
-142.2749652187558
 30
0.0
 11
-202.299949425007
 21
-128.6249678437529
 31
0.0
  0
LINE
  5
8AB6B
330
1E
100
AcDbEntity
  8
OUTLINE
  6
Continuous
100
AcDbLine
 10
-202.299949425007
 20
-140.9249690937526
 30
0.0
 11
-192.6999518249922
 21
-140.9249690937526
 31
0.0
  0
LINE
  5
8AB6C
330
1E
100
AcDbEntity
  8
OUTLINE
  6
Continuous
100
AcDbLine
 10
-190.8999522749891
 20
-140.9249690937526
 30
0.0
 11
-181.2999546749979
 21
-140.9249690937531
 31
0.0
  0
LINE
  5
8AB6D
330
1E
100
AcDbEntity
  8
OUTLINE
  6
Continuous
100
AcDbLine
 10
-179.4999551249948
 20
-140.9249690937522
 30
0.0
 11
-169.8999575250036
 21
-140.9249690937531
 31
0.0
  0
LINE
  5
8AB6E
330
1E
100
AcDbEntity
  8
OUTLINE
  6
Continuous
100
AcDbLine
 10
-168.0999579750005
 20
-140.9249690937526
 30
0.0
 11
-158.4999603750093
 21
-140.9249690937522
 31
0.0
  0
LINE
  5
8AB6F
330
1E
100
AcDbEntity
  8
OUTLINE
  6
Continuous
100
AcDbLine
 10
-156.6999608250062
 20
-140.9249690937522
 30
0.0
 11
-147.0999632249913
 21
-140.9249690937522
 31
0.0
  0
LINE
  5
8AB70
330
1E
100
AcDbEntity
  8
OUTLINE
  6
Continuous
100
AcDbLine
 10
-145.2999636749882
 20
-140.9249690937522
 30
0.0
 11
-135.699966074997
 21
-140.9249690937513
 31
0.0
  0
LINE
  5
8AB71
330
1E
100
AcDbEntity
  8
OUTLINE
  6
Continuous
370
    -3
100
AcDbLine
 10
-124.2999689250027
 20
-143.4249684687529
 30
0.0
 11
-133.8999665249939
 21
-143.4249684687529
 31
0.0
  0
LINE
  5
8AB72
330
1E
100
AcDbEntity
  8
OUTLINE
  6
Continuous
100
AcDbLine
 10
-133.8999665249939
 20
-140.9249690937522
 30
0.0
 11
-124.2999689250027
 21
-140.9249690937517
 31
0.0
  0
LINE
  5
8AB73
330
1E
100
AcDbEntity
  8
OUTLINE
  6
Continuous
370
    -3
100
AcDbLine
 10
-8.499997875009285
 20
-142.2749652187558
 30
0.0
 11
-8.499997875009285
 21
-144.324968243754
 31
0.0
  0
LINE
  5
8AB74
330
1E
100
AcDbEntity
  8
OUTLINE
  6
Continuous
370
    -3
100
AcDbLine
 10
-10.29999742498694
 20
-142.2749652187558
 30
0.0
 11
-10.29999742498694
 21
-144.324968243754
 31
0.0
  0
LINE
  5
8AB75
330
1E
100
AcDbEntity
  8
OUTLINE
  6
Continuous
370
    -3
100
AcDbLine
 10
-21.69999457500671
 20
-144.324968243754
 30
0.0
 11
-21.69999457500671
 21
-142.2749652187558
 31
0.0
  0
LINE
  5
8AB76
330
1E
100
AcDbEntity
  8
OUTLINE
  6
Continuous
370
    -3
100
AcDbLine
 10
-19.89999502500359
 20
-144.324968243754
 30
0.0
 11
-19.89999502500359
 21
-142.2749652187558
 31
0.0
  0
LINE
  5
8AB77
330
1E
100
AcDbEntity
  8
OUTLINE
  6
Continuous
370
    -3
100
AcDbLine
 10
-10.29999742498694
 20
-143.4249684687529
 30
0.0
 11
-19.89999502500359
 21
-143.4249684687529
 31
0.0
  0
ARC
  5
8AB78
330
1E
100
AcDbEntity
  8
OUTLINE
  6
Continuous
370
    -3
100
AcDbCircle
 10
-9.399997649998113
 20
-144.324968243754
 30
0.0
 40
0.8999997749999998
100
AcDbArc
 50
180.0
 51
0.0
  0
ARC
  5
8AB79
330
1E
100
AcDbEntity
  8
OUTLINE
  6
Continuous
370
    -3
100
AcDbCircle
 10
-20.79999479999242
 20
-144.324968243754
 30
0.0
 40
0.8999997749999998
100
AcDbArc
 50
180.0
 51
0.0
  0
LINE
  5
8AB7A
330
1E
100
AcDbEntity
  8
OUTLINE
  6
Continuous
100
AcDbLine
 10
-8.499997875009285
 20
-142.2749652187558
 30
0.0
 11
-8.499997875009285
 21
-128.6249678437529
 31
0.0
  0
LINE
  5
8AB7B
330
1E
100
AcDbEntity
  8
OUTLINE
  6
Continuous
100
AcDbLine
 10
-10.2999974250124
 20
-142.2749652187558
 30
0.0
 11
-10.2999974250124
 21
-128.6249678437529
 31
0.0
  0
LINE
  5
8AB7C
330
1E
100
AcDbEntity
  8
OUTLINE
  6
Continuous
100
AcDbLine
 10
-21.69999457500671
 20
-142.2749652187558
 30
0.0
 11
-21.69999457500671
 21
-128.6249678437529
 31
0.0
  0
LINE
  5
8AB7D
330
1E
100
AcDbEntity
  8
OUTLINE
  6
Continuous
100
AcDbLine
 10
-19.89999502500359
 20
-142.2749652187558
 30
0.0
 11
-19.89999502500359
 21
-128.6249678437529
 31
0.0
  0
LINE
  5
8AB7E
330
1E
100
AcDbEntity
  8
OUTLINE
  6
Continuous
100
AcDbLine
 10
-19.89999502500359
 20
-140.9249690937517
 30
0.0
 11
-10.2999974250124
 21
-140.9249690937522
 31
0.0
  0
LINE
  5
8AB7F
330
1E
100
AcDbEntity
  8
OUTLINE
  6
Continuous
370
    -3
100
AcDbLine
 10
-55.89998602498781
 20
-143.4249684687529
 30
0.0
 11
-65.49998362500446
 21
-143.4249684687529
 31
0.0
  0
LINE
  5
8AB80
330
1E
100
AcDbEntity
  8
OUTLINE
  6
Continuous
370
    -3
100
AcDbLine
 10
-65.49998362500446
 20
-144.324968243754
 30
0.0
 11
-65.49998362500446
 21
-142.2749652187558
 31
0.0
  0
LINE
  5
8AB81
330
1E
100
AcDbEntity
  8
OUTLINE
  6
Continuous
370
    -3
100
AcDbLine
 10
-67.29998317500758
 20
-144.324968243754
 30
0.0
 11
-67.29998317500758
 21
-142.2749652187558
 31
0.0
  0
LINE
  5
8AB82
330
1E
100
AcDbEntity
  8
OUTLINE
  6
Continuous
370
    -3
100
AcDbLine
 10
-78.69998032500189
 20
-144.324968243754
 30
0.0
 11
-78.69998032500189
 21
-142.2749652187558
 31
0.0
  0
LINE
  5
8AB83
330
1E
100
AcDbEntity
  8
OUTLINE
  6
Continuous
370
    -3
100
AcDbLine
 10
-76.89998077499876
 20
-144.324968243754
 30
0.0
 11
-76.89998077499876
 21
-142.2749652187558
 31
0.0
  0
LINE
  5
8AB84
330
1E
100
AcDbEntity
  8
OUTLINE
  6
Continuous
370
    -3
100
AcDbLine
 10
-90.09997747499438
 20
-144.324968243754
 30
0.0
 11
-90.09997747499438
 21
-142.2749652187558
 31
0.0
  0
LINE
  5
8AB85
330
1E
100
AcDbEntity
  8
OUTLINE
  6
Continuous
370
    -3
100
AcDbLine
 10
-88.29997792499307
 20
-144.324968243754
 30
0.0
 11
-88.29997792499307
 21
-142.2749652187558
 31
0.0
  0
LINE
  5
8AB86
330
1E
100
AcDbEntity
  8
OUTLINE
  6
Continuous
370
    -3
100
AcDbLine
 10
-67.29998317500758
 20
-143.4249684687529
 30
0.0
 11
-76.89998077499876
 21
-143.4249684687529
 31
0.0
  0
LINE
  5
8AB87
330
1E
100
AcDbEntity
  8
OUTLINE
  6
Continuous
370
    -3
100
AcDbLine
 10
-78.69998032500189
 20
-143.4249684687529
 30
0.0
 11
-88.29997792499307
 21
-143.4249684687529
 31
0.0
  0
ARC
  5
8AB88
330
1E
100
AcDbEntity
  8
OUTLINE
  6
Continuous
370
    -3
100
AcDbCircle
 10
-66.39998339999329
 20
-144.324968243754
 30
0.0
 40
0.8999997749999998
100
AcDbArc
 50
180.0
 51
0.0
  0
ARC
  5
8AB89
330
1E
100
AcDbEntity
  8
OUTLINE
  6
Continuous
370
    -3
100
AcDbCircle
 10
-77.7999805499876
 20
-144.324968243754
 30
0.0
 40
0.8999997749999998
100
AcDbArc
 50
180.0
 51
0.0
  0
ARC
  5
8AB8A
330
1E
100
AcDbEntity
  8
OUTLINE
  6
Continuous
370
    -3
100
AcDbCircle
 10
-89.19997770000554
 20
-144.324968243754
 30
0.0
 40
0.8999997749999998
100
AcDbArc
 50
180.0
 51
0.0
  0
LINE
  5
8AB8B
330
1E
100
AcDbEntity
  8
OUTLINE
  6
Continuous
370
    -3
100
AcDbLine
 10
-99.69997507498739
 20
-144.324968243754
 30
0.0
 11
-99.69997507498739
 21
-142.2749652187558
 31
0.0
  0
LINE
  5
8AB8C
330
1E
100
AcDbEntity
  8
OUTLINE
  6
Continuous
370
    -3
100
AcDbLine
 10
-101.4999746249886
 20
-144.324968243754
 30
0.0
 11
-101.4999746249886
 21
-142.2749652187558
 31
0.0
  0
ARC
  5
8AB8D
330
1E
100
AcDbEntity
  8
OUTLINE
  6
Continuous
370
    -3
100
AcDbCircle
 10
-100.5999748499998
 20
-144.324968243754
 30
0.0
 40
0.8999997749999998
100
AcDbArc
 50
180.0
 51
0.0
  0
LINE
  5
8AB8E
330
1E
100
AcDbEntity
  8
OUTLINE
  6
Continuous
370
    -3
100
AcDbLine
 10
-90.09997747499438
 20
-143.4249684687529
 30
0.0
 11
-99.69997507498739
 21
-143.4249684687529
 31
0.0
  0
LINE
  5
8AB8F
330
1E
100
AcDbEntity
  8
OUTLINE
  6
Continuous
370
    -3
100
AcDbLine
 10
-33.0999917249992
 20
-144.324968243754
 30
0.0
 11
-33.0999917249992
 21
-142.2749652187558
 31
0.0
  0
LINE
  5
8AB90
330
1E
100
AcDbEntity
  8
OUTLINE
  6
Continuous
370
    -3
100
AcDbLine
 10
-31.29999217499789
 20
-144.324968243754
 30
0.0
 11
-31.29999217499789
 21
-142.2749652187558
 31
0.0
  0
LINE
  5
8AB91
330
1E
100
AcDbEntity
  8
OUTLINE
  6
Continuous
370
    -3
100
AcDbLine
 10
-42.6999893249922
 20
-144.324968243754
 30
0.0
 11
-42.6999893249922
 21
-142.2749652187558
 31
0.0
  0
LINE
  5
8AB92
330
1E
100
AcDbEntity
  8
OUTLINE
  6
Continuous
370
    -3
100
AcDbLine
 10
-44.4999888749935
 20
-144.324968243754
 30
0.0
 11
-44.4999888749935
 21
-142.2749652187558
 31
0.0
  0
LINE
  5
8AB93
330
1E
100
AcDbEntity
  8
OUTLINE
  6
Continuous
370
    -3
100
AcDbLine
 10
-54.09998647498468
 20
-144.324968243754
 30
0.0
 11
-54.09998647498468
 21
-142.2749652187558
 31
0.0
  0
LINE
  5
8AB94
330
1E
100
AcDbEntity
  8
OUTLINE
  6
Continuous
370
    -3
100
AcDbLine
 10
-55.89998602498781
 20
-144.324968243754
 30
0.0
 11
-55.89998602498781
 21
-142.2749652187558
 31
0.0
  0
LINE
  5
8AB95
330
1E
100
AcDbEntity
  8
OUTLINE
  6
Continuous
370
    -3
100
AcDbLine
 10
-33.0999917249992
 20
-143.4249684687529
 30
0.0
 11
-42.6999893249922
 21
-143.4249684687529
 31
0.0
  0
LINE
  5
8AB96
330
1E
100
AcDbEntity
  8
OUTLINE
  6
Continuous
370
    -3
100
AcDbLine
 10
-44.4999888749935
 20
-143.4249684687529
 30
0.0
 11
-54.09998647498468
 21
-143.4249684687529
 31
0.0
  0
ARC
  5
8AB97
330
1E
100
AcDbEntity
  8
OUTLINE
  6
Continuous
370
    -3
100
AcDbCircle
 10
-32.19999194998672
 20
-144.324968243754
 30
0.0
 40
0.8999997749999998
100
AcDbArc
 50
180.0
 51
0.0
  0
ARC
  5
8AB98
330
1E
100
AcDbEntity
  8
OUTLINE
  6
Continuous
370
    -3
100
AcDbCircle
 10
-43.59998910000467
 20
-144.324968243754
 30
0.0
 40
0.8999997749999998
100
AcDbArc
 50
180.0
 51
0.0
  0
ARC
  5
8AB99
330
1E
100
AcDbEntity
  8
OUTLINE
  6
Continuous
370
    -3
100
AcDbCircle
 10
-54.99998624999898
 20
-144.324968243754
 30
0.0
 40
0.8999997749999998
100
AcDbArc
 50
180.0
 51
0.0
  0
LINE
  5
8AB9A
330
1E
100
AcDbEntity
  8
OUTLINE
  6
Continuous
100
AcDbLine
 10
-31.29999217499789
 20
-142.2749652187558
 30
0.0
 11
-31.29999217499789
 21
-128.6249678437529
 31
0.0
  0
LINE
  5
8AB9B
330
1E
100
AcDbEntity
  8
OUTLINE
  6
Continuous
100
AcDbLine
 10
-33.09999172500102
 20
-142.2749652187558
 30
0.0
 11
-33.09999172500102
 21
-128.6249678437529
 31
0.0
  0
LINE
  5
8AB9C
330
1E
100
AcDbEntity
  8
OUTLINE
  6
Continuous
100
AcDbLine
 10
-44.49998887499532
 20
-142.2749652187558
 30
0.0
 11
-44.49998887499532
 21
-128.6249678437529
 31
0.0
  0
LINE
  5
8AB9D
330
1E
100
AcDbEntity
  8
OUTLINE
  6
Continuous
100
AcDbLine
 10
-42.6999893249922
 20
-142.2749652187558
 30
0.0
 11
-42.6999893249922
 21
-128.6249678437529
 31
0.0
  0
LINE
  5
8AB9E
330
1E
100
AcDbEntity
  8
OUTLINE
  6
Continuous
100
AcDbLine
 10
-54.09998647498468
 20
-142.2749652187558
 30
0.0
 11
-54.09998647498468
 21
-128.6249678437529
 31
0.0
  0
LINE
  5
8AB9F
330
1E
100
AcDbEntity
  8
OUTLINE
  6
Continuous
100
AcDbLine
 10
-55.89998602498781
 20
-142.2749652187558
 30
0.0
 11
-55.89998602498781
 21
-128.6249678437529
 31
0.0
  0
LINE
  5
8ABA0
330
1E
100
AcDbEntity
  8
OUTLINE
  6
Continuous
100
AcDbLine
 10
-67.29998317500758
 20
-142.2749652187558
 30
0.0
 11
-67.29998317500758
 21
-128.6249678437529
 31
0.0
  0
LINE
  5
8ABA1
330
1E
100
AcDbEntity
  8
OUTLINE
  6
Continuous
100
AcDbLine
 10
-65.49998362500446
 20
-142.2749652187558
 30
0.0
 11
-65.49998362500446
 21
-128.6249678437529
 31
0.0
  0
LINE
  5
8ABA2
330
1E
100
AcDbEntity
  8
OUTLINE
  6
Continuous
100
AcDbLine
 10
-76.89998077499876
 20
-142.2749652187558
 30
0.0
 11
-76.89998077499876
 21
-128.6249678437529
 31
0.0
  0
LINE
  5
8ABA3
330
1E
100
AcDbEntity
  8
OUTLINE
  6
Continuous
100
AcDbLine
 10
-78.69998032500189
 20
-142.2749652187558
 30
0.0
 11
-78.69998032500189
 21
-128.6249678437529
 31
0.0
  0
LINE
  5
8ABA4
330
1E
100
AcDbEntity
  8
OUTLINE
  6
Continuous
100
AcDbLine
 10
-90.09997747499619
 20
-142.2749652187558
 30
0.0
 11
-90.09997747499619
 21
-128.6249678437529
 31
0.0
  0
LINE
  5
8ABA5
330
1E
100
AcDbEntity
  8
OUTLINE
  6
Continuous
100
AcDbLine
 10
-88.29997792499307
 20
-142.2749652187558
 30
0.0
 11
-88.29997792499307
 21
-128.6249678437529
 31
0.0
  0
LINE
  5
8ABA6
330
1E
100
AcDbEntity
  8
OUTLINE
  6
Continuous
100
AcDbLine
 10
-99.69997507498739
 20
-142.2749652187558
 30
0.0
 11
-99.69997507498739
 21
-128.6249678437529
 31
0.0
  0
LINE
  5
8ABA7
330
1E
100
AcDbEntity
  8
OUTLINE
  6
Continuous
100
AcDbLine
 10
-101.4999746249904
 20
-142.2749652187558
 30
0.0
 11
-101.4999746249904
 21
-128.6249678437529
 31
0.0
  0
LINE
  5
8ABA8
330
1E
100
AcDbEntity
  8
OUTLINE
  6
Continuous
100
AcDbLine
 10
-99.69997507498739
 20
-140.9249690937522
 30
0.0
 11
-90.09997747499619
 21
-140.9249690937517
 31
0.0
  0
LINE
  5
8ABA9
330
1E
100
AcDbEntity
  8
OUTLINE
  6
Continuous
100
AcDbLine
 10
-88.29997792499307
 20
-140.9249690937517
 30
0.0
 11
-78.69998032500189
 21
-140.9249690937522
 31
0.0
  0
LINE
  5
8ABAA
330
1E
100
AcDbEntity
  8
OUTLINE
  6
Continuous
100
AcDbLine
 10
-76.89998077499876
 20
-140.9249690937517
 30
0.0
 11
-67.29998317500758
 21
-140.9249690937517
 31
0.0
  0
LINE
  5
8ABAB
330
1E
100
AcDbEntity
  8
OUTLINE
  6
Continuous
100
AcDbLine
 10
-65.49998362500446
 20
-140.9249690937517
 30
0.0
 11
-55.89998602498781
 21
-140.9249690937517
 31
0.0
  0
LINE
  5
8ABAC
330
1E
100
AcDbEntity
  8
OUTLINE
  6
Continuous
100
AcDbLine
 10
-54.09998647498468
 20
-140.9249690937517
 30
0.0
 11
-44.49998887499532
 21
-140.9249690937513
 31
0.0
  0
LINE
  5
8ABAD
330
1E
100
AcDbEntity
  8
OUTLINE
  6
Continuous
100
AcDbLine
 10
-42.6999893249922
 20
-140.9249690937517
 30
0.0
 11
-33.09999172500102
 21
-140.9249690937526
 31
0.0
  0
LINE
  5
8ABAE
330
1E
100
AcDbEntity
  8
OUTLINE
  6
Continuous
370
    -3
100
AcDbLine
 10
-21.69999457500671
 20
-143.4249684687529
 30
0.0
 11
-31.29999217499789
 21
-143.4249684687529
 31
0.0
  0
LINE
  5
8ABAF
330
1E
100
AcDbEntity
  8
OUTLINE
  6
Continuous
100
AcDbLine
 10
-31.29999217499789
 20
-140.9249690937517
 30
0.0
 11
-21.69999457500671
 21
-140.9249690937517
 31
0.0
  0
LINE
  5
8ABB0
330
1E
100
AcDbEntity
  8
OUTLINE
  6
Continuous
370
    -3
100
AcDbLine
 10
101.9499745124976
 20
-143.4249684687529
 30
0.0
 11
94.09997647501223
 21
-143.4249684687529
 31
0.0
  0
LINE
  5
8ABB1
330
1E
100
AcDbEntity
  8
OUTLINE
  6
Continuous
100
AcDbLine
 10
94.09997647501223
 20
-140.9249690937522
 30
0.0
 11
101.949974768818
 21
-140.9249690937531
 31
0.0
  0
LINE
  5
8ABB2
330
1E
100
AcDbEntity
  8
OUTLINE
  6
Continuous
370
    -3
100
AcDbLine
 10
80.8999797750148
 20
-144.324968243754
 30
0.0
 11
80.8999797750148
 21
-142.2749652187558
 31
0.0
  0
LINE
  5
8ABB3
330
1E
100
AcDbEntity
  8
OUTLINE
  6
Continuous
370
    -3
100
AcDbLine
 10
82.69997932499245
 20
-144.324968243754
 30
0.0
 11
82.69997932499245
 21
-142.2749652187558
 31
0.0
  0
LINE
  5
8ABB4
330
1E
100
AcDbEntity
  8
OUTLINE
  6
Continuous
370
    -3
100
AcDbLine
 10
94.09997647501223
 20
-142.2749652187558
 30
0.0
 11
94.09997647501223
 21
-144.324968243754
 31
0.0
  0
LINE
  5
8ABB5
330
1E
100
AcDbEntity
  8
OUTLINE
  6
Continuous
370
    -3
100
AcDbLine
 10
92.2999769250091
 20
-142.2749652187558
 30
0.0
 11
92.2999769250091
 21
-144.324968243754
 31
0.0
  0
LINE
  5
8ABB6
330
1E
100
AcDbEntity
  8
OUTLINE
  6
Continuous
370
    -3
100
AcDbLine
 10
92.2999769250091
 20
-143.4249684687529
 30
0.0
 11
82.69997932499245
 21
-143.4249684687529
 31
0.0
  0
ARC
  5
8ABB7
330
1E
100
AcDbEntity
  8
OUTLINE
  6
Continuous
370
    -3
100
AcDbCircle
 10
81.79997955000363
 20
-144.324968243754
 30
0.0
 40
0.8999997749999998
100
AcDbArc
 50
180.0
 51
0.0
  0
ARC
  5
8ABB8
330
1E
100
AcDbEntity
  8
OUTLINE
  6
Continuous
370
    -3
100
AcDbCircle
 10
93.19997669999793
 20
-144.324968243754
 30
0.0
 40
0.8999997749999998
100
AcDbArc
 50
180.0
 51
0.0
  0
LINE
  5
8ABB9
330
1E
100
AcDbEntity
  8
OUTLINE
  6
Continuous
100
AcDbLine
 10
94.09997647501223
 20
-142.2749652187558
 30
0.0
 11
94.09997647501223
 21
-128.6249678437525
 31
0.0
  0
LINE
  5
8ABBA
330
1E
100
AcDbEntity
  8
OUTLINE
  6
Continuous
100
AcDbLine
 10
92.2999769250091
 20
-142.2749652187558
 30
0.0
 11
92.2999769250091
 21
-128.6249678437529
 31
0.0
  0
LINE
  5
8ABBB
330
1E
100
AcDbEntity
  8
OUTLINE
  6
Continuous
100
AcDbLine
 10
82.69997932499245
 20
-142.2749652187558
 30
0.0
 11
82.69997932499245
 21
-128.6249678437525
 31
0.0
  0
LINE
  5
8ABBC
330
1E
100
AcDbEntity
  8
OUTLINE
  6
Continuous
100
AcDbLine
 10
80.8999797750148
 20
-142.2749652187558
 30
0.0
 11
80.8999797750148
 21
-128.6249678437529
 31
0.0
  0
LINE
  5
8ABBD
330
1E
100
AcDbEntity
  8
OUTLINE
  6
Continuous
100
AcDbLine
 10
82.69997932499245
 20
-140.9249690937522
 30
0.0
 11
92.2999769250091
 21
-140.9249690937526
 31
0.0
  0
LINE
  5
8ABBE
330
1E
100
AcDbEntity
  8
OUTLINE
  6
Continuous
370
    -3
100
AcDbLine
 10
35.29999117501393
 20
-143.4249684687529
 30
0.0
 11
25.69999357499728
 21
-143.4249684687529
 31
0.0
  0
LINE
  5
8ABBF
330
1E
100
AcDbEntity
  8
OUTLINE
  6
Continuous
370
    -3
100
AcDbLine
 10
25.69999357499728
 20
-144.324968243754
 30
0.0
 11
25.69999357499728
 21
-142.2749652187558
 31
0.0
  0
LINE
  5
8ABC0
330
1E
100
AcDbEntity
  8
OUTLINE
  6
Continuous
370
    -3
100
AcDbLine
 10
23.89999402499416
 20
-144.324968243754
 30
0.0
 11
23.89999402499416
 21
-142.2749652187558
 31
0.0
  0
ARC
  5
8ABC1
330
1E
100
AcDbEntity
  8
OUTLINE
  6
Continuous
370
    -3
100
AcDbCircle
 10
24.79999380000845
 20
-144.324968243754
 30
0.0
 40
0.8999997749999998
100
AcDbArc
 50
180.0
 51
0.0
  0
LINE
  5
8ABC2
330
1E
100
AcDbEntity
  8
OUTLINE
  6
Continuous
370
    -3
100
AcDbLine
 10
14.29999642500297
 20
-144.324968243754
 30
0.0
 11
14.29999642500297
 21
-142.2749652187558
 31
0.0
  0
LINE
  5
8ABC3
330
1E
100
AcDbEntity
  8
OUTLINE
  6
Continuous
370
    -3
100
AcDbLine
 10
12.49999687500167
 20
-144.324968243754
 30
0.0
 11
12.49999687500167
 21
-142.2749652187558
 31
0.0
  0
LINE
  5
8ABC4
330
1E
100
AcDbEntity
  8
OUTLINE
  6
Continuous
370
    -3
100
AcDbLine
 10
2.899999275010486
 20
-144.324968243754
 30
0.0
 11
2.899999275010486
 21
-142.2749652187558
 31
0.0
  0
LINE
  5
8ABC5
330
1E
100
AcDbEntity
  8
OUTLINE
  6
Continuous
370
    -3
100
AcDbLine
 10
1.099999725007364
 20
-144.324968243754
 30
0.0
 11
1.099999725007364
 21
-142.2749652187558
 31
0.0
  0
LINE
  5
8ABC6
330
1E
100
AcDbEntity
  8
OUTLINE
  6
Continuous
370
    -3
100
AcDbLine
 10
12.49999687500167
 20
-143.4249684687529
 30
0.0
 11
2.899999275010486
 21
-143.4249684687529
 31
0.0
  0
ARC
  5
8ABC7
330
1E
100
AcDbEntity
  8
OUTLINE
  6
Continuous
370
    -3
100
AcDbCircle
 10
13.39999665001414
 20
-144.324968243754
 30
0.0
 40
0.8999997749999998
100
AcDbArc
 50
180.0
 51
0.0
  0
ARC
  5
8ABC8
330
1E
100
AcDbEntity
  8
OUTLINE
  6
Continuous
370
    -3
100
AcDbCircle
 10
1.999999499996192
 20
-144.324968243754
 30
0.0
 40
0.8999997749999998
100
AcDbArc
 50
180.0
 51
0.0
  0
LINE
  5
8ABC9
330
1E
100
AcDbEntity
  8
OUTLINE
  6
Continuous
370
    -3
100
AcDbLine
 10
23.89999402499416
 20
-143.4249684687529
 30
0.0
 11
14.29999642500297
 21
-143.4249684687529
 31
0.0
  0
LINE
  5
8ABCA
330
1E
100
AcDbEntity
  8
OUTLINE
  6
Continuous
370
    -3
100
AcDbLine
 10
58.09998547500254
 20
-144.324968243754
 30
0.0
 11
58.09998547500254
 21
-142.2749652187558
 31
0.0
  0
LINE
  5
8ABCB
330
1E
100
AcDbEntity
  8
OUTLINE
  6
Continuous
370
    -3
100
AcDbLine
 10
59.89998502500566
 20
-144.324968243754
 30
0.0
 11
59.89998502500566
 21
-142.2749652187558
 31
0.0
  0
LINE
  5
8ABCC
330
1E
100
AcDbEntity
  8
OUTLINE
  6
Continuous
370
    -3
100
AcDbLine
 10
71.29998217499815
 20
-144.324968243754
 30
0.0
 11
71.29998217499815
 21
-142.2749652187558
 31
0.0
  0
LINE
  5
8ABCD
330
1E
100
AcDbEntity
  8
OUTLINE
  6
Continuous
370
    -3
100
AcDbLine
 10
69.49998262499684
 20
-144.324968243754
 30
0.0
 11
69.49998262499684
 21
-142.2749652187558
 31
0.0
  0
LINE
  5
8ABCE
330
1E
100
AcDbEntity
  8
OUTLINE
  6
Continuous
370
    -3
100
AcDbLine
 10
46.69998832500823
 20
-144.324968243754
 30
0.0
 11
46.69998832500823
 21
-142.2749652187558
 31
0.0
  0
LINE
  5
8ABCF
330
1E
100
AcDbEntity
  8
OUTLINE
  6
Continuous
370
    -3
100
AcDbLine
 10
48.49998787501135
 20
-144.324968243754
 30
0.0
 11
48.49998787501135
 21
-142.2749652187558
 31
0.0
  0
LINE
  5
8ABD0
330
1E
100
AcDbEntity
  8
OUTLINE
  6
Continuous
370
    -3
100
AcDbLine
 10
37.09999072499158
 20
-144.324968243754
 30
0.0
 11
37.09999072499158
 21
-142.2749652187558
 31
0.0
  0
LINE
  5
8ABD1
330
1E
100
AcDbEntity
  8
OUTLINE
  6
Continuous
370
    -3
100
AcDbLine
 10
35.29999117501393
 20
-144.324968243754
 30
0.0
 11
35.29999117501393
 21
-142.2749652187558
 31
0.0
  0
LINE
  5
8ABD2
330
1E
100
AcDbEntity
  8
OUTLINE
  6
Continuous
370
    -3
100
AcDbLine
 10
46.69998832500823
 20
-143.4249684687529
 30
0.0
 11
37.09999072499158
 21
-143.4249684687529
 31
0.0
  0
LINE
  5
8ABD3
330
1E
100
AcDbEntity
  8
OUTLINE
  6
Continuous
370
    -3
100
AcDbLine
 10
58.09998547500254
 20
-143.4249684687529
 30
0.0
 11
48.49998787501135
 21
-143.4249684687529
 31
0.0
  0
LINE
  5
8ABD4
330
1E
100
AcDbEntity
  8
OUTLINE
  6
Continuous
370
    -3
100
AcDbLine
 10
69.49998262499684
 20
-143.4249684687529
 30
0.0
 11
59.89998502500566
 21
-143.4249684687529
 31
0.0
  0
ARC
  5
8ABD5
330
1E
100
AcDbEntity
  8
OUTLINE
  6
Continuous
370
    -3
100
AcDbCircle
 10
58.99998524999137
 20
-144.324968243754
 30
0.0
 40
0.8999997749999998
100
AcDbArc
 50
180.0
 51
0.0
  0
ARC
  5
8ABD6
330
1E
100
AcDbEntity
  8
OUTLINE
  6
Continuous
370
    -3
100
AcDbCircle
 10
70.39998240000932
 20
-144.324968243754
 30
0.0
 40
0.8999997749999998
100
AcDbArc
 50
180.0
 51
0.0
  0
ARC
  5
8ABD7
330
1E
100
AcDbEntity
  8
OUTLINE
  6
Continuous
370
    -3
100
AcDbCircle
 10
47.59998809999706
 20
-144.324968243754
 30
0.0
 40
0.8999997749999998
100
AcDbArc
 50
180.0
 51
0.0
  0
ARC
  5
8ABD8
330
1E
100
AcDbEntity
  8
OUTLINE
  6
Continuous
370
    -3
100
AcDbCircle
 10
36.19999095000276
 20
-144.324968243754
 30
0.0
 40
0.8999997749999998
100
AcDbArc
 50
180.0
 51
0.0
  0
LINE
  5
8ABD9
330
1E
100
AcDbEntity
  8
OUTLINE
  6
Continuous
100
AcDbLine
 10
71.29998217499815
 20
-142.2749652187558
 30
0.0
 11
71.29998217499815
 21
-128.6249678437525
 31
0.0
  0
LINE
  5
8ABDA
330
1E
100
AcDbEntity
  8
OUTLINE
  6
Continuous
100
AcDbLine
 10
69.49998262499684
 20
-142.2749652187558
 30
0.0
 11
69.49998262499684
 21
-128.6249678437529
 31
0.0
  0
LINE
  5
8ABDB
330
1E
100
AcDbEntity
  8
OUTLINE
  6
Continuous
100
AcDbLine
 10
59.89998502500566
 20
-142.2749652187558
 30
0.0
 11
59.89998502500566
 21
-128.6249678437529
 31
0.0
  0
LINE
  5
8ABDC
330
1E
100
AcDbEntity
  8
OUTLINE
  6
Continuous
100
AcDbLine
 10
58.09998547500254
 20
-142.2749652187558
 30
0.0
 11
58.09998547500254
 21
-128.6249678437529
 31
0.0
  0
LINE
  5
8ABDD
330
1E
100
AcDbEntity
  8
OUTLINE
  6
Continuous
100
AcDbLine
 10
46.69998832500823
 20
-142.2749652187558
 30
0.0
 11
46.69998832500823
 21
-128.6249678437529
 31
0.0
  0
LINE
  5
8ABDE
330
1E
100
AcDbEntity
  8
OUTLINE
  6
Continuous
100
AcDbLine
 10
48.49998787501135
 20
-142.2749652187558
 30
0.0
 11
48.49998787501135
 21
-128.6249678437529
 31
0.0
  0
LINE
  5
8ABDF
330
1E
100
AcDbEntity
  8
OUTLINE
  6
Continuous
100
AcDbLine
 10
37.09999072499158
 20
-142.2749652187558
 30
0.0
 11
37.09999072499158
 21
-128.6249678437529
 31
0.0
  0
LINE
  5
8ABE0
330
1E
100
AcDbEntity
  8
OUTLINE
  6
Continuous
100
AcDbLine
 10
35.29999117498846
 20
-142.2749652187558
 30
0.0
 11
35.29999117498846
 21
-128.6249678437529
 31
0.0
  0
LINE
  5
8ABE1
330
1E
100
AcDbEntity
  8
OUTLINE
  6
Continuous
100
AcDbLine
 10
23.89999402499416
 20
-142.2749652187558
 30
0.0
 11
23.89999402499416
 21
-128.6249678437529
 31
0.0
  0
LINE
  5
8ABE2
330
1E
100
AcDbEntity
  8
OUTLINE
  6
Continuous
100
AcDbLine
 10
25.69999357499728
 20
-142.2749652187558
 30
0.0
 11
25.69999357499728
 21
-128.6249678437529
 31
0.0
  0
LINE
  5
8ABE3
330
1E
100
AcDbEntity
  8
OUTLINE
  6
Continuous
100
AcDbLine
 10
14.29999642500297
 20
-142.2749652187558
 30
0.0
 11
14.29999642500297
 21
-128.6249678437529
 31
0.0
  0
LINE
  5
8ABE4
330
1E
100
AcDbEntity
  8
OUTLINE
  6
Continuous
100
AcDbLine
 10
12.49999687499985
 20
-142.2749652187558
 30
0.0
 11
12.49999687499985
 21
-128.6249678437529
 31
0.0
  0
LINE
  5
8ABE5
330
1E
100
AcDbEntity
  8
OUTLINE
  6
Continuous
100
AcDbLine
 10
1.099999725007364
 20
-142.2749652187558
 30
0.0
 11
1.099999725007364
 21
-128.6249678437529
 31
0.0
  0
LINE
  5
8ABE6
330
1E
100
AcDbEntity
  8
OUTLINE
  6
Continuous
100
AcDbLine
 10
2.899999275010486
 20
-142.2749652187558
 30
0.0
 11
2.899999275010486
 21
-128.6249678437529
 31
0.0
  0
LINE
  5
8ABE7
330
1E
100
AcDbEntity
  8
OUTLINE
  6
Continuous
100
AcDbLine
 10
2.899999275010486
 20
-140.9249690937517
 30
0.0
 11
12.49999687499985
 21
-140.9249690937517
 31
0.0
  0
LINE
  5
8ABE8
330
1E
100
AcDbEntity
  8
OUTLINE
  6
Continuous
100
AcDbLine
 10
14.29999642500297
 20
-140.9249690937517
 30
0.0
 11
23.89999402499416
 21
-140.9249690937517
 31
0.0
  0
LINE
  5
8ABE9
330
1E
100
AcDbEntity
  8
OUTLINE
  6
Continuous
100
AcDbLine
 10
25.69999357499728
 20
-140.9249690937517
 30
0.0
 11
35.29999117498846
 21
-140.9249690937517
 31
0.0
  0
LINE
  5
8ABEA
330
1E
100
AcDbEntity
  8
OUTLINE
  6
Continuous
100
AcDbLine
 10
37.09999072499158
 20
-140.9249690937522
 30
0.0
 11
46.69998832500823
 21
-140.9249690937517
 31
0.0
  0
LINE
  5
8ABEB
330
1E
100
AcDbEntity
  8
OUTLINE
  6
Continuous
100
AcDbLine
 10
48.49998787501135
 20
-140.9249690937522
 30
0.0
 11
58.09998547500254
 21
-140.9249690937522
 31
0.0
  0
LINE
  5
8ABEC
330
1E
100
AcDbEntity
  8
OUTLINE
  6
Continuous
100
AcDbLine
 10
59.89998502500566
 20
-140.9249690937522
 30
0.0
 11
69.49998262499684
 21
-140.9249690937522
 31
0.0
  0
LINE
  5
8ABED
330
1E
100
AcDbEntity
  8
OUTLINE
  6
Continuous
370
    -3
100
AcDbLine
 10
80.8999797750148
 20
-143.4249684687529
 30
0.0
 11
71.29998217499815
 21
-143.4249684687529
 31
0.0
  0
LINE
  5
8ABEE
330
1E
100
AcDbEntity
  8
OUTLINE
  6
Continuous
100
AcDbLine
 10
71.29998217499815
 20
-140.9249690937522
 30
0.0
 11
80.8999797750148
 21
-140.9249690937526
 31
0.0
  0
LINE
  5
8ABEF
330
1E
100
AcDbEntity
  8
OUTLINE
  6
Continuous
370
    -3
100
AcDbLine
 10
104.4499738874983
 20
-141.6749689062539
 30
0.0
 11
104.4499738874983
 21
-144.6749681562523
 31
0.0
  0
LINE
  5
8ABF0
330
1E
100
AcDbEntity
  8
OUTLINE
  6
Continuous
370
    -3
100
AcDbLine
 10
101.9499745124976
 20
-141.6749689062539
 30
0.0
 11
101.9499745124976
 21
-144.6749681562523
 31
0.0
  0
LINE
  5
8ABF1
330
1E
100
AcDbEntity
  8
OUTLINE
  6
Continuous
370
    -3
100
AcDbLine
 10
101.9499747688182
 20
-141.5798710246831
 30
0.0
 11
101.9499745124976
 21
-145.074968906254
 31
0.0
  0
LINE
  5
8ABF2
330
1E
100
AcDbEntity
  8
OUTLINE
  6
Continuous
370
    -3
100
AcDbLine
 10
104.4499741987233
 20
-140.9180296643748
 30
0.0
 11
104.4499738874983
 21
-145.074968906254
 31
0.0
  0
LINE
  5
8ABF3
330
1E
100
AcDbEntity
  8
OUTLINE
  6
Continuous
370
    -3
100
AcDbLine
 10
110.9504679464262
 20
-138.0080907366441
 30
0.0
 11
110.7915510047014
 21
-140.6605153609234
 31
0.0
  0
LINE
  5
8ABF4
330
1E
100
AcDbEntity
  8
OUTLINE
  6
Continuous
370
    -3
100
AcDbLine
 10
107.8008130497964
 20
-143.4249684687529
 30
0.0
 11
104.4499738874983
 21
-143.4249684687529
 31
0.0
  0
LINE
  5
8ABF5
330
1E
100
AcDbEntity
  8
OUTLINE
  6
Continuous
370
    -3
100
AcDbLine
 10
107.8008130497964
 20
-140.9249690937526
 30
0.0
 11
107.7946930513171
 21
-140.9249690937526
 31
0.0
  0
LINE
  5
8ABF6
330
1E
100
AcDbEntity
  8
OUTLINE
  6
Continuous
370
    -3
100
AcDbLine
 10
107.7946930513171
 20
-140.9249690937526
 30
0.0
 11
104.4499738874983
 21
-140.9249690937526
 31
0.0
  0
LINE
  5
8ABF7
330
1E
100
AcDbEntity
  8
OUTLINE
  6
Continuous
370
    -3
100
AcDbLine
 10
108.4009263877258
 20
-139.373422441457
 30
0.0
 11
108.2992662585074
 21
-140.6642181672718
 31
0.0
  0
LINE
  5
8ABF8
330
1E
100
AcDbEntity
  8
OUTLINE
  6
Continuous
370
    -3
100
AcDbLine
 10
108.3044432029157
 20
-139.4190405807789
 30
0.0
 11
108.2992693756141
 21
-140.4642269091159
 31
0.0
  0
ARC
  5
8ABF9
330
1E
100
AcDbEntity
  8
OUTLINE
  6
Continuous
370
    -3
100
AcDbCircle
 10
103.1999741999989
 20
-144.6749681562523
 30
0.0
 40
1.249999687499999
100
AcDbArc
 50
180.0
 51
0.0
  0
ARC
  5
8ABFA
330
1E
100
AcDbEntity
  8
OUTLINE
  6
Continuous
370
    -3
100
AcDbCircle
 10
107.8008130497964
 20
-140.424969218754
 30
0.0
 40
0.499999875
100
AcDbArc
 50
270.0
 51
355.4967639999937
  0
ARC
  5
8ABFB
330
1E
100
AcDbEntity
  8
OUTLINE
  6
Continuous
370
    -3
100
AcDbCircle
 10
107.8008130497964
 20
-140.424969218754
 30
0.0
 40
2.999999249999999
100
AcDbArc
 50
270.0
 51
355.4967639999937
  0
ARC
  5
8ABFC
330
1E
100
AcDbEntity
  8
OUTLINE
  6
Continuous
370
    -3
100
AcDbCircle
 10
107.7946930513171
 20
-140.424969218754
 30
0.0
 40
0.499999875
100
AcDbArc
 50
270.0
 51
353.9278049999993
  0
LINE
  5
8ABFD
330
1E
100
AcDbEntity
  8
OUTLINE
  6
Continuous
100
AcDbLine
 10
116.7427034785214
 20
-133.4881686543549
 30
0.0
 11
121.6059018915123
 21
-128.6249678437525
 31
0.0
  0
LINE
  5
8ABFE
330
1E
100
AcDbEntity
  8
OUTLINE
  6
Continuous
100
AcDbLine
 10
104.449974198204
 20
-140.9249690937526
 30
0.0
 11
104.4499741982037
 21
-128.6249678437525
 31
0.0
  0
LINE
  5
8ABFF
330
1E
100
AcDbEntity
  8
OUTLINE
  6
Continuous
100
AcDbLine
 10
101.9499747688182
 20
-141.5798710246831
 30
0.0
 11
101.9499747688182
 21
-128.6249678437525
 31
0.0
  0
LINE
  5
8AC00
330
1E
100
AcDbEntity
  8
OUTLINE
  6
Continuous
100
AcDbLine
 10
110.9504679464262
 20
-138.0080907366441
 30
0.0
 11
110.9504679464262
 21
-128.6249678437529
 31
0.0
  0
LINE
  5
8AC01
330
1E
100
AcDbEntity
  8
OUTLINE
  6
Continuous
100
AcDbLine
 10
108.4009263877258
 20
-139.3734224414565
 30
0.0
 11
108.4009263877258
 21
-128.6249678437529
 31
0.0
  0
CIRCLE
  5
8AC02
330
1E
100
AcDbEntity
  8
OUTLINE
  6
Continuous
100
AcDbCircle
 10
112.3018098494092
 20
-137.6222293884147
 30
0.0
 40
1.248888283776426
  0
ARC
  5
8AC03
330
1E
100
AcDbEntity
  8
OUTLINE
  6
Continuous
100
AcDbCircle
 10
95.52950004293416
 20
-112.2749652187631
 30
0.0
 40
29.9999999999925
100
AcDbArc
 50
305.7414772049848
 51
315.0
  0
LINE
  5
8AC04
330
1E
100
AcDbEntity
  8
OUTLINE
  6
Continuous
370
    -3
100
AcDbLine
 10
328.9999177499903
 20
-5.138892048613342
 30
0.0
 11
328.9999177499903
 21
-91.62497709375157
 31
0.0
  0
LINE
  5
8AC05
330
1E
100
AcDbEntity
  8
OUTLINE
  6
Continuous
370
    -3
100
AcDbLine
 10
330.9999172500102
 20
-65.12498371874926
 30
0.0
 11
330.9999172500102
 21
29.37499265624592
 31
0.0
  0
ARC
  5
8AC06
330
1E
100
AcDbEntity
  8
OUTLINE
  6
Continuous
370
    -3
100
AcDbCircle
 10
355.9999110000099
 20
-22.6614076679798
 30
0.0
 40
33.99999149999999
100
AcDbArc
 50
284.9999999999944
 51
0.0
  0
ARC
  5
8AC07
330
1E
100
AcDbEntity
  8
OUTLINE
  6
Continuous
370
    -3
100
AcDbCircle
 10
336.8573824523064
 20
-47.40333481583093
 30
0.0
 40
14.99999625
100
AcDbArc
 50
281.77048300003
 51
343.3318970000108
  0
LINE
  5
8AC08
330
1E
100
AcDbEntity
  8
OUTLINE
  6
Continuous
370
    -3
100
AcDbLine
 10
269.9999325000007
 20
-0.0000000000009095
 30
0.0
 11
269.9999325000007
 21
-139.4092318143493
 31
0.0
  0
LINE
  5
8AC09
330
1E
100
AcDbEntity
  8
OUTLINE
  6
Continuous
370
    -3
100
AcDbLine
 10
229.9999425000005
 20
-0.0571075520683735
 30
0.0
 11
229.9999425000005
 21
-139.4092318143493
 31
0.0
  0
LINE
  5
8AC0A
330
1E
100
AcDbEntity
  8
OUTLINE
  6
Continuous
370
    -3
100
AcDbLine
 10
308.999922749992
 20
-127.6249680937489
 30
0.0
 11
269.9999325000007
 21
-127.6249680937489
 31
0.0
  0
LINE
  5
8AC0B
330
1E
100
AcDbEntity
  8
OUTLINE
  6
Continuous
370
    -3
100
AcDbLine
 10
308.999922749992
 20
-128.6249678437525
 30
0.0
 11
269.9999325000007
 21
-128.6249678437525
 31
0.0
  0
ARC
  5
8AC0C
330
1E
100
AcDbEntity
  8
OUTLINE
  6
Continuous
370
    -3
100
AcDbCircle
 10
266.9999332499955
 20
-136.6249658437518
 30
0.0
 40
2.999999249999999
100
AcDbArc
 50
270.0
 51
0.0
  0
LINE
  5
8AC0D
330
1E
100
AcDbEntity
  8
OUTLINE
  6
Continuous
370
    -3
100
AcDbLine
 10
254.9999362500002
 20
-139.1249652187516
 30
0.0
 11
254.9999362500002
 21
-133.1249667187539
 31
0.0
  0
CIRCLE
  5
8AC0E
330
1E
100
AcDbEntity
  8
OUTLINE
  6
Continuous
370
    -3
100
AcDbCircle
 10
262.4999343750005
 20
-143.124964218754
 30
0.0
 40
2.2499994375
  0
ARC
  5
8AC0F
330
1E
100
AcDbEntity
  8
OUTLINE
  6
Continuous
370
    -3
100
AcDbCircle
 10
249.9999375000006
 20
-133.1249667187535
 30
0.0
 40
4.999998750000031
100
AcDbArc
 50
359.9999999999948
 51
180.0000000000052
  0
LINE
  5
8AC10
330
1E
100
AcDbEntity
  8
OUTLINE
  6
Continuous
370
    -3
100
AcDbLine
 10
261.999934499996
 20
-135.6249660937537
 30
0.0
 11
261.999934499996
 21
-133.1249667187539
 31
0.0
  0
ARC
  5
8AC11
330
1E
100
AcDbEntity
  8
OUTLINE
  6
Continuous
370
    -3
100
AcDbCircle
 10
249.9999375000006
 20
-133.124966718753
 30
0.0
 40
11.99999699999989
100
AcDbArc
 50
359.9999999999957
 51
157.975686999995
  0
ARC
  5
8AC12
330
1E
100
AcDbEntity
  8
OUTLINE
  6
Continuous
370
    -3
100
AcDbCircle
 10
259.9999350000016
 20
-139.4092318143493
 30
0.0
 40
9.999997499999999
100
AcDbArc
 50
289.471220999979
 51
0.0
  0
LINE
  5
8AC13
330
1E
100
AcDbEntity
  8
OUTLINE
  6
Continuous
370
    -3
100
AcDbLine
 10
266.9999332499955
 20
-139.6249650937506
 30
0.0
 11
265.9999335000102
 21
-139.6249650937506
 31
0.0
  0
ARC
  5
8AC14
330
1E
100
AcDbEntity
  8
OUTLINE
  6
Continuous
370
    -3
100
AcDbCircle
 10
265.9999335000102
 20
-135.6249660937537
 30
0.0
 40
3.999998999999999
100
AcDbArc
 50
180.0
 51
270.0
  0
ARC
  5
8AC15
330
1E
100
AcDbEntity
  8
OUTLINE
  6
Continuous
370
    -3
100
AcDbCircle
 10
232.9999417500057
 20
-136.6249658437518
 30
0.0
 40
2.999999249999999
100
AcDbArc
 50
180.0
 51
270.0
  0
LINE
  5
8AC16
330
1E
100
AcDbEntity
  8
OUTLINE
  6
Continuous
370
    -3
100
AcDbLine
 10
244.999938750001
 20
-139.1249652187516
 30
0.0
 11
244.999938750001
 21
-133.1249667187539
 31
0.0
  0
CIRCLE
  5
8AC17
330
1E
100
AcDbEntity
  8
OUTLINE
  6
Continuous
370
    -3
100
AcDbCircle
 10
237.4999406250008
 20
-143.124964218754
 30
0.0
 40
2.2499994375
  0
ARC
  5
8AC18
330
1E
100
AcDbEntity
  8
OUTLINE
  6
Continuous
370
    -3
100
AcDbCircle
 10
239.9999400000015
 20
-139.4092318143493
 30
0.0
 40
9.999997499999999
100
AcDbArc
 50
180.0
 51
250.5287790000209
  0
LINE
  5
8AC19
330
1E
100
AcDbEntity
  8
OUTLINE
  6
Continuous
370
    -3
100
AcDbLine
 10
237.9999405000053
 20
-135.6249660937537
 30
0.0
 11
237.9999405000053
 21
-133.1249667187539
 31
0.0
  0
ARC
  5
8AC1A
330
1E
100
AcDbEntity
  8
OUTLINE
  6
Continuous
370
    -3
100
AcDbCircle
 10
233.9999414999911
 20
-135.6249660937537
 30
0.0
 40
3.999998999999999
100
AcDbArc
 50
270.0
 51
0.0
  0
LINE
  5
8AC1B
330
1E
100
AcDbEntity
  8
OUTLINE
  6
Continuous
370
    -3
100
AcDbLine
 10
232.9999417500057
 20
-139.6249650937506
 30
0.0
 11
233.9999414999911
 21
-139.6249650937506
 31
0.0
  0
ARC
  5
8AC1C
330
1E
100
AcDbEntity
  8
OUTLINE
  6
Continuous
370
    -3
100
AcDbCircle
 10
249.9999375000006
 20
-133.1249667187539
 30
0.0
 40
11.999997
100
AcDbArc
 50
157.9756869999914
 51
180.0
  0
ARC
  5
8AC1D
330
1E
100
AcDbEntity
  8
OUTLINE
  6
Continuous
370
    -3
100
AcDbCircle
 10
249.9999375000006
 20
-139.1249652187516
 30
0.0
 40
4.999998749999999
100
AcDbArc
 50
180.0
 51
0.0
  0
ARC
  5
8AC1E
330
1E
100
AcDbEntity
  8
OUTLINE
  6
Continuous
370
    -3
100
AcDbCircle
 10
249.9999375000006
 20
-111.1249722187531
 30
0.0
 40
39.99998999999999
100
AcDbArc
 50
250.5287790000209
 51
289.471220999979
  0
ARC
  5
8AC1F
330
1E
100
AcDbEntity
  8
OUTLINE
  6
Continuous
370
    -3
100
AcDbCircle
 10
308.999922749992
 20
-108.6249728437528
 30
0.0
 40
19.99999499999999
100
AcDbArc
 50
270.0
 51
0.0
  0
ARC
  5
8AC20
330
1E
100
AcDbEntity
  8
OUTLINE
  6
Continuous
370
    -3
100
AcDbCircle
 10
308.999922749992
 20
-108.6249728437528
 30
0.0
 40
18.99999524999999
100
AcDbArc
 50
270.0
 51
0.0
  0
ARC
  5
8AC21
330
1E
100
AcDbEntity
  8
OUTLINE
  6
Continuous
370
    -3
100
AcDbCircle
 10
327.999918000005
 20
-91.62497709375157
 30
0.0
 40
0.9999997499999999
100
AcDbArc
 50
270.0
 51
0.0
  0
ARC
  5
8AC22
330
1E
100
AcDbEntity
  8
OUTLINE
  6
Continuous
370
    -3
100
AcDbCircle
 10
327.999918000005
 20
-105.624973593754
 30
0.0
 40
0.9999997499999999
100
AcDbArc
 50
0.0
 51
90.0
  0
LINE
  5
8AC23
330
1E
100
AcDbEntity
  8
OUTLINE
  6
Continuous
370
    -3
100
AcDbLine
 10
328.9999177499903
 20
-108.6249728437528
 30
0.0
 11
328.9999177499903
 21
-105.624973593754
 31
0.0
  0
ARC
  5
8AC24
330
1E
100
AcDbEntity
  8
OUTLINE
  6
Continuous
370
    -3
100
AcDbCircle
 10
323.379465821783
 20
-98.62497534375279
 30
0.0
 40
6.120451803219999
100
AcDbArc
 50
319.0184219999964
 51
40.98157800000354
  0
ARC
  5
8AC25
330
1E
100
AcDbEntity
  8
OUTLINE
  6
Continuous
370
    -3
100
AcDbCircle
 10
330.4999173750057
 20
-67.62498309374951
 30
0.0
 40
0.499999875
100
AcDbArc
 50
270.0
 51
0.0
  0
ARC
  5
8AC26
330
1E
100
AcDbEntity
  8
OUTLINE
  6
Continuous
370
    -3
100
AcDbCircle
 10
331.499917124991
 20
-63.60782409804233
 30
0.0
 40
0.499999875
100
AcDbArc
 50
92.00000000000395
 51
180.0
  0
LINE
  5
8AC27
330
1E
100
AcDbEntity
  8
OUTLINE
  6
Continuous
370
    -3
100
AcDbLine
 10
330.9999172500102
 20
-63.62498409375257
 30
0.0
 11
330.9999172500102
 21
-67.62498309374951
 31
0.0
  0
LINE
  5
8AC28
330
1E
100
AcDbEntity
  8
OUTLINE
  6
Continuous
370
    -3
100
AcDbLine
 10
330.4999173750057
 20
-68.12498296875401
 30
0.0
 11
328.9999177499903
 21
-68.12498296875401
 31
0.0
  0
ARC
  5
8AC29
330
1E
100
AcDbEntity
  8
OUTLINE
  6
Continuous
370
    -3
100
AcDbCircle
 10
329.7176775705702
 20
-13.13930338184309
 30
0.0
 40
49.99998749999999
100
AcDbArc
 50
272.0000000000039
 51
284.9999999999944
  0
LINE
  5
8AC2A
330
1E
100
AcDbEntity
  8
OUTLINE
  6
Continuous
370
    -3
100
AcDbLine
 10
342.6586343353319
 20
-61.4355713077739
 30
0.0
 11
364.7997621333779
 21
-55.5028794576101
 31
0.0
  0
LINE
  5
8AC2B
330
1E
100
AcDbEntity
  8
OUTLINE
  6
Continuous
370
    -3
100
AcDbLine
 10
389.9999025000015
 20
-15.58858276952378
 30
0.0
 11
389.9999025000015
 21
-22.6614076679798
 31
0.0
  0
ARC
  5
8AC2C
330
1E
100
AcDbEntity
  8
OUTLINE
  6
Continuous
370
    -3
100
AcDbCircle
 10
242.409792730863
 20
-19.12499521875179
 30
0.0
 40
113.5901182691299
100
AcDbArc
 50
343.3318970000108
 51
16.66810299998915
  0
ARC
  5
8AC2D
330
1E
100
AcDbEntity
  8
OUTLINE
  6
Continuous
370
    -3
100
AcDbCircle
 10
371.7999070500045
 20
15.64215608945687
 30
0.0
 40
0.9999997499999999
100
AcDbArc
 50
180.0
 51
243.1646229999916
  0
ARC
  5
8AC2E
330
1E
100
AcDbEntity
  8
OUTLINE
  6
Continuous
370
    -3
100
AcDbCircle
 10
369.7999075500083
 20
23.92436735224146
 30
0.0
 40
0.9999997499999999
100
AcDbArc
 50
0.0
 51
87.10023499997365
  0
LINE
  5
8AC2F
330
1E
100
AcDbEntity
  8
OUTLINE
  6
Continuous
370
    -3
100
AcDbLine
 10
370.7999072999937
 20
23.92436735224146
 30
0.0
 11
370.7999072999937
 21
15.64215608945687
 31
0.0
  0
LINE
  5
8AC30
330
1E
100
AcDbEntity
  8
OUTLINE
  6
Continuous
370
    -3
100
AcDbLine
 10
328.9999177499903
 20
11.2749971812509
 30
0.0
 11
328.9999177499903
 21
2.888892611107621
 31
0.0
  0
ARC
  5
8AC31
330
1E
100
AcDbEntity
  8
OUTLINE
  6
Continuous
370
    -3
100
AcDbCircle
 10
324.379465571792
 20
-1.12499971875286
 30
0.0
 40
6.120451803219999
100
AcDbArc
 50
309.8327879999625
 51
50.16722900000424
  0
LINE
  5
8AC32
330
1E
100
AcDbEntity
  8
OUTLINE
  6
Continuous
370
    -3
100
AcDbLine
 10
328.2999179249945
 20
-5.824998543752371
 30
0.0
 11
327.999918000005
 21
-5.824998543752371
 31
0.0
  0
LINE
  5
8AC33
330
1E
100
AcDbEntity
  8
OUTLINE
  6
Continuous
370
    -3
100
AcDbLine
 10
328.2999179249945
 20
3.57499910624665
 30
0.0
 11
327.999918000005
 21
3.57499910624665
 31
0.0
  0
LINE
  5
8AC34
330
1E
100
AcDbEntity
  8
OUTLINE
  6
Continuous
370
    -3
100
AcDbLine
 10
327.999918000005
 20
3.57499910624665
 30
0.0
 11
327.999918000005
 21
-5.824998543752371
 31
0.0
  0
LINE
  5
8AC35
330
1E
100
AcDbEntity
  8
OUTLINE
  6
Continuous
370
    -3
100
AcDbLine
 10
328.2999179249945
 20
3.57499910624665
 30
0.0
 11
328.2999179249945
 21
-5.824998543752371
 31
0.0
  0
ARC
  5
8AC36
330
1E
100
AcDbEntity
  8
OUTLINE
  6
Continuous
370
    -3
100
AcDbCircle
 10
330.4999173750057
 20
29.37499265624592
 30
0.0
 40
0.499999875
100
AcDbArc
 50
0.0
 51
90.0
  0
LINE
  5
8AC37
330
1E
100
AcDbEntity
  8
OUTLINE
  6
DASHED
370
    -3
100
AcDbLine
 10
330.9999172500102
 20
-2.912945938429857
 30
0.0
 11
330.9999172500102
 21
9.966850841617997
 31
0.0
  0
ARC
  5
8AC38
330
1E
100
AcDbEntity
  8
OUTLINE
  6
Continuous
370
    -3
100
AcDbCircle
 10
331.499917124991
 20
25.35783366053874
 30
0.0
 40
0.499999875
100
AcDbArc
 50
180.0
 51
267.999999999996
  0
LINE
  5
8AC39
330
1E
100
AcDbEntity
  8
OUTLINE
  6
Continuous
370
    -3
100
AcDbLine
 10
330.4999173750057
 20
29.87499253125088
 30
0.0
 11
328.9999177499903
 21
29.87499253125088
 31
0.0
  0
LINE
  5
8AC3A
330
1E
100
AcDbEntity
  8
OUTLINE
  6
Continuous
370
    -3
100
AcDbLine
 10
342.6586343353319
 20
23.18558087027031
 30
0.0
 11
364.7997621333779
 21
17.25288902010652
 31
0.0
  0
ARC
  5
8AC3B
330
1E
100
AcDbEntity
  8
OUTLINE
  6
Continuous
370
    -3
100
AcDbCircle
 10
329.7176775705702
 20
-25.11070038898878
 30
0.0
 40
49.99998749999999
100
AcDbArc
 50
75.00000000000555
 51
87.99999999999604
  0
ARC
  5
8AC3C
330
1E
100
AcDbEntity
  8
OUTLINE
  6
Continuous
370
    -3
100
AcDbCircle
 10
331.499917124991
 20
27.35903316023996
 30
0.0
 40
0.499999875
100
AcDbArc
 50
180.0
 51
268.0545820000093
  0
ARC
  5
8AC3D
330
1E
100
AcDbEntity
  8
OUTLINE
  6
Continuous
370
    -3
100
AcDbCircle
 10
336.8573824523064
 20
9.153331044999504
 30
0.0
 40
14.99999625
100
AcDbArc
 50
16.66810299998915
 51
78.2295169999699
  0
ARC
  5
8AC3E
330
1E
100
AcDbEntity
  8
OUTLINE
  6
Continuous
370
    -3
100
AcDbCircle
 10
329.7176775705702
 20
-25.11070038898878
 30
0.0
 40
51.99998699999999
100
AcDbArc
 50
87.10023499997365
 51
87.99999999999604
  0
LINE
  5
8AC3F
330
1E
100
AcDbEntity
  8
OUTLINE
  6
Continuous
370
    -3
100
AcDbLine
 10
328.9999177499903
 20
55.95571934439613
 30
0.0
 11
328.9999177499903
 21
11.2749971812509
 31
0.0
  0
LINE
  5
8AC40
330
1E
100
AcDbEntity
  8
OUTLINE
  6
Continuous
370
    -3
100
AcDbLine
 10
369.8504942040308
 20
24.92308710255611
 30
0.0
 11
332.3483035795634
 21
26.82271329431614
 31
0.0
  0
ARC
  5
8AC41
330
1E
100
AcDbEntity
  8
OUTLINE
  6
Continuous
370
    -3
100
AcDbCircle
 10
355.9999110000099
 20
-15.58858276952378
 30
0.0
 40
33.99999149999999
100
AcDbArc
 50
0.0
 51
75.00000000000555
  0
LINE
  5
8AC42
330
1E
100
AcDbEntity
  8
OUTLINE
  6
Continuous
370
    -3
100
AcDbLine
 10
-229.9999424999987
 20
125.8749685312486
 30
0.0
 11
-129.9999674999999
 21
125.8749685312486
 31
0.0
  0
LINE
  5
8AC43
330
1E
100
AcDbEntity
  8
OUTLINE
  6
Continuous
370
    -3
100
AcDbLine
 10
-229.9999424999987
 20
125.3749686562496
 30
0.0
 11
-130.7485006462066
 21
125.3749686562496
 31
0.0
  0
SPLINE
  5
8AC44
330
1E
100
AcDbEntity
  8
OUTLINE
  6
Continuous
100
AcDbSpline
210
0.0
220
0.0
230
1.0
 70
     8
 71
     3
 72
    11
 73
     7
 74
     5
 42
0.0000000001
 43
0.0000000001
 44
0.00000001
 40
0.0
 40
0.0
 40
0.0
 40
0.0
 40
6.055799982683506
 40
10.87190307181383
 40
15.68800616104966
 40
20.50410925029179
 40
20.50410925029179
 40
20.50410925029179
 40
20.50410925029179
 10
-302.122884837493
 20
113.8427257999114
 30
0.0
 10
-304.0742684601204
 20
114.3593831072493
 30
0.0
 10
-307.5775634211787
 20
115.286931625728
 30
0.0
 10
-312.6165062583996
 20
116.6853564563087
 30
0.0
 10
-317.2608007438477
 20
117.9602229104969
 30
0.0
 10
-320.3564072707472
 20
118.8123092479427
 30
0.0
 10
-321.9042105358312
 20
119.2383524107326
 30
0.0
 11
-302.122884837493
 21
113.8427257999114
 31
0.0
 11
-307.9735388044282
 21
115.4055954649529
 31
0.0
 11
-312.6170960482195
 21
116.6831811135425
 31
0.0
 11
-317.2606532920399
 21
117.960766762143
 31
0.0
 11
-321.9042105358312
 21
119.2383524107326
 31
0.0
  0
LINE
  5
8AC45
330
1E
100
AcDbEntity
  8
OUTLINE
  6
Continuous
100
AcDbLine
 10
-298.1940128269243
 20
115.8264209498424
 30
0.0
 11
-321.1083893345821
 21
122.1308718342866
 31
0.0
  0
ARC
  5
8AC46
330
1E
100
AcDbEntity
  8
OUTLINE
  6
Continuous
100
AcDbCircle
 10
-324.0264004058153
 20
111.5249672812551
 30
0.0
 40
10.99999999999531
100
AcDbArc
 50
74.61678126870016
 51
89.99999999994789
  0
ARC
  5
8AC47
330
1E
100
AcDbEntity
  8
OUTLINE
  6
Continuous
100
AcDbCircle
 10
-324.0264004058153
 20
111.5249672812551
 30
0.0
 40
7.999999999995764
100
AcDbArc
 50
74.61678126870016
 51
89.99999999994789
  0
SPLINE
  5
8AC48
330
1E
100
AcDbEntity
  8
OUTLINE
  6
Continuous
100
AcDbSpline
210
0.0
220
0.0
230
1.0
 70
    24
 71
     3
 72
    16
 73
    12
 74
    10
 42
0.0000000001
 43
0.0000000001
 44
0.00000001
 40
0.0
 40
0.0
 40
0.0
 40
0.0
 40
0.2417827263285354
 40
0.5361826545826789
 40
0.8997463426471943
 40
1.512279789944429
 40
2.12130327576312
 40
2.565395209855989
 40
2.862022033836264
 40
2.931011016916346
 40
3.000000000000287
 40
3.000000000000287
 40
3.000000000000287
 40
3.000000000000287
 10
-321.9042105358312
 20
119.2383524107326
 30
0.0
 10
-321.8828310003079
 20
119.3160592143087
 30
0.0
 10
-321.835419275392
 20
119.4883835190818
 30
0.0
 10
-321.7558595848215
 20
119.7775539382379
 30
0.0
 10
-321.6435164182485
 20
120.185880319808
 30
0.0
 10
-321.5033527964038
 20
120.6953238959765
 30
0.0
 10
-321.3560684983777
 20
121.2306485294497
 30
0.0
 10
-321.2367181101486
 20
121.6644436024729
 30
0.0
 10
-321.1651200448748
 20
121.9246764212086
 30
0.0
 10
-321.1266902997262
 20
122.0643545097658
 30
0.0
 10
-321.1144896562994
 20
122.1086993927807
 30
0.0
 10
-321.1083893345858
 20
122.1308718342888
 30
0.0
 11
-321.9042105358312
 21
119.2383524107326
 31
0.0
 11
-321.8400719292621
 21
119.4714728214612
 31
0.0
 11
-321.7619753610851
 21
119.7553253250525
 31
0.0
 11
-321.6655314641029
 21
120.1058636681964
 31
0.0
 11
-321.5030424294746
 21
120.6964519661532
 31
0.0
 11
-321.3414844954604
 21
121.2836560535333
 31
0.0
 11
-321.2236785699715
 21
121.7118375686013
 31
0.0
 11
-321.1449912648459
 21
121.9978371852384
 31
0.0
 11
-321.1266902997231
 21
122.0643545097636
 31
0.0
 11
-321.1083893345858
 21
122.1308718342888
 31
0.0
  0
SPLINE
  5
8AC49
330
1E
100
AcDbEntity
  8
OUTLINE
  6
Continuous
100
AcDbSpline
210
0.0
220
0.0
230
1.0
 70
    24
 71
     3
 72
    15
 73
    11
 74
     9
 42
0.0000000001
 43
0.0000000001
 44
0.00000001
 40
0.0
 40
0.0
 40
0.0
 40
0.0
 40
0.0676082153150048
 40
0.1352164306300096
 40
0.4320058309823765
 40
0.878688190339929
 40
1.448967850767246
 40
2.109730224689059
 40
2.549782521258777
 40
3.0
 40
3.0
 40
3.0
 40
3.0
 10
-324.026400405819
 20
122.5249672812506
 30
0.0
 10
-324.026400405819
 20
122.5024312094789
 30
0.0
 10
-324.026400405819
 20
122.4573590659356
 30
0.0
 10
-324.026400405819
 20
122.3133571222748
 30
0.0
 10
-324.026400405819
 20
122.0429971305998
 30
0.0
 10
-324.026400405819
 20
121.605079990554
 30
0.0
 10
-324.026400405819
 20
121.0458385259852
 30
0.0
 10
-324.0264004058189
 20
120.4888070823455
 30
0.0
 10
-324.026400405819
 20
119.9717963659346
 30
0.0
 10
-324.026400405819
 20
119.6750397741643
 30
0.0
 10
-324.026400405819
 20
119.5249672812506
 30
0.0
 11
-324.026400405819
 21
122.5249672812506
 31
0.0
 11
-324.026400405819
 21
122.4573590659356
 31
0.0
 11
-324.026400405819
 21
122.3897508506206
 31
0.0
 11
-324.026400405819
 21
122.0929614502683
 31
0.0
 11
-324.026400405819
 21
121.6462790909108
 31
0.0
 11
-324.026400405819
 21
121.0759994304835
 31
0.0
 11
-324.026400405819
 21
120.4152370565616
 31
0.0
 11
-324.026400405819
 21
119.9751847599918
 31
0.0
 11
-324.026400405819
 21
119.5249672812506
 31
0.0
  0
SPLINE
  5
8AC4A
330
1E
100
AcDbEntity
  8
OUTLINE
  6
Continuous
100
AcDbSpline
210
0.0
220
0.0
230
1.0
 70
    24
 71
     3
 72
    16
 73
    12
 74
    10
 42
0.0000000001
 43
0.0000000001
 44
0.00000001
 40
0.0
 40
0.0
 40
0.0
 40
0.0
 40
0.4510692469482934
 40
0.891911803802543
 40
1.55176575598233
 40
2.121311809648545
 40
2.423550884587939
 40
2.657564454958901
 40
2.86431539723685
 40
2.932157698611149
 40
2.999999999985448
 40
2.999999999985448
 40
2.999999999985448
 40
2.999999999985448
 10
-354.2499374999824
 20
111.5249672812542
 30
0.0
 10
-354.4002939156318
 20
111.5249672812542
 30
0.0
 10
-354.6975978502327
 20
111.5249672812542
 30
0.0
 10
-355.2148531022268
 20
111.5249672812541
 30
0.0
 10
-355.771600623127
 20
111.524967281254
 30
0.0
 10
-356.2821469833887
 20
111.5249672812539
 30
0.0
 10
-356.6507465497142
 20
111.524967281254
 30
0.0
 10
-356.8984144122437
 20
111.524967281254
 30
0.0
 10
-357.0679500169179
 20
111.5249672812541
 30
0.0
 10
-357.1820951985937
 20
111.5249672812542
 30
0.0
 10
-357.2273233995097
 20
111.5249672812542
 30
0.0
 10
-357.2499374999679
 20
111.5249672812542
 30
0.0
 11
-354.2499374999824
 21
111.5249672812542
 31
0.0
 11
-354.7010067469309
 21
111.5249672812542
 31
0.0
 11
-355.1418493037854
 21
111.5249672812542
 31
0.0
 11
-355.8017032559655
 21
111.5249672812542
 31
0.0
 11
-356.3712493096318
 21
111.5249672812542
 31
0.0
 11
-356.6734883845711
 21
111.5249672812542
 31
0.0
 11
-356.9075019549418
 21
111.5249672812542
 31
0.0
 11
-357.1142528972195
 21
111.5249672812542
 31
0.0
 11
-357.1820951985937
 21
111.5249672812542
 31
0.0
 11
-357.2499374999679
 21
111.5249672812542
 31
0.0
  0
SPLINE
  5
8AC4B
330
1E
100
AcDbEntity
  8
OUTLINE
  6
Continuous
100
AcDbSpline
210
0.0
220
0.0
230
1.0
 70
     8
 71
     3
 72
     9
 73
     5
 74
     3
 42
0.0000000001
 43
0.0000000001
 44
0.00000001
 40
0.0
 40
0.0
 40
0.0
 40
0.0
 40
6.077400937580134
 40
12.15480187515877
 40
12.15480187515877
 40
12.15480187515877
 40
12.15480187515877
 10
-354.2499374999824
 20
111.5249672812542
 30
0.0
 10
-353.702002330375
 20
113.6436987767097
 30
0.0
 10
-352.6061319765017
 20
117.8811617577733
 30
0.0
 10
-348.3686689954376
 20
118.9770321116443
 30
0.0
 10
-346.2499374999824
 20
119.5249672812506
 30
0.0
 11
-354.2499374999824
 21
111.5249672812542
 31
0.0
 11
-351.8207338267748
 21
117.0957636080465
 31
0.0
 11
-346.2499374999824
 21
119.5249672812506
 31
0.0
  0
SPLINE
  5
8AC4C
330
1E
100
AcDbEntity
  8
OUTLINE
  6
Continuous
100
AcDbSpline
210
0.0
220
0.0
230
1.0
 70
    24
 71
     3
 72
    18
 73
    14
 74
    12
 42
0.0000000001
 43
0.0000000001
 44
0.00000001
 40
0.0
 40
0.0
 40
0.0
 40
0.0
 40
0.4335449296849703
 40
0.8997463426421177
 40
1.294801162475721
 40
1.685688356541461
 40
2.121303275765939
 40
2.410649155070117
 40
2.598194804078943
 40
2.732474378448387
 40
2.862022033838002
 40
2.931011016917182
 40
3.0
 40
3.0
 40
3.0
 40
3.0
 10
-346.2499374999824
 20
119.5249672812506
 30
0.0
 10
-346.2499374999824
 20
119.6694822578122
 30
0.0
 10
-346.2499374999822
 20
119.9693977053596
 30
0.0
 10
-346.2499374999823
 20
120.4009980928515
 30
0.0
 10
-346.2499374999822
 20
120.818379235137
 30
0.0
 10
-346.2499374999824
 20
121.2255648795116
 30
0.0
 10
-346.2499374999824
 20
121.5975142103764
 30
0.0
 10
-346.2499374999824
 20
121.9016830262222
 30
0.0
 10
-346.2499374999826
 20
122.1054067271164
 30
0.0
 10
-346.2499374999823
 20
122.2558643533723
 30
0.0
 10
-346.2499374999826
 20
122.3668030909851
 30
0.0
 10
-346.2499374999823
 20
122.455978298169
 30
0.0
 10
-346.2499374999824
 20
122.5019709535563
 30
0.0
 10
-346.2499374999824
 20
122.5249672812506
 30
0.0
 11
-346.2499374999824
 21
119.5249672812506
 31
0.0
 11
-346.2499374999824
 21
119.9585122109356
 31
0.0
 11
-346.2499374999824
 21
120.4247136238927
 31
0.0
 11
-346.2499374999824
 21
120.8197684437263
 31
0.0
 11
-346.2499374999824
 21
121.2106556377921
 31
0.0
 11
-346.2499374999824
 21
121.6462705570165
 31
0.0
 11
-346.2499374999824
 21
121.9356164363207
 31
0.0
 11
-346.2499374999824
 21
122.1231620853295
 31
0.0
 11
-346.2499374999824
 21
122.257441659699
 31
0.0
 11
-346.2499374999824
 21
122.3869893150886
 31
0.0
 11
-346.2499374999824
 21
122.4559782981677
 31
0.0
 11
-346.2499374999824
 21
122.5249672812506
 31
0.0
  0
ARC
  5
8AC4D
330
1E
100
AcDbEntity
  8
OUTLINE
  6
Continuous
100
AcDbCircle
 10
-346.2499374999751
 20
111.5249672812487
 30
0.0
 40
10.99999999999915
100
AcDbArc
 50
90.0
 51
179.9999999999869
  0
LINE
  5
8AC4E
330
1E
100
AcDbEntity
  8
OUTLINE
  6
Continuous
100
AcDbLine
 10
-346.2499374999751
 20
122.5249672812497
 30
0.0
 11
-324.0264004058153
 21
122.5249672812497
 31
0.0
  0
SPLINE
  5
8AC4F
330
1E
100
AcDbEntity
  8
OUTLINE
  6
Continuous
100
AcDbSpline
210
0.0
220
0.0
230
1.0
 70
    24
 71
     3
 72
    15
 73
    11
 74
     9
 42
0.0000000001
 43
0.0000000001
 44
0.00000001
 40
0.0
 40
0.0
 40
0.0
 40
0.0
 40
2.777942136774072
 40
5.555884273533592
 40
8.333826410307665
 40
11.11176854709629
 40
13.88971068385581
 40
16.66765282062988
 40
19.4455949573894
 40
22.22353709416347
 40
22.22353709416347
 40
22.22353709416347
 40
22.22353709416347
 10
-346.2499374999824
 20
119.5249672812506
 30
0.0
 10
-345.3239567877244
 20
119.5249672812506
 30
0.0
 10
-343.4719953632133
 20
119.5249672812506
 30
0.0
 10
-340.694053226444
 20
119.5249672812506
 30
0.0
 10
-337.9161110896699
 20
119.5249672812506
 30
0.0
 10
-335.1381689528958
 20
119.5249672812506
 30
0.0
 10
-332.3602268161218
 20
119.5249672812506
 30
0.0
 10
-329.5822846793573
 20
119.5249672812506
 30
0.0
 10
-326.8043425425882
 20
119.5249672812506
 30
0.0
 10
-324.952381118077
 20
119.5249672812506
 30
0.0
 10
-324.026400405819
 20
119.5249672812506
 30
0.0
 11
-346.2499374999824
 21
119.5249672812506
 31
0.0
 11
-343.4719953632084
 21
119.5249672812506
 31
0.0
 11
-340.6940532264489
 21
119.5249672812506
 31
0.0
 11
-337.9161110896748
 21
119.5249672812506
 31
0.0
 11
-335.1381689528861
 21
119.5249672812506
 31
0.0
 11
-332.3602268161266
 21
119.5249672812506
 31
0.0
 11
-329.5822846793526
 21
119.5249672812506
 31
0.0
 11
-326.804342542593
 21
119.5249672812506
 31
0.0
 11
-324.026400405819
 21
119.5249672812506
 31
0.0
  0
ARC
  5
8AC50
330
1E
100
AcDbEntity
  8
OUTLINE
  6
Continuous
370
    -3
100
AcDbCircle
 10
-232.9999417500039
 20
134.3749664062461
 30
0.0
 40
2.999999249999999
100
AcDbArc
 50
0.0
 51
90.0
  0
LINE
  5
8AC51
330
1E
100
AcDbEntity
  8
OUTLINE
  6
Continuous
370
    -3
100
AcDbLine
 10
-261.9999344999941
 20
133.374966656248
 30
0.0
 11
-261.9999344999941
 21
130.8749672812482
 31
0.0
  0
LINE
  5
8AC52
330
1E
100
AcDbEntity
  8
OUTLINE
  6
Continuous
370
    -3
100
AcDbLine
 10
-266.9999332499937
 20
137.3749656562508
 30
0.0
 11
-265.9999335000084
 21
137.3749656562508
 31
0.0
  0
ARC
  5
8AC53
330
1E
100
AcDbEntity
  8
OUTLINE
  6
Continuous
370
    -3
100
AcDbCircle
 10
-265.9999335000084
 20
133.374966656248
 30
0.0
 40
3.999998999999999
100
AcDbArc
 50
0.0
 51
90.0
  0
LINE
  5
8AC54
330
1E
100
AcDbEntity
  8
OUTLINE
  6
Continuous
370
    -3
100
AcDbLine
 10
-254.9999362499984
 20
141.3749646562473
 30
0.0
 11
-254.9999362499984
 21
130.8749672812482
 31
0.0
  0
LINE
  5
8AC55
330
1E
100
AcDbEntity
  8
OUTLINE
  6
Continuous
370
    -3
100
AcDbLine
 10
-232.9999417500039
 20
137.3749656562508
 30
0.0
 11
-233.9999414999892
 21
137.3749656562508
 31
0.0
  0
ARC
  5
8AC56
330
1E
100
AcDbEntity
  8
OUTLINE
  6
Continuous
370
    -3
100
AcDbCircle
 10
-249.9999374999988
 20
130.8749672812482
 30
0.0
 40
4.999998749999999
100
AcDbArc
 50
180.0
 51
0.0
  0
LINE
  5
8AC57
330
1E
100
AcDbEntity
  8
OUTLINE
  6
Continuous
370
    -3
100
AcDbLine
 10
-244.9999387499992
 20
141.3749646562473
 30
0.0
 11
-244.9999387499992
 21
130.8749672812482
 31
0.0
  0
ARC
  5
8AC58
330
1E
100
AcDbEntity
  8
OUTLINE
  6
Continuous
370
    -3
100
AcDbCircle
 10
-249.9999374999988
 20
130.8749672812482
 30
0.0
 40
11.999997
100
AcDbArc
 50
180.0
 51
204.624317999986
  0
LINE
  5
8AC59
330
1E
100
AcDbEntity
  8
OUTLINE
  6
Continuous
370
    -3
100
AcDbLine
 10
-237.9999405000035
 20
133.374966656248
 30
0.0
 11
-237.9999405000035
 21
130.8749672812482
 31
0.0
  0
ARC
  5
8AC5A
330
1E
100
AcDbEntity
  8
OUTLINE
  6
Continuous
370
    -3
100
AcDbCircle
 10
-233.9999414999892
 20
133.374966656248
 30
0.0
 40
3.999998999999999
100
AcDbArc
 50
90.0
 51
180.0
  0
ARC
  5
8AC5B
330
1E
100
AcDbEntity
  8
OUTLINE
  6
Continuous
370
    -3
100
AcDbCircle
 10
-266.9999332499937
 20
134.3749664062461
 30
0.0
 40
2.999999249999999
100
AcDbArc
 50
90.0
 51
180.0
  0
ARC
  5
8AC5C
330
1E
100
AcDbEntity
  8
OUTLINE
  6
Continuous
370
    -3
100
AcDbCircle
 10
-237.4999406249989
 20
141.3749646562473
 30
0.0
 40
7.499998124999999
100
AcDbArc
 50
0.0
 51
180.0
  0
ARC
  5
8AC5D
330
1E
100
AcDbEntity
  8
OUTLINE
  6
Continuous
370
    -3
100
AcDbCircle
 10
-262.4999343749987
 20
141.3749646562473
 30
0.0
 40
7.499998124999999
100
AcDbArc
 50
0.0
 51
180.0
  0
CIRCLE
  5
8AC5E
330
1E
100
AcDbEntity
  8
OUTLINE
  6
Continuous
370
    -3
100
AcDbCircle
 10
-237.4999406249989
 20
141.8749645312459
 30
0.0
 40
2.2499994375
  0
CIRCLE
  5
8AC5F
330
1E
100
AcDbEntity
  8
OUTLINE
  6
Continuous
370
    -3
100
AcDbCircle
 10
-262.4999343749987
 20
141.8749645312459
 30
0.0
 40
2.2499994375
  0
ARC
  5
8AC60
330
1E
100
AcDbEntity
  8
OUTLINE
  6
Continuous
370
    -3
100
AcDbCircle
 10
-249.9999374999988
 20
130.8749672812482
 30
0.0
 40
11.99999700000001
100
AcDbArc
 50
204.624317999987
 51
0.0
  0
ARC
  5
8AC61
330
1E
100
AcDbEntity
  8
OUTLINE
  6
Continuous
370
    -3
100
AcDbCircle
 10
-263.7041385082511
 20
51.47127330866624
 30
0.0
 40
74.40462832810195
100
AcDbArc
 50
94.85392206948645
 51
119.3020257156612
  0
LINE
  5
8AC62
330
1E
100
AcDbEntity
  8
OUTLINE
  6
Continuous
370
    -3
100
AcDbLine
 10
181.4911279605512
 20
128.874967781247
 30
0.0
 11
198.5087770394511
 21
128.874967781247
 31
0.0
  0
LINE
  5
8AC63
330
1E
100
AcDbEntity
  8
OUTLINE
  6
Continuous
370
    -3
100
AcDbLine
 10
0.000000000001819
 20
125.3749686562496
 30
0.0
 11
-93.25144335380537
 21
125.3749686562496
 31
0.0
  0
LINE
  5
8AC64
330
1E
100
AcDbEntity
  8
OUTLINE
  6
Continuous
370
    -3
100
AcDbLine
 10
-93.99997649999022
 20
125.8749685312486
 30
0.0
 11
-3.499999125009708
 21
125.8749685312486
 31
0.0
  0
LINE
  5
8AC65
330
1E
100
AcDbEntity
  8
OUTLINE
  6
Continuous
370
    -3
100
AcDbLine
 10
-111.9999719999941
 20
128.874967781247
 30
0.0
 11
-98.49114871054371
 21
128.874967781247
 31
0.0
  0
LINE
  5
8AC66
330
1E
100
AcDbEntity
  8
OUTLINE
  6
Continuous
370
    -3
100
AcDbLine
 10
-128.0543813197218
 20
127.8205547115189
 30
0.0
 11
-130.3242340856049
 21
125.5507019456485
 31
0.0
  0
ARC
  5
8AC67
330
1E
100
AcDbEntity
  8
OUTLINE
  6
Continuous
370
    -3
100
AcDbCircle
 10
-125.5087952894682
 20
125.2749686812476
 30
0.0
 40
3.599999099999999
100
AcDbArc
 50
90.0
 51
135.0
  0
ARC
  5
8AC68
330
1E
100
AcDbEntity
  8
OUTLINE
  6
Continuous
370
    -3
100
AcDbCircle
 10
-130.7485006462066
 20
125.9749685062506
 30
0.0
 40
0.5999998499999999
100
AcDbArc
 50
270.0
 51
315.0
  0
LINE
  5
8AC69
330
1E
100
AcDbEntity
  8
OUTLINE
  6
Continuous
370
    -3
100
AcDbLine
 10
-111.9999719999941
 20
128.874967781247
 30
0.0
 11
-125.5087952894682
 21
128.874967781247
 31
0.0
  0
ARC
  5
8AC6A
330
1E
100
AcDbEntity
  8
OUTLINE
  6
Continuous
370
    -3
100
AcDbCircle
 10
-93.25144335380537
 20
125.9749685062506
 30
0.0
 40
0.5999998499999999
100
AcDbArc
 50
225.0
 51
270.0
  0
LINE
  5
8AC6B
330
1E
100
AcDbEntity
  8
OUTLINE
  6
Continuous
370
    -3
100
AcDbLine
 10
-95.94556268026645
 20
127.8205547115189
 30
0.0
 11
-93.67570991440699
 21
125.5507019456485
 31
0.0
  0
ARC
  5
8AC6C
330
1E
100
AcDbEntity
  8
OUTLINE
  6
Continuous
370
    -3
100
AcDbCircle
 10
-98.49114871054371
 20
125.2749686812476
 30
0.0
 40
3.599999099999999
100
AcDbArc
 50
45.0
 51
90.0
  0
LINE
  5
8AC6D
330
1E
100
AcDbEntity
  8
OUTLINE
  6
Continuous
370
    -3
100
AcDbLine
 10
0.000000000001819
 20
125.3749686562496
 30
0.0
 11
176.2514226038129
 21
125.3749686562496
 31
0.0
  0
LINE
  5
8AC6E
330
1E
100
AcDbEntity
  8
OUTLINE
  6
Continuous
370
    -3
100
AcDbLine
 10
-3.499999125009708
 20
125.8749685312486
 30
0.0
 11
176.9999557499959
 21
125.8749685312486
 31
0.0
  0
ARC
  5
8AC6F
330
1E
100
AcDbEntity
  8
OUTLINE
  6
Continuous
370
    -3
100
AcDbCircle
 10
181.4911279605512
 20
125.2749686812476
 30
0.0
 40
3.599999099999999
100
AcDbArc
 50
90.0
 51
135.0
  0
ARC
  5
8AC70
330
1E
100
AcDbEntity
  8
OUTLINE
  6
Continuous
370
    -3
100
AcDbCircle
 10
176.2514226038129
 20
125.9749685062506
 30
0.0
 40
0.5999998499999999
100
AcDbArc
 50
270.0
 51
315.0
  0
LINE
  5
8AC71
330
1E
100
AcDbEntity
  8
OUTLINE
  6
Continuous
370
    -3
100
AcDbLine
 10
178.9455419302721
 20
127.8205547115189
 30
0.0
 11
176.6756891644145
 21
125.5507019456485
 31
0.0
  0
LINE
  5
8AC72
330
1E
100
AcDbEntity
  8
OUTLINE
  6
Continuous
370
    -3
100
AcDbLine
 10
320.3391999151754
 20
98.46958871592597
 30
0.0
 11
269.9999325000007
 21
121.9431718887003
 31
0.0
  0
LINE
  5
8AC73
330
1E
100
AcDbEntity
  8
OUTLINE
  6
Continuous
370
    -3
100
AcDbLine
 10
319.9165733541613
 20
97.56328227583981
 30
0.0
 11
269.9999325000007
 21
120.8397969307211
 31
0.0
  0
ARC
  5
8AC74
330
1E
100
AcDbEntity
  8
OUTLINE
  6
Continuous
370
    -3
100
AcDbCircle
 10
266.9999332499955
 20
134.3749664062461
 30
0.0
 40
2.999999249999999
100
AcDbArc
 50
0.0
 51
90.0
  0
ARC
  5
8AC75
330
1E
100
AcDbEntity
  8
OUTLINE
  6
Continuous
370
    -3
100
AcDbCircle
 10
262.4999343750005
 20
141.3749646562473
 30
0.0
 40
7.499998124999999
100
AcDbArc
 50
0.0
 51
180.0
  0
ARC
  5
8AC76
330
1E
100
AcDbEntity
  8
OUTLINE
  6
Continuous
370
    -3
100
AcDbCircle
 10
265.9999335000102
 20
133.374966656248
 30
0.0
 40
3.999998999999999
100
AcDbArc
 50
90.0
 51
180.0
  0
LINE
  5
8AC77
330
1E
100
AcDbEntity
  8
OUTLINE
  6
Continuous
370
    -3
100
AcDbLine
 10
261.999934499996
 20
133.374966656248
 30
0.0
 11
261.999934499996
 21
130.8749672812482
 31
0.0
  0
LINE
  5
8AC78
330
1E
100
AcDbEntity
  8
OUTLINE
  6
Continuous
370
    -3
100
AcDbLine
 10
254.9999362500002
 20
141.3749646562473
 30
0.0
 11
254.9999362500002
 21
130.8749672812482
 31
0.0
  0
CIRCLE
  5
8AC79
330
1E
100
AcDbEntity
  8
OUTLINE
  6
Continuous
370
    -3
100
AcDbCircle
 10
262.4999343750005
 20
141.8749645312459
 30
0.0
 40
2.2499994375
  0
LINE
  5
8AC7A
330
1E
100
AcDbEntity
  8
OUTLINE
  6
Continuous
370
    -3
100
AcDbLine
 10
266.9999332499955
 20
137.3749656562508
 30
0.0
 11
265.9999335000102
 21
137.3749656562508
 31
0.0
  0
ARC
  5
8AC7B
330
1E
100
AcDbEntity
  8
OUTLINE
  6
Continuous
370
    -3
100
AcDbCircle
 10
249.9999375000015
 20
130.8749672812477
 30
0.0
 40
4.999998750000486
100
AcDbArc
 50
179.9999999999947
 51
0.000000000005211
  0
ARC
  5
8AC7C
330
1E
100
AcDbEntity
  8
OUTLINE
  6
Continuous
370
    -3
100
AcDbCircle
 10
249.9999375000006
 20
130.8749672812486
 30
0.0
 40
11.99999700000022
100
AcDbArc
 50
202.024313000011
 51
359.9999999999977
  0
ARC
  5
8AC7D
330
1E
100
AcDbEntity
  8
OUTLINE
  6
Continuous
370
    -3
100
AcDbCircle
 10
232.9999417500057
 20
134.3749664062461
 30
0.0
 40
2.999999249999999
100
AcDbArc
 50
90.0
 51
180.0
  0
ARC
  5
8AC7E
330
1E
100
AcDbEntity
  8
OUTLINE
  6
Continuous
370
    -3
100
AcDbCircle
 10
237.4999406250008
 20
141.3749646562473
 30
0.0
 40
7.499998124999999
100
AcDbArc
 50
0.0
 51
180.0
  0
ARC
  5
8AC7F
330
1E
100
AcDbEntity
  8
OUTLINE
  6
Continuous
370
    -3
100
AcDbCircle
 10
249.9999375000006
 20
130.8749672812482
 30
0.0
 40
11.999997
100
AcDbArc
 50
180.0
 51
202.0243130000086
  0
LINE
  5
8AC80
330
1E
100
AcDbEntity
  8
OUTLINE
  6
Continuous
370
    -3
100
AcDbLine
 10
244.999938750001
 20
141.3749646562473
 30
0.0
 11
244.999938750001
 21
130.8749672812482
 31
0.0
  0
CIRCLE
  5
8AC81
330
1E
100
AcDbEntity
  8
OUTLINE
  6
Continuous
370
    -3
100
AcDbCircle
 10
237.4999406250008
 20
141.8749645312459
 30
0.0
 40
2.2499994375
  0
ARC
  5
8AC82
330
1E
100
AcDbEntity
  8
OUTLINE
  6
Continuous
370
    -3
100
AcDbCircle
 10
233.9999414999911
 20
133.374966656248
 30
0.0
 40
3.999998999999999
100
AcDbArc
 50
0.0
 51
90.0
  0
LINE
  5
8AC83
330
1E
100
AcDbEntity
  8
OUTLINE
  6
Continuous
370
    -3
100
AcDbLine
 10
232.9999417500057
 20
137.3749656562508
 30
0.0
 11
233.9999414999911
 21
137.3749656562508
 31
0.0
  0
LINE
  5
8AC84
330
1E
100
AcDbEntity
  8
OUTLINE
  6
Continuous
370
    -3
100
AcDbLine
 10
237.9999405000053
 20
133.374966656248
 30
0.0
 11
237.9999405000053
 21
130.8749672812482
 31
0.0
  0
ARC
  5
8AC85
330
1E
100
AcDbEntity
  8
OUTLINE
  6
Continuous
370
    -3
100
AcDbCircle
 10
198.5087770394511
 20
125.2749686812476
 30
0.0
 40
3.599999099999999
100
AcDbArc
 50
45.0
 51
90.0
  0
ARC
  5
8AC86
330
1E
100
AcDbEntity
  8
OUTLINE
  6
Continuous
370
    -3
100
AcDbCircle
 10
227.9074230231253
 20
125.3749686562496
 30
0.0
 40
0.499999875
100
AcDbArc
 50
90.0
 51
149.9999999999896
  0
ARC
  5
8AC87
330
1E
100
AcDbEntity
  8
OUTLINE
  6
Continuous
370
    -3
100
AcDbCircle
 10
227.9074230231253
 20
125.3749686562496
 30
0.0
 40
0.9999997499999999
100
AcDbArc
 50
90.0
 51
149.9999999999896
  0
LINE
  5
8AC88
330
1E
100
AcDbEntity
  8
OUTLINE
  6
Continuous
370
    -3
100
AcDbLine
 10
226.7527166451382
 20
125.3749686562496
 30
0.0
 11
227.0413965729803
 21
125.8749685312486
 31
0.0
  0
ARC
  5
8AC89
330
1E
100
AcDbEntity
  8
OUTLINE
  6
Continuous
370
    -3
100
AcDbCircle
 10
203.7484823962131
 20
125.9749685062506
 30
0.0
 40
0.5999998499999999
100
AcDbArc
 50
225.0
 51
270.0
  0
LINE
  5
8AC8A
330
1E
100
AcDbEntity
  8
OUTLINE
  6
Continuous
370
    -3
100
AcDbLine
 10
201.0543630697284
 20
127.8205547115189
 30
0.0
 11
203.3242158356115
 21
125.5507019456485
 31
0.0
  0
LINE
  5
8AC8B
330
1E
100
AcDbEntity
  8
OUTLINE
  6
Continuous
370
    -3
100
AcDbLine
 10
202.9999492500064
 20
125.8749685312486
 30
0.0
 11
227.0413965729803
 21
125.8749685312486
 31
0.0
  0
LINE
  5
8AC8C
330
1E
100
AcDbEntity
  8
OUTLINE
  6
Continuous
370
    -3
100
AcDbLine
 10
229.9999425000005
 20
126.3749684062463
 30
0.0
 11
227.9074230231253
 21
126.3749684062472
 31
0.0
  0
ARC
  5
8AC8D
330
1E
100
AcDbEntity
  8
OUTLINE
  6
Continuous
370
    -3
100
AcDbCircle
 10
251.9999369999968
 20
122.7545159780274
 30
0.0
 40
6.120451803219999
100
AcDbArc
 50
67.4389198459675
 51
140.1672290000042
  0
LINE
  5
8AC8E
330
1E
100
AcDbEntity
  8
OUTLINE
  6
Continuous
370
    -3
100
AcDbLine
 10
247.8204885730933
 20
126.3749684062472
 30
0.0
 11
252.1793864269097
 21
126.3749684062472
 31
0.0
  0
LINE
  5
8AC8F
330
1E
100
AcDbEntity
  8
OUTLINE
  6
Continuous
370
    -3
100
AcDbLine
 10
247.2999381750087
 20
126.6749683312473
 30
0.0
 11
252.7128688150187
 21
126.6749683312473
 31
0.0
  0
LINE
  5
8AC90
330
1E
100
AcDbEntity
  8
OUTLINE
  6
Continuous
370
    -3
100
AcDbLine
 10
203.7484823962131
 20
125.3749686562496
 30
0.0
 11
229.9999425000005
 21
125.3749686562496
 31
0.0
  0
ARC
  5
8AC91
330
1E
100
AcDbEntity
  8
OUTLINE
  6
Continuous
370
    -3
100
AcDbCircle
 10
313.9999214999916
 20
84.87497878125077
 30
0.0
 40
14.99999625
100
AcDbArc
 50
0.0
 51
65.00000000001286
  0
ARC
  5
8AC92
330
1E
100
AcDbEntity
  8
OUTLINE
  6
Continuous
370
    -3
100
AcDbCircle
 10
313.9999214999916
 20
84.87497878125077
 30
0.0
 40
13.99999649999999
100
AcDbArc
 50
0.0
 51
65.00000000001286
  0
ENDSEC
  0
SECTION
  2
OBJECTS
  0
DICTIONARY
  5
C
330
0
100
AcDbDictionary
281
     1
  3
ACAD_GROUP
350
D
  3
ACAD_LAYOUT
350
19
  3
ACAD_MLINESTYLE
350
16
  3
ACAD_PLOTSETTINGS
350
18
  3
ACAD_PLOTSTYLENAME
350
E
  0
DICTIONARY
  5
66E76
330
1E
100
AcDbDictionary
280
     1
281
     1
  0
DICTIONARY
  5
66E74
330
1A
100
AcDbDictionary
280
     1
281
     1
  0
DICTIONARY
  5
D
102
{ACAD_REACTORS
330
C
102
}
330
C
100
AcDbDictionary
281
     1
  3
*A1
350
677EB
  0
DICTIONARY
  5
19
102
{ACAD_REACTORS
330
C
102
}
330
C
100
AcDbDictionary
281
     1
  3
Model
350
67C8F
  3
ﾚｲｱｳﾄ1
350
67C90
  0
DICTIONARY
  5
16
102
{ACAD_REACTORS
330
C
102
}
330
C
100
AcDbDictionary
281
     1
  3
STANDARD
350
17
  0
DICTIONARY
  5
18
102
{ACAD_REACTORS
330
C
102
}
330
C
100
AcDbDictionary
281
     1
  0
ACDBDICTIONARYWDFLT
  5
E
102
{ACAD_REACTORS
330
C
102
}
330
C
100
AcDbDictionary
281
     1
  3
Normal
350
F
100
AcDbDictionaryWithDefault
340
F
  0
GROUP
  5
677EB
102
{ACAD_REACTORS
330
D
102
}
330
D
100
AcDbGroup
300

 70
     1
 71
     1
  0
LAYOUT
  5
67C8F
102
{ACAD_REACTORS
330
19
102
}
330
19
100
AcDbPlotSettings
  1

  2
EPSON LP-8900.pc3
  4
A4
  6
ALL
 40
5.873749732971191
 41
5.873747825622558
 42
5.873748779296875
 43
5.873748779296875
 44
209.9733276367187
 45
297.0106506347656
 46
0.0
 47
0.0
 48
0.0
 49
0.0
140
0.0
141
0.0
142
1.0
143
8.829813458650358
 70
 11952
 72
     1
 73
     1
 74
     2
  7

 75
     0
147
0.1132526756859539
148
1246.059824392974
149
821.3474008837692
100
AcDbLayout
  1
Model
 70
     1
 71
     0
 10
0.0
 20
0.0
 11
12.0
 21
9.0
 12
0.0
 22
0.0
 32
0.0
 14
0.0
 24
0.0
 34
0.0
 15
0.0
 25
0.0
 35
0.0
146
0.0
 13
0.0
 23
0.0
 33
0.0
 16
1.0
 26
0.0
 36
0.0
 17
0.0
 27
1.0
 37
0.0
 76
     0
330
1E
  0
LAYOUT
  5
67C90
102
{ACAD_REACTORS
330
19
102
}
330
19
100
AcDbPlotSettings
  1

  2
Microsoft XPS Document Writer
  4

  6

 40
0.0
 41
0.0
 42
0.0
 43
0.0
 44
0.0
 45
0.0
 46
0.0
 47
0.0
 48
0.0
 49
0.0
140
0.0
141
0.0
142
1.0
143
1.0
 70
   688
 72
     0
 73
     0
 74
     5
  7

 75
    16
147
1.0
148
0.0
149
0.0
100
AcDbLayout
  1
ﾚｲｱｳﾄ1
 70
     1
 71
     1
 10
0.0
 20
0.0
 11
12.0
 21
9.0
 12
0.0
 22
0.0
 32
0.0
 14
1.000000000000000E+20
 24
1.000000000000000E+20
 34
1.000000000000000E+20
 15
-1.000000000000000E+20
 25
-1.000000000000000E+20
 35
-1.000000000000000E+20
146
0.0
 13
0.0
 23
0.0
 33
0.0
 16
1.0
 26
0.0
 36
0.0
 17
0.0
 27
1.0
 37
0.0
 76
     0
330
1A
  0
MLINESTYLE
  5
17
102
{ACAD_REACTORS
330
16
102
}
330
16
100
AcDbMlineStyle
  2
STANDARD
 70
     0
  3

 62
   256
 51
90.0
 52
90.0
 71
     2
 49
0.5
 62
   256
  6
BYLAYER
 49
-0.5
 62
   256
  6
BYLAYER
  0
ACDBPLACEHOLDER
  5
F
102
{ACAD_REACTORS
330
E
102
}
330
E
  0
ENDSEC
  0
EOF
