  0
SECTION
  2
HEADER
  9
$ACADVER
  1
AC1015
  9
$ACADMAINTVER
 70
     6
  9
$DWGCODEPAGE
  3
ANSI_932
  9
$INSBASE
 10
0.0
 20
0.0
 30
0.0
  9
$EXTMIN
 10
-1372.549303582764
 20
-648.1021917796282
 30
0.0
  9
$EXTMAX
 10
1272.283661331533
 20
1210.229578739584
 30
0.0
  9
$LIMMIN
 10
-1372.549303582764
 20
-648.1021917796282
  9
$LIMMAX
 10
1272.283661331533
 20
1210.229578739584
  9
$ORTHOMODE
 70
     0
  9
$REGENMODE
 70
     1
  9
$FILLMODE
 70
     1
  9
$QTEXTMODE
 70
     0
  9
$MIRRTEXT
 70
     1
  9
$LTSCALE
 40
1.0
  9
$ATTMODE
 70
     1
  9
$TEXTSIZE
 40
0.2
  9
$TRACEWID
 40
0.05
  9
$TEXTSTYLE
  7
Standard
  9
$CLAYER
  8
OUTLINE
  9
$CELTYPE
  6
ByLayer
  9
$CECOLOR
 62
   256
  9
$CELTSCALE
 40
1.0
  9
$DISPSILH
 70
     0
  9
$DIMSCALE
 40
1.0
  9
$DIMASZ
 40
0.18
  9
$DIMEXO
 40
0.0625
  9
$DIMDLI
 40
0.38
  9
$DIMRND
 40
0.0
  9
$DIMDLE
 40
0.0
  9
$DIMEXE
 40
0.18
  9
$DIMTP
 40
0.0
  9
$DIMTM
 40
0.0
  9
$DIMTXT
 40
0.18
  9
$DIMCEN
 40
0.09
  9
$DIMTSZ
 40
0.0
  9
$DIMTOL
 70
     0
  9
$DIMLIM
 70
     0
  9
$DIMTIH
 70
     1
  9
$DIMTOH
 70
     1
  9
$DIMSE1
 70
     0
  9
$DIMSE2
 70
     0
  9
$DIMTAD
 70
     0
  9
$DIMZIN
 70
     0
  9
$DIMBLK
  1

  9
$DIMASO
 70
     1
  9
$DIMSHO
 70
     1
  9
$DIMPOST
  1

  9
$DIMAPOST
  1

  9
$DIMALT
 70
     0
  9
$DIMALTD
 70
     2
  9
$DIMALTF
 40
25.4
  9
$DIMLFAC
 40
1.0
  9
$DIMTOFL
 70
     0
  9
$DIMTVP
 40
0.0
  9
$DIMTIX
 70
     0
  9
$DIMSOXD
 70
     0
  9
$DIMSAH
 70
     0
  9
$DIMBLK1
  1

  9
$DIMBLK2
  1

  9
$DIMSTYLE
  2
Standard
  9
$DIMCLRD
 70
     0
  9
$DIMCLRE
 70
     0
  9
$DIMCLRT
 70
     0
  9
$DIMTFAC
 40
1.0
  9
$DIMGAP
 40
0.09
  9
$DIMJUST
 70
     0
  9
$DIMSD1
 70
     0
  9
$DIMSD2
 70
     0
  9
$DIMTOLJ
 70
     1
  9
$DIMTZIN
 70
     0
  9
$DIMALTZ
 70
     0
  9
$DIMALTTZ
 70
     0
  9
$DIMUPT
 70
     0
  9
$DIMDEC
 70
     4
  9
$DIMTDEC
 70
     4
  9
$DIMALTU
 70
     2
  9
$DIMALTTD
 70
     2
  9
$DIMTXSTY
  7
Standard
  9
$DIMAUNIT
 70
     0
  9
$DIMADEC
 70
     0
  9
$DIMALTRND
 40
0.0
  9
$DIMAZIN
 70
     0
  9
$DIMDSEP
 70
    46
  9
$DIMATFIT
 70
     3
  9
$DIMFRAC
 70
     0
  9
$DIMLDRBLK
  1

  9
$DIMLUNIT
 70
     2
  9
$DIMLWD
 70
    -2
  9
$DIMLWE
 70
    -2
  9
$DIMTMOVE
 70
     0
  9
$LUNITS
 70
     2
  9
$LUPREC
 70
     4
  9
$SKETCHINC
 40
0.1
  9
$FILLETRAD
 40
0.5
  9
$AUNITS
 70
     1
  9
$AUPREC
 70
     3
  9
$MENU
  1
.
  9
$ELEVATION
 40
0.0
  9
$PELEVATION
 40
0.0
  9
$THICKNESS
 40
0.0
  9
$LIMCHECK
 70
     0
  9
$CHAMFERA
 40
0.0
  9
$CHAMFERB
 40
0.0
  9
$CHAMFERC
 40
0.0
  9
$CHAMFERD
 40
0.0
  9
$SKPOLY
 70
     0
  9
$TDCREATE
 40
2456918.670723032
  9
$TDUCREATE
 40
2456918.295723032
  9
$TDUPDATE
 40
2456918.670725208
  9
$TDUUPDATE
 40
2456918.295725208
  9
$TDINDWG
 40
0.0000000116
  9
$TDUSRTIMER
 40
0.0000000116
  9
$USRTIMER
 70
     1
  9
$ANGBASE
 50
0.0
  9
$ANGDIR
 70
     0
  9
$PDMODE
 70
     0
  9
$PDSIZE
 40
0.0
  9
$PLINEWID
 40
0.0
  9
$SPLFRAME
 70
     0
  9
$SPLINETYPE
 70
     6
  9
$SPLINESEGS
 70
     8
  9
$HANDSEED
  5
40E
  9
$SURFTAB1
 70
     6
  9
$SURFTAB2
 70
     6
  9
$SURFTYPE
 70
     6
  9
$SURFU
 70
     6
  9
$SURFV
 70
     6
  9
$UCSBASE
  2

  9
$UCSNAME
  2

  9
$UCSORG
 10
0.0
 20
0.0
 30
0.0
  9
$UCSXDIR
 10
1.0
 20
0.0
 30
0.0
  9
$UCSYDIR
 10
0.0
 20
1.0
 30
0.0
  9
$UCSORTHOREF
  2

  9
$UCSORTHOVIEW
 70
     0
  9
$UCSORGTOP
 10
0.0
 20
0.0
 30
0.0
  9
$UCSORGBOTTOM
 10
0.0
 20
0.0
 30
0.0
  9
$UCSORGLEFT
 10
0.0
 20
0.0
 30
0.0
  9
$UCSORGRIGHT
 10
0.0
 20
0.0
 30
0.0
  9
$UCSORGFRONT
 10
0.0
 20
0.0
 30
0.0
  9
$UCSORGBACK
 10
0.0
 20
0.0
 30
0.0
  9
$PUCSBASE
  2

  9
$PUCSNAME
  2

  9
$PUCSORG
 10
0.0
 20
0.0
 30
0.0
  9
$PUCSXDIR
 10
1.0
 20
0.0
 30
0.0
  9
$PUCSYDIR
 10
0.0
 20
1.0
 30
0.0
  9
$PUCSORTHOREF
  2

  9
$PUCSORTHOVIEW
 70
     0
  9
$PUCSORGTOP
 10
0.0
 20
0.0
 30
0.0
  9
$PUCSORGBOTTOM
 10
0.0
 20
0.0
 30
0.0
  9
$PUCSORGLEFT
 10
0.0
 20
0.0
 30
0.0
  9
$PUCSORGRIGHT
 10
0.0
 20
0.0
 30
0.0
  9
$PUCSORGFRONT
 10
0.0
 20
0.0
 30
0.0
  9
$PUCSORGBACK
 10
0.0
 20
0.0
 30
0.0
  9
$USERI1
 70
     0
  9
$USERI2
 70
     0
  9
$USERI3
 70
     0
  9
$USERI4
 70
     0
  9
$USERI5
 70
     0
  9
$USERR1
 40
0.0
  9
$USERR2
 40
0.0
  9
$USERR3
 40
0.0
  9
$USERR4
 40
0.0
  9
$USERR5
 40
0.0
  9
$WORLDVIEW
 70
     1
  9
$SHADEDGE
 70
     3
  9
$SHADEDIF
 70
    70
  9
$TILEMODE
 70
     1
  9
$MAXACTVP
 70
    64
  9
$PINSBASE
 10
0.0
 20
0.0
 30
0.0
  9
$PLIMCHECK
 70
     0
  9
$PEXTMIN
 10
-9.375
 20
-25.0
 30
0.0
  9
$PEXTMAX
 10
525.0
 20
371.25
 30
0.0
  9
$PLIMMIN
 10
-7.5
 20
-20.0
  9
$PLIMMAX
 10
420.0
 20
297.0
  9
$UNITMODE
 70
     0
  9
$VISRETAIN
 70
     1
  9
$PLINEGEN
 70
     0
  9
$PSLTSCALE
 70
     1
  9
$TREEDEPTH
 70
  3020
  9
$CMLSTYLE
  2
Standard
  9
$CMLJUST
 70
     0
  9
$CMLSCALE
 40
1.0
  9
$PROXYGRAPHICS
 70
     1
  9
$MEASUREMENT
 70
     0
  9
$CELWEIGHT
370
    -1
  9
$ENDCAPS
280
     0
  9
$JOINSTYLE
280
     0
  9
$LWDISPLAY
290
     0
  9
$INSUNITS
 70
     0
  9
$HYPERLINKBASE
  1

  9
$STYLESHEET
  1

  9
$XEDIT
290
     1
  9
$CEPSNTYPE
380
     0
  9
$PSTYLEMODE
290
     1
  9
$FINGERPRINTGUID
  2
{609801D8-892F-4237-B923-21922B513D5F}
  9
$VERSIONGUID
  2
{FAEB1C32-E019-11D5-929B-00C0DF256EC4}
  9
$EXTNAMES
290
     1
  9
$PSVPSCALE
 40
0.0
  9
$OLESTARTUP
290
     0
  0
ENDSEC
  0
SECTION
  2
CLASSES
  0
CLASS
  1
ACDBDICTIONARYWDFLT
  2
AcDbDictionaryWithDefault
  3
ObjectDBX Classes
 90
        0
280
     0
281
     0
  0
CLASS
  1
VISUALSTYLE
  2
AcDbVisualStyle
  3
ObjectDBX Classes
 90
     4095
280
     0
281
     0
  0
CLASS
  1
MATERIAL
  2
AcDbMaterial
  3
ObjectDBX Classes
 90
     1153
280
     0
281
     0
  0
CLASS
  1
SCALE
  2
AcDbScale
  3
ObjectDBX Classes
 90
     1153
280
     0
281
     0
  0
CLASS
  1
SUN
  2
AcDbSun
  3
SCENEOE
 90
     1153
280
     0
281
     0
  0
CLASS
  1
RASTERVARIABLES
  2
AcDbRasterVariables
  3
ISM
 90
        0
280
     0
281
     0
  0
CLASS
  1
DICTIONARYVAR
  2
AcDbDictionaryVar
  3
ObjectDBX Classes
 90
        0
280
     0
281
     0
  0
CLASS
  1
ACDBPLACEHOLDER
  2
AcDbPlaceHolder
  3
ObjectDBX Classes
 90
        0
280
     0
281
     0
  0
CLASS
  1
LAYOUT
  2
AcDbLayout
  3
ObjectDBX Classes
 90
        0
280
     0
281
     0
  0
ENDSEC
  0
SECTION
  2
TABLES
  0
TABLE
  2
VPORT
  5
8
330
0
100
AcDbSymbolTable
 70
     1
  0
VPORT
  5
29
330
8
100
AcDbSymbolTableRecord
100
AcDbViewportTableRecord
  2
*Active
 70
     0
 10
0.0
 20
0.0
 11
1.0
 21
1.0
 12
-40.1062569004921
 22
224.8509547839825
 13
0.0
 23
0.0
 14
0.5
 24
0.5
 15
0.5
 25
0.5
 16
0.0
 26
0.0
 36
1.0
 17
0.0
 27
0.0
 37
0.0
 40
1560.998687236139
 41
1.423229698201489
 42
50.0
 43
0.0
 44
0.0
 50
0.0
 51
0.0
 71
     0
 72
 20000
 73
     1
 74
     3
 75
     0
 76
     0
 77
     0
 78
     0
281
     0
 65
     1
110
0.0
120
0.0
130
0.0
111
1.0
121
0.0
131
0.0
112
0.0
122
1.0
132
0.0
 79
     0
146
0.0
  0
ENDTAB
  0
TABLE
  2
LTYPE
  5
5
330
0
100
AcDbSymbolTable
 70
     2
  0
LTYPE
  5
14
330
5
100
AcDbSymbolTableRecord
100
AcDbLinetypeTableRecord
  2
ByBlock
 70
     0
  3

 72
    65
 73
     0
 40
0.0
  0
LTYPE
  5
15
330
5
100
AcDbSymbolTableRecord
100
AcDbLinetypeTableRecord
  2
ByLayer
 70
     0
  3

 72
    65
 73
     0
 40
0.0
  0
LTYPE
  5
16
330
5
100
AcDbSymbolTableRecord
100
AcDbLinetypeTableRecord
  2
Continuous
 70
     0
  3
Solid line
 72
    65
 73
     0
 40
0.0
  0
LTYPE
  5
6C
330
5
100
AcDbSymbolTableRecord
100
AcDbLinetypeTableRecord
  2
DASHDOT
 70
     0
  3

 72
    65
 73
     4
 40
5.499999999999999
 49
4.0
 74
     0
 49
-0.6
 74
     0
 49
0.3
 74
     0
 49
-0.6
 74
     0
  0
ENDTAB
  0
TABLE
  2
LAYER
  5
2
330
0
100
AcDbSymbolTable
 70
    12
  0
LAYER
  5
10
330
2
100
AcDbSymbolTableRecord
100
AcDbLayerTableRecord
  2
0
 70
     0
 62
   250
  6
Continuous
370
    25
390
F
  0
LAYER
  5
6D
330
2
100
AcDbSymbolTableRecord
100
AcDbLayerTableRecord
  2
SIZE
 70
     0
 62
    32
  6
Continuous
370
    25
390
F
  0
LAYER
  5
6E
330
2
100
AcDbSymbolTableRecord
100
AcDbLayerTableRecord
  2
DETAIL
 70
     0
 62
     5
  6
Continuous
370
    25
390
F
  0
LAYER
  5
6F
330
2
100
AcDbSymbolTableRecord
100
AcDbLayerTableRecord
  2
OUTLINE
 70
     0
 62
     3
  6
Continuous
370
    25
390
F
  0
LAYER
  5
70
330
2
100
AcDbSymbolTableRecord
100
AcDbLayerTableRecord
  2
BASIS
 70
     0
 62
     6
  6
Continuous
370
    25
390
F
  0
LAYER
  5
71
330
2
100
AcDbSymbolTableRecord
100
AcDbLayerTableRecord
  2
NOTE
 70
     0
 62
     4
  6
Continuous
370
    25
390
F
  0
LAYER
  5
72
330
2
100
AcDbSymbolTableRecord
100
AcDbLayerTableRecord
  2
ARRANGE
 70
     0
 62
     1
  6
Continuous
370
    25
390
F
  0
LAYER
  5
73
330
2
100
AcDbSymbolTableRecord
100
AcDbLayerTableRecord
  2
ETC
 70
     0
 62
    83
  6
Continuous
370
    25
390
F
  0
LAYER
  5
74
330
2
100
AcDbSymbolTableRecord
100
AcDbLayerTableRecord
  2
DEFPOINTS
 70
     0
 62
   250
  6
Continuous
290
     0
370
    25
390
F
  0
LAYER
  5
75
330
2
100
AcDbSymbolTableRecord
100
AcDbLayerTableRecord
  2
FIX
 70
     0
 62
     8
  6
Continuous
370
    25
390
F
  0
LAYER
  5
76
330
2
100
AcDbSymbolTableRecord
100
AcDbLayerTableRecord
  2
SERVICE_SPACE
 70
     0
 62
     2
  6
Continuous
370
    25
390
F
  0
LAYER
  5
77
330
2
100
AcDbSymbolTableRecord
100
AcDbLayerTableRecord
  2
rcviewportframe
 70
     0
 62
    -7
  6
Continuous
370
    -3
390
F
  0
ENDTAB
  0
TABLE
  2
STYLE
  5
3
330
0
100
AcDbSymbolTable
 70
     4
  0
STYLE
  5
11
330
3
100
AcDbSymbolTableRecord
100
AcDbTextStyleTableRecord
  2
Standard
 70
     0
 40
0.0
 41
1.0
 50
0.0
 71
     0
 42
0.2
  3
txt.shx
  4
extfont
  0
STYLE
  5
78
330
3
100
AcDbSymbolTableRecord
100
AcDbTextStyleTableRecord
  2
MS PGothic
 70
     0
 40
0.0
 41
1.0
 50
0.0
 71
     0
 42
0.2
  3
MS PGothic.ttf
  4

1001
ACAD
1000
ＭＳ Ｐゴシック
1071
    32818
  0
STYLE
  5
79
330
3
100
AcDbSymbolTableRecord
100
AcDbTextStyleTableRecord
  2
VERTICAL
 70
     4
 40
0.0
 41
1.0
 50
0.0
 71
     0
 42
0.2
  3
txt.shx
  4
extfont
  0
STYLE
  5
7A
330
3
100
AcDbSymbolTableRecord
100
AcDbTextStyleTableRecord
  2
VERTICAL MS PGothic
 70
     0
 40
0.0
 41
1.0
 50
0.0
 71
     0
 42
0.2
  3
MS PGothic.ttf
  4

1001
ACAD
1000
@ＭＳ Ｐゴシック
1071
    32818
  0
ENDTAB
  0
TABLE
  2
VIEW
  5
6
330
0
100
AcDbSymbolTable
 70
     0
  0
ENDTAB
  0
TABLE
  2
UCS
  5
7
330
0
100
AcDbSymbolTable
 70
     0
  0
ENDTAB
  0
TABLE
  2
APPID
  5
9
330
0
100
AcDbSymbolTable
 70
     2
  0
APPID
  5
12
330
9
100
AcDbSymbolTableRecord
100
AcDbRegAppTableRecord
  2
ACAD
 70
     0
  0
APPID
  5
6A
330
9
100
AcDbSymbolTableRecord
100
AcDbRegAppTableRecord
  2
RootPro CAD
 70
     0
  0
ENDTAB
  0
TABLE
  2
DIMSTYLE
  5
A
330
0
100
AcDbSymbolTable
 70
     1
100
AcDbDimStyleTable
  0
DIMSTYLE
105
27
330
A
100
AcDbSymbolTableRecord
100
AcDbDimStyleTableRecord
  2
Standard
 70
     0
178
     0
340
11
  0
ENDTAB
  0
TABLE
  2
BLOCK_RECORD
  5
1
330
0
100
AcDbSymbolTable
 70
     1
  0
BLOCK_RECORD
  5
1F
330
1
100
AcDbSymbolTableRecord
100
AcDbBlockTableRecord
  2
*Model_Space
340
22
  0
BLOCK_RECORD
  5
1B
330
1
100
AcDbSymbolTableRecord
100
AcDbBlockTableRecord
  2
*Paper_Space
340
1E
  0
ENDTAB
  0
ENDSEC
  0
SECTION
  2
BLOCKS
  0
BLOCK
  5
20
330
1F
100
AcDbEntity
  8
0
100
AcDbBlockBegin
  2
*Model_Space
 70
     0
 10
0.0
 20
0.0
 30
0.0
  3
*Model_Space
  1
*Model_Space
  0
ENDBLK
  5
21
330
1F
100
AcDbEntity
  8
0
100
AcDbBlockEnd
  0
BLOCK
  5
1C
330
1B
100
AcDbEntity
 67
     1
  8
0
100
AcDbBlockBegin
  2
*Paper_Space
 70
     0
 10
0.0
 20
0.0
 30
0.0
  3
*Paper_Space
  1
*Paper_Space
  0
ENDBLK
  5
1D
330
1B
100
AcDbEntity
 67
     1
  8
0
100
AcDbBlockEnd
  0
ENDSEC
  0
SECTION
  2
ENTITIES
  0
LINE
  5
7B
330
1F
100
AcDbEntity
  8
SIZE
100
AcDbLine
 10
-425.5999999999058
 20
607.4751907210156
 30
0.0
 11
-425.5999999999058
 21
807.3445532840556
 31
0.0
  0
LINE
  5
7C
330
1F
100
AcDbEntity
  8
SIZE
100
AcDbLine
 10
-403.2999999999021
 20
619.1791472496698
 30
0.0
 11
-403.2999999999021
 21
807.0758447795848
 31
0.0
  0
LINE
  5
7D
330
1F
100
AcDbEntity
  8
SIZE
100
AcDbLine
 10
-403.2999999999021
 20
780.2730985859885
 30
0.0
 11
-641.6851296626603
 21
780.2730985859885
 31
0.0
  0
TEXT
  5
7E
330
1F
100
AcDbEntity
  8
SIZE
100
AcDbText
 10
-600.3719064279014
 20
794.3189988210111
 30
0.0
 40
83.783333476467
  1
22.3
 41
0.7713948259796911
  7
MS PGothic
 11
-600.3719064279014
 21
777.1879253542447
 31
0.0
100
AcDbText
 73
     1
  0
CIRCLE
  5
7F
330
1F
100
AcDbEntity
  8
SIZE
100
AcDbCircle
 10
-403.2999999999021
 20
780.2730985859885
 30
0.0
 40
6.0
  0
CIRCLE
  5
80
330
1F
100
AcDbEntity
  8
SIZE
100
AcDbCircle
 10
-425.5999999999058
 20
780.2730985859885
 30
0.0
 40
6.0
  0
LINE
  5
81
330
1F
100
AcDbEntity
  8
SIZE
100
AcDbLine
 10
-399.9999999998992
 20
730.0000034058871
 30
0.0
 11
-694.2477080753869
 21
730.0000034058871
 31
0.0
  0
CIRCLE
  5
82
330
1F
100
AcDbEntity
  8
SIZE
100
AcDbCircle
 10
-677.9732823158338
 20
730.0000065353319
 30
0.0
 40
6.0
  0
TEXT
  5
83
330
1F
100
AcDbEntity
  8
SIZE
100
AcDbText
 10
-714.4544502365347
 20
641.7050742804626
 30
0.0
 40
55.11181038446721
  1
100以上
 50
89.9715307500806
 41
0.7981424748723867
  7
MS PGothic
 11
-703.1858086480538
 21
641.6994750931792
 31
0.0
100
AcDbText
 73
     1
  0
CIRCLE
  5
84
330
1F
100
AcDbEntity
  8
SIZE
  6
Continuous
100
AcDbCircle
 10
717.3099890117192
 20
182.0
 30
0.0
 40
6.0
  0
TEXT
  5
85
330
1F
100
AcDbEntity
  8
SIZE
100
AcDbText
 10
-492.249719298095
 20
94.1827333082267
 30
0.0
 40
80.04448705558595
  1
320
 50
90.0000035809861
 41
0.9
  7
MS PGothic
 11
-475.8831230854482
 21
94.18273433113893
 31
0.0
100
AcDbText
 73
     1
  0
LINE
  5
86
330
1F
100
AcDbEntity
  8
SIZE
  6
Continuous
100
AcDbLine
 10
-677.9732823158338
 20
0.0
 30
0.0
 11
-677.9732823158338
 21
878.8399510042655
 31
0.0
  0
LINE
  5
87
330
1F
100
AcDbEntity
  8
SIZE
  6
Continuous
100
AcDbLine
 10
641.0045365156747
 20
-497.943184392077
 30
0.0
 11
-400.0000400000009
 21
-497.943184392077
 31
0.0
  0
TEXT
  5
88
330
1F
100
AcDbEntity
  8
SIZE
100
AcDbText
 10
-71.03707938042044
 20
-354.3848244463411
 30
0.0
 40
80.04448705558595
  1
500
 41
0.9
  7
MS PGothic
 11
-71.03707938042044
 21
-370.7514206589879
 31
0.0
100
AcDbText
 73
     1
  0
CIRCLE
  5
89
330
1F
100
AcDbEntity
  8
SIZE
  6
Continuous
100
AcDbCircle
 10
-677.9732823158338
 20
0.0000199999994948
 30
0.0
 40
6.0
  0
LINE
  5
8A
330
1F
100
AcDbEntity
  8
SIZE
  6
Continuous
100
AcDbLine
 10
-274.5486110203919
 20
0.0
 30
0.0
 11
-694.2477080753869
 21
0.0
 31
0.0
  0
LINE
  5
8B
330
1F
100
AcDbEntity
  8
SIZE
  6
Continuous
100
AcDbLine
 10
-400.0000400000009
 20
-31.00004000000081
 30
0.0
 11
-400.0000400000009
 21
-495.3878000000004
 31
0.0
  0
LINE
  5
8C
330
1F
100
AcDbEntity
  8
SIZE
  6
Continuous
100
AcDbLine
 10
-400.0000400000009
 20
23.71290040014128
 30
0.0
 11
-400.0000400000009
 21
-518.4817534237026
 31
0.0
  0
LINE
  5
8D
330
1F
100
AcDbEntity
  8
SIZE
  6
Continuous
100
AcDbLine
 10
-250.0000400000008
 20
-17.51567559388286
 30
0.0
 11
-250.0000400000008
 21
-393.2105499772828
 31
0.0
  0
CIRCLE
  5
8E
330
1F
100
AcDbEntity
  8
SIZE
  6
Continuous
100
AcDbCircle
 10
-400.0000400000009
 20
-497.943184392077
 30
0.0
 40
6.0
  0
LINE
  5
8F
330
1F
100
AcDbEntity
  8
SIZE
  6
Continuous
100
AcDbLine
 10
249.9999599999991
 20
-370.5988561446029
 30
0.0
 11
-594.3076600000003
 21
-370.5988561446029
 31
0.0
  0
TEXT
  5
90
330
1F
100
AcDbEntity
  8
SIZE
100
AcDbText
 10
-564.2156560911607
 20
-348.648759355843
 30
0.0
 40
78.61841296436802
  1
150
 41
0.9
  7
MS PGothic
 11
-564.2156560911607
 21
-364.7237679816512
 31
0.0
100
AcDbText
 73
     1
  0
CIRCLE
  5
91
330
1F
100
AcDbEntity
  8
SIZE
  6
Continuous
100
AcDbCircle
 10
-400.0000400000009
 20
-370.5988561446029
 30
0.0
 40
6.0
  0
CIRCLE
  5
92
330
1F
100
AcDbEntity
  8
SIZE
  6
Continuous
100
AcDbCircle
 10
-250.0000400000008
 20
-370.5988561446029
 30
0.0
 40
6.0
  0
TEXT
  5
93
330
1F
100
AcDbEntity
  8
SIZE
100
AcDbText
 10
-67.19906141438332
 20
-477.7302510684351
 30
0.0
 40
79.81154923552597
  1
800
 41
0.9
  7
MS PGothic
 11
-67.19906141438332
 21
-494.0492187761865
 31
0.0
100
AcDbText
 73
     1
  0
LINE
  5
94
330
1F
100
AcDbEntity
  8
SIZE
  6
Continuous
100
AcDbLine
 10
-400.0000400000009
 20
-235.5736817631518
 30
0.0
 11
-0.0000400000008653
 21
-235.5736817631518
 31
0.0
  0
LINE
  5
95
330
1F
100
AcDbEntity
  8
SIZE
  6
Continuous
100
AcDbLine
 10
-477.353539545802
 20
330.0000047099763
 30
0.0
 11
-477.353539545802
 21
-132.5515200000008
 31
0.0
  0
LINE
  5
96
330
1F
100
AcDbEntity
  8
SIZE
  6
Continuous
100
AcDbLine
 10
-400.0
 20
-10.0
 30
0.0
 11
-400.0
 21
-322.0153700000008
 31
0.0
  0
TEXT
  5
97
330
1F
100
AcDbEntity
  8
SIZE
100
AcDbText
 10
-493.9480930354878
 20
-95.4790851265861
 30
0.0
 40
75.58094618055556
  1
10
 50
90.00000537147905
 41
0.9
  7
MS PGothic
 11
-478.4941514461324
 21
-95.47908367777916
 31
0.0
100
AcDbText
 73
     1
  0
CIRCLE
  5
98
330
1F
100
AcDbEntity
  8
SIZE
  6
Continuous
100
AcDbCircle
 10
-400.0
 20
-235.5736817631518
 30
0.0
 40
6.0
  0
LINE
  5
99
330
1F
100
AcDbEntity
  8
SIZE
  6
Continuous
100
AcDbLine
 10
-119.0649583506365
 20
9.999999999999995
 30
0.0
 11
-498.0536999646447
 21
10.0
 31
0.0
  0
CIRCLE
  5
9A
330
1F
100
AcDbEntity
  8
SIZE
  6
Continuous
100
AcDbCircle
 10
-477.353539545802
 20
0.0
 30
0.0
 40
6.0
  0
CIRCLE
  5
9B
330
1F
100
AcDbEntity
  8
SIZE
  6
Continuous
100
AcDbCircle
 10
-477.353539545802
 20
10.00000470997628
 30
0.0
 40
6.0
  0
TEXT
  5
9C
330
1F
100
AcDbEntity
  8
SIZE
100
AcDbText
 10
-213.7741992859482
 20
-222.3499680078997
 30
0.0
 40
79.15894585477376
  1
400
 41
0.9
  7
MS PGothic
 11
-213.7741992859482
 21
-238.5354987181429
 31
0.0
100
AcDbText
 73
     1
  0
LINE
  5
9D
330
1F
100
AcDbEntity
  8
SIZE
  6
Continuous
100
AcDbLine
 10
-0.0000400000008653
 20
-50.78485676195578
 30
0.0
 11
-0.0000400000008653
 21
-257.8279752245612
 31
0.0
  0
CIRCLE
  5
9E
330
1F
100
AcDbEntity
  8
SIZE
  6
Continuous
100
AcDbCircle
 10
-0.0000400000008653
 20
-235.5736817631518
 30
0.0
 40
6.0
  0
LINE
  5
9F
330
1F
100
AcDbEntity
  8
SIZE
  6
Continuous
100
AcDbLine
 10
449.2677784693378
 20
116.5
 30
0.0
 11
616.1529657665077
 21
116.5
 31
0.0
  0
LINE
  5
A0
330
1F
100
AcDbEntity
  8
SIZE
  6
Continuous
100
AcDbLine
 10
448.9263178355504
 20
182.0
 30
0.0
 11
734.2540769738325
 21
182.0
 31
0.0
  0
LINE
  5
A1
330
1F
100
AcDbEntity
  8
SIZE
  6
Continuous
100
AcDbLine
 10
275.170650484506
 20
0.0
 30
0.0
 11
734.2540769738325
 21
0.0
 31
0.0
  0
LINE
  5
A2
330
1F
100
AcDbEntity
  8
SIZE
  6
Continuous
100
AcDbLine
 10
400.0
 20
23.92075681709093
 30
0.0
 11
400.0
 21
-496.0299500000001
 31
0.0
  0
LINE
  5
A3
330
1F
100
AcDbEntity
  8
SIZE
  6
Continuous
100
AcDbLine
 10
399.9999599999991
 20
-31.00004000000081
 30
0.0
 11
399.9999599999991
 21
-518.4817534237026
 31
0.0
  0
LINE
  5
A4
330
1F
100
AcDbEntity
  8
SIZE
  6
Continuous
100
AcDbLine
 10
249.999959999999
 20
-17.94479054589737
 30
0.0
 11
249.999959999999
 21
-393.2105499772828
 31
0.0
  0
CIRCLE
  5
A5
330
1F
100
AcDbEntity
  8
SIZE
  6
Continuous
100
AcDbCircle
 10
249.9999599999991
 20
-370.5988561446029
 30
0.0
 40
6.0
  0
CIRCLE
  5
A6
330
1F
100
AcDbEntity
  8
SIZE
  6
Continuous
100
AcDbCircle
 10
461.9999599999991
 20
-497.943184392077
 30
0.0
 40
6.0
  0
TEXT
  5
A7
330
1F
100
AcDbEntity
  8
SIZE
100
AcDbText
 10
504.2959475412035
 20
-485.1023028167655
 30
0.0
 40
77.36266046507745
  1
62
 41
0.9
  7
MS PGothic
 11
504.2959475412035
 21
-500.9205492987343
 31
0.0
100
AcDbText
 73
     1
  0
LINE
  5
A8
330
1F
100
AcDbEntity
  8
SIZE
  6
Continuous
100
AcDbLine
 10
600.3831534222736
 20
0.0
 30
0.0
 11
600.3831534222736
 21
116.5
 31
0.0
  0
CIRCLE
  5
A9
330
1F
100
AcDbEntity
  8
SIZE
  6
Continuous
100
AcDbCircle
 10
600.3831534222736
 20
0.0000199999994948
 30
0.0
 40
6.0
  0
CIRCLE
  5
AA
330
1F
100
AcDbEntity
  8
SIZE
  6
Continuous
100
AcDbCircle
 10
600.3831534222736
 20
116.5
 30
0.0
 40
6.0
  0
TEXT
  5
AB
330
1F
100
AcDbEntity
  8
SIZE
100
AcDbText
 10
557.8758306228028
 20
20.838393314181
 30
0.0
 40
82.94933481517398
  1
116.5
 50
90.00000537147965
 41
0.4014534572079096
  7
MS PGothic
 11
574.8363774257929
 21
20.83839490423236
 31
0.0
100
AcDbText
 73
     1
  0
CIRCLE
  5
AC
330
1F
100
AcDbEntity
  8
SIZE
  6
Continuous
100
AcDbCircle
 10
-677.9732823158338
 20
630.0000034058871
 30
0.0
 40
6.0
  0
LINE
  5
AD
330
1F
100
AcDbEntity
  8
SIZE
  6
Continuous
100
AcDbLine
 10
-372.9273266888657
 20
630.0000034058871
 30
0.0
 11
-694.2477080753869
 21
630.0000034058871
 31
0.0
  0
TEXT
  5
AE
330
1F
100
AcDbEntity
  8
SIZE
100
AcDbText
 10
-726.083818393095
 20
282.5380885045398
 30
0.0
 40
78.79209928339431
  1
630
 50
90.00000716197223
 41
0.9312350420706443
  7
MS PGothic
 11
-709.9732963427437
 21
282.538090518355
 31
0.0
100
AcDbText
 73
     1
  0
LINE
  5
AF
330
1F
100
AcDbEntity
  8
SIZE
  6
Continuous
100
AcDbLine
 10
-409.5795603447968
 20
330.0000047099763
 30
0.0
 11
-498.0536999646447
 21
330.0000047099763
 31
0.0
  0
CIRCLE
  5
B0
330
1F
100
AcDbEntity
  8
SIZE
  6
Continuous
100
AcDbCircle
 10
-477.353539545802
 20
330.0000047099763
 30
0.0
 40
6.0
  0
TEXT
  5
B1
330
1F
100
AcDbEntity
  8
SIZE
100
AcDbText
 10
440.5647347922109
 20
791.0698962704344
 30
0.0
 40
78.97790531478923
  1
28
 41
0.9
  7
MS PGothic
 11
440.5647347922109
 21
774.921382693101
 31
0.0
100
AcDbText
 73
     1
  0
LINE
  5
B2
330
1F
100
AcDbEntity
  8
SIZE
  6
Continuous
100
AcDbLine
 10
427.9999599999991
 20
284.7561896515431
 30
0.0
 11
427.9999599999992
 21
807.0758447795848
 31
0.0
  0
CIRCLE
  5
B3
330
1F
100
AcDbEntity
  8
SIZE
  6
Continuous
100
AcDbCircle
 10
427.9999599999991
 20
780.2730985859885
 30
0.0
 40
6.0
  0
CIRCLE
  5
B4
330
1F
100
AcDbEntity
  8
SIZE
  6
Continuous
100
AcDbCircle
 10
399.9999599999991
 20
780.2730985859885
 30
0.0
 40
6.0
  0
LINE
  5
B5
330
1F
100
AcDbEntity
  8
SIZE
  6
Continuous
100
AcDbLine
 10
399.9999599999992
 20
640.0000065354695
 30
0.0
 11
399.9999599999992
 21
807.0758447795848
 31
0.0
  0
LINE
  5
B6
330
1F
100
AcDbEntity
  8
SIZE
  6
Continuous
100
AcDbLine
 10
399.9999599999991
 20
780.2730985859885
 30
0.0
 11
550.9261150158936
 21
780.2730985859885
 31
0.0
  0
LINE
  5
B7
330
1F
100
AcDbEntity
  8
SIZE
  6
Continuous
100
AcDbLine
 10
461.999959999999
 20
44.10041046583773
 30
0.0
 11
461.9999599999991
 21
-518.4817534237026
 31
0.0
  0
LINE
  5
B8
330
1F
100
AcDbEntity
  8
SIZE
  6
Continuous
100
AcDbLine
 10
717.3099890117192
 20
0.0
 30
0.0
 11
717.3099890117192
 21
182.0
 31
0.0
  0
TEXT
  5
B9
330
1F
100
AcDbEntity
  8
SIZE
100
AcDbText
 10
688.3932938760963
 20
49.31646472695697
 30
0.0
 40
79.54380880103716
  1
182
 50
90.0000050009405
 41
0.6603393360951878
  7
MS PGothic
 11
704.6575170318833
 21
49.31646614654517
 31
0.0
100
AcDbText
 73
     1
  0
CIRCLE
  5
BA
330
1F
100
AcDbEntity
  8
SIZE
  6
Continuous
100
AcDbCircle
 10
717.3099890117192
 20
0.0
 30
0.0
 40
6.0
  0
CIRCLE
  5
BB
330
1F
100
AcDbEntity
  8
SIZE
  6
Continuous
100
AcDbCircle
 10
399.9999199999982
 20
-497.943184392077
 30
0.0
 40
6.0
  0
LINE
  5
BC
330
1F
100
AcDbEntity
  8
DETAIL
100
AcDbLine
 10
401.9999999998596
 20
33.23267999999279
 30
0.0
 11
401.9999999998324
 21
599.6967798686779
 31
0.0
  0
LINE
  5
BD
330
1F
100
AcDbEntity
  8
DETAIL
100
AcDbLine
 10
-351.4999999999507
 20
577.5000065353391
 30
0.0
 11
-351.4999999999507
 21
75.00002000005315
 31
0.0
  0
LINE
  5
BE
330
1F
100
AcDbEntity
  8
DETAIL
100
AcDbLine
 10
156.4999999999509
 20
577.5000065353391
 30
0.0
 11
156.4999999999495
 21
75.00002000005315
 31
0.0
  0
LINE
  5
BF
330
1F
100
AcDbEntity
  8
DETAIL
100
AcDbLine
 10
-400.0000400000009
 20
601.000006535343
 30
0.0
 11
-400.0000400000018
 21
30.19999999999709
 31
0.0
  0
LINE
  5
C0
330
1F
100
AcDbEntity
  8
DETAIL
100
AcDbLine
 10
399.9999599999991
 20
601.000006535343
 30
0.0
 11
399.999959999999
 21
30.1999999999972
 31
0.0
  0
LINE
  5
C1
330
1F
100
AcDbEntity
  8
DETAIL
100
AcDbLine
 10
412.9999999998782
 20
79.59861333332037
 30
0.0
 11
412.9999999998782
 21
119.3900666666445
 31
0.0
  0
LINE
  5
C2
330
1F
100
AcDbEntity
  8
DETAIL
100
AcDbLine
 10
422.9999999998743
 20
93.69273333331375
 30
0.0
 11
419.8950666665441
 21
89.76423999998178
 31
0.0
  0
LINE
  5
C3
330
1F
100
AcDbEntity
  8
DETAIL
100
AcDbLine
 10
444.4999999998598
 20
88.64489333331446
 30
0.0
 11
444.4999999998598
 21
110.3372399999807
 31
0.0
  0
LINE
  5
C4
330
1F
100
AcDbEntity
  8
DETAIL
100
AcDbLine
 10
417.9999999998763
 20
81.59861333331537
 30
0.0
 11
417.9999999998763
 21
117.3900666666377
 31
0.0
  0
LINE
  5
C5
330
1F
100
AcDbEntity
  8
DETAIL
100
AcDbLine
 10
432.9999999998708
 20
93.69273333331375
 30
0.0
 11
437.9999999998708
 21
87.36653333331195
 31
0.0
  0
LINE
  5
C6
330
1F
100
AcDbEntity
  8
DETAIL
100
AcDbLine
 10
422.9999999998743
 20
93.69273333331375
 30
0.0
 11
422.9999999998743
 21
84.14475999998467
 31
0.0
  0
LINE
  5
C7
330
1F
100
AcDbEntity
  8
DETAIL
100
AcDbLine
 10
432.9999999998708
 20
84.14475999998467
 30
0.0
 11
432.9999999998708
 21
93.69273333331375
 31
0.0
  0
LINE
  5
C8
330
1F
100
AcDbEntity
  8
DETAIL
100
AcDbLine
 10
457.9999999998671
 20
88.64489333331446
 30
0.0
 11
457.9999999998671
 21
110.3372399999807
 31
0.0
  0
LINE
  5
C9
330
1F
100
AcDbEntity
  8
DETAIL
100
AcDbLine
 10
459.9999999998853
 20
89.4995866666454
 30
0.0
 11
459.9999999998853
 21
109.4758933333136
 31
0.0
  0
ARC
  5
CA
330
1F
100
AcDbEntity
  8
DETAIL
100
AcDbCircle
 10
413.4744266665492
 20
85.60411999997994
 30
0.0
 40
7.65057333333142
100
AcDbArc
 50
309.8327710000756
 51
50.1672120000375
  0
LINE
  5
CB
330
1F
100
AcDbEntity
  8
DETAIL
100
AcDbLine
 10
418.3749999998854
 20
79.72911999998495
 30
0.0
 11
418.3749999998854
 21
91.47911999998084
 31
0.0
  0
LINE
  5
CC
330
1F
100
AcDbEntity
  8
DETAIL
100
AcDbLine
 10
417.9999999998763
 20
79.72911999998495
 30
0.0
 11
417.9999999998763
 21
91.47911999998084
 31
0.0
  0
LINE
  5
CD
330
1F
100
AcDbEntity
  8
DETAIL
100
AcDbLine
 10
399.9999999998999
 20
31.92945333332771
 30
0.0
 11
399.9999599999991
 21
601.000006535343
 31
0.0
  0
LINE
  5
CE
330
1F
100
AcDbEntity
  8
DETAIL
100
AcDbLine
 10
461.9999599999991
 20
199.5007866666237
 30
0.0
 11
461.9999599999991
 21
65.76447999998805
 31
0.0
  0
LINE
  5
CF
330
1F
100
AcDbEntity
  8
DETAIL
100
AcDbLine
 10
412.9999999998782
 20
76.10031999998635
 30
0.0
 11
412.9999999998782
 21
189.3074666666279
 31
0.0
  0
LINE
  5
D0
330
1F
100
AcDbEntity
  8
DETAIL
100
AcDbLine
 10
-267.9243199999528
 20
19.52103999999508
 30
0.0
 11
-380.4793733332699
 21
27.69999999999754
 31
0.0
  0
LINE
  5
D1
330
1F
100
AcDbEntity
  8
DETAIL
100
AcDbLine
 10
-375.5424133332688
 20
19.50000000000271
 30
0.0
 11
-230.0297866666042
 21
19.50000000000271
 31
0.0
  0
LINE
  5
D2
330
1F
100
AcDbEntity
  8
DETAIL
100
AcDbLine
 10
-397.4999999998999
 20
27.69999999999754
 30
0.0
 11
397.4999999998999
 21
27.69999999999754
 31
0.0
  0
LINE
  5
D3
330
1F
100
AcDbEntity
  8
DETAIL
100
AcDbLine
 10
-346.4999999999527
 20
70.0000200000545
 30
0.0
 11
151.4999999999508
 21
70.0000200000545
 31
0.0
  0
CIRCLE
  5
D4
330
1F
100
AcDbEntity
  8
DETAIL
100
AcDbCircle
 10
-341.2450799999477
 20
85.5999266667227
 30
0.0
 40
5.499999999998624
  0
ARC
  5
D5
330
1F
100
AcDbEntity
  8
DETAIL
100
AcDbCircle
 10
-397.4999717150097
 20
30.20006828576239
 30
0.0
 40
2.500068285924716
100
AcDbArc
 50
180.0015649517156
 51
269.9993517757736
  0
LINE
  5
D6
330
1F
100
AcDbEntity
  8
DETAIL
100
AcDbLine
 10
-379.1732399998999
 20
20.37138666666713
 30
0.0
 11
-393.5096533332635
 21
27.67334666666329
 31
0.0
  0
ARC
  5
D7
330
1F
100
AcDbEntity
  8
DETAIL
100
AcDbCircle
 10
-375.5424133332688
 20
27.49999999999317
 30
0.0
 40
7.999999999997998
100
AcDbArc
 50
243.0089010000497
 51
270.0
  0
ARC
  5
D8
330
1F
100
AcDbEntity
  8
DETAIL
100
AcDbCircle
 10
-396.2327599999353
 20
22.32687999999507
 30
0.0
 40
5.999999999998498
100
AcDbArc
 50
63.00890100004982
 51
63.57524099994214
  0
ARC
  5
D9
330
1F
100
AcDbEntity
  8
DETAIL
100
AcDbCircle
 10
-346.4999999999527
 20
75.00002000005315
 30
0.0
 40
4.999999999998748
100
AcDbArc
 50
180.0
 51
270.0
  0
ARC
  5
DA
330
1F
100
AcDbEntity
  8
DETAIL
100
AcDbCircle
 10
-341.2450799999477
 20
85.5999266667227
 30
0.0
 40
5.499999999998624
100
AcDbArc
 50
180.0
 51
90.0
  0
LINE
  5
DB
330
1F
100
AcDbEntity
  8
DETAIL
100
AcDbLine
 10
230.0297866666023
 20
19.50000000000271
 30
0.0
 11
70.75170666661506
 21
10.00177333333703
 31
0.0
  0
CIRCLE
  5
DC
330
1F
100
AcDbEntity
  8
DETAIL
100
AcDbCircle
 10
146.24506666661
 20
85.5999266667227
 30
0.0
 40
5.499999999998624
  0
LINE
  5
DD
330
1F
100
AcDbEntity
  8
DETAIL
100
AcDbLine
 10
-70.72197333335316
 20
9.999999999997726
 30
0.0
 11
-230.0297866666042
 21
19.50000000000271
 31
0.0
  0
LINE
  5
DE
330
1F
100
AcDbEntity
  8
DETAIL
100
AcDbLine
 10
-47.6144933333253
 20
18.81101333333253
 30
0.0
 11
-218.475959999965
 21
18.81101333333253
 31
0.0
  0
LINE
  5
DF
330
1F
100
AcDbEntity
  8
DETAIL
100
AcDbLine
 10
-204.300506666621
 20
19.50000000000271
 30
0.0
 11
0.0
 21
19.50000000000271
 31
0.0
  0
LINE
  5
E0
330
1F
100
AcDbEntity
  8
DETAIL
100
AcDbLine
 10
-177.1341999999549
 20
16.9202266666698
 30
0.0
 11
-17.86581333333196
 21
16.9202266666698
 31
0.0
  0
LINE
  5
E1
330
1F
100
AcDbEntity
  8
DETAIL
100
AcDbLine
 10
-92.60954666667021
 20
11.30522666666728
 30
0.0
 11
-14.25081333334309
 21
11.30522666666728
 31
0.0
  0
CIRCLE
  5
E2
330
1F
100
AcDbEntity
  8
DETAIL
100
AcDbCircle
 10
-319.9999999999199
 20
40.89999999999146
 30
0.0
 40
3.999999999998998
  0
LINE
  5
E3
330
1F
100
AcDbEntity
  8
DETAIL
100
AcDbLine
 10
-317.8786799999161
 20
38.77867999999853
 30
0.0
 11
-322.1213199999256
 21
43.02131999999665
 31
0.0
  0
LINE
  5
E4
330
1F
100
AcDbEntity
  8
DETAIL
100
AcDbLine
 10
-317.8786799999161
 20
43.02131999999665
 30
0.0
 11
-322.1213199999256
 21
38.77867999999853
 31
0.0
  0
LINE
  5
E5
330
1F
100
AcDbEntity
  8
DETAIL
100
AcDbLine
 10
-269.9999999999326
 20
0.0
 30
0.0
 11
-229.9999999999435
 21
0.0
 31
0.0
  0
LINE
  5
E6
330
1F
100
AcDbEntity
  8
DETAIL
100
AcDbLine
 10
-237.9999999999689
 20
9.000000000000451
 30
0.0
 11
-237.9999999999689
 21
9.999999999997726
 31
0.0
  0
LINE
  5
E7
330
1F
100
AcDbEntity
  8
DETAIL
100
AcDbLine
 10
-261.9999999999544
 20
9.000000000000451
 30
0.0
 11
-261.9999999999544
 21
9.999999999997726
 31
0.0
  0
LINE
  5
E8
330
1F
100
AcDbEntity
  8
DETAIL
100
AcDbLine
 10
-269.9999999999326
 20
0.0
 30
0.0
 11
-269.9999999999326
 21
7.869813333331875
 31
0.0
  0
ARC
  5
E9
330
1F
100
AcDbEntity
  8
DETAIL
100
AcDbCircle
 10
-235.9999999999508
 20
9.999999999997726
 30
0.0
 40
1.999999999999499
100
AcDbArc
 50
90.0
 51
180.0
  0
ARC
  5
EA
330
1F
100
AcDbEntity
  8
DETAIL
100
AcDbCircle
 10
-263.9999999999727
 20
9.999999999997726
 30
0.0
 40
1.999999999999499
100
AcDbArc
 50
0.0
 51
90.0
  0
ARC
  5
EB
330
1F
100
AcDbEntity
  8
DETAIL
100
AcDbCircle
 10
-260.9999999999435
 20
9.000000000000451
 30
0.0
 40
0.9999999999997496
100
AcDbArc
 50
180.0
 51
270.0
  0
LINE
  5
EC
330
1F
100
AcDbEntity
  8
DETAIL
100
AcDbLine
 10
-266.9999999999526
 20
8.000000000003183
 30
0.0
 11
-232.9999999999709
 21
8.000000000003183
 31
0.0
  0
ARC
  5
ED
330
1F
100
AcDbEntity
  8
DETAIL
100
AcDbCircle
 10
-266.9999999999526
 20
4.999999999999089
 30
0.0
 40
2.99999999999925
100
AcDbArc
 50
90.0
 51
180.0
  0
ARC
  5
EE
330
1F
100
AcDbEntity
  8
DETAIL
100
AcDbCircle
 10
-232.9999999999709
 20
4.999999999999089
 30
0.0
 40
2.99999999999925
100
AcDbArc
 50
0.0
 51
90.0
  0
ARC
  5
EF
330
1F
100
AcDbEntity
  8
DETAIL
100
AcDbCircle
 10
-238.9999999999798
 20
9.000000000000451
 30
0.0
 40
0.9999999999997496
100
AcDbArc
 50
270.0
 51
0.0
  0
LINE
  5
F0
330
1F
100
AcDbEntity
  8
DETAIL
100
AcDbLine
 10
-264.4159199999612
 20
19.50000000000271
 30
0.0
 11
-235.5840933333001
 21
19.50000000000271
 31
0.0
  0
ARC
  5
F1
330
1F
100
AcDbEntity
  8
DETAIL
100
AcDbCircle
 10
-264.4159199999612
 20
14.50000000000408
 30
0.0
 40
4.999999999998748
100
AcDbArc
 50
90.0
 51
175.0302589999963
  0
LINE
  5
F2
330
1F
100
AcDbEntity
  8
DETAIL
100
AcDbLine
 10
-269.3971199999523
 20
14.93314666667128
 30
0.0
 11
-269.9887199999448
 21
8.12970666666979
 31
0.0
  0
ARC
  5
F3
330
1F
100
AcDbEntity
  8
DETAIL
100
AcDbCircle
 10
-266.9999999999526
 20
7.869813333331875
 30
0.0
 40
2.99999999999925
100
AcDbArc
 50
175.0302589999963
 51
180.0
  0
ARC
  5
F4
330
1F
100
AcDbEntity
  8
DETAIL
100
AcDbCircle
 10
-235.5840933333001
 20
14.50000000000408
 30
0.0
 40
4.999999999998748
100
AcDbArc
 50
4.969741000003572
 51
90.0
  0
LINE
  5
F5
330
1F
100
AcDbEntity
  8
DETAIL
100
AcDbLine
 10
-230.6028799999712
 20
14.93314666667128
 30
0.0
 11
-230.0112799999788
 21
8.12970666666979
 31
0.0
  0
LINE
  5
F6
330
1F
100
AcDbEntity
  8
DETAIL
100
AcDbLine
 10
-229.9999999999435
 20
0.0
 30
0.0
 11
-229.9999999999435
 21
7.869813333331875
 31
0.0
  0
ARC
  5
F7
330
1F
100
AcDbEntity
  8
DETAIL
100
AcDbCircle
 10
-232.9999999999709
 20
7.869813333331875
 30
0.0
 40
2.99999999999925
100
AcDbArc
 50
0.0
 51
4.969741000003572
  0
ARC
  5
F8
330
1F
100
AcDbEntity
  8
DETAIL
100
AcDbCircle
 10
-235.3009866666379
 20
27.49999999999317
 30
0.0
 40
7.999999999997998
100
AcDbArc
 50
270.0
 51
314.9999999999355
  0
ARC
  5
F9
330
1F
100
AcDbEntity
  8
DETAIL
100
AcDbCircle
 10
-267.3445199999278
 20
27.49999999999317
 30
0.0
 40
7.999999999997998
100
AcDbArc
 50
265.8438309999985
 51
270.0
  0
LINE
  5
FA
330
1F
100
AcDbEntity
  8
DETAIL
100
AcDbLine
 10
-225.2375333333166
 20
26.24974666666548
 30
0.0
 11
-229.6441333332932
 21
21.84314666666431
 31
0.0
  0
ARC
  5
FB
330
1F
100
AcDbEntity
  8
DETAIL
100
AcDbCircle
 10
-219.3137066666221
 20
21.2999999999988
 30
0.0
 40
6.99999999999825
100
AcDbArc
 50
45.00000000006447
 51
66.10449200001709
  0
LINE
  5
FC
330
1F
100
AcDbEntity
  8
DETAIL
100
AcDbLine
 10
-214.3639599999441
 20
26.24974666666548
 30
0.0
 11
-209.9573599999675
 21
21.84314666666431
 31
0.0
  0
ARC
  5
FD
330
1F
100
AcDbEntity
  8
DETAIL
100
AcDbCircle
 10
-204.300506666621
 20
27.49999999999317
 30
0.0
 40
7.999999999997998
100
AcDbArc
 50
225.0000000000643
 51
270.0
  0
ARC
  5
FE
330
1F
100
AcDbEntity
  8
DETAIL
100
AcDbCircle
 10
-220.2877866666367
 20
21.2999999999988
 30
0.0
 40
6.99999999999825
100
AcDbArc
 50
113.8955079999828
 51
134.9999999999355
  0
LINE
  5
FF
330
1F
100
AcDbEntity
  8
DETAIL
100
AcDbLine
 10
-178.0673066666404
 20
16.40132000000084
 30
0.0
 11
-177.8413066666234
 21
16.62733333333471
 31
0.0
  0
ARC
  5
100
330
1F
100
AcDbEntity
  8
DETAIL
100
AcDbCircle
 10
-177.1341999999549
 20
15.92022666666616
 30
0.0
 40
0.9999999999997496
100
AcDbArc
 50
90.0
 51
134.9999999999355
  0
LINE
  5
101
330
1F
100
AcDbEntity
  8
DETAIL
100
AcDbLine
 10
-28.95937333333735
 20
19.50000000000499
 30
0.0
 11
-29.33596000001729
 21
19.15933333333441
 31
0.0
  0
ARC
  5
102
330
1F
100
AcDbEntity
  8
DETAIL
100
AcDbCircle
 10
-29.20178666666346
 20
19.01101333333917
 30
0.0
 40
0.19999999999995
100
AcDbArc
 50
132.1344450000646
 51
270.0
  0
ARC
  5
103
330
1F
100
AcDbEntity
  8
DETAIL
100
AcDbCircle
 10
-47.6145333333376
 20
19.01101333333917
 30
0.0
 40
0.19999999999995
100
AcDbArc
 50
270.0
 51
47.86555499993536
  0
LINE
  5
104
330
1F
100
AcDbEntity
  8
DETAIL
100
AcDbLine
 10
-47.85693333332586
 20
19.50000000000499
 30
0.0
 11
-47.48036000003106
 21
19.15933333333441
 31
0.0
  0
LINE
  5
105
330
1F
100
AcDbEntity
  8
DETAIL
100
AcDbLine
 10
-29.20174666665115
 20
18.81101333333253
 30
0.0
 11
0.0
 21
18.81101333333253
 31
0.0
  0
LINE
  5
106
330
1F
100
AcDbEntity
  8
DETAIL
100
AcDbLine
 10
-70.72197333335316
 20
9.999999999997726
 30
0.0
 11
0.0
 21
9.999999999997726
 31
0.0
  0
CIRCLE
  5
107
330
1F
100
AcDbEntity
  8
DETAIL
100
AcDbCircle
 10
144.9999999999636
 20
40.89999999999146
 30
0.0
 40
3.999999999998998
  0
LINE
  5
108
330
1F
100
AcDbEntity
  8
DETAIL
100
AcDbLine
 10
147.1213199999674
 20
38.77867999999853
 30
0.0
 11
142.8786799999596
 21
43.02131999999665
 31
0.0
  0
LINE
  5
109
330
1F
100
AcDbEntity
  8
DETAIL
100
AcDbLine
 10
147.1213199999674
 20
43.02131999999665
 30
0.0
 11
142.8786799999596
 21
38.77867999999853
 31
0.0
  0
LINE
  5
10A
330
1F
100
AcDbEntity
  8
DETAIL
100
AcDbLine
 10
143.563959999943
 20
26.24974666666548
 30
0.0
 11
139.1573599999665
 21
21.84314666666431
 31
0.0
  0
ARC
  5
10B
330
1F
100
AcDbEntity
  8
DETAIL
100
AcDbCircle
 10
133.5005066666216
 20
27.49999999999317
 30
0.0
 40
7.999999999997998
100
AcDbArc
 50
270.0
 51
314.9999999999355
  0
ARC
  5
10C
330
1F
100
AcDbEntity
  8
DETAIL
100
AcDbCircle
 10
148.5137066666229
 20
21.2999999999988
 30
0.0
 40
6.99999999999825
100
AcDbArc
 50
113.8955079999828
 51
134.9999999999355
  0
ARC
  5
10D
330
1F
100
AcDbEntity
  8
DETAIL
100
AcDbCircle
 10
52.79818666665779
 20
14.26975999999694
 30
0.0
 40
0.9999999999997496
100
AcDbArc
 50
134.9999999999355
 51
270.0
  0
LINE
  5
10E
330
1F
100
AcDbEntity
  8
DETAIL
100
AcDbLine
 10
54.21811999999228
 20
17.10390666666671
 30
0.0
 11
52.09107999998924
 21
14.9768666666655
 31
0.0
  0
ARC
  5
10F
330
1F
100
AcDbEntity
  8
DETAIL
100
AcDbCircle
 10
53.51101333332372
 20
17.81101333333526
 30
0.0
 40
0.9999999999997496
100
AcDbArc
 50
314.9999999999355
 51
90.0
  0
LINE
  5
110
330
1F
100
AcDbEntity
  8
DETAIL
100
AcDbLine
 10
0.0
 20
18.81101333333253
 30
0.0
 11
53.51101333332372
 21
18.81101333333253
 31
0.0
  0
LINE
  5
111
330
1F
100
AcDbEntity
  8
DETAIL
100
AcDbLine
 10
70.721959999968
 20
9.999999999997726
 30
0.0
 11
0.0
 21
9.999999999997726
 31
0.0
  0
LINE
  5
112
330
1F
100
AcDbEntity
  8
DETAIL
100
AcDbLine
 10
-13.54370666667455
 20
13.01233333333903
 30
0.0
 11
-17.15870666666342
 21
16.62733333333471
 31
0.0
  0
ARC
  5
113
330
1F
100
AcDbEntity
  8
DETAIL
100
AcDbCircle
 10
-14.25081333334309
 20
12.30522666667047
 30
0.0
 40
0.9999999999997496
100
AcDbArc
 50
270.0
 51
45.00000000006447
  0
ARC
  5
114
330
1F
100
AcDbEntity
  8
DETAIL
100
AcDbCircle
 10
-17.86581333333196
 20
15.92022666666616
 30
0.0
 40
0.9999999999997496
100
AcDbArc
 50
45.00000000006447
 51
90.0
  0
LINE
  5
115
330
1F
100
AcDbEntity
  8
DETAIL
100
AcDbLine
 10
125.5533866665955
 20
13.26975999999967
 30
0.0
 11
52.79818666665779
 21
13.26975999999967
 31
0.0
  0
LINE
  5
116
330
1F
100
AcDbEntity
  8
DETAIL
100
AcDbLine
 10
133.5005066666216
 20
19.50000000000271
 30
0.0
 11
0.0
 21
19.50000000000271
 31
0.0
  0
ARC
  5
117
330
1F
100
AcDbEntity
  8
DETAIL
100
AcDbCircle
 10
151.4999999999508
 20
75.00002000005315
 30
0.0
 40
4.999999999998748
100
AcDbArc
 50
270.0
 51
0.0
  0
ARC
  5
118
330
1F
100
AcDbEntity
  8
DETAIL
100
AcDbCircle
 10
368.8137066665567
 20
21.2999999999988
 30
0.0
 40
6.99999999999825
100
AcDbArc
 50
113.8955079999828
 51
134.9999999999355
  0
ARC
  5
119
330
1F
100
AcDbEntity
  8
DETAIL
100
AcDbCircle
 10
380.705759999886
 20
31.20526666666137
 30
0.0
 40
7.999999999997998
100
AcDbArc
 50
270.0
 51
314.9999999999355
  0
LINE
  5
11A
330
1F
100
AcDbEntity
  8
DETAIL
100
AcDbLine
 10
357.5057599998708
 20
23.20526666666455
 30
0.0
 11
380.705759999886
 21
23.20526666666455
 31
0.0
  0
LINE
  5
11B
330
1F
100
AcDbEntity
  8
DETAIL
100
AcDbLine
 10
363.8639599998767
 20
26.24974666666548
 30
0.0
 11
363.1626266665571
 21
25.54841333333252
 31
0.0
  0
ARC
  5
11C
330
1F
100
AcDbEntity
  8
DETAIL
100
AcDbCircle
 10
357.5057599998708
 20
31.20526666666137
 30
0.0
 40
7.999999999997998
100
AcDbArc
 50
270.0
 51
314.9999999999355
  0
ARC
  5
11D
330
1F
100
AcDbEntity
  8
DETAIL
100
AcDbCircle
 10
377.0005066665689
 20
27.49999999999317
 30
0.0
 40
7.999999999997998
100
AcDbArc
 50
270.0
 51
314.9999999999355
  0
ARC
  5
11E
330
1F
100
AcDbEntity
  8
DETAIL
100
AcDbCircle
 10
331.6994933332553
 20
27.49999999999317
 30
0.0
 40
7.999999999997998
100
AcDbArc
 50
225.0000000000643
 51
270.0
  0
ARC
  5
11F
330
1F
100
AcDbEntity
  8
DETAIL
100
AcDbCircle
 10
316.686293333254
 20
21.2999999999988
 30
0.0
 40
6.99999999999825
100
AcDbArc
 50
45.00000000006447
 51
66.10449200001709
  0
LINE
  5
120
330
1F
100
AcDbEntity
  8
DETAIL
100
AcDbLine
 10
387.0639599998921
 20
26.24974666666548
 30
0.0
 11
382.6573599998683
 21
21.84314666666431
 31
0.0
  0
LINE
  5
121
330
1F
100
AcDbEntity
  8
DETAIL
100
AcDbLine
 10
321.6360399998829
 20
26.24974666666548
 30
0.0
 11
326.0426399999069
 21
21.84314666666431
 31
0.0
  0
ARC
  5
122
330
1F
100
AcDbEntity
  8
DETAIL
100
AcDbCircle
 10
235.3009733332528
 20
27.49999999999317
 30
0.0
 40
7.999999999997998
100
AcDbArc
 50
225.0000000000643
 51
270.0
  0
LINE
  5
123
330
1F
100
AcDbEntity
  8
DETAIL
100
AcDbLine
 10
229.9999999999435
 20
0.0
 30
0.0
 11
269.9999999999326
 21
0.0
 31
0.0
  0
LINE
  5
124
330
1F
100
AcDbEntity
  8
DETAIL
100
AcDbLine
 10
261.9999999999054
 20
9.000000000000451
 30
0.0
 11
261.9999999999054
 21
9.999999999997726
 31
0.0
  0
LINE
  5
125
330
1F
100
AcDbEntity
  8
DETAIL
100
AcDbLine
 10
237.9999999999216
 20
9.000000000000451
 30
0.0
 11
237.9999999999216
 21
9.999999999997726
 31
0.0
  0
LINE
  5
126
330
1F
100
AcDbEntity
  8
DETAIL
100
AcDbLine
 10
229.9999999999435
 20
0.0
 30
0.0
 11
229.9999999999435
 21
7.869813333331875
 31
0.0
  0
ARC
  5
127
330
1F
100
AcDbEntity
  8
DETAIL
100
AcDbCircle
 10
263.9999999999254
 20
9.999999999997726
 30
0.0
 40
1.999999999999499
100
AcDbArc
 50
90.0
 51
180.0
  0
ARC
  5
128
330
1F
100
AcDbEntity
  8
DETAIL
100
AcDbCircle
 10
235.9999999999017
 20
9.999999999997726
 30
0.0
 40
1.999999999999499
100
AcDbArc
 50
0.0
 51
90.0
  0
ARC
  5
129
330
1F
100
AcDbEntity
  8
DETAIL
100
AcDbCircle
 10
238.999999999929
 20
9.000000000000451
 30
0.0
 40
0.9999999999997496
100
AcDbArc
 50
180.0
 51
270.0
  0
LINE
  5
12A
330
1F
100
AcDbEntity
  8
DETAIL
100
AcDbLine
 10
232.9999999999218
 20
8.000000000003183
 30
0.0
 11
266.9999999999034
 21
8.000000000003183
 31
0.0
  0
ARC
  5
12B
330
1F
100
AcDbEntity
  8
DETAIL
100
AcDbCircle
 10
232.9999999999218
 20
4.999999999999089
 30
0.0
 40
2.99999999999925
100
AcDbArc
 50
90.0
 51
180.0
  0
ARC
  5
12C
330
1F
100
AcDbEntity
  8
DETAIL
100
AcDbCircle
 10
266.9999999999034
 20
4.999999999999089
 30
0.0
 40
2.99999999999925
100
AcDbArc
 50
0.0
 51
90.0
  0
ARC
  5
12D
330
1F
100
AcDbEntity
  8
DETAIL
100
AcDbCircle
 10
260.9999999998963
 20
9.000000000000451
 30
0.0
 40
0.9999999999997496
100
AcDbArc
 50
270.0
 51
0.0
  0
LINE
  5
12E
330
1F
100
AcDbEntity
  8
DETAIL
100
AcDbLine
 10
235.5840799999114
 20
19.50000000000271
 30
0.0
 11
264.415906666576
 21
19.50000000000271
 31
0.0
  0
ARC
  5
12F
330
1F
100
AcDbEntity
  8
DETAIL
100
AcDbCircle
 10
235.5840799999114
 20
14.50000000000408
 30
0.0
 40
4.999999999998748
100
AcDbArc
 50
90.0
 51
175.0302589999963
  0
LINE
  5
130
330
1F
100
AcDbEntity
  8
DETAIL
100
AcDbLine
 10
230.6028799999238
 20
14.93314666667128
 30
0.0
 11
230.0112799999278
 21
8.12970666666979
 31
0.0
  0
ARC
  5
131
330
1F
100
AcDbEntity
  8
DETAIL
100
AcDbCircle
 10
232.9999999999218
 20
7.869813333331875
 30
0.0
 40
2.99999999999925
100
AcDbArc
 50
175.0302589999963
 51
180.0
  0
ARC
  5
132
330
1F
100
AcDbEntity
  8
DETAIL
100
AcDbCircle
 10
264.415906666576
 20
14.50000000000408
 30
0.0
 40
4.999999999998748
100
AcDbArc
 50
4.969741000003572
 51
90.0
  0
LINE
  5
133
330
1F
100
AcDbEntity
  8
DETAIL
100
AcDbLine
 10
269.3971199999014
 20
14.93314666667128
 30
0.0
 11
269.9887199998975
 21
8.12970666666979
 31
0.0
  0
LINE
  5
134
330
1F
100
AcDbEntity
  8
DETAIL
100
AcDbLine
 10
269.9999999999326
 20
0.0
 30
0.0
 11
269.9999999999326
 21
7.869813333331875
 31
0.0
  0
ARC
  5
135
330
1F
100
AcDbEntity
  8
DETAIL
100
AcDbCircle
 10
266.9999999999034
 20
7.869813333331875
 30
0.0
 40
2.99999999999925
100
AcDbArc
 50
0.0
 51
4.969741000003572
  0
ARC
  5
136
330
1F
100
AcDbEntity
  8
DETAIL
100
AcDbCircle
 10
243.5158266665875
 20
27.49999999999317
 30
0.0
 40
7.999999999997998
100
AcDbArc
 50
225.0000000000643
 51
270.0
  0
ARC
  5
137
330
1F
100
AcDbEntity
  8
DETAIL
100
AcDbCircle
 10
264.6990133332347
 20
27.49999999999317
 30
0.0
 40
7.999999999997998
100
AcDbArc
 50
270.0
 51
314.9999999999355
  0
ARC
  5
138
330
1F
100
AcDbEntity
  8
DETAIL
100
AcDbCircle
 10
220.2877599999137
 20
21.2999999999988
 30
0.0
 40
6.99999999999825
100
AcDbArc
 50
45.00000000006447
 51
66.10449200001709
  0
ARC
  5
139
330
1F
100
AcDbEntity
  8
DETAIL
100
AcDbCircle
 10
279.7122133332377
 20
21.2999999999988
 30
0.0
 40
6.99999999999825
100
AcDbArc
 50
113.8955079999828
 51
134.9999999999355
  0
LINE
  5
13A
330
1F
100
AcDbEntity
  8
DETAIL
100
AcDbLine
 10
232.0021199999028
 20
27.69999999999754
 30
0.0
 11
237.8589733332427
 21
21.84314666666431
 31
0.0
  0
LINE
  5
13B
330
1F
100
AcDbEntity
  8
DETAIL
100
AcDbLine
 10
274.7624666665597
 20
26.24974666666548
 30
0.0
 11
270.3558666665831
 21
21.84314666666431
 31
0.0
  0
LINE
  5
13C
330
1F
100
AcDbEntity
  8
DETAIL
100
AcDbLine
 10
225.2375066665898
 20
26.24974666666548
 30
0.0
 11
229.6441066666175
 21
21.84314666666431
 31
0.0
  0
LINE
  5
13D
330
1F
100
AcDbEntity
  8
DETAIL
100
AcDbLine
 10
377.0005066665689
 20
19.50000000000271
 30
0.0
 11
230.0244533332606
 21
19.50000000000271
 31
0.0
  0
ARC
  5
13E
330
1F
100
AcDbEntity
  8
DETAIL
100
AcDbCircle
 10
392.013706666572
 20
21.2999999999988
 30
0.0
 40
6.99999999999825
100
AcDbArc
 50
113.8955079999828
 51
134.9999999999355
  0
LINE
  5
13F
330
1F
100
AcDbEntity
  8
DETAIL
100
AcDbLine
 10
422.9999999998743
 20
71.49234666665551
 30
0.0
 11
432.9999999998708
 21
71.49234666665551
 31
0.0
  0
LINE
  5
140
330
1F
100
AcDbEntity
  8
DETAIL
100
AcDbLine
 10
415.9999999998563
 20
79.59861333332037
 30
0.0
 11
412.9999999998782
 21
79.59861333332037
 31
0.0
  0
ARC
  5
141
330
1F
100
AcDbEntity
  8
DETAIL
100
AcDbCircle
 10
415.9999999998563
 20
81.59861333331537
 30
0.0
 40
1.999999999999499
100
AcDbArc
 50
270.0
 51
0.0
  0
LINE
  5
142
330
1F
100
AcDbEntity
  8
DETAIL
100
AcDbLine
 10
417.9999999998763
 20
87.36653333331195
 30
0.0
 11
417.9999999998763
 21
77.81854666665093
 31
0.0
  0
LINE
  5
143
330
1F
100
AcDbEntity
  8
DETAIL
100
AcDbLine
 10
437.9999999998708
 20
77.81854666665093
 30
0.0
 11
437.9999999998708
 21
87.36653333331195
 31
0.0
  0
LINE
  5
144
330
1F
100
AcDbEntity
  8
DETAIL
100
AcDbLine
 10
432.9999999998708
 20
84.14475999998467
 30
0.0
 11
437.9999999998708
 21
77.81854666665093
 31
0.0
  0
LINE
  5
145
330
1F
100
AcDbEntity
  8
DETAIL
100
AcDbLine
 10
422.9999999998743
 20
84.14475999998467
 30
0.0
 11
432.9999999998708
 21
84.14475999998467
 31
0.0
  0
LINE
  5
146
330
1F
100
AcDbEntity
  8
DETAIL
100
AcDbLine
 10
422.9999999998743
 20
84.14475999998467
 30
0.0
 11
417.9999999998763
 21
77.81854666665093
 31
0.0
  0
LINE
  5
147
330
1F
100
AcDbEntity
  8
DETAIL
100
AcDbLine
 10
417.9999999998763
 20
77.81854666665093
 30
0.0
 11
422.9999999998743
 21
71.49234666665551
 31
0.0
  0
LINE
  5
148
330
1F
100
AcDbEntity
  8
DETAIL
100
AcDbLine
 10
432.9999999998708
 20
71.49234666665551
 30
0.0
 11
437.9999999998708
 21
77.81854666665093
 31
0.0
  0
ARC
  5
149
330
1F
100
AcDbEntity
  8
DETAIL
100
AcDbCircle
 10
458.9999999998743
 20
89.4995866666454
 30
0.0
 40
0.9999999999997496
100
AcDbArc
 50
270.0
 51
0.0
  0
LINE
  5
14A
330
1F
100
AcDbEntity
  8
DETAIL
100
AcDbLine
 10
457.9999999998671
 20
88.64489333331446
 30
0.0
 11
456.9999999998564
 21
86.91283999998312
 31
0.0
  0
LINE
  5
14B
330
1F
100
AcDbEntity
  8
DETAIL
100
AcDbLine
 10
444.4999999998598
 20
88.64489333331446
 30
0.0
 11
445.499999999869
 21
86.91283999998312
 31
0.0
  0
LINE
  5
14C
330
1F
100
AcDbEntity
  8
DETAIL
100
AcDbLine
 10
458.9999999998743
 20
88.4995866666477
 30
0.0
 11
457.9161066665564
 21
88.4995866666477
 31
0.0
  0
LINE
  5
14D
330
1F
100
AcDbEntity
  8
DETAIL
100
AcDbLine
 10
456.9999999998564
 20
86.91283999998312
 30
0.0
 11
445.499999999869
 21
86.91283999998312
 31
0.0
  0
LINE
  5
14E
330
1F
100
AcDbEntity
  8
DETAIL
100
AcDbLine
 10
417.9999999998763
 20
80.5376266666508
 30
0.0
 11
417.9999999998763
 21
87.92557333331933
 31
0.0
  0
LINE
  5
14F
330
1F
100
AcDbEntity
  8
DETAIL
100
AcDbLine
 10
417.9999999998763
 20
79.72911999998495
 30
0.0
 11
418.3749999998854
 21
79.72911999998495
 31
0.0
  0
ARC
  5
150
330
1F
100
AcDbEntity
  8
DETAIL
100
AcDbCircle
 10
409.9999999998963
 20
76.10031999998635
 30
0.0
 40
2.99999999999925
100
AcDbArc
 50
284.9999999999944
 51
0.0
  0
LINE
  5
151
330
1F
100
AcDbEntity
  8
DETAIL
100
AcDbLine
 10
410.776453333232
 20
73.20254666665276
 30
0.0
 11
401.9999999998708
 21
70.85090666665656
 31
0.0
  0
ARC
  5
152
330
1F
100
AcDbEntity
  8
DETAIL
100
AcDbCircle
 10
400.9999999998597
 20
33.2326799999929
 30
0.0
 40
0.9999999999998888
100
AcDbArc
 50
304.9712251698193
 51
0.0
  0
LINE
  5
153
330
1F
100
AcDbEntity
  8
DETAIL
100
AcDbLine
 10
399.9999999998999
 20
31.92945333332771
 30
0.0
 11
447.1763409020513
 21
46.44596347421111
 31
0.0
  0
ARC
  5
154
330
1F
100
AcDbEntity
  8
DETAIL
100
AcDbCircle
 10
397.5000282835541
 20
30.19993171721512
 30
0.0
 40
2.499931717377401
100
AcDbArc
 50
269.9993517686871
 51
0.0015649688350086
  0
ARC
  5
155
330
1F
100
AcDbEntity
  8
DETAIL
100
AcDbCircle
 10
441.9999600000482
 20
65.764479999954
 30
0.0
 40
19.99999999995088
100
AcDbArc
 50
284.9999999998989
 51
0.0000000000973402
  0
LINE
  5
156
330
1F
100
AcDbEntity
  8
DETAIL
100
AcDbLine
 10
-346.4999999999527
 20
582.5000065353383
 30
0.0
 11
151.4999999999507
 21
582.5000065353383
 31
0.0
  0
LINE
  5
157
330
1F
100
AcDbEntity
  8
DETAIL
100
AcDbLine
 10
398.4999999998732
 20
602.5000065353387
 30
0.0
 11
-398.4999999998992
 21
602.5000065353387
 31
0.0
  0
LINE
  5
158
330
1F
100
AcDbEntity
  8
DETAIL
100
AcDbLine
 10
-423.5999999999063
 20
603.5000065353435
 30
0.0
 11
0.0000000000115392
 21
603.5000065353425
 31
0.0
  0
LINE
  5
159
330
1F
100
AcDbEntity
  8
DETAIL
100
AcDbLine
 10
0.0000000000115392
 20
630.0000065353319
 30
0.0
 11
-359.7641466665621
 21
630.0000065353319
 31
0.0
  0
LINE
  5
15A
330
1F
100
AcDbEntity
  8
DETAIL
100
AcDbLine
 10
0.0000000000115392
 20
628.5000065353361
 30
0.0
 11
-359.7641466665621
 21
628.5000065353361
 31
0.0
  0
LINE
  5
15B
330
1F
100
AcDbEntity
  8
DETAIL
100
AcDbLine
 10
-403.7999999998858
 20
608.8000065353413
 30
0.0
 11
-403.2999999999058
 21
608.8000065353413
 31
0.0
  0
LINE
  5
15C
330
1F
100
AcDbEntity
  8
DETAIL
100
AcDbLine
 10
-403.7999999998858
 20
618.200006535338
 30
0.0
 11
-403.7999999998858
 21
608.8000065353413
 31
0.0
  0
LINE
  5
15D
330
1F
100
AcDbEntity
  8
DETAIL
100
AcDbLine
 10
-403.7999999998858
 20
618.200006535338
 30
0.0
 11
-403.2999999999058
 21
618.200006535338
 31
0.0
  0
LINE
  5
15E
330
1F
100
AcDbEntity
  8
DETAIL
100
AcDbLine
 10
-403.2999999999058
 20
618.200006535338
 30
0.0
 11
-403.2999999999058
 21
608.8000065353413
 31
0.0
  0
ARC
  5
15F
330
1F
100
AcDbEntity
  8
DETAIL
100
AcDbCircle
 10
-399.2775066665829
 20
613.5000065353398
 30
0.0
 40
6.522506666665035
100
AcDbArc
 50
133.8973979999831
 51
226.1026020000168
  0
ARC
  5
160
330
1F
100
AcDbEntity
  8
DETAIL
100
AcDbCircle
 10
-397.6999999998818
 20
605.0000065353383
 30
0.0
 40
2.499999999999374
100
AcDbArc
 50
270.0
 51
323.1301020000253
  0
ARC
  5
161
330
1F
100
AcDbEntity
  8
DETAIL
100
AcDbCircle
 10
-398.4999717146452
 20
600.9999382486996
 30
0.0
 40
1.5000682869099
100
AcDbArc
 50
90.00108036793301
 51
179.997391761089
  0
ARC
  5
162
330
1F
100
AcDbEntity
  8
DETAIL
100
AcDbCircle
 10
-346.4999999999527
 20
577.5000065353391
 30
0.0
 40
4.999999999998748
100
AcDbArc
 50
90.0
 51
180.0
  0
ARC
  5
163
330
1F
100
AcDbEntity
  8
DETAIL
100
AcDbCircle
 10
-401.7999999999149
 20
605.0000065353383
 30
0.0
 40
1.499999999999625
100
AcDbArc
 50
180.0
 51
270.0
  0
ARC
  5
164
330
1F
100
AcDbEntity
  8
DETAIL
100
AcDbCircle
 10
-423.5999999999063
 20
605.5000065353431
 30
0.0
 40
1.999999999999499
100
AcDbArc
 50
180.0
 51
270.0
  0
ARC
  5
165
330
1F
100
AcDbEntity
  8
DETAIL
100
AcDbCircle
 10
-423.5999999999063
 20
606.0000065353416
 30
0.0
 40
1.999999999999499
100
AcDbArc
 50
118.549591000034
 51
180.0
  0
LINE
  5
166
330
1F
100
AcDbEntity
  8
DETAIL
100
AcDbLine
 10
-425.5999999999245
 20
606.0000065353416
 30
0.0
 11
-425.5999999999245
 21
605.5000065353431
 31
0.0
  0
ARC
  5
167
330
1F
100
AcDbEntity
  8
DETAIL
100
AcDbCircle
 10
-398.2999999999058
 20
616.3637132020062
 30
0.0
 40
4.999999999998748
100
AcDbArc
 50
105.6422459999686
 51
180.0
  0
ARC
  5
168
330
1F
100
AcDbEntity
  8
DETAIL
100
AcDbCircle
 10
-404.2955070262102
 20
573.1303904648963
 30
0.0
 40
40.11821311017803
100
AcDbArc
 50
92.1406439974958
 51
120.3324145456695
  0
LINE
  5
169
330
1F
100
AcDbEntity
  8
DETAIL
100
AcDbLine
 10
-403.2999999999058
 20
605.0000065353383
 30
0.0
 11
-403.2999999999058
 21
616.3637132020062
 31
0.0
  0
LINE
  5
16A
330
1F
100
AcDbEntity
  8
DETAIL
100
AcDbLine
 10
-398.4999999998992
 20
605.0000065353383
 30
0.0
 11
-398.4999999998992
 21
617.707713202008
 31
0.0
  0
ARC
  5
16B
330
1F
100
AcDbEntity
  8
DETAIL
100
AcDbCircle
 10
-359.7641466665621
 20
528.500006535361
 30
0.0
 40
99.99999999997497
100
AcDbArc
 50
90.0
 51
105.6422459999686
  0
LINE
  5
16C
330
1F
100
AcDbEntity
  8
DETAIL
100
AcDbLine
 10
-386.7271333332258
 20
624.7964065353349
 30
0.0
 11
-399.6481466665729
 21
621.1785265353406
 31
0.0
  0
LINE
  5
16D
330
1F
100
AcDbEntity
  8
DETAIL
100
AcDbLine
 10
-363.4999999999066
 20
628.9627665353393
 30
0.0
 11
-363.4999999999066
 21
628.2446389654219
 31
0.0
  0
ARC
  5
16E
330
1F
100
AcDbEntity
  8
DETAIL
100
AcDbCircle
 10
-361.1458007724004
 20
731.4886816884662
 30
0.0
 40
101.4980795503336
100
AcDbArc
 50
269.2201604068451
 51
270.7799693789731
  0
ARC
  5
16F
330
1F
100
AcDbEntity
  8
DETAIL
100
AcDbCircle
 10
-362.4305372322205
 20
628.9345464799488
 30
0.0
 40
1.069835026056363
100
AcDbArc
 50
95.18525698732238
 51
178.488479442911
  0
ARC
  5
170
330
1F
100
AcDbEntity
  8
DETAIL
100
AcDbCircle
 10
-396.9999999999083
 20
605.0000065353383
 30
0.0
 40
1.499999999999625
100
AcDbArc
 50
180.0
 51
270.0
  0
ARC
  5
171
330
1F
100
AcDbEntity
  8
DETAIL
100
AcDbCircle
 10
-393.4999999998992
 20
617.707713202008
 30
0.0
 40
4.999999999998748
100
AcDbArc
 50
105.6422459999686
 51
180.0
  0
LINE
  5
172
330
1F
100
AcDbEntity
  8
DETAIL
100
AcDbLine
 10
428.9999999998816
 20
324.9845866665941
 30
0.0
 11
428.9999999998816
 21
339.2194266665868
 31
0.0
  0
ARC
  5
173
330
1F
100
AcDbEntity
  8
DETAIL
100
AcDbCircle
 10
430.9999999998527
 20
340.4340933332546
 30
0.0
 40
0.9999999999997496
100
AcDbArc
 50
258.0000000000351
 51
0.0
  0
LINE
  5
174
330
1F
100
AcDbEntity
  8
DETAIL
100
AcDbLine
 10
401.9999999998708
 20
333.5012533332536
 30
0.0
 11
401.9999999998708
 21
348.4987599999153
 31
0.0
  0
LINE
  5
175
330
1F
100
AcDbEntity
  8
DETAIL
100
AcDbLine
 10
401.9999999998708
 20
328.4828533332528
 30
0.0
 11
401.9999999998708
 21
339.5171599999229
 31
0.0
  0
ARC
  5
176
330
1F
100
AcDbEntity
  8
DETAIL
100
AcDbCircle
 10
441.9999600000507
 20
199.5007866666584
 30
0.0
 40
19.99999999994832
100
AcDbArc
 50
359.9999999999007
 51
73.00000000006305
  0
LINE
  5
177
330
1F
100
AcDbEntity
  8
DETAIL
100
AcDbLine
 10
432.3499999998948
 20
179.0818796666229
 30
0.0
 11
432.3499999998948
 21
179.6379463332969
 31
0.0
  0
LINE
  5
178
330
1F
100
AcDbEntity
  8
DETAIL
100
AcDbLine
 10
422.4999999998945
 20
176.9184929999631
 30
0.0
 11
422.4999999998945
 21
174.8513599999618
 31
0.0
  0
LINE
  5
179
330
1F
100
AcDbEntity
  8
DETAIL
100
AcDbLine
 10
433.4999999998526
 20
176.9184929999631
 30
0.0
 11
433.4999999998526
 21
174.8513599999618
 31
0.0
  0
LINE
  5
17A
330
1F
100
AcDbEntity
  8
DETAIL
100
AcDbLine
 10
423.6499999998978
 20
179.0818796666229
 30
0.0
 11
423.6499999998978
 21
179.6379463332969
 31
0.0
  0
LINE
  5
17B
330
1F
100
AcDbEntity
  8
DETAIL
100
AcDbLine
 10
425.6336933332113
 20
181.9841729999589
 30
0.0
 11
426.5040533332302
 21
182.3468663332887
 31
0.0
  0
ELLIPSE
  5
17C
330
1F
100
AcDbEntity
  8
DETAIL
100
AcDbEllipse
 10
427.9999999998854
 20
179.6379463332946
 30
0.0
 11
4.349999999998943
 21
0.0
 31
0.0
210
0.0
220
0.0
230
1.0
 40
0.6427880000000002
 41
0.0
 42
3.141592653589792
  0
ELLIPSE
  5
17D
330
1F
100
AcDbEntity
  8
DETAIL
100
AcDbEllipse
 10
427.9999999998854
 20
176.9184929999631
 30
0.0
 11
5.499999999998749
 21
0.0
 31
0.0
210
0.0
220
0.0
230
1.0
 40
0.642788
 41
0.0
 42
3.141592653589792
  0
ELLIPSE
  5
17E
330
1F
100
AcDbEntity
  8
DETAIL
100
AcDbEllipse
 10
427.9999999998854
 20
177.7994396666275
 30
0.0
 11
4.349999999998943
 21
0.0
 31
0.0
210
0.0
220
0.0
230
1.0
 40
0.6427880000000002
 41
0.9148718773232384
 42
2.22672077626645
  0
ELLIPSE
  5
17F
330
1F
100
AcDbEntity
  8
DETAIL
100
AcDbEllipse
 10
427.9999999998854
 20
180.8636129999599
 30
0.0
 11
2.749999999999488
 21
0.0
 31
0.0
210
0.0
220
0.0
230
1.0
 40
0.642788
 41
0.9956258734242792
 42
2.145966881461113
  0
LINE
  5
180
330
1F
100
AcDbEntity
  8
DETAIL
100
AcDbLine
 10
429.4959333332261
 20
182.3468663332887
 30
0.0
 11
430.3663066665357
 21
181.9841729999589
 31
0.0
  0
LINE
  5
181
330
1F
100
AcDbEntity
  8
DETAIL
100
AcDbLine
 10
415.9999999998563
 20
186.0640133332913
 30
0.0
 11
412.9999999998782
 21
186.0640133332913
 31
0.0
  0
LINE
  5
182
330
1F
100
AcDbEntity
  8
DETAIL
100
AcDbLine
 10
418.3749999998854
 20
185.938626666626
 30
0.0
 11
417.9999999998763
 21
185.938626666626
 31
0.0
  0
ARC
  5
183
330
1F
100
AcDbEntity
  8
DETAIL
100
AcDbCircle
 10
409.9999999998963
 20
189.3074666666279
 30
0.0
 40
2.99999999999925
100
AcDbArc
 50
0.0
 51
75.00000000000554
  0
LINE
  5
184
330
1F
100
AcDbEntity
  8
DETAIL
100
AcDbLine
 10
410.776453333232
 20
192.205253333293
 30
0.0
 11
401.9999999998708
 21
194.5568933332896
 31
0.0
  0
LINE
  5
185
330
1F
100
AcDbEntity
  8
DETAIL
100
AcDbLine
 10
415.9999999998563
 20
142.9359999999674
 30
0.0
 11
412.9999999998782
 21
142.9359999999674
 31
0.0
  0
ARC
  5
186
330
1F
100
AcDbEntity
  8
DETAIL
100
AcDbCircle
 10
415.9999999998563
 20
144.9359999999678
 30
0.0
 40
1.999999999999499
100
AcDbArc
 50
270.0
 51
0.0
  0
LINE
  5
187
330
1F
100
AcDbEntity
  8
DETAIL
100
AcDbLine
 10
457.9986799998568
 20
173.9999733332956
 30
0.0
 11
457.9983466665561
 21
154.9999733332979
 31
0.0
  0
LINE
  5
188
330
1F
100
AcDbEntity
  8
DETAIL
100
AcDbLine
 10
455.9987199998503
 20
176.19134666663
 30
0.0
 11
455.9983199998605
 21
152.8086666666284
 31
0.0
  0
LINE
  5
189
330
1F
100
AcDbEntity
  8
DETAIL
100
AcDbLine
 10
417.9999999998763
 20
184.0640133332904
 30
0.0
 11
417.9999999998763
 21
144.9359999999678
 31
0.0
  0
ELLIPSE
  5
18A
330
1F
100
AcDbEntity
  8
DETAIL
100
AcDbEllipse
 10
427.9999999998854
 20
173.3100133332873
 30
0.0
 11
5.999999999998522
 21
0.0
 31
0.0
210
0.0
220
0.0
230
1.0
 40
0.642789
 41
0.0
 42
3.141592653589792
  0
ARC
  5
18B
330
1F
100
AcDbEntity
  8
DETAIL
100
AcDbCircle
 10
424.2899999998826
 20
147.5007199999645
 30
0.0
 40
9.999999999997497
100
AcDbArc
 50
79.99843500010013
 51
90.00163500008658
  0
ARC
  5
18C
330
1F
100
AcDbEntity
  8
DETAIL
100
AcDbCircle
 10
428.8751599998703
 20
167.0007333332927
 30
0.0
 40
9.999999999997497
100
AcDbArc
 50
259.9984350001
 51
269.9984349999725
  0
LINE
  5
18D
330
1F
100
AcDbEntity
  8
DETAIL
100
AcDbLine
 10
427.1383999998596
 20
157.1527066666358
 30
0.0
 11
426.0267466665537
 21
157.3487466666333
 31
0.0
  0
LINE
  5
18E
330
1F
100
AcDbEntity
  8
DETAIL
100
AcDbLine
 10
428.8748799998702
 20
157.0007333332949
 30
0.0
 11
440.4999466665194
 21
157.0004133332959
 31
0.0
  0
ARC
  5
18F
330
1F
100
AcDbEntity
  8
DETAIL
100
AcDbCircle
 10
419.9999999998945
 20
174.0006266666318
 30
0.0
 40
1.999999999999499
100
AcDbArc
 50
180.0
 51
270.0
  0
ARC
  5
190
330
1F
100
AcDbEntity
  8
DETAIL
100
AcDbCircle
 10
420.9999999998562
 20
173.0006266666281
 30
0.0
 40
0.9999999999997496
100
AcDbArc
 50
270.0
 51
0.0
  0
ARC
  5
191
330
1F
100
AcDbEntity
  8
DETAIL
100
AcDbCircle
 10
434.9999999998908
 20
172.9999999999618
 30
0.0
 40
0.9999999999997496
100
AcDbArc
 50
180.0
 51
270.0
  0
ARC
  5
192
330
1F
100
AcDbEntity
  8
DETAIL
100
AcDbCircle
 10
427.9999999998745
 20
263.784759999939
 30
0.0
 40
91.980039999977
100
AcDbArc
 50
266.2598519999438
 51
273.7401480000562
  0
LINE
  5
193
330
1F
100
AcDbEntity
  8
DETAIL
100
AcDbLine
 10
419.9999999998945
 20
172.0006266666249
 30
0.0
 11
420.9999999998562
 21
172.0006266666249
 31
0.0
  0
LINE
  5
194
330
1F
100
AcDbEntity
  8
DETAIL
100
AcDbLine
 10
421.9999999998653
 20
173.0006266666281
 30
0.0
 11
421.9999999998653
 21
173.3100133332899
 31
0.0
  0
LINE
  5
195
330
1F
100
AcDbEntity
  8
DETAIL
100
AcDbLine
 10
433.9999999998816
 20
172.9999999999618
 30
0.0
 11
433.9999999998816
 21
173.3100133332899
 31
0.0
  0
ARC
  5
196
330
1F
100
AcDbEntity
  8
DETAIL
100
AcDbCircle
 10
456.3831733331916
 20
172.0145733332959
 30
0.0
 40
13.88453333332986
100
AcDbArc
 50
158.1334270000325
 51
201.8626279999897
  0
ARC
  5
197
330
1F
100
AcDbEntity
  8
DETAIL
100
AcDbCircle
 10
463.1429999998672
 20
160.5006133332999
 30
0.0
 40
20.6445466666615
100
AcDbArc
 50
162.1047780000218
 51
197.8912780000175
  0
ARC
  5
198
330
1F
100
AcDbEntity
  8
DETAIL
100
AcDbCircle
 10
443.6855466665638
 20
152.986239999965
 30
0.0
 40
1.187226666666369
100
AcDbArc
 50
99.14824600002727
 51
179.999013999997
  0
ARC
  5
199
330
1F
100
AcDbEntity
  8
DETAIL
100
AcDbCircle
 10
454.8110799998612
 20
152.9862799999664
 30
0.0
 40
1.187226666666369
100
AcDbArc
 50
359.999013999997
 51
80.84978199992594
  0
ARC
  5
19A
330
1F
100
AcDbEntity
  8
DETAIL
100
AcDbCircle
 10
435.3538933332183
 20
160.5013333333008
 30
0.0
 40
20.6445466666615
100
AcDbArc
 50
342.1067499999786
 51
17.8932500000213
  0
ARC
  5
19B
330
1F
100
AcDbEntity
  8
DETAIL
100
AcDbCircle
 10
442.1141066665458
 20
172.0150533332948
 30
0.0
 40
13.88453333332986
100
AcDbArc
 50
338.1353989999947
 51
21.86460100000519
  0
LINE
  5
19C
330
1F
100
AcDbEntity
  8
DETAIL
100
AcDbLine
 10
442.4983199998551
 20
152.8086666666284
 30
0.0
 11
443.4998799998593
 21
151.8141599999689
 31
0.0
  0
LINE
  5
19D
330
1F
100
AcDbEntity
  8
DETAIL
100
AcDbLine
 10
455.9983199998605
 20
152.8086666666284
 30
0.0
 11
454.9998799998937
 21
151.8141599999689
 31
0.0
  0
LINE
  5
19E
330
1F
100
AcDbEntity
  8
DETAIL
100
AcDbLine
 10
454.9998799998937
 20
177.1858533332896
 30
0.0
 11
455.9987199998503
 21
176.19134666663
 31
0.0
  0
LINE
  5
19F
330
1F
100
AcDbEntity
  8
DETAIL
100
AcDbLine
 10
443.4998799998593
 20
177.1858533332896
 30
0.0
 11
442.4987199998922
 21
176.19134666663
 31
0.0
  0
LINE
  5
1A0
330
1F
100
AcDbEntity
  8
DETAIL
100
AcDbLine
 10
454.9998799998937
 20
151.8141599999689
 30
0.0
 11
443.4998799998593
 21
151.8141599999689
 31
0.0
  0
LINE
  5
1A1
330
1F
100
AcDbEntity
  8
DETAIL
100
AcDbLine
 10
443.4998799998593
 20
154.1583999999643
 30
0.0
 11
454.9998799998937
 21
154.1583999999643
 31
0.0
  0
LINE
  5
1A2
330
1F
100
AcDbEntity
  8
DETAIL
100
AcDbLine
 10
443.4998799998593
 20
166.8442533332999
 30
0.0
 11
454.9998799998937
 21
166.8442533332999
 31
0.0
  0
LINE
  5
1A3
330
1F
100
AcDbEntity
  8
DETAIL
100
AcDbLine
 10
443.4998799998593
 20
177.1858533332896
 30
0.0
 11
454.9998799998937
 21
177.1858533332896
 31
0.0
  0
LINE
  5
1A4
330
1F
100
AcDbEntity
  8
DETAIL
100
AcDbLine
 10
440.4984666665512
 20
157.0003333332993
 30
0.0
 11
442.4983199998551
 21
157.0003333332993
 31
0.0
  0
LINE
  5
1A5
330
1F
100
AcDbEntity
  8
DETAIL
100
AcDbLine
 10
441.498813333199
 20
155.9999999999648
 30
0.0
 11
440.4984666665512
 21
157.0003333332993
 31
0.0
  0
LINE
  5
1A6
330
1F
100
AcDbEntity
  8
DETAIL
100
AcDbLine
 10
441.498813333199
 20
155.9999999999648
 30
0.0
 11
442.4983733332064
 21
155.9999999999648
 31
0.0
  0
LINE
  5
1A7
330
1F
100
AcDbEntity
  8
DETAIL
100
AcDbLine
 10
441.4979466665299
 20
172.9999999999618
 30
0.0
 11
440.4984133332
 21
172.0004666666313
 31
0.0
  0
LINE
  5
1A8
330
1F
100
AcDbEntity
  8
DETAIL
100
AcDbLine
 10
440.498333333222
 20
172.0006266666249
 30
0.0
 11
442.4987066665543
 21
172.0006266666249
 31
0.0
  0
LINE
  5
1A9
330
1F
100
AcDbEntity
  8
DETAIL
100
AcDbLine
 10
441.4979466665299
 20
172.9999999999618
 30
0.0
 11
442.4986666665408
 21
172.9999999999618
 31
0.0
  0
LINE
  5
1AA
330
1F
100
AcDbEntity
  8
DETAIL
100
AcDbLine
 10
441.498813333199
 20
155.9999999999648
 30
0.0
 11
441.498813333199
 21
172.9999999999618
 31
0.0
  0
LINE
  5
1AB
330
1F
100
AcDbEntity
  8
DETAIL
100
AcDbLine
 10
440.4984666665512
 20
157.0003333332993
 30
0.0
 11
440.4984133332
 21
172.0004533332935
 31
0.0
  0
LINE
  5
1AC
330
1F
100
AcDbEntity
  8
DETAIL
100
AcDbLine
 10
434.9999999998908
 20
171.9999999999644
 30
0.0
 11
440.5004533332121
 21
171.9999999999644
 31
0.0
  0
LINE
  5
1AD
330
1F
100
AcDbEntity
  8
DETAIL
100
AcDbLine
 10
419.4999999998671
 20
157.4999999999608
 30
0.0
 11
424.4095599998563
 21
157.4999999999608
 31
0.0
  0
ARC
  5
1AE
330
1F
100
AcDbEntity
  8
DETAIL
100
AcDbCircle
 10
419.4999999998671
 20
155.9999999999648
 30
0.0
 40
1.499999999999625
100
AcDbArc
 50
90.0
 51
180.0
  0
ARC
  5
1AF
330
1F
100
AcDbEntity
  8
DETAIL
100
AcDbCircle
 10
455.9983466665362
 20
154.9999999999613
 30
0.0
 40
1.999999999999499
100
AcDbArc
 50
270.0
 51
359.999013999997
  0
LINE
  5
1B0
330
1F
100
AcDbEntity
  8
DETAIL
100
AcDbLine
 10
455.9983199998605
 20
152.9999999999668
 30
0.0
 11
455.9983466665362
 21
152.9999999999668
 31
0.0
  0
LINE
  5
1B1
330
1F
100
AcDbEntity
  8
DETAIL
100
AcDbLine
 10
442.4987199998922
 20
176.19134666663
 30
0.0
 11
442.4983199998551
 21
152.8086666666284
 31
0.0
  0
ARC
  5
1B2
330
1F
100
AcDbEntity
  8
DETAIL
100
AcDbCircle
 10
455.998679999886
 20
173.9999999999589
 30
0.0
 40
1.999999999999499
100
AcDbArc
 50
359.999013999997
 51
90.0
  0
LINE
  5
1B3
330
1F
100
AcDbEntity
  8
DETAIL
100
AcDbLine
 10
443.499999999849
 20
90.9999999999809
 30
0.0
 11
444.4999999998598
 21
90.9999999999809
 31
0.0
  0
LINE
  5
1B4
330
1F
100
AcDbEntity
  8
DETAIL
100
AcDbLine
 10
422.1861199998638
 20
106.9999999999809
 30
0.0
 11
422.1861199998638
 21
105.0937199999784
 31
0.0
  0
LINE
  5
1B5
330
1F
100
AcDbEntity
  8
DETAIL
100
AcDbLine
 10
433.8138799998833
 20
106.9999999999809
 30
0.0
 11
433.8138799998833
 21
105.0937199999784
 31
0.0
  0
ELLIPSE
  5
1B6
330
1F
100
AcDbEntity
  8
DETAIL
100
AcDbEllipse
 10
427.9999999998854
 20
106.0468666666447
 30
0.0
 11
5.999999999998522
 21
0.0
 31
0.0
210
0.0
220
0.0
230
1.0
 40
0.642789
 41
3.391317168308817
 42
6.033460792460561
  0
ELLIPSE
  5
1B7
330
1F
100
AcDbEntity
  8
DETAIL
100
AcDbEllipse
 10
427.9999999998854
 20
106.0468666666447
 30
0.0
 11
5.999999999998522
 21
0.0
 31
0.0
210
0.0
220
0.0
230
1.0
 40
0.642789
 41
0.2497245147189283
 42
2.891868138870863
  0
LINE
  5
1B8
330
1F
100
AcDbEntity
  8
DETAIL
100
AcDbLine
 10
422.1861199998638
 20
106.9999999999809
 30
0.0
 11
417.9999999998763
 21
106.9999999999809
 31
0.0
  0
LINE
  5
1B9
330
1F
100
AcDbEntity
  8
DETAIL
100
AcDbLine
 10
441.7679466665486
 20
106.9999999999809
 30
0.0
 11
433.8138799998833
 21
106.9999999999809
 31
0.0
  0
LINE
  5
1BA
330
1F
100
AcDbEntity
  8
DETAIL
100
AcDbLine
 10
415.9999999998563
 20
119.3900666666445
 30
0.0
 11
412.9999999998782
 21
119.3900666666445
 31
0.0
  0
ARC
  5
1BB
330
1F
100
AcDbEntity
  8
DETAIL
100
AcDbCircle
 10
415.9999999998563
 20
117.3900666666377
 30
0.0
 40
1.999999999999499
100
AcDbArc
 50
0.0
 51
90.0
  0
ELLIPSE
  5
1BC
330
1F
100
AcDbEntity
  8
DETAIL
100
AcDbEllipse
 10
427.9999999998854
 20
92.0014666666493
 30
0.0
 11
5.999999999998522
 21
0.0
 31
0.0
210
0.0
220
0.0
230
1.0
 40
0.788011
 41
0.097961947649848
 42
3.043630705939941
  0
ARC
  5
1BD
330
1F
100
AcDbEntity
  8
DETAIL
100
AcDbCircle
 10
419.9999999998945
 20
89.99999999997772
 30
0.0
 40
1.999999999999499
100
AcDbArc
 50
49.84863499997427
 51
90.0
  0
ARC
  5
1BE
330
1F
100
AcDbEntity
  8
DETAIL
100
AcDbCircle
 10
435.9999999998525
 20
89.99999999997772
 30
0.0
 40
1.999999999999499
100
AcDbArc
 50
90.0
 51
130.1513650000257
  0
LINE
  5
1BF
330
1F
100
AcDbEntity
  8
DETAIL
100
AcDbLine
 10
422.9999999998743
 20
93.69273333331375
 30
0.0
 11
432.9999999998708
 21
93.69273333331375
 31
0.0
  0
LINE
  5
1C0
330
1F
100
AcDbEntity
  8
DETAIL
100
AcDbLine
 10
422.4999999998945
 20
113.9749199999723
 30
0.0
 11
422.4999999998945
 21
107.5882133333142
 31
0.0
  0
LINE
  5
1C1
330
1F
100
AcDbEntity
  8
DETAIL
100
AcDbLine
 10
429.4959333332261
 20
119.4033066666397
 30
0.0
 11
430.3663066665357
 21
119.0406133333035
 31
0.0
  0
LINE
  5
1C2
330
1F
100
AcDbEntity
  8
DETAIL
100
AcDbLine
 10
432.3499999998984
 20
116.1383199999741
 30
0.0
 11
432.3499999998984
 21
116.694386666642
 31
0.0
  0
LINE
  5
1C3
330
1F
100
AcDbEntity
  8
DETAIL
100
AcDbLine
 10
433.4999999998526
 20
113.9749199999723
 30
0.0
 11
433.4999999998526
 21
107.5882133333142
 31
0.0
  0
LINE
  5
1C4
330
1F
100
AcDbEntity
  8
DETAIL
100
AcDbLine
 10
425.6336933332113
 20
119.0406133333035
 30
0.0
 11
426.5040533332302
 21
119.4033066666397
 31
0.0
  0
ELLIPSE
  5
1C5
330
1F
100
AcDbEntity
  8
DETAIL
100
AcDbEllipse
 10
427.9999999998854
 20
116.6943866666432
 30
0.0
 11
4.349999999998943
 21
0.0
 31
0.0
210
0.0
220
0.0
230
1.0
 40
0.6427880000000002
 41
0.0
 42
3.141592653589792
  0
ELLIPSE
  5
1C6
330
1F
100
AcDbEntity
  8
DETAIL
100
AcDbEllipse
 10
427.9999999998854
 20
117.9200533333087
 30
0.0
 11
2.749999999999488
 21
0.0
 31
0.0
210
0.0
220
0.0
230
1.0
 40
0.642788
 41
0.9956258734241135
 42
2.14596688146128
  0
ELLIPSE
  5
1C7
330
1F
100
AcDbEntity
  8
DETAIL
100
AcDbEllipse
 10
427.9999999998854
 20
114.8558799999764
 30
0.0
 11
4.349999999998943
 21
0.0
 31
0.0
210
0.0
220
0.0
230
1.0
 40
0.6427880000000002
 41
0.9148718773232057
 42
2.226720776266399
  0
LINE
  5
1C8
330
1F
100
AcDbEntity
  8
DETAIL
100
AcDbLine
 10
423.6499999998978
 20
116.1383199999741
 30
0.0
 11
423.6499999998978
 21
116.694386666642
 31
0.0
  0
ELLIPSE
  5
1C9
330
1F
100
AcDbEntity
  8
DETAIL
100
AcDbEllipse
 10
427.9999999998854
 20
113.9749199999742
 30
0.0
 11
5.499999999998749
 21
0.0
 31
0.0
210
0.0
220
0.0
230
1.0
 40
0.642788
 41
0.0
 42
3.141592653589792
  0
LINE
  5
1CA
330
1F
100
AcDbEntity
  8
DETAIL
100
AcDbLine
 10
441.7679466665486
 20
91.99999999998452
 30
0.0
 11
435.9999999998525
 21
91.99999999998452
 31
0.0
  0
ARC
  5
1CB
330
1F
100
AcDbEntity
  8
DETAIL
100
AcDbCircle
 10
447.825933333208
 20
109.6919199999774
 30
0.0
 40
3.325933333332501
100
AcDbArc
 50
180.0
 51
225.6265000000341
  0
ARC
  5
1CC
330
1F
100
AcDbEntity
  8
DETAIL
100
AcDbCircle
 10
464.805119999879
 20
101.0208933333092
 30
0.0
 40
20.30511999999492
100
AcDbArc
 50
161.9435009999705
 51
198.0564990000292
  0
ARC
  5
1CD
330
1F
100
AcDbEntity
  8
DETAIL
100
AcDbCircle
 10
452.6330666665398
 20
90.82002666665038
 30
0.0
 40
8.133066666664632
100
AcDbArc
 50
151.2879560000375
 51
180.0
  0
ARC
  5
1CE
330
1F
100
AcDbEntity
  8
DETAIL
100
AcDbCircle
 10
454.6740666665153
 20
109.6919199999774
 30
0.0
 40
3.325933333332501
100
AcDbArc
 50
314.3734999999658
 51
0.0
  0
ARC
  5
1CF
330
1F
100
AcDbEntity
  8
DETAIL
100
AcDbCircle
 10
449.8669333331871
 20
90.82002666665038
 30
0.0
 40
8.133066666664632
100
AcDbArc
 50
0.0
 51
28.71204399996237
  0
ARC
  5
1D0
330
1F
100
AcDbEntity
  8
DETAIL
100
AcDbCircle
 10
437.6948799998954
 20
101.0208933333092
 30
0.0
 40
20.30511999999492
100
AcDbArc
 50
341.9435009999706
 51
18.05649900002936
  0
ARC
  5
1D1
330
1F
100
AcDbEntity
  8
DETAIL
100
AcDbCircle
 10
458.9999999998743
 20
109.4758933333136
 30
0.0
 40
0.9999999999997496
100
AcDbArc
 50
0.0
 51
90.0
  0
LINE
  5
1D2
330
1F
100
AcDbEntity
  8
DETAIL
100
AcDbLine
 10
445.499999999869
 20
112.0692933333061
 30
0.0
 11
444.4999999998598
 21
110.3372399999807
 31
0.0
  0
LINE
  5
1D3
330
1F
100
AcDbEntity
  8
DETAIL
100
AcDbLine
 10
456.9999999998564
 20
112.0692933333061
 30
0.0
 11
457.9999999998671
 21
110.3372399999807
 31
0.0
  0
LINE
  5
1D4
330
1F
100
AcDbEntity
  8
DETAIL
100
AcDbLine
 10
458.9999999998743
 20
110.4758933333109
 30
0.0
 11
457.9199466665468
 21
110.4758933333109
 31
0.0
  0
LINE
  5
1D5
330
1F
100
AcDbEntity
  8
DETAIL
100
AcDbLine
 10
445.499999999869
 20
112.0692933333061
 30
0.0
 11
456.9999999998564
 21
112.0692933333061
 31
0.0
  0
LINE
  5
1D6
330
1F
100
AcDbEntity
  8
DETAIL
100
AcDbLine
 10
445.499999999869
 20
107.3145599999747
 30
0.0
 11
456.9999999998564
 21
107.3145599999747
 31
0.0
  0
LINE
  5
1D7
330
1F
100
AcDbEntity
  8
DETAIL
100
AcDbLine
 10
445.499999999869
 20
94.7272266666437
 30
0.0
 11
456.9999999998564
 21
94.7272266666437
 31
0.0
  0
LINE
  5
1D8
330
1F
100
AcDbEntity
  8
DETAIL
100
AcDbLine
 10
441.7679466665486
 20
91.99999999998452
 30
0.0
 11
444.4999999998598
 21
91.99999999998452
 31
0.0
  0
LINE
  5
1D9
330
1F
100
AcDbEntity
  8
DETAIL
100
AcDbLine
 10
441.7679466665486
 20
106.9999999999809
 30
0.0
 11
444.4999999998598
 21
106.9999999999809
 31
0.0
  0
LINE
  5
1DA
330
1F
100
AcDbEntity
  8
DETAIL
100
AcDbLine
 10
441.7679466665486
 20
91.99999999998452
 30
0.0
 11
441.7679466665486
 21
106.9999999999809
 31
0.0
  0
LINE
  5
1DB
330
1F
100
AcDbEntity
  8
DETAIL
100
AcDbLine
 10
443.499999999849
 20
107.999999999978
 30
0.0
 11
441.7679466665486
 21
106.9999999999809
 31
0.0
  0
LINE
  5
1DC
330
1F
100
AcDbEntity
  8
DETAIL
100
AcDbLine
 10
443.499999999849
 20
90.9999999999809
 30
0.0
 11
441.7679466665486
 21
91.99999999998452
 31
0.0
  0
LINE
  5
1DD
330
1F
100
AcDbEntity
  8
DETAIL
100
AcDbLine
 10
443.499999999849
 20
90.9999999999809
 30
0.0
 11
443.499999999849
 21
107.999999999978
 31
0.0
  0
LINE
  5
1DE
330
1F
100
AcDbEntity
  8
DETAIL
100
AcDbLine
 10
443.499999999849
 20
107.999999999978
 30
0.0
 11
444.4999999998598
 21
107.999999999978
 31
0.0
  0
LINE
  5
1DF
330
1F
100
AcDbEntity
  8
DETAIL
100
AcDbLine
 10
419.9999999998945
 20
91.99999999998452
 30
0.0
 11
417.9999999998763
 21
91.99999999998452
 31
0.0
  0
LINE
  5
1E0
330
1F
100
AcDbEntity
  8
DETAIL
100
AcDbLine
 10
418.3749999998854
 20
91.47911999998084
 30
0.0
 11
417.9999999998763
 21
91.47911999998084
 31
0.0
  0
ARC
  5
1E1
330
1F
100
AcDbEntity
  8
DETAIL
100
AcDbCircle
 10
413.4744266665492
 20
113.3957199999794
 30
0.0
 40
7.65057333333142
100
AcDbArc
 50
309.8327710000756
 51
50.1672120000375
  0
LINE
  5
1E2
330
1F
100
AcDbEntity
  8
DETAIL
100
AcDbLine
 10
418.3749999998854
 20
107.5207199999786
 30
0.0
 11
418.3749999998854
 21
119.2707199999744
 31
0.0
  0
LINE
  5
1E3
330
1F
100
AcDbEntity
  8
DETAIL
100
AcDbLine
 10
417.9999999998763
 20
107.5207199999786
 30
0.0
 11
417.9999999998763
 21
119.2707199999744
 31
0.0
  0
LINE
  5
1E4
330
1F
100
AcDbEntity
  8
DETAIL
100
AcDbLine
 10
417.9999999998763
 20
107.5207199999786
 30
0.0
 11
418.3749999998854
 21
107.5207199999786
 31
0.0
  0
LINE
  5
1E5
330
1F
100
AcDbEntity
  8
DETAIL
100
AcDbLine
 10
418.3749999998854
 20
119.2707199999744
 30
0.0
 11
417.9999999998763
 21
119.2707199999744
 31
0.0
  0
LINE
  5
1E6
330
1F
100
AcDbEntity
  8
DETAIL
100
AcDbLine
 10
417.9999999998763
 20
143.0607199999703
 30
0.0
 11
418.3749999998854
 21
143.0607199999703
 31
0.0
  0
LINE
  5
1E7
330
1F
100
AcDbEntity
  8
DETAIL
100
AcDbLine
 10
417.9999999998763
 20
174.1886266666238
 30
0.0
 11
418.3749999998854
 21
174.1886266666238
 31
0.0
  0
ARC
  5
1E8
330
1F
100
AcDbEntity
  8
DETAIL
100
AcDbCircle
 10
413.4744266665492
 20
148.9357199999717
 30
0.0
 40
7.65057333333142
100
AcDbArc
 50
309.8327710000756
 51
50.1672120000375
  0
LINE
  5
1E9
330
1F
100
AcDbEntity
  8
DETAIL
100
AcDbLine
 10
418.3749999998854
 20
143.0607199999703
 30
0.0
 11
418.3749999998854
 21
154.8107199999661
 31
0.0
  0
LINE
  5
1EA
330
1F
100
AcDbEntity
  8
DETAIL
100
AcDbLine
 10
417.9999999998763
 20
143.0607199999703
 30
0.0
 11
417.9999999998763
 21
154.8107199999661
 31
0.0
  0
LINE
  5
1EB
330
1F
100
AcDbEntity
  8
DETAIL
100
AcDbLine
 10
418.3749999998854
 20
154.8107199999661
 30
0.0
 11
417.9999999998763
 21
154.8107199999661
 31
0.0
  0
LINE
  5
1EC
330
1F
100
AcDbEntity
  8
DETAIL
100
AcDbLine
 10
412.9999999998782
 20
186.0640133332913
 30
0.0
 11
412.9999999998782
 21
142.9359999999674
 31
0.0
  0
ARC
  5
1ED
330
1F
100
AcDbEntity
  8
DETAIL
100
AcDbCircle
 10
415.9999999998563
 20
184.0640133332904
 30
0.0
 40
1.999999999999499
100
AcDbArc
 50
0.0
 51
90.0
  0
ARC
  5
1EE
330
1F
100
AcDbEntity
  8
DETAIL
100
AcDbCircle
 10
413.4744266665492
 20
180.0636266666251
 30
0.0
 40
7.65057333333142
100
AcDbArc
 50
309.8327710000756
 51
50.1672120000375
  0
LINE
  5
1EF
330
1F
100
AcDbEntity
  8
DETAIL
100
AcDbLine
 10
418.3749999998854
 20
174.1886266666238
 30
0.0
 11
418.3749999998854
 21
185.938626666626
 31
0.0
  0
LINE
  5
1F0
330
1F
100
AcDbEntity
  8
DETAIL
100
AcDbLine
 10
417.9999999998763
 20
174.1886266666238
 30
0.0
 11
417.9999999998763
 21
185.938626666626
 31
0.0
  0
ARC
  5
1F1
330
1F
100
AcDbEntity
  8
DETAIL
100
AcDbCircle
 10
430.9999999998527
 20
313.4887999999236
 30
0.0
 40
0.9999999999997496
100
AcDbArc
 50
0.0
 51
72.99999999996564
  0
LINE
  5
1F2
330
1F
100
AcDbEntity
  8
DETAIL
100
AcDbLine
 10
427.9999999998745
 20
319.1614133332576
 30
0.0
 11
427.9999999998745
 21
315.8216666665917
 31
0.0
  0
LINE
  5
1F3
330
1F
100
AcDbEntity
  8
DETAIL
100
AcDbLine
 10
428.353813333224
 20
315.3435199999211
 30
0.0
 11
431.2923733332118
 21
314.4451066665901
 31
0.0
  0
ARC
  5
1F4
330
1F
100
AcDbEntity
  8
DETAIL
100
AcDbCircle
 10
428.4999999998525
 20
315.8216666665917
 30
0.0
 40
0.499999999999875
100
AcDbArc
 50
180.0
 51
252.9999999999656
  0
LINE
  5
1F5
330
1F
100
AcDbEntity
  8
DETAIL
100
AcDbLine
 10
431.9999999998636
 20
313.4614399999258
 30
0.0
 11
431.9999999998636
 21
310.332866666596
 31
0.0
  0
ARC
  5
1F6
330
1F
100
AcDbEntity
  8
DETAIL
100
AcDbCircle
 10
428.4999999998525
 20
319.1614133332576
 30
0.0
 40
0.499999999999875
100
AcDbArc
 50
76.99999999997752
 51
180.0
  0
ARC
  5
1F7
330
1F
100
AcDbEntity
  8
DETAIL
100
AcDbCircle
 10
430.9999999998527
 20
320.1236933332547
 30
0.0
 40
0.9999999999997496
100
AcDbArc
 50
256.9999999999775
 51
0.0
  0
LINE
  5
1F8
330
1F
100
AcDbEntity
  8
DETAIL
100
AcDbLine
 10
430.7750399999003
 20
319.149333333255
 30
0.0
 11
428.6124666665655
 21
319.6485999999207
 31
0.0
  0
LINE
  5
1F9
330
1F
100
AcDbEntity
  8
DETAIL
100
AcDbLine
 10
431.9999999998636
 20
323.2796266665946
 30
0.0
 11
431.9999999998636
 21
320.1236933332547
 31
0.0
  0
ARC
  5
1FA
330
1F
100
AcDbEntity
  8
DETAIL
100
AcDbCircle
 10
429.4999999998635
 20
324.9845866665941
 30
0.0
 40
0.499999999999875
100
AcDbArc
 50
180.0
 51
253.9999999999093
  0
ARC
  5
1FB
330
1F
100
AcDbEntity
  8
DETAIL
100
AcDbCircle
 10
430.9999999998527
 20
322.994026666594
 30
0.0
 40
0.9999999999997496
100
AcDbArc
 50
0.0
 51
73.99999999990932
  0
LINE
  5
1FC
330
1F
100
AcDbEntity
  8
DETAIL
100
AcDbLine
 10
431.9999999998636
 20
322.994026666594
 30
0.0
 11
431.9999999998636
 21
319.9145333332538
 31
0.0
  0
LINE
  5
1FD
330
1F
100
AcDbEntity
  8
DETAIL
100
AcDbLine
 10
429.3621733332019
 20
324.5039599999208
 30
0.0
 11
431.2756399998888
 21
323.9552799999223
 31
0.0
  0
ARC
  5
1FE
330
1F
100
AcDbEntity
  8
DETAIL
100
AcDbCircle
 10
430.9999999998527
 20
264.5346533332676
 30
0.0
 40
0.9999999999997496
100
AcDbArc
 50
0.0
 51
72.99999999996564
  0
LINE
  5
1FF
330
1F
100
AcDbEntity
  8
DETAIL
100
AcDbLine
 10
427.9999999998745
 20
270.2072666666021
 30
0.0
 11
427.9999999998745
 21
266.8675199999356
 31
0.0
  0
LINE
  5
200
330
1F
100
AcDbEntity
  8
DETAIL
100
AcDbLine
 10
428.353813333224
 20
266.3893733332711
 30
0.0
 11
431.2923733332118
 21
265.490959999934
 31
0.0
  0
ARC
  5
201
330
1F
100
AcDbEntity
  8
DETAIL
100
AcDbCircle
 10
428.4999999998525
 20
266.8675199999356
 30
0.0
 40
0.499999999999875
100
AcDbArc
 50
180.0
 51
252.9999999999656
  0
ARC
  5
202
330
1F
100
AcDbEntity
  8
DETAIL
100
AcDbCircle
 10
430.9999999998527
 20
274.3254799999385
 30
0.0
 40
0.9999999999997496
100
AcDbArc
 50
0.0
 51
72.99999999996564
  0
LINE
  5
203
330
1F
100
AcDbEntity
  8
DETAIL
100
AcDbLine
 10
427.9999999998745
 20
279.9980933332666
 30
0.0
 11
427.9999999998745
 21
276.6583466666006
 31
0.0
  0
LINE
  5
204
330
1F
100
AcDbEntity
  8
DETAIL
100
AcDbLine
 10
428.353813333224
 20
276.1801999999361
 30
0.0
 11
431.2923733332118
 21
275.2817866666049
 31
0.0
  0
ARC
  5
205
330
1F
100
AcDbEntity
  8
DETAIL
100
AcDbCircle
 10
428.4999999998525
 20
276.6583466666006
 30
0.0
 40
0.499999999999875
100
AcDbArc
 50
180.0
 51
252.9999999999656
  0
ARC
  5
206
330
1F
100
AcDbEntity
  8
DETAIL
100
AcDbCircle
 10
430.9999999998527
 20
284.1163199999349
 30
0.0
 40
0.9999999999997496
100
AcDbArc
 50
0.0
 51
72.99999999996564
  0
LINE
  5
207
330
1F
100
AcDbEntity
  8
DETAIL
100
AcDbLine
 10
427.9999999998745
 20
289.7889199999316
 30
0.0
 11
427.9999999998745
 21
286.4491733332652
 31
0.0
  0
LINE
  5
208
330
1F
100
AcDbEntity
  8
DETAIL
100
AcDbLine
 10
428.353813333224
 20
285.9710266666011
 30
0.0
 11
431.2923733332118
 21
285.0726133332636
 31
0.0
  0
ARC
  5
209
330
1F
100
AcDbEntity
  8
DETAIL
100
AcDbCircle
 10
428.4999999998525
 20
286.4491733332652
 30
0.0
 40
0.499999999999875
100
AcDbArc
 50
180.0
 51
252.9999999999656
  0
ARC
  5
20A
330
1F
100
AcDbEntity
  8
DETAIL
100
AcDbCircle
 10
430.9999999998527
 20
293.9071466665936
 30
0.0
 40
0.9999999999997496
100
AcDbArc
 50
0.0
 51
72.99999999996564
  0
LINE
  5
20B
330
1F
100
AcDbEntity
  8
DETAIL
100
AcDbLine
 10
427.9999999998745
 20
299.5797466665962
 30
0.0
 11
427.9999999998745
 21
296.2400133332621
 31
0.0
  0
LINE
  5
20C
330
1F
100
AcDbEntity
  8
DETAIL
100
AcDbLine
 10
428.353813333224
 20
295.7618533332655
 30
0.0
 11
431.2923733332118
 21
294.8634533332606
 31
0.0
  0
ARC
  5
20D
330
1F
100
AcDbEntity
  8
DETAIL
100
AcDbCircle
 10
428.4999999998525
 20
296.2400133332621
 30
0.0
 40
0.499999999999875
100
AcDbArc
 50
180.0
 51
252.9999999999656
  0
ARC
  5
20E
330
1F
100
AcDbEntity
  8
DETAIL
100
AcDbCircle
 10
430.9999999998527
 20
303.6979733332646
 30
0.0
 40
0.9999999999997496
100
AcDbArc
 50
0.0
 51
72.99999999996564
  0
LINE
  5
20F
330
1F
100
AcDbEntity
  8
DETAIL
100
AcDbLine
 10
427.9999999998745
 20
309.3705866665931
 30
0.0
 11
427.9999999998745
 21
306.0308399999267
 31
0.0
  0
LINE
  5
210
330
1F
100
AcDbEntity
  8
DETAIL
100
AcDbLine
 10
428.353813333224
 20
305.5526799999241
 30
0.0
 11
431.2923733332118
 21
304.6542799999314
 31
0.0
  0
ARC
  5
211
330
1F
100
AcDbEntity
  8
DETAIL
100
AcDbCircle
 10
428.4999999998525
 20
306.0308399999267
 30
0.0
 40
0.499999999999875
100
AcDbArc
 50
180.0
 51
252.9999999999656
  0
LINE
  5
212
330
1F
100
AcDbEntity
  8
DETAIL
100
AcDbLine
 10
430.7750399999003
 20
299.5676666665995
 30
0.0
 11
428.6124666665655
 21
300.0669333332651
 31
0.0
  0
ARC
  5
213
330
1F
100
AcDbEntity
  8
DETAIL
100
AcDbCircle
 10
428.4999999998525
 20
299.5797466665962
 30
0.0
 40
0.499999999999875
100
AcDbArc
 50
76.99999999997752
 51
180.0
  0
LINE
  5
214
330
1F
100
AcDbEntity
  8
DETAIL
100
AcDbLine
 10
431.9999999998636
 20
264.5346533332676
 30
0.0
 11
431.9999999998636
 21
233.5920799999462
 31
0.0
  0
LINE
  5
215
330
1F
100
AcDbEntity
  8
DETAIL
100
AcDbLine
 10
431.9999999998636
 20
274.2981199999348
 30
0.0
 11
431.9999999998636
 21
271.1695466665992
 31
0.0
  0
ARC
  5
216
330
1F
100
AcDbEntity
  8
DETAIL
100
AcDbCircle
 10
430.9999999998527
 20
271.1695466665992
 30
0.0
 40
0.9999999999997496
100
AcDbArc
 50
256.9999999999775
 51
0.0
  0
LINE
  5
217
330
1F
100
AcDbEntity
  8
DETAIL
100
AcDbLine
 10
430.7750399999003
 20
270.1951866665989
 30
0.0
 11
428.6124666665655
 21
270.6944533332706
 31
0.0
  0
ARC
  5
218
330
1F
100
AcDbEntity
  8
DETAIL
100
AcDbCircle
 10
428.4999999998525
 20
270.2072666666021
 30
0.0
 40
0.499999999999875
100
AcDbArc
 50
76.99999999997752
 51
180.0
  0
LINE
  5
219
330
1F
100
AcDbEntity
  8
DETAIL
100
AcDbLine
 10
431.9999999998636
 20
284.0889466665993
 30
0.0
 11
431.9999999998636
 21
280.9603733332701
 31
0.0
  0
ARC
  5
21A
330
1F
100
AcDbEntity
  8
DETAIL
100
AcDbCircle
 10
430.9999999998527
 20
280.9603733332701
 30
0.0
 40
0.9999999999997496
100
AcDbArc
 50
256.9999999999775
 51
0.0
  0
LINE
  5
21B
330
1F
100
AcDbEntity
  8
DETAIL
100
AcDbLine
 10
430.7750399999003
 20
279.9860133332699
 30
0.0
 11
428.6124666665655
 21
280.4852799999356
 31
0.0
  0
ARC
  5
21C
330
1F
100
AcDbEntity
  8
DETAIL
100
AcDbCircle
 10
428.4999999998525
 20
279.9980933332666
 30
0.0
 40
0.499999999999875
100
AcDbArc
 50
76.99999999997752
 51
180.0
  0
LINE
  5
21D
330
1F
100
AcDbEntity
  8
DETAIL
100
AcDbLine
 10
431.9999999998636
 20
293.8797733332643
 30
0.0
 11
431.9999999998636
 21
290.7512133332664
 31
0.0
  0
ARC
  5
21E
330
1F
100
AcDbEntity
  8
DETAIL
100
AcDbCircle
 10
430.9999999998527
 20
290.7512133332664
 30
0.0
 40
0.9999999999997496
100
AcDbArc
 50
256.9999999999775
 51
0.0
  0
LINE
  5
21F
330
1F
100
AcDbEntity
  8
DETAIL
100
AcDbLine
 10
430.7750399999003
 20
289.7768399999285
 30
0.0
 11
428.6124666665655
 21
290.2761066665943
 31
0.0
  0
ARC
  5
220
330
1F
100
AcDbEntity
  8
DETAIL
100
AcDbCircle
 10
428.4999999998525
 20
289.7889199999316
 30
0.0
 40
0.499999999999875
100
AcDbArc
 50
76.99999999997752
 51
180.0
  0
LINE
  5
221
330
1F
100
AcDbEntity
  8
DETAIL
100
AcDbLine
 10
431.9999999998636
 20
303.6706133332608
 30
0.0
 11
431.9999999998636
 21
300.5420399999251
 31
0.0
  0
ARC
  5
222
330
1F
100
AcDbEntity
  8
DETAIL
100
AcDbCircle
 10
430.9999999998527
 20
300.5420399999251
 30
0.0
 40
0.9999999999997496
100
AcDbArc
 50
256.9999999999775
 51
0.0
  0
LINE
  5
223
330
1F
100
AcDbEntity
  8
DETAIL
100
AcDbLine
 10
447.8473940944694
 20
218.6268817858763
 30
0.0
 11
433.4152533332106
 21
225.179346666614
 31
0.0
  0
ARC
  5
224
330
1F
100
AcDbEntity
  8
DETAIL
100
AcDbCircle
 10
433.9999999998816
 20
227.0919599999473
 30
0.0
 40
1.999999999999499
100
AcDbArc
 50
180.0
 51
252.9999999999656
  0
LINE
  5
225
330
1F
100
AcDbEntity
  8
DETAIL
100
AcDbLine
 10
431.9999999998636
 20
233.5920799999462
 30
0.0
 11
431.9999999998636
 21
227.0919599999473
 31
0.0
  0
ARC
  5
226
330
1F
100
AcDbEntity
  8
DETAIL
100
AcDbCircle
 10
430.9999999998527
 20
310.332866666596
 30
0.0
 40
0.9999999999997496
100
AcDbArc
 50
256.9999999999775
 51
0.0
  0
LINE
  5
227
330
1F
100
AcDbEntity
  8
DETAIL
100
AcDbLine
 10
430.7750399999003
 20
309.3584933332586
 30
0.0
 11
428.6124666665655
 21
309.8577733332621
 31
0.0
  0
ARC
  5
228
330
1F
100
AcDbEntity
  8
DETAIL
100
AcDbCircle
 10
428.4999999998525
 20
309.3705866665931
 30
0.0
 40
0.499999999999875
100
AcDbArc
 50
76.99999999997752
 51
180.0
  0
LINE
  5
229
330
1F
100
AcDbEntity
  8
DETAIL
100
AcDbLine
 10
396.9999999998824
 20
603.5000065353425
 30
0.0
 11
0.0000000000115392
 21
603.5000065353425
 31
0.0
  0
LINE
  5
22A
330
1F
100
AcDbEntity
  8
DETAIL
100
AcDbLine
 10
0.0000000000115392
 20
628.5000065353361
 30
0.0
 11
359.7641466665852
 21
628.5000065353361
 31
0.0
  0
LINE
  5
22B
330
1F
100
AcDbEntity
  8
DETAIL
100
AcDbLine
 10
0.0000000000115392
 20
630.0000065353319
 30
0.0
 11
359.7641466665852
 21
630.0000065353319
 31
0.0
  0
LINE
  5
22C
330
1F
100
AcDbEntity
  8
DETAIL
100
AcDbLine
 10
-332.7999999999537
 20
586.1193132020092
 30
0.0
 11
-332.7999999999537
 21
582.5000065353383
 31
0.0
  0
LINE
  5
22D
330
1F
100
AcDbEntity
  8
DETAIL
100
AcDbLine
 10
-330.2999999999538
 20
586.1193132020092
 30
0.0
 11
-330.2999999999538
 21
582.5000065353383
 31
0.0
  0
LINE
  5
22E
330
1F
100
AcDbEntity
  8
DETAIL
100
AcDbLine
 10
137.7999999999538
 20
586.1193132020092
 30
0.0
 11
135.2999999999536
 21
586.1193132020092
 31
0.0
  0
LINE
  5
22F
330
1F
100
AcDbEntity
  8
DETAIL
100
AcDbLine
 10
431.9999999998751
 20
541.5905798686903
 30
0.0
 11
431.9999999998751
 21
552.4284198686915
 31
0.0
  0
LINE
  5
230
330
1F
100
AcDbEntity
  8
DETAIL
100
AcDbLine
 10
428.3251466665631
 20
538.6674598686949
 30
0.0
 11
412.3514399999172
 21
542.3552865353587
 31
0.0
  0
ARC
  5
231
330
1F
100
AcDbEntity
  8
DETAIL
100
AcDbCircle
 10
428.9999999998931
 20
541.5905798686903
 30
0.0
 40
2.99999999999925
100
AcDbArc
 50
256.9999999999775
 51
0.0
  0
LINE
  5
232
330
1F
100
AcDbEntity
  8
DETAIL
100
AcDbLine
 10
409.9015333332305
 20
540.4065532020272
 30
0.0
 11
409.9015333332305
 21
522.2793398687008
 31
0.0
  0
ARC
  5
233
330
1F
100
AcDbEntity
  8
DETAIL
100
AcDbCircle
 10
411.9015333332505
 20
522.2793398687008
 30
0.0
 40
1.999999999999499
100
AcDbArc
 50
180.0
 51
244.9999999999239
  0
ARC
  5
234
330
1F
100
AcDbEntity
  8
DETAIL
100
AcDbCircle
 10
411.9015333332505
 20
540.4065532020272
 30
0.0
 40
1.999999999999499
100
AcDbArc
 50
76.99999999997752
 51
180.0
  0
LINE
  5
235
330
1F
100
AcDbEntity
  8
DETAIL
100
AcDbLine
 10
430.8452399999084
 20
511.2389798686972
 30
0.0
 11
411.0562933332464
 21
520.4667132020317
 31
0.0
  0
ARC
  5
236
330
1F
100
AcDbEntity
  8
DETAIL
100
AcDbCircle
 10
429.4999999998635
 20
339.2194266665868
 30
0.0
 40
0.499999999999875
100
AcDbArc
 50
78.00000000003524
 51
180.0
  0
LINE
  5
237
330
1F
100
AcDbEntity
  8
DETAIL
100
AcDbLine
 10
429.6039599998893
 20
339.7084933332493
 30
0.0
 11
430.7920799998956
 21
339.455946666585
 31
0.0
  0
LINE
  5
238
330
1F
100
AcDbEntity
  8
DETAIL
100
AcDbLine
 10
401.9999999998708
 20
378.9999999999081
 30
0.0
 11
401.9999999998708
 21
380.9999999999086
 31
0.0
  0
LINE
  5
239
330
1F
100
AcDbEntity
  8
DETAIL
100
AcDbLine
 10
431.9999999998636
 20
340.4340933332546
 30
0.0
 11
432.0000034764243
 21
509.4263642946255
 31
0.0
  0
LINE
  5
23A
330
1F
100
AcDbEntity
  8
DETAIL
100
AcDbLine
 10
399.9999999998999
 20
422.8499999998988
 30
0.0
 11
399.9999999998999
 21
427.5999999999016
 31
0.0
  0
LINE
  5
23B
330
1F
100
AcDbEntity
  8
DETAIL
100
AcDbLine
 10
399.9999999998999
 20
432.3499999998979
 30
0.0
 11
399.9999999998999
 21
427.5999999999016
 31
0.0
  0
ARC
  5
23C
330
1F
100
AcDbEntity
  8
DETAIL
100
AcDbCircle
 10
430.0000034764249
 20
509.4263642946255
 30
0.0
 40
1.999999999999499
100
AcDbArc
 50
0.0
 51
64.9999999999239
  0
LINE
  5
23D
330
1F
100
AcDbEntity
  8
DETAIL
100
AcDbLine
 10
386.7271333332488
 20
624.7964065353349
 30
0.0
 11
394.8481466665386
 21
622.5225265353425
 31
0.0
  0
ARC
  5
23E
330
1F
100
AcDbEntity
  8
DETAIL
100
AcDbCircle
 10
359.7641466665852
 20
528.500006535361
 30
0.0
 40
99.99999999997497
100
AcDbArc
 50
74.35775400003125
 51
90.0
  0
ARC
  5
23F
330
1F
100
AcDbEntity
  8
DETAIL
100
AcDbCircle
 10
361.1469796978594
 20
731.6618860464303
 30
0.0
 40
101.6712839149811
100
AcDbArc
 50
269.2206950045902
 51
270.7791753202394
  0
LINE
  5
240
330
1F
100
AcDbEntity
  8
DETAIL
100
AcDbLine
 10
363.4999999998824
 20
628.9627665353393
 30
0.0
 11
363.4999999998824
 21
628.2446353483273
 31
0.0
  0
ARC
  5
241
330
1F
100
AcDbEntity
  8
DETAIL
100
AcDbCircle
 10
362.4301169700889
 20
628.9343757435727
 30
0.0
 40
1.070259657549592
100
AcDbArc
 50
1.520064192862901
 51
84.6674631964448
  0
ARC
  5
242
330
1F
100
AcDbEntity
  8
DETAIL
100
AcDbCircle
 10
151.4999999999507
 20
577.5000065353391
 30
0.0
 40
4.999999999998748
100
AcDbArc
 50
0.0
 51
90.0
  0
ARC
  5
243
330
1F
100
AcDbEntity
  8
DETAIL
100
AcDbCircle
 10
400.9999999998327
 20
599.6967798686779
 30
0.0
 40
0.9999999999997496
100
AcDbArc
 50
0.0
 51
75.00000000000554
  0
LINE
  5
244
330
1F
100
AcDbEntity
  8
DETAIL
100
AcDbLine
 10
401.2588133331813
 20
600.662713202014
 30
0.0
 11
399.9999599999991
 21
601.000006535343
 31
0.0
  0
ARC
  5
245
330
1F
100
AcDbEntity
  8
DETAIL
100
AcDbCircle
 10
426.9999999998751
 20
552.4284198686915
 30
0.0
 40
4.999999999998748
100
AcDbArc
 50
0.0
 51
66.00000000002022
  0
LINE
  5
246
330
1F
100
AcDbEntity
  8
DETAIL
100
AcDbLine
 10
419.0336799999008
 20
561.448433202021
 30
0.0
 11
421.9999999998768
 21
560.1277398686875
 31
0.0
  0
ARC
  5
247
330
1F
100
AcDbEntity
  8
DETAIL
100
AcDbCircle
 10
402.4999999999114
 20
569.3570198686853
 30
0.0
 40
0.499999999999875
100
AcDbArc
 50
180.0
 51
246.0000000000202
  0
LINE
  5
248
330
1F
100
AcDbEntity
  8
DETAIL
100
AcDbLine
 10
402.2966266665595
 20
568.90024653535
 30
0.0
 11
429.0336799998974
 21
556.9961398686914
 31
0.0
  0
ARC
  5
249
330
1F
100
AcDbEntity
  8
DETAIL
100
AcDbCircle
 10
398.5000282831446
 20
601.0000748172006
 30
0.0
 40
1.49993171840867
100
AcDbArc
 50
359.9973917064291
 51
90.00108039056987
  0
ARC
  5
24A
330
1F
100
AcDbEntity
  8
DETAIL
100
AcDbCircle
 10
397.6999999999049
 20
605.0000065353383
 30
0.0
 40
2.499999999999374
100
AcDbArc
 50
216.8698979999641
 51
270.0
  0
ARC
  5
24B
330
1F
100
AcDbEntity
  8
DETAIL
100
AcDbCircle
 10
396.9999999998824
 20
605.0000065353383
 30
0.0
 40
1.499999999999625
100
AcDbArc
 50
270.0
 51
0.0
  0
LINE
  5
24C
330
1F
100
AcDbEntity
  8
DETAIL
100
AcDbLine
 10
398.4999999998732
 20
605.0000065353383
 30
0.0
 11
398.4999999998732
 21
617.707713202008
 31
0.0
  0
ARC
  5
24D
330
1F
100
AcDbEntity
  8
DETAIL
100
AcDbCircle
 10
393.499999999875
 20
617.707713202008
 30
0.0
 40
4.999999999998748
100
AcDbArc
 50
0.0
 51
74.35775400003125
  0
LINE
  5
24E
330
1F
100
AcDbEntity
  8
DETAIL
100
AcDbLine
 10
-341.7449969012068
 20
87.59126956017235
 30
0.0
 11
-340.7450748705578
 21
87.59126683731984
 31
0.0
  0
ARC
  5
24F
330
1F
100
AcDbEntity
  8
DETAIL
100
AcDbCircle
 10
-339.7285153661159
 20
87.11656731966853
 30
0.0
 40
1.016638307944892
100
AcDbArc
 50
180.6793031412369
 51
270.0142035915536
  0
LINE
  5
250
330
1F
100
AcDbEntity
  8
DETAIL
100
AcDbLine
 10
-340.745082222229
 20
87.10451426056488
 30
0.0
 11
-340.7450748705578
 21
87.59126683731984
 31
0.0
  0
LINE
  5
251
330
1F
100
AcDbEntity
  8
DETAIL
100
AcDbLine
 10
-339.7405941055458
 20
86.09992946317605
 30
0.0
 11
-339.2537293903423
 21
86.0998455738004
 31
0.0
  0
LINE
  5
252
330
1F
100
AcDbEntity
  8
DETAIL
100
AcDbLine
 10
-339.2537293903423
 20
86.0998455738004
 30
0.0
 11
-339.2537321132384
 21
85.09992354314409
 31
0.0
  0
LINE
  5
253
330
1F
100
AcDbEntity
  8
DETAIL
100
AcDbLine
 10
-339.2537321132384
 20
85.09992354314409
 30
0.0
 11
-339.7404846901316
 21
85.09993089482987
 31
0.0
  0
ARC
  5
254
330
1F
100
AcDbEntity
  8
DETAIL
100
AcDbCircle
 10
-339.7287813307089
 20
84.08430954696816
 30
0.0
 40
1.015688776571959
100
AcDbArc
 50
90.66021005215835
 51
177.6724019152206
  0
LINE
  5
255
330
1F
100
AcDbEntity
  8
DETAIL
100
AcDbLine
 10
-340.7451533767288
 20
83.60857806297962
 30
0.0
 11
-340.7436321118566
 21
84.12555979372655
 31
0.0
  0
LINE
  5
256
330
1F
100
AcDbEntity
  8
DETAIL
100
AcDbLine
 10
-340.7451533767288
 20
83.60857806297962
 30
0.0
 11
-341.7450753521825
 21
83.60858078392585
 31
0.0
  0
ARC
  5
257
330
1F
100
AcDbEntity
  8
DETAIL
100
AcDbCircle
 10
-342.7614367500913
 20
84.0843728081777
 30
0.0
 40
1.015688776571959
100
AcDbArc
 50
2.32520770419903
 51
89.33739956726141
  0
LINE
  5
258
330
1F
100
AcDbEntity
  8
DETAIL
100
AcDbLine
 10
-343.2364435957206
 20
85.10000662252878
 30
0.0
 11
-342.7496910189443
 21
85.09999366689134
 31
0.0
  0
LINE
  5
259
330
1F
100
AcDbEntity
  8
DETAIL
100
AcDbLine
 10
-343.2364046018583
 20
86.09992865242813
 30
0.0
 11
-343.2364435957206
 21
85.10000662252878
 31
0.0
  0
LINE
  5
25A
330
1F
100
AcDbEntity
  8
DETAIL
100
AcDbLine
 10
-342.7495398835787
 20
86.0999922298024
 30
0.0
 11
-343.2364046018583
 21
86.09992865242813
 31
0.0
  0
ARC
  5
25B
330
1F
100
AcDbEntity
  8
DETAIL
100
AcDbCircle
 10
-342.7615762088549
 20
87.11663058933527
 30
0.0
 40
1.016638307944892
100
AcDbArc
 50
269.9834060278661
 51
359.3183064781829
  0
LINE
  5
25C
330
1F
100
AcDbEntity
  8
DETAIL
100
AcDbLine
 10
-341.7450098564803
 20
87.10453511906123
 30
0.0
 11
-341.7449969008285
 21
87.5912876956993
 31
0.0
  0
LINE
  5
25D
330
1F
100
AcDbEntity
  8
DETAIL
100
AcDbLine
 10
-341.7450845524788
 20
83.60859892154984
 30
0.0
 11
-341.7465842488661
 21
84.12558071531404
 31
0.0
  0
LINE
  5
25E
330
1F
100
AcDbEntity
  8
DETAIL
100
AcDbLine
 10
145.7450621140789
 20
83.60859892154984
 30
0.0
 11
145.7435624176916
 21
84.12558071531404
 31
0.0
  0
LINE
  5
25F
330
1F
100
AcDbEntity
  8
DETAIL
100
AcDbLine
 10
145.7451368100772
 20
87.10453511906123
 30
0.0
 11
145.7451497657293
 21
87.5912876956993
 31
0.0
  0
ARC
  5
260
330
1F
100
AcDbEntity
  8
DETAIL
100
AcDbCircle
 10
144.7285704577029
 20
87.11663058933527
 30
0.0
 40
1.016638307944892
100
AcDbArc
 50
269.9834060278661
 51
359.3183064781829
  0
LINE
  5
261
330
1F
100
AcDbEntity
  8
DETAIL
100
AcDbLine
 10
144.740606782979
 20
86.0999922298024
 30
0.0
 11
144.2537420646995
 21
86.09992865242813
 31
0.0
  0
LINE
  5
262
330
1F
100
AcDbEntity
  8
DETAIL
100
AcDbLine
 10
144.2537420646995
 20
86.09992865242813
 30
0.0
 11
144.2537030708371
 21
85.10000662252878
 31
0.0
  0
LINE
  5
263
330
1F
100
AcDbEntity
  8
DETAIL
100
AcDbLine
 10
144.2537030708371
 20
85.10000662252878
 30
0.0
 11
144.7404556476134
 21
85.09999366689134
 31
0.0
  0
ARC
  5
264
330
1F
100
AcDbEntity
  8
DETAIL
100
AcDbCircle
 10
144.7287099164664
 20
84.0843728081777
 30
0.0
 40
1.015688776571959
100
AcDbArc
 50
2.32520770419903
 51
89.33739956726141
  0
LINE
  5
265
330
1F
100
AcDbEntity
  8
DETAIL
100
AcDbLine
 10
146.7449932898289
 20
83.60857806297962
 30
0.0
 11
146.7465145547012
 21
84.12555979372655
 31
0.0
  0
LINE
  5
266
330
1F
100
AcDbEntity
  8
DETAIL
100
AcDbLine
 10
146.7449932898289
 20
83.60857806297962
 30
0.0
 11
145.7450713143753
 21
83.60858078392585
 31
0.0
  0
ARC
  5
267
330
1F
100
AcDbEntity
  8
DETAIL
100
AcDbCircle
 10
147.7613653358488
 20
84.08430954696816
 30
0.0
 40
1.015688776571959
100
AcDbArc
 50
90.66021005215835
 51
177.6724019152206
  0
LINE
  5
268
330
1F
100
AcDbEntity
  8
DETAIL
100
AcDbLine
 10
148.2364145533191
 20
85.09992354314409
 30
0.0
 11
147.7496619764259
 21
85.09993089482987
 31
0.0
  0
LINE
  5
269
330
1F
100
AcDbEntity
  8
DETAIL
100
AcDbLine
 10
148.2364172762154
 20
86.0998455738004
 30
0.0
 11
148.2364145533191
 21
85.09992354314409
 31
0.0
  0
LINE
  5
26A
330
1F
100
AcDbEntity
  8
DETAIL
100
AcDbLine
 10
147.7495525610119
 20
86.09992946317605
 30
0.0
 11
148.2364172762154
 21
86.0998455738004
 31
0.0
  0
LINE
  5
26B
330
1F
100
AcDbEntity
  8
DETAIL
100
AcDbLine
 10
146.7450644443287
 20
87.10451426056488
 30
0.0
 11
146.745071796
 21
87.59126683731984
 31
0.0
  0
ARC
  5
26C
330
1F
100
AcDbEntity
  8
DETAIL
100
AcDbCircle
 10
147.7616313004416
 20
87.11656731966853
 30
0.0
 40
1.016638307944892
100
AcDbArc
 50
180.6793031412369
 51
270.0142035915536
  0
LINE
  5
26D
330
1F
100
AcDbEntity
  8
DETAIL
100
AcDbLine
 10
145.745149765351
 20
87.59126956017235
 30
0.0
 11
146.745071796
 21
87.59126683731984
 31
0.0
  0
LINE
  5
26E
330
1F
100
AcDbEntity
  8
DETAIL
100
AcDbLine
 10
140.7999999999336
 20
574.9328665353448
 30
0.0
 11
-335.7999999999336
 21
574.9328665353448
 31
0.0
  0
LINE
  5
26F
330
1F
100
AcDbEntity
  8
DETAIL
100
AcDbLine
 10
136.5499999999538
 20
586.1193132020092
 30
0.0
 11
136.5499999999538
 21
77.56908256071847
 31
0.0
  0
LINE
  5
270
330
1F
100
AcDbEntity
  8
DETAIL
100
AcDbLine
 10
-331.5499999999538
 20
586.1193132020092
 30
0.0
 11
-331.5499999999538
 21
77.5671841060653
 31
0.0
  0
LINE
  5
271
330
1F
100
AcDbEntity
  8
DETAIL
100
AcDbLine
 10
-319.7999999999283
 20
578.2785932020118
 30
0.0
 11
-319.7999999999282
 21
77.56723176007549
 31
0.0
  0
LINE
  5
272
330
1F
100
AcDbEntity
  8
DETAIL
100
AcDbLine
 10
-308.3999999999377
 20
578.2785932020118
 30
0.0
 11
-308.3999999999377
 21
77.56727799460452
 31
0.0
  0
LINE
  5
273
330
1F
100
AcDbEntity
  8
DETAIL
100
AcDbLine
 10
-296.9999999999453
 20
578.2785932020118
 30
0.0
 11
-296.9999999999453
 21
77.56732422913358
 31
0.0
  0
LINE
  5
274
330
1F
100
AcDbEntity
  8
DETAIL
100
AcDbLine
 10
-285.599999999953
 20
578.2785932020118
 30
0.0
 11
-285.599999999953
 21
77.56737046366261
 31
0.0
  0
LINE
  5
275
330
1F
100
AcDbEntity
  8
DETAIL
100
AcDbLine
 10
-274.1999999999625
 20
578.2785932020118
 30
0.0
 11
-274.1999999999625
 21
77.56741669819166
 31
0.0
  0
LINE
  5
276
330
1F
100
AcDbEntity
  8
DETAIL
100
AcDbLine
 10
-262.7999999999719
 20
578.2785932020118
 30
0.0
 11
-262.7999999999719
 21
77.56746293272072
 31
0.0
  0
LINE
  5
277
330
1F
100
AcDbEntity
  8
DETAIL
100
AcDbLine
 10
-251.3999999999304
 20
578.2785932020118
 30
0.0
 11
-251.3999999999304
 21
77.56750916724977
 31
0.0
  0
LINE
  5
278
330
1F
100
AcDbEntity
  8
DETAIL
100
AcDbLine
 10
-239.9999999999399
 20
578.2785932020118
 30
0.0
 11
-239.9999999999399
 21
77.5675554017788
 31
0.0
  0
LINE
  5
279
330
1F
100
AcDbEntity
  8
DETAIL
100
AcDbLine
 10
-228.5999999999494
 20
578.2785932020118
 30
0.0
 11
-228.5999999999494
 21
77.56760163630786
 31
0.0
  0
LINE
  5
27A
330
1F
100
AcDbEntity
  8
DETAIL
100
AcDbLine
 10
-217.199999999957
 20
578.2785932020118
 30
0.0
 11
-217.1999999999569
 21
77.5676478708369
 31
0.0
  0
LINE
  5
27B
330
1F
100
AcDbEntity
  8
DETAIL
100
AcDbLine
 10
-205.7999999999664
 20
579.6892065353428
 30
0.0
 11
-205.7999999999665
 21
77.56769410536594
 31
0.0
  0
LINE
  5
27C
330
1F
100
AcDbEntity
  8
DETAIL
100
AcDbLine
 10
-194.399999999974
 20
578.2785932020118
 30
0.0
 11
-194.3999999999741
 21
77.56774033989498
 31
0.0
  0
LINE
  5
27D
330
1F
100
AcDbEntity
  8
DETAIL
100
AcDbLine
 10
-182.9999999999835
 20
578.2785932020118
 30
0.0
 11
-182.9999999999836
 21
77.56778657442403
 31
0.0
  0
LINE
  5
27E
330
1F
100
AcDbEntity
  8
DETAIL
100
AcDbLine
 10
-171.599999999993
 20
578.2785932020118
 30
0.0
 11
-171.599999999993
 21
77.56783280895307
 31
0.0
  0
LINE
  5
27F
330
1F
100
AcDbEntity
  8
DETAIL
100
AcDbLine
 10
-160.1999999999515
 20
578.2785932020118
 30
0.0
 11
-160.1999999999515
 21
77.56787904348214
 31
0.0
  0
LINE
  5
280
330
1F
100
AcDbEntity
  8
DETAIL
100
AcDbLine
 10
-148.7999999999609
 20
578.2785932020118
 30
0.0
 11
-148.7999999999609
 21
77.56792527801117
 31
0.0
  0
LINE
  5
281
330
1F
100
AcDbEntity
  8
DETAIL
100
AcDbLine
 10
-137.3999999999705
 20
578.2785932020118
 30
0.0
 11
-137.3999999999705
 21
77.56797151254023
 31
0.0
  0
LINE
  5
282
330
1F
100
AcDbEntity
  8
DETAIL
100
AcDbLine
 10
-125.999999999978
 20
578.2785932020118
 30
0.0
 11
-125.999999999978
 21
77.56801774706926
 31
0.0
  0
LINE
  5
283
330
1F
100
AcDbEntity
  8
DETAIL
100
AcDbLine
 10
-114.5999999999857
 20
578.2785932020118
 30
0.0
 11
-114.5999999999857
 21
77.56806398159831
 31
0.0
  0
LINE
  5
284
330
1F
100
AcDbEntity
  8
DETAIL
100
AcDbLine
 10
-103.1999999999952
 20
578.2785932020118
 30
0.0
 11
-103.1999999999952
 21
77.56811021612735
 31
0.0
  0
LINE
  5
285
330
1F
100
AcDbEntity
  8
DETAIL
100
AcDbLine
 10
-91.80000000000474
 20
578.2785932020118
 30
0.0
 11
-91.80000000000474
 21
77.5681564506564
 31
0.0
  0
LINE
  5
286
330
1F
100
AcDbEntity
  8
DETAIL
100
AcDbLine
 10
-80.40000000001417
 20
578.2785932020118
 30
0.0
 11
-80.40000000001422
 21
77.56820268518544
 31
0.0
  0
LINE
  5
287
330
1F
100
AcDbEntity
  8
DETAIL
100
AcDbLine
 10
-69.00000000002183
 20
578.2785932020118
 30
0.0
 11
-69.00000000002183
 21
77.56824891971449
 31
0.0
  0
LINE
  5
288
330
1F
100
AcDbEntity
  8
DETAIL
100
AcDbLine
 10
-57.59999999998218
 20
578.2785932020118
 30
0.0
 11
-57.59999999998218
 21
77.56829515424354
 31
0.0
  0
LINE
  5
289
330
1F
100
AcDbEntity
  8
DETAIL
100
AcDbLine
 10
-46.19999999999163
 20
578.2785932020118
 30
0.0
 11
-46.19999999999163
 21
77.56834138877258
 31
0.0
  0
LINE
  5
28A
330
1F
100
AcDbEntity
  8
DETAIL
100
AcDbLine
 10
-34.79999999999927
 20
578.2785932020118
 30
0.0
 11
-34.79999999999927
 21
77.56838762330163
 31
0.0
  0
LINE
  5
28B
330
1F
100
AcDbEntity
  8
DETAIL
100
AcDbLine
 10
-23.40000000000691
 20
578.2785932020118
 30
0.0
 11
-23.4000000000069
 21
77.56843385783067
 31
0.0
  0
LINE
  5
28C
330
1F
100
AcDbEntity
  8
DETAIL
100
AcDbLine
 10
-12.00000000001637
 20
578.2785932020118
 30
0.0
 11
-12.00000000001637
 21
77.56848009235972
 31
0.0
  0
LINE
  5
28D
330
1F
100
AcDbEntity
  8
DETAIL
100
AcDbLine
 10
-0.6000000000258296
 20
578.2785932020118
 30
0.0
 11
-0.6000000000258296
 21
77.56852632688874
 31
0.0
  0
LINE
  5
28E
330
1F
100
AcDbEntity
  8
DETAIL
100
AcDbLine
 10
10.79999999996471
 20
579.6892065353428
 30
0.0
 11
10.79999999996471
 21
77.56857256141781
 31
0.0
  0
LINE
  5
28F
330
1F
100
AcDbEntity
  8
DETAIL
100
AcDbLine
 10
22.19999999995707
 20
578.2785932020118
 30
0.0
 11
22.19999999995706
 21
77.56861879594685
 31
0.0
  0
LINE
  5
290
330
1F
100
AcDbEntity
  8
DETAIL
100
AcDbLine
 10
33.59999999999672
 20
578.2785932020118
 30
0.0
 11
33.59999999999672
 21
77.56866503047588
 31
0.0
  0
LINE
  5
291
330
1F
100
AcDbEntity
  8
DETAIL
100
AcDbLine
 10
44.99999999998727
 20
578.2785932020118
 30
0.0
 11
44.99999999998727
 21
77.56871126500494
 31
0.0
  0
LINE
  5
292
330
1F
100
AcDbEntity
  8
DETAIL
100
AcDbLine
 10
56.39999999997963
 20
578.2785932020118
 30
0.0
 11
56.39999999997963
 21
77.568757499534
 31
0.0
  0
LINE
  5
293
330
1F
100
AcDbEntity
  8
DETAIL
100
AcDbLine
 10
67.79999999997197
 20
578.2785932020118
 30
0.0
 11
67.79999999997197
 21
77.56880373406302
 31
0.0
  0
LINE
  5
294
330
1F
100
AcDbEntity
  8
DETAIL
100
AcDbLine
 10
79.19999999996253
 20
578.2785932020118
 30
0.0
 11
79.19999999996253
 21
77.56884996859209
 31
0.0
  0
LINE
  5
295
330
1F
100
AcDbEntity
  8
DETAIL
100
AcDbLine
 10
90.59999999995307
 20
578.2785932020118
 30
0.0
 11
90.59999999995307
 21
77.56889620312111
 31
0.0
  0
LINE
  5
296
330
1F
100
AcDbEntity
  8
DETAIL
100
AcDbLine
 10
101.9999999999454
 20
578.2785932020118
 30
0.0
 11
101.9999999999454
 21
77.56894243765016
 31
0.0
  0
LINE
  5
297
330
1F
100
AcDbEntity
  8
DETAIL
100
AcDbLine
 10
113.3999999999376
 20
578.2785932020118
 30
0.0
 11
113.3999999999376
 21
77.56898867217922
 31
0.0
  0
LINE
  5
298
330
1F
100
AcDbEntity
  8
DETAIL
100
AcDbLine
 10
124.7999999999755
 20
578.2785932020118
 30
0.0
 11
124.7999999999755
 21
77.56903490670825
 31
0.0
  0
LINE
  5
299
330
1F
100
AcDbEntity
  8
DETAIL
100
AcDbLine
 10
140.8499999999311
 20
77.56910000005837
 30
0.0
 11
-335.8499999999311
 21
77.56716666672538
 31
0.0
  0
LINE
  5
29A
330
1F
100
AcDbEntity
  8
DETAIL
100
AcDbLine
 10
151.8336799999433
 20
97.022490408649
 30
0.0
 11
-346.8305199999395
 21
97.022490408649
 31
0.0
  0
LINE
  5
29B
330
1F
100
AcDbEntity
  8
DETAIL
100
AcDbLine
 10
-348.580653333252
 20
555.51883235939
 30
0.0
 11
153.5806533332994
 21
555.51883235939
 31
0.0
  0
LINE
  5
29C
330
1F
100
AcDbEntity
  8
DETAIL
100
AcDbLine
 10
150.6547623856131
 20
567.250006535345
 30
0.0
 11
150.6547623856129
 21
92.93531415108374
 31
0.0
  0
LINE
  5
29D
330
1F
100
AcDbEntity
  8
DETAIL
100
AcDbLine
 10
146.2386133332746
 20
92.93531415108374
 30
0.0
 11
146.2386133332746
 21
567.250006535345
 31
0.0
  0
ARC
  5
29E
330
1F
100
AcDbEntity
  8
DETAIL
100
AcDbCircle
 10
148.4466878594439
 20
567.250006535345
 30
0.0
 40
2.208074526169184
100
AcDbArc
 50
0.0
 51
180.0
  0
LINE
  5
29F
330
1F
100
AcDbEntity
  8
DETAIL
100
AcDbLine
 10
-345.4950770952346
 20
92.93531415108374
 30
0.0
 11
-345.4950770952346
 21
567.2500065353453
 31
0.0
  0
LINE
  5
2A0
330
1F
100
AcDbEntity
  8
DETAIL
100
AcDbLine
 10
-341.2354666666087
 20
92.93531415108374
 30
0.0
 11
-341.2354666666087
 21
567.2500065353453
 31
0.0
  0
ARC
  5
2A1
330
1F
100
AcDbEntity
  8
DETAIL
100
AcDbCircle
 10
-343.3652718809216
 20
567.2500065353453
 30
0.0
 40
2.129805214312938
100
AcDbArc
 50
0.0
 51
180.0
  0
LINE
  5
2A2
330
1F
100
AcDbEntity
  8
DETAIL
100
AcDbLine
 10
156.4999999999501
 20
330.0000114654386
 30
0.0
 11
-351.4999999999507
 21
330.0000069649998
 31
0.0
  0
LINE
  5
2A3
330
1F
100
AcDbEntity
  8
DETAIL
100
AcDbLine
 10
156.4999999999504
 20
415.0000114654385
 30
0.0
 11
-351.4999999999507
 21
415.0000069649998
 31
0.0
  0
LINE
  5
2A4
330
1F
100
AcDbEntity
  8
DETAIL
100
AcDbLine
 10
156.4999999999499
 20
250.0000114654385
 30
0.0
 11
-351.4999999999507
 21
250.0000069649998
 31
0.0
  0
LINE
  5
2A5
330
1F
100
AcDbEntity
  8
DETAIL
100
AcDbLine
 10
156.4999999999506
 20
500.0000114654387
 30
0.0
 11
-351.4999999999507
 21
500.0000069649998
 31
0.0
  0
LINE
  5
2A6
330
1F
100
AcDbEntity
  8
DETAIL
100
AcDbLine
 10
156.4999999999497
 20
170.0000114654386
 30
0.0
 11
-351.4999999999507
 21
170.0000069649998
 31
0.0
  0
LINE
  5
2A7
330
1F
100
AcDbEntity
  8
DETAIL
100
AcDbLine
 10
192.6216145575881
 20
99.25725245769922
 30
0.0
 11
192.621614557588
 21
483.0885549378272
 31
0.0
  0
LINE
  5
2A8
330
1F
100
AcDbEntity
  8
DETAIL
100
AcDbLine
 10
200.6216145575882
 20
483.0885549378272
 30
0.0
 11
200.621614557588
 21
99.25725245769918
 31
0.0
  0
ARC
  5
2A9
330
1F
100
AcDbEntity
  8
DETAIL
100
AcDbCircle
 10
196.6216145575882
 20
480.5695260837191
 30
0.0
 40
4.727103380277262
100
AcDbArc
 50
32.20096841132786
 51
147.7990315886723
  0
ARC
  5
2AA
330
1F
100
AcDbEntity
  8
DETAIL
100
AcDbCircle
 10
196.6216145575881
 20
101.7196709037262
 30
0.0
 40
4.69718049507726
100
AcDbArc
 50
211.6166439216009
 51
328.3833560783975
  0
LINE
  5
2AB
330
1F
100
AcDbEntity
  8
DETAIL
100
AcDbLine
 10
255.6216145575882
 20
483.0885549378271
 30
0.0
 11
255.621614557588
 21
82.1344168204322
 31
0.0
  0
LINE
  5
2AC
330
1F
100
AcDbEntity
  8
DETAIL
100
AcDbLine
 10
247.6216145575881
 20
82.1344168204322
 30
0.0
 11
247.6216145575881
 21
483.0885549378271
 31
0.0
  0
ARC
  5
2AD
330
1F
100
AcDbEntity
  8
DETAIL
100
AcDbCircle
 10
251.6216145575881
 20
84.59683526645921
 30
0.0
 40
4.69718049507726
100
AcDbArc
 50
211.6166439216015
 51
328.3833560783985
  0
ARC
  5
2AE
330
1F
100
AcDbEntity
  8
DETAIL
100
AcDbCircle
 10
251.6216145575882
 20
480.5695260837191
 30
0.0
 40
4.727103380277262
100
AcDbArc
 50
32.2009684113287
 51
147.7990315886713
  0
LINE
  5
2AF
330
1F
100
AcDbEntity
  8
DETAIL
100
AcDbLine
 10
310.6216145575882
 20
483.0885549378271
 30
0.0
 11
310.6216145575881
 21
82.1344168204322
 31
0.0
  0
LINE
  5
2B0
330
1F
100
AcDbEntity
  8
DETAIL
100
AcDbLine
 10
302.6216145575881
 20
82.1344168204322
 30
0.0
 11
302.6216145575881
 21
483.0885549378271
 31
0.0
  0
ARC
  5
2B1
330
1F
100
AcDbEntity
  8
DETAIL
100
AcDbCircle
 10
306.6216145575881
 20
84.59683526645921
 30
0.0
 40
4.69718049507726
100
AcDbArc
 50
211.6166439216015
 51
328.3833560783985
  0
ARC
  5
2B2
330
1F
100
AcDbEntity
  8
DETAIL
100
AcDbCircle
 10
306.6216145575882
 20
480.5695260837191
 30
0.0
 40
4.727103380277262
100
AcDbArc
 50
32.20096841132696
 51
147.799031588673
  0
LINE
  5
2B3
330
1F
100
AcDbEntity
  8
DETAIL
100
AcDbLine
 10
365.6216145575882
 20
483.0885549378271
 30
0.0
 11
365.6216145575881
 21
82.1344168204322
 31
0.0
  0
LINE
  5
2B4
330
1F
100
AcDbEntity
  8
DETAIL
100
AcDbLine
 10
357.6216145575881
 20
82.1344168204322
 30
0.0
 11
357.6216145575881
 21
483.0885549378271
 31
0.0
  0
ARC
  5
2B5
330
1F
100
AcDbEntity
  8
DETAIL
100
AcDbCircle
 10
361.6216145575881
 20
84.59683526645921
 30
0.0
 40
4.69718049507726
100
AcDbArc
 50
211.6166439216015
 51
328.3833560783985
  0
ARC
  5
2B6
330
1F
100
AcDbEntity
  8
DETAIL
100
AcDbCircle
 10
361.6216145575882
 20
480.5695260837191
 30
0.0
 40
4.727103380277262
100
AcDbArc
 50
32.20096841132696
 51
147.799031588673
  0
LINE
  5
2B7
330
1F
100
AcDbEntity
  8
OUTLINE
100
AcDbLine
 10
0.0000000000115961
 20
630.0000065353319
 30
0.0
 11
359.7641466665852
 21
630.0000065353319
 31
0.0
  0
LINE
  5
2B8
330
1F
100
AcDbEntity
  8
OUTLINE
100
AcDbLine
 10
0.0000000000115961
 20
628.5000065353361
 30
0.0
 11
359.7641466665852
 21
628.5000065353361
 31
0.0
  0
LINE
  5
2B9
330
1F
100
AcDbEntity
  8
OUTLINE
100
AcDbLine
 10
396.9999999998824
 20
603.5000065353425
 30
0.0
 11
0.0000000000115961
 21
603.5000065353425
 31
0.0
  0
LINE
  5
2BA
330
1F
100
AcDbEntity
  8
OUTLINE
100
AcDbLine
 10
398.4999999998733
 20
602.5000065353387
 30
0.0
 11
-398.4999999998992
 21
602.5000065353387
 31
0.0
  0
LINE
  5
2BB
330
1F
100
AcDbEntity
  8
OUTLINE
100
AcDbLine
 10
133.5005066666217
 20
19.50000000000271
 30
0.0
 11
0.0
 21
19.50000000000271
 31
0.0
  0
LINE
  5
2BC
330
1F
100
AcDbEntity
  8
OUTLINE
100
AcDbLine
 10
125.5533866665955
 20
13.26975999999967
 30
0.0
 11
52.79818666665779
 21
13.26975999999967
 31
0.0
  0
LINE
  5
2BD
330
1F
100
AcDbEntity
  8
OUTLINE
100
AcDbLine
 10
70.72195999996802
 20
9.999999999997726
 30
0.0
 11
0.0
 21
9.999999999997726
 31
0.0
  0
LINE
  5
2BE
330
1F
100
AcDbEntity
  8
OUTLINE
100
AcDbLine
 10
-397.4999999998999
 20
27.69999999999754
 30
0.0
 11
397.4999999998999
 21
27.69999999999754
 31
0.0
  0
LINE
  5
2BF
330
1F
100
AcDbEntity
  8
OUTLINE
100
AcDbLine
 10
-400.0000400000008
 20
601.000006535343
 30
0.0
 11
-400.0000400000019
 21
30.19999999999709
 31
0.0
  0
LINE
  5
2C0
330
1F
100
AcDbEntity
  8
OUTLINE
100
AcDbLine
 10
-375.5424133332688
 20
19.50000000000271
 30
0.0
 11
-230.0297866666042
 21
19.50000000000271
 31
0.0
  0
LINE
  5
2C1
330
1F
100
AcDbEntity
  8
OUTLINE
100
AcDbLine
 10
-267.9243199999528
 20
19.52103999999508
 30
0.0
 11
-380.4793733332699
 21
27.69999999999754
 31
0.0
  0
LINE
  5
2C2
330
1F
100
AcDbEntity
  8
OUTLINE
100
AcDbLine
 10
-379.1732399999
 20
20.37138666666713
 30
0.0
 11
-393.5096533332635
 21
27.67334666666329
 31
0.0
  0
ARC
  5
2C3
330
1F
100
AcDbEntity
  8
OUTLINE
100
AcDbCircle
 10
-396.2327599999353
 20
22.32687999999507
 30
0.0
 40
5.999999999998498
100
AcDbArc
 50
63.00890100004982
 51
63.57524099994214
  0
ARC
  5
2C4
330
1F
100
AcDbEntity
  8
OUTLINE
100
AcDbCircle
 10
-397.4999717150097
 20
30.20006828576239
 30
0.0
 40
2.500068285924716
100
AcDbArc
 50
180.0015649517156
 51
269.9993517757736
  0
ARC
  5
2C5
330
1F
100
AcDbEntity
  8
OUTLINE
100
AcDbCircle
 10
-375.5424133332688
 20
27.49999999999317
 30
0.0
 40
7.999999999997998
100
AcDbArc
 50
243.0089010000497
 51
270.0
  0
LINE
  5
2C6
330
1F
100
AcDbEntity
  8
OUTLINE
100
AcDbLine
 10
-177.1341999999549
 20
16.9202266666698
 30
0.0
 11
-17.86581333333197
 21
16.9202266666698
 31
0.0
  0
LINE
  5
2C7
330
1F
100
AcDbEntity
  8
OUTLINE
100
AcDbLine
 10
-204.300506666621
 20
19.50000000000271
 30
0.0
 11
0.0
 21
19.50000000000271
 31
0.0
  0
LINE
  5
2C8
330
1F
100
AcDbEntity
  8
OUTLINE
100
AcDbLine
 10
-47.6144933333253
 20
18.81101333333253
 30
0.0
 11
-218.475959999965
 21
18.81101333333253
 31
0.0
  0
LINE
  5
2C9
330
1F
100
AcDbEntity
  8
OUTLINE
100
AcDbLine
 10
-70.72197333335316
 20
9.999999999997726
 30
0.0
 11
-230.0297866666042
 21
19.50000000000271
 31
0.0
  0
LINE
  5
2CA
330
1F
100
AcDbEntity
  8
OUTLINE
100
AcDbLine
 10
-230.6028799999712
 20
14.93314666667128
 30
0.0
 11
-230.0112799999788
 21
8.12970666666979
 31
0.0
  0
LINE
  5
2CB
330
1F
100
AcDbEntity
  8
OUTLINE
100
AcDbLine
 10
-269.3971199999523
 20
14.93314666667128
 30
0.0
 11
-269.9887199999448
 21
8.12970666666979
 31
0.0
  0
ARC
  5
2CC
330
1F
100
AcDbEntity
  8
OUTLINE
100
AcDbCircle
 10
-263.9999999999727
 20
9.999999999997726
 30
0.0
 40
1.999999999999499
100
AcDbArc
 50
0.0
 51
90.0
  0
ARC
  5
2CD
330
1F
100
AcDbEntity
  8
OUTLINE
100
AcDbCircle
 10
-235.9999999999508
 20
9.999999999997726
 30
0.0
 40
1.999999999999499
100
AcDbArc
 50
90.0
 51
180.0
  0
LINE
  5
2CE
330
1F
100
AcDbEntity
  8
OUTLINE
100
AcDbLine
 10
-266.9999999999526
 20
8.000000000003183
 30
0.0
 11
-232.9999999999709
 21
8.000000000003183
 31
0.0
  0
LINE
  5
2CF
330
1F
100
AcDbEntity
  8
OUTLINE
100
AcDbLine
 10
-269.9999999999326
 20
0.0
 30
0.0
 11
-229.9999999999436
 21
0.0
 31
0.0
  0
ARC
  5
2D0
330
1F
100
AcDbEntity
  8
OUTLINE
100
AcDbCircle
 10
-266.9999999999526
 20
7.869813333331876
 30
0.0
 40
2.99999999999925
100
AcDbArc
 50
175.0302589999963
 51
180.0
  0
ARC
  5
2D1
330
1F
100
AcDbEntity
  8
OUTLINE
100
AcDbCircle
 10
-266.9999999999526
 20
4.99999999999909
 30
0.0
 40
2.99999999999925
100
AcDbArc
 50
90.0
 51
180.0
  0
ARC
  5
2D2
330
1F
100
AcDbEntity
  8
OUTLINE
100
AcDbCircle
 10
-260.9999999999436
 20
9.000000000000455
 30
0.0
 40
0.9999999999997496
100
AcDbArc
 50
180.0
 51
270.0
  0
LINE
  5
2D3
330
1F
100
AcDbEntity
  8
OUTLINE
100
AcDbLine
 10
-269.9999999999326
 20
0.0
 30
0.0
 11
-269.9999999999326
 21
7.869813333331876
 31
0.0
  0
LINE
  5
2D4
330
1F
100
AcDbEntity
  8
OUTLINE
100
AcDbLine
 10
-261.9999999999545
 20
9.000000000000455
 30
0.0
 11
-261.9999999999545
 21
9.999999999997726
 31
0.0
  0
ARC
  5
2D5
330
1F
100
AcDbEntity
  8
OUTLINE
100
AcDbCircle
 10
-232.9999999999709
 20
7.869813333331876
 30
0.0
 40
2.99999999999925
100
AcDbArc
 50
0.0
 51
4.969741000003572
  0
LINE
  5
2D6
330
1F
100
AcDbEntity
  8
OUTLINE
100
AcDbLine
 10
-229.9999999999436
 20
0.0
 30
0.0
 11
-229.9999999999436
 21
7.869813333331876
 31
0.0
  0
ARC
  5
2D7
330
1F
100
AcDbEntity
  8
OUTLINE
100
AcDbCircle
 10
-238.9999999999798
 20
9.000000000000455
 30
0.0
 40
0.9999999999997496
100
AcDbArc
 50
270.0
 51
0.0
  0
ARC
  5
2D8
330
1F
100
AcDbEntity
  8
OUTLINE
100
AcDbCircle
 10
-232.9999999999709
 20
4.99999999999909
 30
0.0
 40
2.99999999999925
100
AcDbArc
 50
0.0
 51
90.0
  0
LINE
  5
2D9
330
1F
100
AcDbEntity
  8
OUTLINE
100
AcDbLine
 10
-237.9999999999689
 20
9.000000000000455
 30
0.0
 11
-237.9999999999689
 21
9.999999999997726
 31
0.0
  0
LINE
  5
2DA
330
1F
100
AcDbEntity
  8
OUTLINE
100
AcDbLine
 10
-264.4159199999612
 20
19.50000000000271
 30
0.0
 11
-235.5840933333002
 21
19.50000000000271
 31
0.0
  0
ARC
  5
2DB
330
1F
100
AcDbEntity
  8
OUTLINE
100
AcDbCircle
 10
-267.3445199999278
 20
27.49999999999317
 30
0.0
 40
7.999999999997998
100
AcDbArc
 50
265.8438309999985
 51
270.0
  0
ARC
  5
2DC
330
1F
100
AcDbEntity
  8
OUTLINE
100
AcDbCircle
 10
-264.4159199999612
 20
14.50000000000408
 30
0.0
 40
4.999999999998748
100
AcDbArc
 50
90.0
 51
175.0302589999963
  0
LINE
  5
2DD
330
1F
100
AcDbEntity
  8
OUTLINE
100
AcDbLine
 10
-225.2375333333166
 20
26.24974666666548
 30
0.0
 11
-229.6441333332932
 21
21.84314666666431
 31
0.0
  0
ARC
  5
2DE
330
1F
100
AcDbEntity
  8
OUTLINE
100
AcDbCircle
 10
-235.3009866666379
 20
27.49999999999317
 30
0.0
 40
7.999999999997998
100
AcDbArc
 50
270.0
 51
314.9999999999355
  0
ARC
  5
2DF
330
1F
100
AcDbEntity
  8
OUTLINE
100
AcDbCircle
 10
-235.5840933333002
 20
14.50000000000408
 30
0.0
 40
4.999999999998748
100
AcDbArc
 50
4.969741000003572
 51
90.0
  0
ARC
  5
2E0
330
1F
100
AcDbEntity
  8
OUTLINE
100
AcDbCircle
 10
-220.2877866666367
 20
21.2999999999988
 30
0.0
 40
6.99999999999825
100
AcDbArc
 50
113.8955079999828
 51
134.9999999999355
  0
ARC
  5
2E1
330
1F
100
AcDbEntity
  8
OUTLINE
100
AcDbCircle
 10
-204.300506666621
 20
27.49999999999317
 30
0.0
 40
7.999999999997998
100
AcDbArc
 50
225.0000000000643
 51
270.0
  0
LINE
  5
2E2
330
1F
100
AcDbEntity
  8
OUTLINE
100
AcDbLine
 10
-214.3639599999441
 20
26.24974666666548
 30
0.0
 11
-209.9573599999676
 21
21.84314666666431
 31
0.0
  0
ARC
  5
2E3
330
1F
100
AcDbEntity
  8
OUTLINE
100
AcDbCircle
 10
-219.3137066666222
 20
21.2999999999988
 30
0.0
 40
6.99999999999825
100
AcDbArc
 50
45.00000000006447
 51
66.10449200001709
  0
ARC
  5
2E4
330
1F
100
AcDbEntity
  8
OUTLINE
100
AcDbCircle
 10
-177.1341999999549
 20
15.92022666666616
 30
0.0
 40
0.9999999999997496
100
AcDbArc
 50
90.0
 51
134.9999999999355
  0
LINE
  5
2E5
330
1F
100
AcDbEntity
  8
OUTLINE
100
AcDbLine
 10
-178.0673066666404
 20
16.40132000000084
 30
0.0
 11
-177.8413066666233
 21
16.62733333333471
 31
0.0
  0
ARC
  5
2E6
330
1F
100
AcDbEntity
  8
OUTLINE
100
AcDbCircle
 10
-14.2508133333431
 20
12.30522666667047
 30
0.0
 40
0.9999999999997496
100
AcDbArc
 50
270.0
 51
45.00000000006447
  0
LINE
  5
2E7
330
1F
100
AcDbEntity
  8
OUTLINE
100
AcDbLine
 10
-70.72197333335316
 20
9.999999999997726
 30
0.0
 11
0.0
 21
9.999999999997726
 31
0.0
  0
LINE
  5
2E8
330
1F
100
AcDbEntity
  8
OUTLINE
100
AcDbLine
 10
-92.60954666667021
 20
11.30522666666728
 30
0.0
 11
-14.2508133333431
 21
11.30522666666728
 31
0.0
  0
LINE
  5
2E9
330
1F
100
AcDbEntity
  8
OUTLINE
100
AcDbLine
 10
-47.85693333332597
 20
19.50000000000499
 30
0.0
 11
-47.48036000003117
 21
19.15933333333441
 31
0.0
  0
ARC
  5
2EA
330
1F
100
AcDbEntity
  8
OUTLINE
100
AcDbCircle
 10
-47.6145333333377
 20
19.01101333333917
 30
0.0
 40
0.19999999999995
100
AcDbArc
 50
270.0
 51
47.86555499993536
  0
LINE
  5
2EB
330
1F
100
AcDbEntity
  8
OUTLINE
100
AcDbLine
 10
0.0
 20
18.81101333333253
 30
0.0
 11
53.51101333332372
 21
18.81101333333253
 31
0.0
  0
LINE
  5
2EC
330
1F
100
AcDbEntity
  8
OUTLINE
100
AcDbLine
 10
-29.20174666665116
 20
18.81101333333253
 30
0.0
 11
0.0
 21
18.81101333333253
 31
0.0
  0
ARC
  5
2ED
330
1F
100
AcDbEntity
  8
OUTLINE
100
AcDbCircle
 10
-29.20178666666356
 20
19.01101333333917
 30
0.0
 40
0.19999999999995
100
AcDbArc
 50
132.1344450000646
 51
270.0
  0
LINE
  5
2EE
330
1F
100
AcDbEntity
  8
OUTLINE
100
AcDbLine
 10
-28.95937333333745
 20
19.50000000000499
 30
0.0
 11
-29.33596000001739
 21
19.15933333333441
 31
0.0
  0
ARC
  5
2EF
330
1F
100
AcDbEntity
  8
OUTLINE
100
AcDbCircle
 10
-17.86581333333197
 20
15.92022666666616
 30
0.0
 40
0.9999999999997496
100
AcDbArc
 50
45.00000000006447
 51
90.0
  0
LINE
  5
2F0
330
1F
100
AcDbEntity
  8
OUTLINE
100
AcDbLine
 10
-13.54370666667455
 20
13.01233333333903
 30
0.0
 11
-17.15870666666342
 21
16.62733333333471
 31
0.0
  0
ARC
  5
2F1
330
1F
100
AcDbEntity
  8
OUTLINE
100
AcDbCircle
 10
53.51101333332372
 20
17.81101333333526
 30
0.0
 40
0.9999999999997496
100
AcDbArc
 50
314.9999999999355
 51
90.0
  0
LINE
  5
2F2
330
1F
100
AcDbEntity
  8
OUTLINE
100
AcDbLine
 10
54.21811999999227
 20
17.10390666666671
 30
0.0
 11
52.09107999998924
 21
14.9768666666655
 31
0.0
  0
ARC
  5
2F3
330
1F
100
AcDbEntity
  8
OUTLINE
100
AcDbCircle
 10
52.79818666665779
 20
14.26975999999694
 30
0.0
 40
0.9999999999997496
100
AcDbArc
 50
134.9999999999355
 51
270.0
  0
LINE
  5
2F4
330
1F
100
AcDbEntity
  8
OUTLINE
100
AcDbLine
 10
0.0000000000115961
 20
628.5000065353361
 30
0.0
 11
-359.764146666562
 21
628.5000065353361
 31
0.0
  0
LINE
  5
2F5
330
1F
100
AcDbEntity
  8
OUTLINE
100
AcDbLine
 10
0.0000000000115961
 20
630.0000065353319
 30
0.0
 11
-359.764146666562
 21
630.0000065353319
 31
0.0
  0
LINE
  5
2F6
330
1F
100
AcDbEntity
  8
OUTLINE
100
AcDbLine
 10
-423.5999999999063
 20
603.5000065353435
 30
0.0
 11
0.0000000000115961
 21
603.5000065353425
 31
0.0
  0
LINE
  5
2F7
330
1F
100
AcDbEntity
  8
OUTLINE
100
AcDbLine
 10
-398.4999999998992
 20
605.0000065353383
 30
0.0
 11
-398.4999999998992
 21
617.707713202008
 31
0.0
  0
LINE
  5
2F8
330
1F
100
AcDbEntity
  8
OUTLINE
100
AcDbLine
 10
-403.2999999999058
 20
605.0000065353383
 30
0.0
 11
-403.2999999999058
 21
616.3637132020062
 31
0.0
  0
ARC
  5
2F9
330
1F
100
AcDbEntity
  8
OUTLINE
100
AcDbCircle
 10
-423.5999999999063
 20
606.0000065353416
 30
0.0
 40
1.999999999999499
100
AcDbArc
 50
118.549591000034
 51
180.0
  0
LINE
  5
2FA
330
1F
100
AcDbEntity
  8
OUTLINE
100
AcDbLine
 10
-425.5999999999245
 20
606.0000065353416
 30
0.0
 11
-425.5999999999245
 21
605.5000065353431
 31
0.0
  0
ARC
  5
2FB
330
1F
100
AcDbEntity
  8
OUTLINE
100
AcDbCircle
 10
-423.5999999999063
 20
605.5000065353431
 30
0.0
 40
1.999999999999499
100
AcDbArc
 50
180.0
 51
270.0
  0
ARC
  5
2FC
330
1F
100
AcDbEntity
  8
OUTLINE
100
AcDbCircle
 10
-396.9999999999083
 20
605.0000065353383
 30
0.0
 40
1.499999999999625
100
AcDbArc
 50
180.0
 51
270.0
  0
ARC
  5
2FD
330
1F
100
AcDbEntity
  8
OUTLINE
100
AcDbCircle
 10
-401.7999999999148
 20
605.0000065353383
 30
0.0
 40
1.499999999999625
100
AcDbArc
 50
180.0
 51
270.0
  0
ARC
  5
2FE
330
1F
100
AcDbEntity
  8
OUTLINE
100
AcDbCircle
 10
-398.4999717146452
 20
600.9999382486996
 30
0.0
 40
1.5000682869099
100
AcDbArc
 50
90.00108036793301
 51
179.997391761089
  0
ARC
  5
2FF
330
1F
100
AcDbEntity
  8
OUTLINE
100
AcDbCircle
 10
-397.6999999998818
 20
605.0000065353383
 30
0.0
 40
2.499999999999374
100
AcDbArc
 50
270.0
 51
323.1301020000253
  0
ARC
  5
300
330
1F
100
AcDbEntity
  8
OUTLINE
100
AcDbCircle
 10
-404.2955070262102
 20
573.1303904648963
 30
0.0
 40
40.11821311017803
100
AcDbArc
 50
92.1406439974958
 51
120.3324145456695
  0
ARC
  5
301
330
1F
100
AcDbEntity
  8
OUTLINE
100
AcDbCircle
 10
-359.764146666562
 20
528.500006535361
 30
0.0
 40
99.99999999997497
100
AcDbArc
 50
90.0
 51
105.6422459999686
  0
ARC
  5
302
330
1F
100
AcDbEntity
  8
OUTLINE
100
AcDbCircle
 10
-393.4999999998992
 20
617.707713202008
 30
0.0
 40
4.999999999998748
100
AcDbArc
 50
105.6422459999686
 51
180.0
  0
LINE
  5
303
330
1F
100
AcDbEntity
  8
OUTLINE
100
AcDbLine
 10
-386.7271333332258
 20
624.7964065353349
 30
0.0
 11
-399.6481466665729
 21
621.1785265353406
 31
0.0
  0
ARC
  5
304
330
1F
100
AcDbEntity
  8
OUTLINE
100
AcDbCircle
 10
-398.2999999999058
 20
616.3637132020062
 30
0.0
 40
4.999999999998748
100
AcDbArc
 50
105.6422459999686
 51
180.0
  0
ARC
  5
305
330
1F
100
AcDbEntity
  8
OUTLINE
100
AcDbCircle
 10
-399.2775066665828
 20
613.5000065353398
 30
0.0
 40
6.522506666665035
100
AcDbArc
 50
133.8973979999831
 51
226.1026020000168
  0
LINE
  5
306
330
1F
100
AcDbEntity
  8
OUTLINE
100
AcDbLine
 10
-403.2999999999058
 20
618.200006535338
 30
0.0
 11
-403.2999999999058
 21
608.8000065353413
 31
0.0
  0
LINE
  5
307
330
1F
100
AcDbEntity
  8
OUTLINE
100
AcDbLine
 10
-403.7999999998858
 20
618.200006535338
 30
0.0
 11
-403.2999999999058
 21
618.200006535338
 31
0.0
  0
LINE
  5
308
330
1F
100
AcDbEntity
  8
OUTLINE
100
AcDbLine
 10
-403.7999999998858
 20
618.200006535338
 30
0.0
 11
-403.7999999998858
 21
608.8000065353413
 31
0.0
  0
LINE
  5
309
330
1F
100
AcDbEntity
  8
OUTLINE
100
AcDbLine
 10
-403.7999999998858
 20
608.8000065353413
 30
0.0
 11
-403.2999999999058
 21
608.8000065353413
 31
0.0
  0
ARC
  5
30A
330
1F
100
AcDbEntity
  8
OUTLINE
100
AcDbCircle
 10
-362.4305372322205
 20
628.9345464799488
 30
0.0
 40
1.069835026056363
100
AcDbArc
 50
95.18525698732238
 51
178.488479442911
  0
ARC
  5
30B
330
1F
100
AcDbEntity
  8
OUTLINE
100
AcDbCircle
 10
-361.1458007724004
 20
731.4886816884662
 30
0.0
 40
101.4980795503336
100
AcDbArc
 50
269.2201604068451
 51
270.7799693789731
  0
LINE
  5
30C
330
1F
100
AcDbEntity
  8
OUTLINE
100
AcDbLine
 10
-363.4999999999065
 20
628.9627665353393
 30
0.0
 11
-363.4999999999065
 21
628.2446389654219
 31
0.0
  0
LINE
  5
30D
330
1F
100
AcDbEntity
  8
OUTLINE
100
AcDbLine
 10
461.9999599999991
 20
199.5007866666237
 30
0.0
 11
461.9999599999991
 21
65.76447999998805
 31
0.0
  0
LINE
  5
30E
330
1F
100
AcDbEntity
  8
OUTLINE
100
AcDbLine
 10
399.9999999998999
 20
31.92945333332771
 30
0.0
 11
399.9999599999992
 21
601.000006535343
 31
0.0
  0
LINE
  5
30F
330
1F
100
AcDbEntity
  8
OUTLINE
100
AcDbLine
 10
399.9999599999992
 20
601.000006535343
 30
0.0
 11
399.9999599999989
 21
30.1999999999972
 31
0.0
  0
LINE
  5
310
330
1F
100
AcDbEntity
  8
OUTLINE
100
AcDbLine
 10
401.9999999998597
 20
33.23267999999279
 30
0.0
 11
401.9999999998324
 21
599.6967798686779
 31
0.0
  0
LINE
  5
311
330
1F
100
AcDbEntity
  8
OUTLINE
100
AcDbLine
 10
377.0005066665689
 20
19.50000000000271
 30
0.0
 11
230.0244533332606
 21
19.50000000000271
 31
0.0
  0
ARC
  5
312
330
1F
100
AcDbEntity
  8
OUTLINE
100
AcDbCircle
 10
264.6990133332347
 20
27.49999999999317
 30
0.0
 40
7.999999999997998
100
AcDbArc
 50
270.0
 51
314.9999999999355
  0
ARC
  5
313
330
1F
100
AcDbEntity
  8
OUTLINE
100
AcDbCircle
 10
264.4159066665761
 20
14.50000000000408
 30
0.0
 40
4.999999999998748
100
AcDbArc
 50
4.969741000003572
 51
90.0
  0
ARC
  5
314
330
1F
100
AcDbEntity
  8
OUTLINE
100
AcDbCircle
 10
266.9999999999033
 20
4.99999999999909
 30
0.0
 40
2.99999999999925
100
AcDbArc
 50
0.0
 51
90.0
  0
LINE
  5
315
330
1F
100
AcDbEntity
  8
OUTLINE
100
AcDbLine
 10
229.9999999999436
 20
0.0
 30
0.0
 11
269.9999999999324
 21
0.0
 31
0.0
  0
LINE
  5
316
330
1F
100
AcDbEntity
  8
OUTLINE
100
AcDbLine
 10
230.6028799999239
 20
14.93314666667128
 30
0.0
 11
230.0112799999278
 21
8.12970666666979
 31
0.0
  0
ARC
  5
317
330
1F
100
AcDbEntity
  8
OUTLINE
100
AcDbCircle
 10
235.9999999999017
 20
9.999999999997726
 30
0.0
 40
1.999999999999499
100
AcDbArc
 50
0.0
 51
90.0
  0
ARC
  5
318
330
1F
100
AcDbEntity
  8
OUTLINE
100
AcDbCircle
 10
263.9999999999254
 20
9.999999999997726
 30
0.0
 40
1.999999999999499
100
AcDbArc
 50
90.0
 51
180.0
  0
LINE
  5
319
330
1F
100
AcDbEntity
  8
OUTLINE
100
AcDbLine
 10
230.0297866666023
 20
19.50000000000271
 30
0.0
 11
70.75170666661506
 21
10.00177333333703
 31
0.0
  0
LINE
  5
31A
330
1F
100
AcDbEntity
  8
OUTLINE
100
AcDbLine
 10
232.9999999999218
 20
8.000000000003183
 30
0.0
 11
266.9999999999033
 21
8.000000000003183
 31
0.0
  0
ARC
  5
31B
330
1F
100
AcDbEntity
  8
OUTLINE
100
AcDbCircle
 10
232.9999999999218
 20
7.869813333331876
 30
0.0
 40
2.99999999999925
100
AcDbArc
 50
175.0302589999963
 51
180.0
  0
ARC
  5
31C
330
1F
100
AcDbEntity
  8
OUTLINE
100
AcDbCircle
 10
232.9999999999218
 20
4.99999999999909
 30
0.0
 40
2.99999999999925
100
AcDbArc
 50
90.0
 51
180.0
  0
ARC
  5
31D
330
1F
100
AcDbEntity
  8
OUTLINE
100
AcDbCircle
 10
238.999999999929
 20
9.000000000000455
 30
0.0
 40
0.9999999999997496
100
AcDbArc
 50
180.0
 51
270.0
  0
LINE
  5
31E
330
1F
100
AcDbEntity
  8
OUTLINE
100
AcDbLine
 10
229.9999999999436
 20
0.0
 30
0.0
 11
229.9999999999436
 21
7.869813333331876
 31
0.0
  0
LINE
  5
31F
330
1F
100
AcDbEntity
  8
OUTLINE
100
AcDbLine
 10
237.9999999999217
 20
9.000000000000455
 30
0.0
 11
237.9999999999217
 21
9.999999999997726
 31
0.0
  0
ARC
  5
320
330
1F
100
AcDbEntity
  8
OUTLINE
100
AcDbCircle
 10
260.9999999998963
 20
9.000000000000455
 30
0.0
 40
0.9999999999997496
100
AcDbArc
 50
270.0
 51
0.0
  0
LINE
  5
321
330
1F
100
AcDbEntity
  8
OUTLINE
100
AcDbLine
 10
261.9999999999054
 20
9.000000000000455
 30
0.0
 11
261.9999999999054
 21
9.999999999997726
 31
0.0
  0
ARC
  5
322
330
1F
100
AcDbEntity
  8
OUTLINE
100
AcDbCircle
 10
133.5005066666217
 20
27.49999999999317
 30
0.0
 40
7.999999999997998
100
AcDbArc
 50
270.0
 51
314.9999999999355
  0
ARC
  5
323
330
1F
100
AcDbEntity
  8
OUTLINE
100
AcDbCircle
 10
148.5137066666229
 20
21.2999999999988
 30
0.0
 40
6.99999999999825
100
AcDbArc
 50
113.8955079999828
 51
134.9999999999355
  0
LINE
  5
324
330
1F
100
AcDbEntity
  8
OUTLINE
100
AcDbLine
 10
143.5639599999431
 20
26.24974666666548
 30
0.0
 11
139.1573599999665
 21
21.84314666666431
 31
0.0
  0
ARC
  5
325
330
1F
100
AcDbEntity
  8
OUTLINE
100
AcDbCircle
 10
243.5158266665873
 20
27.49999999999317
 30
0.0
 40
7.999999999997998
100
AcDbArc
 50
225.0000000000643
 51
270.0
  0
LINE
  5
326
330
1F
100
AcDbEntity
  8
OUTLINE
100
AcDbLine
 10
235.5840799999114
 20
19.50000000000271
 30
0.0
 11
264.4159066665761
 21
19.50000000000271
 31
0.0
  0
LINE
  5
327
330
1F
100
AcDbEntity
  8
OUTLINE
100
AcDbLine
 10
225.2375066665899
 20
26.24974666666548
 30
0.0
 11
229.6441066666175
 21
21.84314666666431
 31
0.0
  0
LINE
  5
328
330
1F
100
AcDbEntity
  8
OUTLINE
100
AcDbLine
 10
232.0021199999028
 20
27.69999999999754
 30
0.0
 11
237.8589733332428
 21
21.84314666666431
 31
0.0
  0
ARC
  5
329
330
1F
100
AcDbEntity
  8
OUTLINE
100
AcDbCircle
 10
220.2877599999137
 20
21.2999999999988
 30
0.0
 40
6.99999999999825
100
AcDbArc
 50
45.00000000006447
 51
66.10449200001709
  0
ARC
  5
32A
330
1F
100
AcDbEntity
  8
OUTLINE
100
AcDbCircle
 10
235.5840799999114
 20
14.50000000000408
 30
0.0
 40
4.999999999998748
100
AcDbArc
 50
90.0
 51
175.0302589999963
  0
ARC
  5
32B
330
1F
100
AcDbEntity
  8
OUTLINE
100
AcDbCircle
 10
235.3009733332528
 20
27.49999999999317
 30
0.0
 40
7.999999999997998
100
AcDbArc
 50
225.0000000000643
 51
270.0
  0
LINE
  5
32C
330
1F
100
AcDbEntity
  8
OUTLINE
100
AcDbLine
 10
269.3971199999014
 20
14.93314666667128
 30
0.0
 11
269.9887199998975
 21
8.12970666666979
 31
0.0
  0
ARC
  5
32D
330
1F
100
AcDbEntity
  8
OUTLINE
100
AcDbCircle
 10
266.9999999999033
 20
7.869813333331876
 30
0.0
 40
2.99999999999925
100
AcDbArc
 50
0.0
 51
4.969741000003572
  0
LINE
  5
32E
330
1F
100
AcDbEntity
  8
OUTLINE
100
AcDbLine
 10
269.9999999999324
 20
0.0
 30
0.0
 11
269.9999999999324
 21
7.869813333331876
 31
0.0
  0
LINE
  5
32F
330
1F
100
AcDbEntity
  8
OUTLINE
100
AcDbLine
 10
357.5057599998708
 20
23.20526666666455
 30
0.0
 11
380.7057599998861
 21
23.20526666666455
 31
0.0
  0
ARC
  5
330
330
1F
100
AcDbEntity
  8
OUTLINE
100
AcDbCircle
 10
316.686293333254
 20
21.2999999999988
 30
0.0
 40
6.99999999999825
100
AcDbArc
 50
45.00000000006447
 51
66.10449200001709
  0
LINE
  5
331
330
1F
100
AcDbEntity
  8
OUTLINE
100
AcDbLine
 10
274.7624666665597
 20
26.24974666666548
 30
0.0
 11
270.3558666665831
 21
21.84314666666431
 31
0.0
  0
ARC
  5
332
330
1F
100
AcDbEntity
  8
OUTLINE
100
AcDbCircle
 10
279.7122133332377
 20
21.2999999999988
 30
0.0
 40
6.99999999999825
100
AcDbArc
 50
113.8955079999828
 51
134.9999999999355
  0
LINE
  5
333
330
1F
100
AcDbEntity
  8
OUTLINE
100
AcDbLine
 10
321.6360399998827
 20
26.24974666666548
 30
0.0
 11
326.0426399999069
 21
21.84314666666431
 31
0.0
  0
ARC
  5
334
330
1F
100
AcDbEntity
  8
OUTLINE
100
AcDbCircle
 10
331.6994933332553
 20
27.49999999999317
 30
0.0
 40
7.999999999997998
100
AcDbArc
 50
225.0000000000643
 51
270.0
  0
ARC
  5
335
330
1F
100
AcDbEntity
  8
OUTLINE
100
AcDbCircle
 10
357.5057599998708
 20
31.20526666666137
 30
0.0
 40
7.999999999997998
100
AcDbArc
 50
270.0
 51
314.9999999999355
  0
LINE
  5
336
330
1F
100
AcDbEntity
  8
OUTLINE
100
AcDbLine
 10
363.8639599998766
 20
26.24974666666548
 30
0.0
 11
363.1626266665571
 21
25.54841333333252
 31
0.0
  0
ARC
  5
337
330
1F
100
AcDbEntity
  8
OUTLINE
100
AcDbCircle
 10
368.8137066665567
 20
21.2999999999988
 30
0.0
 40
6.99999999999825
100
AcDbArc
 50
113.8955079999828
 51
134.9999999999355
  0
LINE
  5
338
330
1F
100
AcDbEntity
  8
OUTLINE
100
AcDbLine
 10
399.9999999998999
 20
31.92945333332771
 30
0.0
 11
447.1763409020513
 21
46.44596347421111
 31
0.0
  0
ARC
  5
339
330
1F
100
AcDbEntity
  8
OUTLINE
100
AcDbCircle
 10
397.5000282835542
 20
30.19993171721512
 30
0.0
 40
2.499931717377401
100
AcDbArc
 50
269.9993517686871
 51
0.0015649688350086
  0
ARC
  5
33A
330
1F
100
AcDbEntity
  8
OUTLINE
100
AcDbCircle
 10
392.013706666572
 20
21.2999999999988
 30
0.0
 40
6.99999999999825
100
AcDbArc
 50
113.8955079999828
 51
134.9999999999355
  0
LINE
  5
33B
330
1F
100
AcDbEntity
  8
OUTLINE
100
AcDbLine
 10
387.0639599998921
 20
26.24974666666548
 30
0.0
 11
382.6573599998683
 21
21.84314666666431
 31
0.0
  0
ARC
  5
33C
330
1F
100
AcDbEntity
  8
OUTLINE
100
AcDbCircle
 10
377.0005066665689
 20
27.49999999999317
 30
0.0
 40
7.999999999997998
100
AcDbArc
 50
270.0
 51
314.9999999999355
  0
ARC
  5
33D
330
1F
100
AcDbEntity
  8
OUTLINE
100
AcDbCircle
 10
380.7057599998861
 20
31.20526666666137
 30
0.0
 40
7.999999999997998
100
AcDbArc
 50
270.0
 51
314.9999999999355
  0
ARC
  5
33E
330
1F
100
AcDbEntity
  8
OUTLINE
100
AcDbCircle
 10
400.9999999998597
 20
33.2326799999929
 30
0.0
 40
0.9999999999998888
100
AcDbArc
 50
304.9712251698193
 51
0.0
  0
ARC
  5
33F
330
1F
100
AcDbEntity
  8
OUTLINE
100
AcDbCircle
 10
441.9999600000482
 20
65.764479999954
 30
0.0
 40
19.99999999995088
100
AcDbArc
 50
284.9999999998989
 51
0.0000000000973402
  0
ARC
  5
340
330
1F
100
AcDbEntity
  8
OUTLINE
100
AcDbCircle
 10
411.9015333332506
 20
522.2793398687008
 30
0.0
 40
1.999999999999499
100
AcDbArc
 50
180.0
 51
244.9999999999239
  0
LINE
  5
341
330
1F
100
AcDbEntity
  8
OUTLINE
100
AcDbLine
 10
431.9999999998637
 20
340.4340933332546
 30
0.0
 11
432.0000034764243
 21
509.4263642946255
 31
0.0
  0
ARC
  5
342
330
1F
100
AcDbEntity
  8
OUTLINE
100
AcDbCircle
 10
428.4999999998526
 20
266.8675199999356
 30
0.0
 40
0.499999999999875
100
AcDbArc
 50
180.0
 51
252.9999999999656
  0
LINE
  5
343
330
1F
100
AcDbEntity
  8
OUTLINE
100
AcDbLine
 10
447.8473940944695
 20
218.6268817858763
 30
0.0
 11
433.4152533332106
 21
225.179346666614
 31
0.0
  0
ARC
  5
344
330
1F
100
AcDbEntity
  8
OUTLINE
100
AcDbCircle
 10
441.9999600000507
 20
199.5007866666584
 30
0.0
 40
19.99999999994832
100
AcDbArc
 50
359.9999999999007
 51
73.00000000006305
  0
LINE
  5
345
330
1F
100
AcDbEntity
  8
OUTLINE
100
AcDbLine
 10
431.9999999998637
 20
233.5920799999462
 30
0.0
 11
431.9999999998637
 21
227.0919599999473
 31
0.0
  0
ARC
  5
346
330
1F
100
AcDbEntity
  8
OUTLINE
100
AcDbCircle
 10
433.9999999998815
 20
227.0919599999473
 30
0.0
 40
1.999999999999499
100
AcDbArc
 50
180.0
 51
252.9999999999656
  0
LINE
  5
347
330
1F
100
AcDbEntity
  8
OUTLINE
100
AcDbLine
 10
431.9999999998637
 20
264.5346533332676
 30
0.0
 11
431.9999999998637
 21
233.5920799999462
 31
0.0
  0
LINE
  5
348
330
1F
100
AcDbEntity
  8
OUTLINE
100
AcDbLine
 10
428.353813333224
 20
266.3893733332711
 30
0.0
 11
431.2923733332118
 21
265.490959999934
 31
0.0
  0
ARC
  5
349
330
1F
100
AcDbEntity
  8
OUTLINE
100
AcDbCircle
 10
430.9999999998527
 20
264.5346533332676
 30
0.0
 40
0.9999999999997496
100
AcDbArc
 50
0.0
 51
72.99999999996564
  0
LINE
  5
34A
330
1F
100
AcDbEntity
  8
OUTLINE
100
AcDbLine
 10
401.9999999998708
 20
328.4828533332528
 30
0.0
 11
401.9999999998708
 21
339.5171599999229
 31
0.0
  0
LINE
  5
34B
330
1F
100
AcDbEntity
  8
OUTLINE
100
AcDbLine
 10
401.9999999998708
 20
333.5012533332536
 30
0.0
 11
401.9999999998708
 21
348.4987599999153
 31
0.0
  0
ARC
  5
34C
330
1F
100
AcDbEntity
  8
OUTLINE
100
AcDbCircle
 10
430.9999999998527
 20
310.332866666596
 30
0.0
 40
0.9999999999997496
100
AcDbArc
 50
256.9999999999775
 51
0.0
  0
LINE
  5
34D
330
1F
100
AcDbEntity
  8
OUTLINE
100
AcDbLine
 10
427.9999999998745
 20
309.3705866665931
 30
0.0
 11
427.9999999998745
 21
306.0308399999267
 31
0.0
  0
ARC
  5
34E
330
1F
100
AcDbEntity
  8
OUTLINE
100
AcDbCircle
 10
430.9999999998527
 20
300.5420399999251
 30
0.0
 40
0.9999999999997496
100
AcDbArc
 50
256.9999999999775
 51
0.0
  0
LINE
  5
34F
330
1F
100
AcDbEntity
  8
OUTLINE
100
AcDbLine
 10
431.9999999998637
 20
303.6706133332608
 30
0.0
 11
431.9999999998637
 21
300.5420399999251
 31
0.0
  0
ARC
  5
350
330
1F
100
AcDbEntity
  8
OUTLINE
100
AcDbCircle
 10
428.4999999998526
 20
289.7889199999316
 30
0.0
 40
0.499999999999875
100
AcDbArc
 50
76.99999999997752
 51
180.0
  0
LINE
  5
351
330
1F
100
AcDbEntity
  8
OUTLINE
100
AcDbLine
 10
430.7750399999004
 20
289.7768399999285
 30
0.0
 11
428.6124666665655
 21
290.2761066665943
 31
0.0
  0
ARC
  5
352
330
1F
100
AcDbEntity
  8
OUTLINE
100
AcDbCircle
 10
430.9999999998527
 20
290.7512133332664
 30
0.0
 40
0.9999999999997496
100
AcDbArc
 50
256.9999999999775
 51
0.0
  0
LINE
  5
353
330
1F
100
AcDbEntity
  8
OUTLINE
100
AcDbLine
 10
431.9999999998637
 20
293.8797733332643
 30
0.0
 11
431.9999999998637
 21
290.7512133332664
 31
0.0
  0
ARC
  5
354
330
1F
100
AcDbEntity
  8
OUTLINE
100
AcDbCircle
 10
428.4999999998526
 20
279.9980933332666
 30
0.0
 40
0.499999999999875
100
AcDbArc
 50
76.99999999997752
 51
180.0
  0
LINE
  5
355
330
1F
100
AcDbEntity
  8
OUTLINE
100
AcDbLine
 10
430.7750399999004
 20
279.9860133332699
 30
0.0
 11
428.6124666665655
 21
280.4852799999356
 31
0.0
  0
ARC
  5
356
330
1F
100
AcDbEntity
  8
OUTLINE
100
AcDbCircle
 10
430.9999999998527
 20
280.9603733332701
 30
0.0
 40
0.9999999999997496
100
AcDbArc
 50
256.9999999999775
 51
0.0
  0
LINE
  5
357
330
1F
100
AcDbEntity
  8
OUTLINE
100
AcDbLine
 10
431.9999999998637
 20
284.0889466665993
 30
0.0
 11
431.9999999998637
 21
280.9603733332701
 31
0.0
  0
ARC
  5
358
330
1F
100
AcDbEntity
  8
OUTLINE
100
AcDbCircle
 10
428.4999999998526
 20
270.2072666666021
 30
0.0
 40
0.499999999999875
100
AcDbArc
 50
76.99999999997752
 51
180.0
  0
LINE
  5
359
330
1F
100
AcDbEntity
  8
OUTLINE
100
AcDbLine
 10
430.7750399999004
 20
270.1951866665989
 30
0.0
 11
428.6124666665655
 21
270.6944533332706
 31
0.0
  0
ARC
  5
35A
330
1F
100
AcDbEntity
  8
OUTLINE
100
AcDbCircle
 10
430.9999999998527
 20
271.1695466665992
 30
0.0
 40
0.9999999999997496
100
AcDbArc
 50
256.9999999999775
 51
0.0
  0
LINE
  5
35B
330
1F
100
AcDbEntity
  8
OUTLINE
100
AcDbLine
 10
431.9999999998637
 20
274.2981199999348
 30
0.0
 11
431.9999999998637
 21
271.1695466665992
 31
0.0
  0
ARC
  5
35C
330
1F
100
AcDbEntity
  8
OUTLINE
100
AcDbCircle
 10
428.4999999998526
 20
299.5797466665962
 30
0.0
 40
0.499999999999875
100
AcDbArc
 50
76.99999999997752
 51
180.0
  0
LINE
  5
35D
330
1F
100
AcDbEntity
  8
OUTLINE
100
AcDbLine
 10
430.7750399999004
 20
299.5676666665995
 30
0.0
 11
428.6124666665655
 21
300.0669333332651
 31
0.0
  0
ARC
  5
35E
330
1F
100
AcDbEntity
  8
OUTLINE
100
AcDbCircle
 10
428.4999999998526
 20
306.0308399999267
 30
0.0
 40
0.499999999999875
100
AcDbArc
 50
180.0
 51
252.9999999999656
  0
LINE
  5
35F
330
1F
100
AcDbEntity
  8
OUTLINE
100
AcDbLine
 10
428.353813333224
 20
305.5526799999241
 30
0.0
 11
431.2923733332118
 21
304.6542799999314
 31
0.0
  0
ARC
  5
360
330
1F
100
AcDbEntity
  8
OUTLINE
100
AcDbCircle
 10
430.9999999998527
 20
303.6979733332646
 30
0.0
 40
0.9999999999997496
100
AcDbArc
 50
0.0
 51
72.99999999996564
  0
ARC
  5
361
330
1F
100
AcDbEntity
  8
OUTLINE
100
AcDbCircle
 10
428.4999999998526
 20
296.2400133332621
 30
0.0
 40
0.499999999999875
100
AcDbArc
 50
180.0
 51
252.9999999999656
  0
LINE
  5
362
330
1F
100
AcDbEntity
  8
OUTLINE
100
AcDbLine
 10
428.353813333224
 20
295.7618533332655
 30
0.0
 11
431.2923733332118
 21
294.8634533332606
 31
0.0
  0
LINE
  5
363
330
1F
100
AcDbEntity
  8
OUTLINE
100
AcDbLine
 10
427.9999999998745
 20
299.5797466665962
 30
0.0
 11
427.9999999998745
 21
296.2400133332621
 31
0.0
  0
ARC
  5
364
330
1F
100
AcDbEntity
  8
OUTLINE
100
AcDbCircle
 10
430.9999999998527
 20
293.9071466665936
 30
0.0
 40
0.9999999999997496
100
AcDbArc
 50
0.0
 51
72.99999999996564
  0
ARC
  5
365
330
1F
100
AcDbEntity
  8
OUTLINE
100
AcDbCircle
 10
428.4999999998526
 20
286.4491733332652
 30
0.0
 40
0.499999999999875
100
AcDbArc
 50
180.0
 51
252.9999999999656
  0
LINE
  5
366
330
1F
100
AcDbEntity
  8
OUTLINE
100
AcDbLine
 10
428.353813333224
 20
285.9710266666011
 30
0.0
 11
431.2923733332118
 21
285.0726133332636
 31
0.0
  0
LINE
  5
367
330
1F
100
AcDbEntity
  8
OUTLINE
100
AcDbLine
 10
427.9999999998745
 20
289.7889199999316
 30
0.0
 11
427.9999999998745
 21
286.4491733332652
 31
0.0
  0
ARC
  5
368
330
1F
100
AcDbEntity
  8
OUTLINE
100
AcDbCircle
 10
430.9999999998527
 20
284.1163199999349
 30
0.0
 40
0.9999999999997496
100
AcDbArc
 50
0.0
 51
72.99999999996564
  0
ARC
  5
369
330
1F
100
AcDbEntity
  8
OUTLINE
100
AcDbCircle
 10
428.4999999998526
 20
276.6583466666006
 30
0.0
 40
0.499999999999875
100
AcDbArc
 50
180.0
 51
252.9999999999656
  0
LINE
  5
36A
330
1F
100
AcDbEntity
  8
OUTLINE
100
AcDbLine
 10
428.353813333224
 20
276.1801999999361
 30
0.0
 11
431.2923733332118
 21
275.2817866666049
 31
0.0
  0
LINE
  5
36B
330
1F
100
AcDbEntity
  8
OUTLINE
100
AcDbLine
 10
427.9999999998745
 20
279.9980933332666
 30
0.0
 11
427.9999999998745
 21
276.6583466666006
 31
0.0
  0
ARC
  5
36C
330
1F
100
AcDbEntity
  8
OUTLINE
100
AcDbCircle
 10
430.9999999998527
 20
274.3254799999385
 30
0.0
 40
0.9999999999997496
100
AcDbArc
 50
0.0
 51
72.99999999996564
  0
LINE
  5
36D
330
1F
100
AcDbEntity
  8
OUTLINE
100
AcDbLine
 10
427.9999999998745
 20
270.2072666666021
 30
0.0
 11
427.9999999998745
 21
266.8675199999356
 31
0.0
  0
LINE
  5
36E
330
1F
100
AcDbEntity
  8
OUTLINE
100
AcDbLine
 10
429.6039599998894
 20
339.7084933332493
 30
0.0
 11
430.7920799998956
 21
339.455946666585
 31
0.0
  0
ARC
  5
36F
330
1F
100
AcDbEntity
  8
OUTLINE
100
AcDbCircle
 10
429.4999999998635
 20
339.2194266665868
 30
0.0
 40
0.499999999999875
100
AcDbArc
 50
78.00000000003524
 51
180.0
  0
ARC
  5
370
330
1F
100
AcDbEntity
  8
OUTLINE
100
AcDbCircle
 10
428.4999999998526
 20
309.3705866665931
 30
0.0
 40
0.499999999999875
100
AcDbArc
 50
76.99999999997752
 51
180.0
  0
LINE
  5
371
330
1F
100
AcDbEntity
  8
OUTLINE
100
AcDbLine
 10
430.7750399999004
 20
309.3584933332586
 30
0.0
 11
428.6124666665655
 21
309.8577733332621
 31
0.0
  0
LINE
  5
372
330
1F
100
AcDbEntity
  8
OUTLINE
100
AcDbLine
 10
429.3621733332018
 20
324.5039599999208
 30
0.0
 11
431.2756399998888
 21
323.9552799999223
 31
0.0
  0
LINE
  5
373
330
1F
100
AcDbEntity
  8
OUTLINE
100
AcDbLine
 10
431.9999999998637
 20
322.994026666594
 30
0.0
 11
431.9999999998637
 21
319.9145333332538
 31
0.0
  0
ARC
  5
374
330
1F
100
AcDbEntity
  8
OUTLINE
100
AcDbCircle
 10
430.9999999998527
 20
322.994026666594
 30
0.0
 40
0.9999999999997496
100
AcDbArc
 50
0.0
 51
73.99999999990932
  0
ARC
  5
375
330
1F
100
AcDbEntity
  8
OUTLINE
100
AcDbCircle
 10
429.4999999998635
 20
324.9845866665941
 30
0.0
 40
0.499999999999875
100
AcDbArc
 50
180.0
 51
253.9999999999093
  0
LINE
  5
376
330
1F
100
AcDbEntity
  8
OUTLINE
100
AcDbLine
 10
431.9999999998637
 20
323.2796266665946
 30
0.0
 11
431.9999999998637
 21
320.1236933332547
 31
0.0
  0
LINE
  5
377
330
1F
100
AcDbEntity
  8
OUTLINE
100
AcDbLine
 10
430.7750399999004
 20
319.149333333255
 30
0.0
 11
428.6124666665655
 21
319.6485999999207
 31
0.0
  0
ARC
  5
378
330
1F
100
AcDbEntity
  8
OUTLINE
100
AcDbCircle
 10
430.9999999998527
 20
320.1236933332547
 30
0.0
 40
0.9999999999997496
100
AcDbArc
 50
256.9999999999775
 51
0.0
  0
ARC
  5
379
330
1F
100
AcDbEntity
  8
OUTLINE
100
AcDbCircle
 10
428.4999999998526
 20
319.1614133332576
 30
0.0
 40
0.499999999999875
100
AcDbArc
 50
76.99999999997752
 51
180.0
  0
LINE
  5
37A
330
1F
100
AcDbEntity
  8
OUTLINE
100
AcDbLine
 10
431.9999999998637
 20
313.4614399999258
 30
0.0
 11
431.9999999998637
 21
310.332866666596
 31
0.0
  0
ARC
  5
37B
330
1F
100
AcDbEntity
  8
OUTLINE
100
AcDbCircle
 10
428.4999999998526
 20
315.8216666665917
 30
0.0
 40
0.499999999999875
100
AcDbArc
 50
180.0
 51
252.9999999999656
  0
LINE
  5
37C
330
1F
100
AcDbEntity
  8
OUTLINE
100
AcDbLine
 10
428.353813333224
 20
315.3435199999211
 30
0.0
 11
431.2923733332118
 21
314.4451066665901
 31
0.0
  0
LINE
  5
37D
330
1F
100
AcDbEntity
  8
OUTLINE
100
AcDbLine
 10
427.9999999998745
 20
319.1614133332576
 30
0.0
 11
427.9999999998745
 21
315.8216666665917
 31
0.0
  0
ARC
  5
37E
330
1F
100
AcDbEntity
  8
OUTLINE
100
AcDbCircle
 10
430.9999999998527
 20
313.4887999999236
 30
0.0
 40
0.9999999999997496
100
AcDbArc
 50
0.0
 51
72.99999999996564
  0
ARC
  5
37F
330
1F
100
AcDbEntity
  8
OUTLINE
100
AcDbCircle
 10
430.9999999998527
 20
340.4340933332546
 30
0.0
 40
0.9999999999997496
100
AcDbArc
 50
258.0000000000351
 51
0.0
  0
LINE
  5
380
330
1F
100
AcDbEntity
  8
OUTLINE
100
AcDbLine
 10
428.9999999998815
 20
324.9845866665941
 30
0.0
 11
428.9999999998815
 21
339.2194266665868
 31
0.0
  0
LINE
  5
381
330
1F
100
AcDbEntity
  8
OUTLINE
100
AcDbLine
 10
401.9999999998708
 20
378.9999999999081
 30
0.0
 11
401.9999999998708
 21
380.9999999999086
 31
0.0
  0
LINE
  5
382
330
1F
100
AcDbEntity
  8
OUTLINE
100
AcDbLine
 10
399.9999999998999
 20
432.3499999998979
 30
0.0
 11
399.9999999998999
 21
427.5999999999016
 31
0.0
  0
LINE
  5
383
330
1F
100
AcDbEntity
  8
OUTLINE
100
AcDbLine
 10
399.9999999998999
 20
422.8499999998988
 30
0.0
 11
399.9999999998999
 21
427.5999999999016
 31
0.0
  0
LINE
  5
384
330
1F
100
AcDbEntity
  8
OUTLINE
100
AcDbLine
 10
430.8452399999084
 20
511.2389798686972
 30
0.0
 11
411.0562933332464
 21
520.4667132020317
 31
0.0
  0
ARC
  5
385
330
1F
100
AcDbEntity
  8
OUTLINE
100
AcDbCircle
 10
430.0000034764248
 20
509.4263642946255
 30
0.0
 40
1.999999999999499
100
AcDbArc
 50
0.0
 51
64.9999999999239
  0
ARC
  5
386
330
1F
100
AcDbEntity
  8
OUTLINE
100
AcDbCircle
 10
359.7641466665852
 20
528.500006535361
 30
0.0
 40
99.99999999997497
100
AcDbArc
 50
74.35775400003125
 51
90.0
  0
ARC
  5
387
330
1F
100
AcDbEntity
  8
OUTLINE
100
AcDbCircle
 10
362.4301169700891
 20
628.9343757435727
 30
0.0
 40
1.070259657549592
100
AcDbArc
 50
1.520064192862901
 51
84.6674631964448
  0
LINE
  5
388
330
1F
100
AcDbEntity
  8
OUTLINE
100
AcDbLine
 10
363.4999999998824
 20
628.9627665353393
 30
0.0
 11
363.4999999998824
 21
628.2446353483273
 31
0.0
  0
ARC
  5
389
330
1F
100
AcDbEntity
  8
OUTLINE
100
AcDbCircle
 10
361.1469796978594
 20
731.6618860464303
 30
0.0
 40
101.6712839149811
100
AcDbArc
 50
269.2206950045902
 51
270.7791753202394
  0
LINE
  5
38A
330
1F
100
AcDbEntity
  8
OUTLINE
100
AcDbLine
 10
398.4999999998733
 20
605.0000065353383
 30
0.0
 11
398.4999999998733
 21
617.707713202008
 31
0.0
  0
LINE
  5
38B
330
1F
100
AcDbEntity
  8
OUTLINE
100
AcDbLine
 10
402.2966266665596
 20
568.90024653535
 30
0.0
 11
429.0336799998974
 21
556.9961398686914
 31
0.0
  0
LINE
  5
38C
330
1F
100
AcDbEntity
  8
OUTLINE
100
AcDbLine
 10
428.3251466665631
 20
538.6674598686949
 30
0.0
 11
412.3514399999173
 21
542.3552865353587
 31
0.0
  0
LINE
  5
38D
330
1F
100
AcDbEntity
  8
OUTLINE
100
AcDbLine
 10
419.0336799999008
 20
561.448433202021
 30
0.0
 11
421.9999999998769
 21
560.1277398686875
 31
0.0
  0
ARC
  5
38E
330
1F
100
AcDbEntity
  8
OUTLINE
100
AcDbCircle
 10
411.9015333332506
 20
540.4065532020272
 30
0.0
 40
1.999999999999499
100
AcDbArc
 50
76.99999999997752
 51
180.0
  0
LINE
  5
38F
330
1F
100
AcDbEntity
  8
OUTLINE
100
AcDbLine
 10
409.9015333332306
 20
540.4065532020272
 30
0.0
 11
409.9015333332306
 21
522.2793398687008
 31
0.0
  0
ARC
  5
390
330
1F
100
AcDbEntity
  8
OUTLINE
100
AcDbCircle
 10
398.5000282831447
 20
601.0000748172006
 30
0.0
 40
1.49993171840867
100
AcDbArc
 50
359.9973917064291
 51
90.00108039056987
  0
ARC
  5
391
330
1F
100
AcDbEntity
  8
OUTLINE
100
AcDbCircle
 10
396.9999999998824
 20
605.0000065353383
 30
0.0
 40
1.499999999999625
100
AcDbArc
 50
270.0
 51
0.0
  0
ARC
  5
392
330
1F
100
AcDbEntity
  8
OUTLINE
100
AcDbCircle
 10
397.6999999999049
 20
605.0000065353383
 30
0.0
 40
2.499999999999374
100
AcDbArc
 50
216.8698979999641
 51
270.0
  0
ARC
  5
393
330
1F
100
AcDbEntity
  8
OUTLINE
100
AcDbCircle
 10
402.4999999999115
 20
569.3570198686853
 30
0.0
 40
0.499999999999875
100
AcDbArc
 50
180.0
 51
246.0000000000202
  0
LINE
  5
394
330
1F
100
AcDbEntity
  8
OUTLINE
100
AcDbLine
 10
401.2588133331812
 20
600.662713202014
 30
0.0
 11
399.9999599999992
 21
601.000006535343
 31
0.0
  0
ARC
  5
395
330
1F
100
AcDbEntity
  8
OUTLINE
100
AcDbCircle
 10
400.9999999998326
 20
599.6967798686779
 30
0.0
 40
0.9999999999997496
100
AcDbArc
 50
0.0
 51
75.00000000000554
  0
ARC
  5
396
330
1F
100
AcDbEntity
  8
OUTLINE
100
AcDbCircle
 10
426.9999999998751
 20
552.4284198686915
 30
0.0
 40
4.999999999998748
100
AcDbArc
 50
0.0
 51
66.00000000002022
  0
ARC
  5
397
330
1F
100
AcDbEntity
  8
OUTLINE
100
AcDbCircle
 10
428.9999999998931
 20
541.5905798686903
 30
0.0
 40
2.99999999999925
100
AcDbArc
 50
256.9999999999775
 51
0.0
  0
LINE
  5
398
330
1F
100
AcDbEntity
  8
OUTLINE
100
AcDbLine
 10
431.9999999998751
 20
541.5905798686903
 30
0.0
 11
431.9999999998751
 21
552.4284198686915
 31
0.0
  0
ARC
  5
399
330
1F
100
AcDbEntity
  8
OUTLINE
100
AcDbCircle
 10
393.4999999998751
 20
617.707713202008
 30
0.0
 40
4.999999999998748
100
AcDbArc
 50
0.0
 51
74.35775400003125
  0
LINE
  5
39A
330
1F
100
AcDbEntity
  8
OUTLINE
100
AcDbLine
 10
386.7271333332489
 20
624.7964065353349
 30
0.0
 11
394.8481466665386
 21
622.5225265353425
 31
0.0
  0
LINE
  5
39B
330
1F
100
AcDbEntity
  8
BASIS
  6
DASHDOT
100
AcDbLine
 10
-97.49999999997637
 20
527.2563533332745
 30
0.0
 11
-97.49999999997637
 21
52.74368666672399
 31
0.0
  0
LINE
  5
39C
330
1F
100
AcDbEntity
  8
BASIS
  6
DASHDOT
100
AcDbLine
 10
-249.9999999999363
 20
-13.03683856577572
 30
0.0
 11
-249.9999999999363
 21
22.14944000000059
 31
0.0
  0
LINE
  5
39D
330
1F
100
AcDbEntity
  8
BASIS
  6
DASHDOT
100
AcDbLine
 10
249.9999999999363
 20
-12.84287553500052
 30
0.0
 11
249.9999999999363
 21
21.8267599999981
 31
0.0
  0
LINE
  5
39E
330
1F
100
AcDbEntity
  8
BASIS
  6
DASHDOT
100
AcDbLine
 10
189.7988266666178
 20
330.0000047099763
 30
0.0
 11
-384.7988266665705
 21
330.0000047099763
 31
0.0
  0
LINE
  5
39F
330
1F
100
AcDbEntity
  8
BASIS
  6
DASHDOT
100
AcDbLine
 10
-0.0000400000123051
 20
0.0000000000022737
 30
0.0
 11
-0.0000400000123051
 21
570.6785767890301
 31
0.0
  0
TEXT
  5
3A0
330
1F
100
AcDbEntity
  8
NOTE
  6
Continuous
 62
     4
100
AcDbText
 10
-128.3092838277729
 20
679.7631380355181
 30
0.0
 40
61.05829153453199
  1
ｻ-ﾋﾞｽｽﾍﾟ-ｽ
 50
0.0000025044687019
 41
0.77777773141861
  7
MS PGothic
 11
-128.3092832820596
 21
667.2786254883167
 31
0.0
100
AcDbText
 73
     1
  0
LINE
  5
3A1
330
1F
100
AcDbEntity
  8
NOTE
  6
Continuous
100
AcDbLine
 10
427.9999599999991
 20
182.0
 30
0.0
 11
460.0181155588497
 21
201.3500725615685
 31
0.0
  0
LINE
  5
3A2
330
1F
100
AcDbEntity
  8
NOTE
  6
Continuous
100
AcDbLine
 10
442.4557458603604
 20
215.047138793242
 30
0.0
 11
427.9999599999991
 21
182.0
 31
0.0
  0
LINE
  5
3A3
330
1F
100
AcDbEntity
  8
NOTE
  6
Continuous
100
AcDbLine
 10
427.9999599999991
 20
182.0
 30
0.0
 11
582.6593759456
 21
369.927889999999
 31
0.0
  0
LINE
  5
3A4
330
1F
100
AcDbEntity
  8
NOTE
  6
Continuous
100
AcDbLine
 10
-0.0000400000123051
 20
10.00000000000227
 30
0.0
 11
494.9870345401323
 21
-269.0213140000014
 31
0.0
  0
LINE
  5
3A5
330
1F
100
AcDbEntity
  8
NOTE
  6
Continuous
100
AcDbLine
 10
-0.0000400000123051
 20
10.00000000000227
 30
0.0
 11
27.03832800105374
 21
-17.29333600842801
 31
0.0
  0
LINE
  5
3A6
330
1F
100
AcDbEntity
  8
NOTE
  6
Continuous
100
AcDbLine
 10
39.23213999998857
 20
2.200270000001637
 30
0.0
 11
-0.0000400000123051
 21
10.00000000000227
 31
0.0
  0
LINE
  5
3A7
330
1F
100
AcDbEntity
  8
NOTE
  6
DASHDOT
100
AcDbLine
 10
-20.0000400000123
 20
10.00000000000227
 30
0.0
 11
19.99995999998769
 21
10.00000000000227
 31
0.0
  0
LINE
  5
3A8
330
1F
100
AcDbEntity
  8
NOTE
  6
DASHDOT
100
AcDbLine
 10
-0.0000400000123051
 20
-9.999999999997726
 30
0.0
 11
-0.0000400000123051
 21
30.00000000000227
 31
0.0
  0
LINE
  5
3A9
330
1F
100
AcDbEntity
  8
NOTE
  6
Continuous
100
AcDbLine
 10
968.8164148181114
 20
-136.0474565179792
 30
0.0
 11
582.6593759456
 21
-136.0474565179792
 31
0.0
  0
TEXT
  5
3AA
330
1F
100
AcDbEntity
  8
NOTE
100
AcDbText
 10
587.576289182194
 20
-119.2308644094774
 30
0.0
 40
66.73618973373243
  1
RGφ12.7
 41
0.9
  7
MS PGothic
 11
587.576289182194
 21
-132.8763297040965
 31
0.0
100
AcDbText
 73
     1
  0
LINE
  5
3AB
330
1F
100
AcDbEntity
  8
NOTE
  6
Continuous
100
AcDbLine
 10
457.8138399999988
 20
89.83293000000037
 30
0.0
 11
427.9999599999991
 21
116.4999999999998
 31
0.0
  0
LINE
  5
3AC
330
1F
100
AcDbEntity
  8
NOTE
  6
Continuous
100
AcDbLine
 10
427.9999599999991
 20
116.4999999999998
 30
0.0
 11
440.4859999999989
 21
78.49869999999999
 31
0.0
  0
LINE
  5
3AD
330
1F
100
AcDbEntity
  8
NOTE
  6
Continuous
100
AcDbLine
 10
427.9999599999991
 20
116.4999999999998
 30
0.0
 11
582.6593759456
 21
-136.0474565179792
 31
0.0
  0
LINE
  5
3AE
330
1F
100
AcDbEntity
  8
NOTE
  6
Continuous
100
AcDbLine
 10
752.4858619989218
 20
-269.0213140000014
 30
0.0
 11
494.9870345401323
 21
-269.0213140000014
 31
0.0
  0
TEXT
  5
3AF
330
1F
100
AcDbEntity
  8
NOTE
100
AcDbText
 10
508.0308968151865
 20
-250.8056326069043
 30
0.0
 40
59.6273302456031
  1
Dφ42
 41
0.9
  7
MS PGothic
 11
508.0308968151865
 21
-262.99755828806
 31
0.0
100
AcDbText
 73
     1
  0
LINE
  5
3B0
330
1F
100
AcDbEntity
  8
NOTE
  6
Continuous
100
AcDbLine
 10
968.8164148181114
 20
369.927889999999
 30
0.0
 11
582.6593759456
 21
369.927889999999
 31
0.0
  0
TEXT
  5
3B1
330
1F
100
AcDbEntity
  8
NOTE
100
AcDbText
 10
595.3275235686286
 20
381.8159429699039
 30
0.0
 40
66.7894463707924
  1
RLφ6.35
 41
0.9
  7
MS PGothic
 11
595.3275235686286
 21
368.1595883572759
 31
0.0
100
AcDbText
 73
     1
  0
LINE
  5
3B2
330
1F
100
AcDbEntity
  8
NOTE
  6
DASHDOT
 62
     4
100
AcDbLine
 10
407.9999599999991
 20
182.0
 30
0.0
 11
447.9999599999992
 21
182.0
 31
0.0
  0
LINE
  5
3B3
330
1F
100
AcDbEntity
  8
NOTE
  6
DASHDOT
 62
     4
100
AcDbLine
 10
427.9999599999991
 20
202.0
 30
0.0
 11
427.9999599999991
 21
162.0
 31
0.0
  0
LINE
  5
3B4
330
1F
100
AcDbEntity
  8
NOTE
  6
DASHDOT
 62
     4
100
AcDbLine
 10
407.9999599999991
 20
116.4999999999998
 30
0.0
 11
447.9999599999991
 21
116.4999999999998
 31
0.0
  0
LINE
  5
3B5
330
1F
100
AcDbEntity
  8
NOTE
  6
DASHDOT
 62
     4
100
AcDbLine
 10
427.9999599999991
 20
136.4999999999998
 30
0.0
 11
427.9999599999991
 21
96.49999999999989
 31
0.0
  0
TEXT
  5
3B6
330
1F
100
AcDbEntity
  8
NOTE
100
AcDbText
 10
-1079.060070212543
 20
-221.6567224197657
 30
0.0
 40
69.99600288684165
  1
AH 2-φ10×21
 41
0.9
  7
MS PGothic
 11
-1079.060070212543
 21
-235.9687176350346
 31
0.0
100
AcDbText
 73
     1
  0
LINE
  5
3B7
330
1F
100
AcDbEntity
  8
NOTE
100
AcDbLine
 10
-503.4348931060428
 20
-240.669507246464
 30
0.0
 11
-1098.039442866211
 21
-240.669507246464
 31
0.0
  0
LINE
  5
3B8
330
1F
100
AcDbEntity
  8
NOTE
100
AcDbLine
 10
-249.999999999938
 20
-0.0620000000053551
 30
0.0
 11
-503.4348931060428
 21
-240.669507246464
 31
0.0
  0
LINE
  5
3B9
330
1F
100
AcDbEntity
  8
NOTE
100
AcDbLine
 10
-269.69850999994
 20
-34.8753400000055
 30
0.0
 11
-249.999999999938
 21
-0.0620000000053551
 31
0.0
  0
LINE
  5
3BA
330
1F
100
AcDbEntity
  8
NOTE
100
AcDbLine
 10
-249.999999999938
 20
-0.0620000000053551
 30
0.0
 11
-284.4660799999401
 21
-20.36198000000557
 31
0.0
  0
POINT
  5
3BB
330
1F
100
AcDbEntity
  8
ARRANGE
 62
     1
100
AcDbPoint
 10
-0.0000400000123051
 20
0.0000000000022737
 30
0.0
  0
CIRCLE
  5
3BC
330
1F
100
AcDbEntity
  8
ARRANGE
  6
Continuous
 62
     1
100
AcDbCircle
 10
-0.0000400000123051
 20
0.0000000000022737
 30
0.0
 40
40.0
  0
TEXT
  5
3BD
330
1F
100
AcDbEntity
  8
ETC
100
AcDbText
 10
591.1603030886643
 20
835.9903965481094
 30
0.0
 40
75.50619625875305
  1
SMUZ6302
 41
0.8539699521967401
  7
MS PGothic
 11
591.1603030886643
 21
820.5517389818275
 31
0.0
100
AcDbText
 73
     1
  0
TEXT
  5
3BE
330
1F
100
AcDbEntity
  8
ETC
100
AcDbText
 10
593.3502430886647
 20
924.9266137299055
 30
0.0
 40
34.61565702829212
  1
室外機
  7
MS PGothic
 11
593.3502430886647
 21
917.848793606902
 31
0.0
100
AcDbText
 73
     1
  0
LINE
  5
3BF
330
1F
100
AcDbEntity
  8
SERVICE_SPACE
  6
Continuous
100
AcDbLine
 10
-399.9999999998992
 20
730.0000065353319
 30
0.0
 11
399.9999599999992
 21
630.0000034058872
 31
0.0
  0
LINE
  5
3C0
330
1F
100
AcDbEntity
  8
SERVICE_SPACE
  6
Continuous
100
AcDbLine
 10
-399.9999999998992
 20
630.0
 30
0.0
 11
399.9999599999992
 21
730.0000065353327
 31
0.0
  0
LINE
  5
3C1
330
1F
100
AcDbEntity
  8
SERVICE_SPACE
  6
Continuous
100
AcDbLine
 10
-399.9999999998992
 20
730.0000065353319
 30
0.0
 11
399.9999599999992
 21
730.0000065353325
 31
0.0
  0
LINE
  5
3C2
330
1F
100
AcDbEntity
  8
SERVICE_SPACE
  6
Continuous
100
AcDbLine
 10
-399.9999999998992
 20
630.0000065353319
 30
0.0
 11
399.9999599999992
 21
630.000006535332
 31
0.0
  0
LINE
  5
3C3
330
1F
100
AcDbEntity
  8
SERVICE_SPACE
  6
Continuous
100
AcDbLine
 10
399.9999599999992
 20
630.000006535332
 30
0.0
 11
399.9999599999992
 21
730.0000065353327
 31
0.0
  0
LINE
  5
3C4
330
1F
100
AcDbEntity
  8
SERVICE_SPACE
  6
Continuous
100
AcDbLine
 10
-399.9999999998992
 20
630.0000065353319
 30
0.0
 11
-399.9999999998992
 21
730.0000065353319
 31
0.0
  0
VIEWPORT
  5
3C5
330
1B
100
AcDbEntity
 67
     1
  8
0
100
AcDbViewport
 10
0.0
 20
0.0
 30
0.0
 40
368.6897153090529
 41
259.0514488103782
 68
     1
 69
     1
 12
186.3221976609531
 22
133.8887847012808
 13
0.0
 23
0.0
 14
0.5
 24
0.5
 15
0.5
 25
0.5
 16
0.0
 26
0.0
 36
1.0
 17
0.0
 27
0.0
 37
0.0
 42
50.0
 43
0.0
 44
0.0
 45
259.0514488103782
 50
0.0
 51
0.0
 72
   100
 90
   557152
  1

281
     0
 71
     1
 74
     0
110
0.0
120
0.0
130
0.0
111
1.0
121
0.0
131
0.0
112
0.0
122
1.0
132
0.0
 79
     0
146
0.0
  0
POLYLINE
  5
3C7
102
{ACAD_REACTORS
102
}
330
1B
100
AcDbEntity
 67
     1
  8
rcviewportframe
100
AcDb2dPolyline
 66
     1
 10
0.0
 20
0.0
 30
0.0
 70
     1
  0
VERTEX
  5
3C8
330
3C7
100
AcDbEntity
 67
     1
  8
rcviewportframe
100
AcDbVertex
100
AcDb2dVertex
 10
5.591945058476199
 20
6.902780382467995
 30
0.0
  0
VERTEX
  5
3C9
330
3C7
100
AcDbEntity
 67
     1
  8
rcviewportframe
100
AcDbVertex
100
AcDb2dVertex
 10
367.05245026343
 20
6.902780382467995
 30
0.0
  0
VERTEX
  5
3CA
330
3C7
100
AcDbEntity
 67
     1
  8
rcviewportframe
100
AcDbVertex
100
AcDb2dVertex
 10
367.05245026343
 20
260.8747890200937
 30
0.0
  0
VERTEX
  5
3CB
330
3C7
100
AcDbEntity
 67
     1
  8
rcviewportframe
100
AcDbVertex
100
AcDb2dVertex
 10
5.591945058476199
 20
260.8747890200937
 30
0.0
  0
SEQEND
  5
3CC
330
3C7
100
AcDbEntity
 67
     1
  8
rcviewportframe
  0
VIEWPORT
  5
3CD
330
1B
100
AcDbEntity
 67
     1
  8
OUTLINE
100
AcDbViewport
 10
186.3221976609531
 20
133.8887847012808
 30
0.0
 40
361.4605052049538
 41
253.9720086376257
 68
     2
 69
     2
 12
-40.1062569004921
 22
224.8509547839825
 13
0.0
 23
0.0
 14
0.5
 24
0.5
 15
0.5
 25
0.5
 16
0.0
 26
0.0
 36
1.0
 17
0.0
 27
0.0
 37
0.0
 42
50.0
 43
0.0
 44
0.0
 45
1523.832051825754
 50
0.0
 51
0.0
 72
   100
 90
   622688
340
3C7
  1

281
     0
 71
     1
 74
     0
110
0.0
120
0.0
130
0.0
111
1.0
121
0.0
131
0.0
112
0.0
122
1.0
132
0.0
 79
     0
146
0.0
  0
ENDSEC
  0
SECTION
  2
OBJECTS
  0
DICTIONARY
  5
C
330
0
100
AcDbDictionary
281
     1
  3
ACAD_GROUP
350
D
  3
ACAD_IMAGE_VARS
350
6B
  3
ACAD_LAYOUT
350
1A
  3
ACAD_MATERIAL
350
43
  3
ACAD_MLEADERSTYLE
350
3D1
  3
ACAD_MLINESTYLE
350
17
  3
ACAD_PLOTSETTINGS
350
19
  3
ACAD_PLOTSTYLENAME
350
E
  3
ACAD_SCALELIST
350
47
  3
ACAD_VISUALSTYLE
350
2A
  3
AcDbVariableDictionary
350
3CF
  0
DICTIONARY
  5
D
102
{ACAD_REACTORS
330
C
102
}
330
C
100
AcDbDictionary
281
     1
  0
RASTERVARIABLES
  5
6B
102
{ACAD_REACTORS
330
C
102
}
330
C
100
AcDbRasterVariables
 90
        0
 70
     0
 71
     1
 72
     0
  0
DICTIONARY
  5
1A
102
{ACAD_REACTORS
330
C
102
}
330
C
100
AcDbDictionary
281
     1
  3
Model
350
22
  3
レイアウト1
350
1E
  0
DICTIONARY
  5
43
102
{ACAD_REACTORS
330
C
102
}
330
C
100
AcDbDictionary
281
     1
  3
ByBlock
350
45
  3
ByLayer
350
44
  3
Global
350
46
  0
DICTIONARY
  5
3D1
102
{ACAD_REACTORS
330
C
102
}
330
C
100
AcDbDictionary
281
     1
  0
DICTIONARY
  5
17
102
{ACAD_REACTORS
330
C
102
}
330
C
100
AcDbDictionary
281
     1
  3
Standard
350
18
  0
DICTIONARY
  5
19
102
{ACAD_REACTORS
330
C
102
}
330
C
100
AcDbDictionary
281
     1
  0
ACDBDICTIONARYWDFLT
  5
E
102
{ACAD_REACTORS
330
C
102
}
330
C
100
AcDbDictionary
281
     1
  3
Normal
350
F
100
AcDbDictionaryWithDefault
340
F
  0
DICTIONARY
  5
47
102
{ACAD_REACTORS
330
C
102
}
330
C
100
AcDbDictionary
281
     1
  3
A0
350
48
  3
A1
350
49
  3
A2
350
4A
  3
A3
350
4B
  3
A4
350
4C
  3
A5
350
4D
  3
A6
350
4E
  3
A7
350
4F
  3
A8
350
50
  3
A9
350
51
  3
B0
350
52
  3
B1
350
53
  3
B2
350
54
  3
B3
350
55
  3
B4
350
56
  3
B5
350
57
  3
B6
350
58
  3
B7
350
59
  3
B8
350
5A
  3
B9
350
5B
  3
C0
350
5C
  3
C1
350
5D
  3
C2
350
5E
  3
C3
350
5F
  3
C4
350
60
  3
C5
350
61
  3
C6
350
62
  3
C7
350
63
  3
C8
350
64
  3
C9
350
65
  3
D0
350
66
  3
D1
350
67
  3
D2
350
68
  0
DICTIONARY
  5
2A
102
{ACAD_REACTORS
330
C
102
}
330
C
100
AcDbDictionary
281
     1
  3
2dWireframe
350
2F
  3
Basic
350
32
  3
Brighten
350
36
  3
ColorChange
350
3A
  3
Conceptual
350
34
  3
Dim
350
35
  3
EdgeColorOff
350
3D
  3
Facepattern
350
39
  3
Flat
350
2B
  3
FlatWithEdges
350
2C
  3
Gouraud
350
2D
  3
GouraudWithEdges
350
2E
  3
Hidden
350
31
  3
JitterOff
350
3B
  3
Linepattern
350
38
  3
OverhangOff
350
3C
  3
Realistic
350
33
  3
Shaded
350
42
  3
Shaded with edges
350
41
  3
Shades of Gray
350
3E
  3
Sketchy
350
3F
  3
Thicken
350
37
  3
Wireframe
350
30
  3
X-Ray
350
40
  0
DICTIONARY
  5
3CF
102
{ACAD_REACTORS
330
C
102
}
330
C
100
AcDbDictionary
281
     1
  3
CANNOSCALE
350
3D6
  3
DIMASSOC
350
3D4
  3
HIDETEXT
350
3D5
  3
MSLTSCALE
350
3D7
  0
LAYOUT
  5
22
102
{ACAD_REACTORS
330
1A
102
}
330
1A
100
AcDbPlotSettings
  1

  2
none_device
  4
Letter_(8.50_x_11.00_Inches)
  6

 40
6.35
 41
6.35
 42
6.35000508
 43
6.35000508
 44
215.9
 45
279.4
 46
0.0
 47
0.0
 48
0.0
 49
0.0
140
0.0
141
0.0
142
1.0
143
1.0
 70
  1712
 72
     0
 73
     0
 74
     0
  7

 75
     0
147
1.0
148
0.0
149
0.0
100
AcDbLayout
  1
Model
 70
     1
 71
     0
 10
-1372.549303582764
 20
-648.1021917796282
 11
1272.283661331533
 21
1210.229578739584
 12
0.0
 22
0.0
 32
0.0
 14
-1372.549303582764
 24
-648.1021917796282
 34
0.0
 15
1272.283661331533
 25
1210.229578739584
 35
0.0
146
0.0
 13
0.0
 23
0.0
 33
0.0
 16
1.0
 26
0.0
 36
0.0
 17
0.0
 27
1.0
 37
0.0
 76
     0
330
1F
331
29
  0
LAYOUT
  5
1E
102
{ACAD_REACTORS
330
1A
102
}
330
1A
100
AcDbPlotSettings
  1

  2
none_device
  4
ISO_A3_(420.00_x_297.00_MM)
  6

 40
7.5
 41
20.0
 42
7.5
 43
20.0
 44
420.0
 45
297.0
 46
-7.5
 47
-20.0
 48
0.0
 49
0.0
140
0.0
141
0.0
142
1.0
143
1.0
 70
   688
 72
     1
 73
     0
 74
     5
  7

 75
    16
147
1.0
148
0.0
149
0.0
100
AcDbLayout
  1
レイアウト1
 70
     1
 71
     1
 10
-7.5
 20
-20.0
 11
420.0
 21
297.0
 12
0.0
 22
0.0
 32
0.0
 14
-9.375
 24
-25.0
 34
0.0
 15
525.0
 25
371.25
 35
0.0
146
0.0
 13
0.0
 23
0.0
 33
0.0
 16
1.0
 26
0.0
 36
0.0
 17
0.0
 27
1.0
 37
0.0
 76
     0
330
1B
331
3C5
  0
MATERIAL
  5
45
102
{ACAD_REACTORS
330
43
102
}
102
{ACAD_XDICTIONARY
360
40A
102
}
330
43
100
AcDbMaterial
  1
ByBlock
  0
MATERIAL
  5
44
102
{ACAD_REACTORS
330
43
102
}
102
{ACAD_XDICTIONARY
360
408
102
}
330
43
100
AcDbMaterial
  1
ByLayer
  0
MATERIAL
  5
46
102
{ACAD_REACTORS
330
43
102
}
102
{ACAD_XDICTIONARY
360
40C
102
}
330
43
100
AcDbMaterial
  1
Global
  0
MLINESTYLE
  5
18
102
{ACAD_REACTORS
330
17
102
}
330
17
100
AcDbMlineStyle
  2
Standard
 70
     0
  3

 62
   256
 51
90.0
 52
90.0
 71
     2
 49
0.5
 62
   256
  6
BYLAYER
 49
-0.5
 62
   256
  6
BYLAYER
  0
ACDBPLACEHOLDER
  5
F
102
{ACAD_REACTORS
330
E
102
}
330
E
  0
SCALE
  5
48
102
{ACAD_REACTORS
330
47
102
}
330
47
100
AcDbScale
 70
     0
300
1:1
140
1.0
141
1.0
290
     1
  0
SCALE
  5
49
102
{ACAD_REACTORS
330
47
102
}
330
47
100
AcDbScale
 70
     0
300
1:2
140
1.0
141
2.0
290
     0
  0
SCALE
  5
4A
102
{ACAD_REACTORS
330
47
102
}
330
47
100
AcDbScale
 70
     0
300
1:4
140
1.0
141
4.0
290
     0
  0
SCALE
  5
4B
102
{ACAD_REACTORS
330
47
102
}
330
47
100
AcDbScale
 70
     0
300
1:5
140
1.0
141
5.0
290
     0
  0
SCALE
  5
4C
102
{ACAD_REACTORS
330
47
102
}
330
47
100
AcDbScale
 70
     0
300
1:8
140
1.0
141
8.0
290
     0
  0
SCALE
  5
4D
102
{ACAD_REACTORS
330
47
102
}
330
47
100
AcDbScale
 70
     0
300
1:10
140
1.0
141
10.0
290
     0
  0
SCALE
  5
4E
102
{ACAD_REACTORS
330
47
102
}
330
47
100
AcDbScale
 70
     0
300
1:16
140
1.0
141
16.0
290
     0
  0
SCALE
  5
4F
102
{ACAD_REACTORS
330
47
102
}
330
47
100
AcDbScale
 70
     0
300
1:20
140
1.0
141
20.0
290
     0
  0
SCALE
  5
50
102
{ACAD_REACTORS
330
47
102
}
330
47
100
AcDbScale
 70
     0
300
1:30
140
1.0
141
30.0
290
     0
  0
SCALE
  5
51
102
{ACAD_REACTORS
330
47
102
}
330
47
100
AcDbScale
 70
     0
300
1:40
140
1.0
141
40.0
290
     0
  0
SCALE
  5
52
102
{ACAD_REACTORS
330
47
102
}
330
47
100
AcDbScale
 70
     0
300
1:50
140
1.0
141
50.0
290
     0
  0
SCALE
  5
53
102
{ACAD_REACTORS
330
47
102
}
330
47
100
AcDbScale
 70
     0
300
1:100
140
1.0
141
100.0
290
     0
  0
SCALE
  5
54
102
{ACAD_REACTORS
330
47
102
}
330
47
100
AcDbScale
 70
     0
300
2:1
140
2.0
141
1.0
290
     0
  0
SCALE
  5
55
102
{ACAD_REACTORS
330
47
102
}
330
47
100
AcDbScale
 70
     0
300
4:1
140
4.0
141
1.0
290
     0
  0
SCALE
  5
56
102
{ACAD_REACTORS
330
47
102
}
330
47
100
AcDbScale
 70
     0
300
8:1
140
8.0
141
1.0
290
     0
  0
SCALE
  5
57
102
{ACAD_REACTORS
330
47
102
}
330
47
100
AcDbScale
 70
     0
300
10:1
140
10.0
141
1.0
290
     0
  0
SCALE
  5
58
102
{ACAD_REACTORS
330
47
102
}
330
47
100
AcDbScale
 70
     0
300
100:1
140
100.0
141
1.0
290
     0
  0
SCALE
  5
59
102
{ACAD_REACTORS
330
47
102
}
330
47
100
AcDbScale
 70
     0
300
1/128" = 1'-0"
140
0.0078125
141
12.0
290
     0
  0
SCALE
  5
5A
102
{ACAD_REACTORS
330
47
102
}
330
47
100
AcDbScale
 70
     0
300
1/64" = 1'-0"
140
0.015625
141
12.0
290
     0
  0
SCALE
  5
5B
102
{ACAD_REACTORS
330
47
102
}
330
47
100
AcDbScale
 70
     0
300
1/32" = 1'-0"
140
0.03125
141
12.0
290
     0
  0
SCALE
  5
5C
102
{ACAD_REACTORS
330
47
102
}
330
47
100
AcDbScale
 70
     0
300
1/16" = 1'-0"
140
0.0625
141
12.0
290
     0
  0
SCALE
  5
5D
102
{ACAD_REACTORS
330
47
102
}
330
47
100
AcDbScale
 70
     0
300
3/32" = 1'-0"
140
0.09375
141
12.0
290
     0
  0
SCALE
  5
5E
102
{ACAD_REACTORS
330
47
102
}
330
47
100
AcDbScale
 70
     0
300
1/8" = 1'-0"
140
0.125
141
12.0
290
     0
  0
SCALE
  5
5F
102
{ACAD_REACTORS
330
47
102
}
330
47
100
AcDbScale
 70
     0
300
3/16" = 1'-0"
140
0.1875
141
12.0
290
     0
  0
SCALE
  5
60
102
{ACAD_REACTORS
330
47
102
}
330
47
100
AcDbScale
 70
     0
300
1/4" = 1'-0"
140
0.25
141
12.0
290
     0
  0
SCALE
  5
61
102
{ACAD_REACTORS
330
47
102
}
330
47
100
AcDbScale
 70
     0
300
3/8" = 1'-0"
140
0.375
141
12.0
290
     0
  0
SCALE
  5
62
102
{ACAD_REACTORS
330
47
102
}
330
47
100
AcDbScale
 70
     0
300
1/2" = 1'-0"
140
0.5
141
12.0
290
     0
  0
SCALE
  5
63
102
{ACAD_REACTORS
330
47
102
}
330
47
100
AcDbScale
 70
     0
300
3/4" = 1'-0"
140
0.75
141
12.0
290
     0
  0
SCALE
  5
64
102
{ACAD_REACTORS
330
47
102
}
330
47
100
AcDbScale
 70
     0
300
1" = 1'-0"
140
1.0
141
12.0
290
     0
  0
SCALE
  5
65
102
{ACAD_REACTORS
330
47
102
}
330
47
100
AcDbScale
 70
     0
300
1-1/2" = 1'-0"
140
1.5
141
12.0
290
     0
  0
SCALE
  5
66
102
{ACAD_REACTORS
330
47
102
}
330
47
100
AcDbScale
 70
     0
300
3" = 1'-0"
140
3.0
141
12.0
290
     0
  0
SCALE
  5
67
102
{ACAD_REACTORS
330
47
102
}
330
47
100
AcDbScale
 70
     0
300
6" = 1'-0"
140
6.0
141
12.0
290
     0
  0
SCALE
  5
68
102
{ACAD_REACTORS
330
47
102
}
330
47
100
AcDbScale
 70
     0
300
1'-0" = 1'-0"
140
12.0
141
12.0
290
     0
  0
VISUALSTYLE
  5
2F
102
{ACAD_REACTORS
330
2A
102
}
102
{ACAD_XDICTIONARY
360
3E0
102
}
330
2A
100
AcDbVisualStyle
  2
2dWireframe
 70
     4
 71
     0
 72
     2
 73
     0
 90
        0
 40
0.6
 41
30.0
 62
     5
 63
     7
 74
     1
 91
        4
 64
     7
 65
   257
 75
     1
175
     1
 42
1.0
 92
        0
 66
   257
 43
1.0
 76
     1
 77
     6
 78
     2
 67
     7
 79
     5
170
     0
171
     0
290
     0
174
     0
 93
        1
 44
0.0
173
     0
291
     0
 45
0.0
1001
ACAD
1000
AcDbSavedByObjectVersion
1070
     0
  0
VISUALSTYLE
  5
32
102
{ACAD_REACTORS
330
2A
102
}
102
{ACAD_XDICTIONARY
360
3E6
102
}
330
2A
100
AcDbVisualStyle
  2
Basic
 70
     7
 71
     1
 72
     0
 73
     1
 90
        0
 40
0.6
 41
30.0
 62
     5
 63
     7
 74
     0
 91
        4
 64
     7
 65
   257
 75
     1
175
     1
 42
1.0
 92
        8
 66
     7
 43
1.0
 76
     1
 77
     6
 78
     2
 67
     7
 79
     5
170
     0
171
     0
290
     0
174
     0
 93
        1
 44
0.0
173
     0
291
     1
 45
0.0
1001
ACAD
1000
AcDbSavedByObjectVersion
1070
     0
  0
VISUALSTYLE
  5
36
102
{ACAD_REACTORS
330
2A
102
}
102
{ACAD_XDICTIONARY
360
3EE
102
}
330
2A
100
AcDbVisualStyle
  2
Brighten
 70
    12
 71
     2
 72
     2
 73
     0
 90
        0
 40
0.6
 41
30.0
 62
     5
 63
     7
 74
     1
 91
        4
 64
     7
 65
   257
 75
     1
175
     1
 42
1.0
 92
        8
 66
     7
 43
1.0
 76
     1
 77
     6
 78
     2
 67
     7
 79
     5
170
     0
171
     0
290
     0
174
     0
 93
        1
 44
50.0
173
     0
291
     1
 45
0.0
1001
ACAD
1000
AcDbSavedByObjectVersion
1070
     0
  0
VISUALSTYLE
  5
3A
102
{ACAD_REACTORS
330
2A
102
}
102
{ACAD_XDICTIONARY
360
3F6
102
}
330
2A
100
AcDbVisualStyle
  2
ColorChange
 70
    16
 71
     2
 72
     2
 73
     3
 90
        0
 40
0.6
 41
30.0
 62
     5
 63
     8
 74
     1
 91
        4
 64
     7
 65
   257
 75
     1
175
     1
 42
1.0
 92
        8
 66
     8
 43
1.0
 76
     1
 77
     6
 78
     2
 67
     7
 79
     5
170
     0
171
     0
290
     0
174
     0
 93
        1
 44
0.0
173
     0
291
     1
 45
0.0
1001
ACAD
1000
AcDbSavedByObjectVersion
1070
     0
  0
VISUALSTYLE
  5
34
102
{ACAD_REACTORS
330
2A
102
}
102
{ACAD_XDICTIONARY
360
3EA
102
}
330
2A
100
AcDbVisualStyle
  2
Conceptual
 70
     9
 71
     3
 72
     2
 73
     0
 90
        0
 40
0.6
 41
30.0
 62
     5
 63
     7
 74
     2
 91
        2
 64
     7
 65
   257
 75
     1
175
     1
 42
179.0
 92
        8
 66
     7
 43
1.0
 76
     1
 77
     6
 78
     2
 67
     7
 79
     3
170
     0
171
     0
290
     0
174
     0
 93
        1
 44
0.0
173
     0
291
     0
 45
0.0
1001
ACAD
1000
AcDbSavedByObjectVersion
1070
     0
  0
VISUALSTYLE
  5
35
102
{ACAD_REACTORS
330
2A
102
}
102
{ACAD_XDICTIONARY
360
3EC
102
}
330
2A
100
AcDbVisualStyle
  2
Dim
 70
    11
 71
     2
 72
     2
 73
     0
 90
        0
 40
0.6
 41
30.0
 62
     5
 63
     7
 74
     1
 91
        4
 64
     7
 65
   257
 75
     1
175
     1
 42
1.0
 92
        8
 66
     7
 43
1.0
 76
     1
 77
     6
 78
     2
 67
     7
 79
     5
170
     0
171
     0
290
     0
174
     0
 93
        1
 44
-50.0
173
     0
291
     1
 45
0.0
1001
ACAD
1000
AcDbSavedByObjectVersion
1070
     0
  0
VISUALSTYLE
  5
3D
102
{ACAD_REACTORS
330
2A
102
}
102
{ACAD_XDICTIONARY
360
3FC
102
}
330
2A
100
AcDbVisualStyle
  2
EdgeColorOff
 70
    22
 71
     2
 72
     2
 73
     0
 90
        0
 40
0.6
 41
30.0
 62
     5
 63
     7
 74
     1
 91
        4
 64
     7
 65
   257
 75
     1
175
     1
 42
1.0
 92
        8
 66
     7
 43
1.0
 76
     1
 77
     6
 78
     2
 67
     7
 79
     5
170
     0
171
     0
290
     0
174
     0
 93
        1
 44
0.0
173
     0
291
     1
 45
0.0
1001
ACAD
1000
AcDbSavedByObjectVersion
1070
     0
  0
VISUALSTYLE
  5
39
102
{ACAD_REACTORS
330
2A
102
}
102
{ACAD_XDICTIONARY
360
3F4
102
}
330
2A
100
AcDbVisualStyle
  2
Facepattern
 70
    15
 71
     2
 72
     2
 73
     0
 90
        0
 40
0.6
 41
30.0
 62
     5
 63
     7
 74
     1
 91
        4
 64
     7
 65
   257
 75
     1
175
     1
 42
1.0
 92
        8
 66
     7
 43
1.0
 76
     1
 77
     6
 78
     2
 67
     7
 79
     5
170
     0
171
     0
290
     0
174
     0
 93
        1
 44
0.0
173
     0
291
     1
 45
0.0
1001
ACAD
1000
AcDbSavedByObjectVersion
1070
     0
  0
VISUALSTYLE
  5
2B
102
{ACAD_REACTORS
330
2A
102
}
102
{ACAD_XDICTIONARY
360
3D8
102
}
330
2A
100
AcDbVisualStyle
  2
Flat
 70
     0
 71
     2
 72
     1
 73
     1
 90
        2
 40
0.6
 41
30.0
 62
     5
 63
     7
 74
     0
 91
        0
 64
     7
 65
   257
 75
     1
175
     1
 42
1.0
 92
        8
 66
     7
 43
1.0
 76
     1
 77
     6
 78
     2
 67
     7
 79
     5
170
     0
171
     0
290
     0
174
     0
 93
       13
 44
0.0
173
     0
291
     1
 45
0.0
1001
ACAD
1000
AcDbSavedByObjectVersion
1070
     0
  0
VISUALSTYLE
  5
2C
102
{ACAD_REACTORS
330
2A
102
}
102
{ACAD_XDICTIONARY
360
3DA
102
}
330
2A
100
AcDbVisualStyle
  2
FlatWithEdges
 70
     1
 71
     2
 72
     1
 73
     1
 90
        2
 40
0.6
 41
30.0
 62
     5
 63
     7
 74
     1
 91
        0
 64
     7
 65
   257
 75
     1
175
     1
 42
1.0
 92
        0
 66
   257
 43
1.0
 76
     1
 77
     6
 78
     2
 67
     7
 79
     5
170
     0
171
     0
290
     0
174
     0
 93
       13
 44
0.0
173
     0
291
     1
 45
0.0
1001
ACAD
1000
AcDbSavedByObjectVersion
1070
     0
  0
VISUALSTYLE
  5
2D
102
{ACAD_REACTORS
330
2A
102
}
102
{ACAD_XDICTIONARY
360
3DC
102
}
330
2A
100
AcDbVisualStyle
  2
Gouraud
 70
     2
 71
     2
 72
     2
 73
     1
 90
        2
 40
0.6
 41
30.0
 62
     5
 63
     7
 74
     0
 91
        0
 64
     7
 65
   257
 75
     1
175
     1
 42
1.0
 92
        0
 66
     7
 43
1.0
 76
     1
 77
     6
 78
     2
 67
     7
 79
     5
170
     0
171
     0
290
     0
174
     0
 93
       13
 44
0.0
173
     0
291
     1
 45
0.0
1001
ACAD
1000
AcDbSavedByObjectVersion
1070
     0
  0
VISUALSTYLE
  5
2E
102
{ACAD_REACTORS
330
2A
102
}
102
{ACAD_XDICTIONARY
360
3DE
102
}
330
2A
100
AcDbVisualStyle
  2
GouraudWithEdges
 70
     3
 71
     2
 72
     2
 73
     1
 90
        2
 40
0.6
 41
30.0
 62
     5
 63
     7
 74
     1
 91
        0
 64
     7
 65
   257
 75
     1
175
     1
 42
1.0
 92
        0
 66
   257
 43
1.0
 76
     1
 77
     6
 78
     2
 67
     7
 79
     5
170
     0
171
     0
290
     0
174
     0
 93
       13
 44
0.0
173
     0
291
     1
 45
0.0
1001
ACAD
1000
AcDbSavedByObjectVersion
1070
     0
  0
VISUALSTYLE
  5
31
102
{ACAD_REACTORS
330
2A
102
}
102
{ACAD_XDICTIONARY
360
3E4
102
}
330
2A
100
AcDbVisualStyle
  2
Hidden
 70
     6
 71
     1
 72
     2
 73
     2
 90
        0
 40
0.6
 41
30.0
 62
     5
 63
     7
 74
     2
 91
        2
 64
     7
 65
   257
 75
     2
175
     1
 42
40.0
 92
        0
 66
   257
 43
1.0
 76
     1
 77
     6
 78
     2
 67
     7
 79
     3
170
     0
171
     0
290
     0
174
     0
 93
        1
 44
0.0
173
     0
291
     0
 45
0.0
1001
ACAD
1000
AcDbSavedByObjectVersion
1070
     0
  0
VISUALSTYLE
  5
3B
102
{ACAD_REACTORS
330
2A
102
}
102
{ACAD_XDICTIONARY
360
3F8
102
}
330
2A
100
AcDbVisualStyle
  2
JitterOff
 70
    20
 71
     2
 72
     2
 73
     0
 90
        0
 40
0.6
 41
30.0
 62
     5
 63
     7
 74
     1
 91
        4
 64
     7
 65
   257
 75
     1
175
     1
 42
1.0
 92
       10
 66
     7
 43
1.0
 76
     1
 77
     6
 78
     2
 67
     7
 79
     5
170
     0
171
     0
290
     0
174
     0
 93
        1
 44
0.0
173
     0
291
     1
 45
0.0
1001
ACAD
1000
AcDbSavedByObjectVersion
1070
     0
  0
VISUALSTYLE
  5
38
102
{ACAD_REACTORS
330
2A
102
}
102
{ACAD_XDICTIONARY
360
3F2
102
}
330
2A
100
AcDbVisualStyle
  2
Linepattern
 70
    14
 71
     2
 72
     2
 73
     0
 90
        0
 40
0.6
 41
30.0
 62
     5
 63
     7
 74
     1
 91
        4
 64
     7
 65
   257
 75
     7
175
     7
 42
1.0
 92
        8
 66
     7
 43
1.0
 76
     1
 77
     6
 78
     2
 67
     7
 79
     5
170
     0
171
     0
290
     0
174
     0
 93
        1
 44
0.0
173
     0
291
     1
 45
0.0
1001
ACAD
1000
AcDbSavedByObjectVersion
1070
     0
  0
VISUALSTYLE
  5
3C
102
{ACAD_REACTORS
330
2A
102
}
102
{ACAD_XDICTIONARY
360
3FA
102
}
330
2A
100
AcDbVisualStyle
  2
OverhangOff
 70
    21
 71
     2
 72
     2
 73
     0
 90
        0
 40
0.6
 41
30.0
 62
     5
 63
     7
 74
     1
 91
        4
 64
     7
 65
   257
 75
     1
175
     1
 42
1.0
 92
        9
 66
     7
 43
1.0
 76
     1
 77
     6
 78
     2
 67
     7
 79
     5
170
     0
171
     0
290
     0
174
     0
 93
        1
 44
0.0
173
     0
291
     1
 45
0.0
1001
ACAD
1000
AcDbSavedByObjectVersion
1070
     0
  0
VISUALSTYLE
  5
33
102
{ACAD_REACTORS
330
2A
102
}
102
{ACAD_XDICTIONARY
360
3E8
102
}
330
2A
100
AcDbVisualStyle
  2
Realistic
 70
     8
 71
     2
 72
     3
 73
     0
 90
        2
 40
0.6
 41
30.0
 62
     5
 63
     7
 74
     0
 91
        0
 64
     7
 65
   257
 75
     1
175
     1
 42
1.0
 92
        8
 66
   257
 43
1.0
 76
     1
 77
     6
 78
     2
 67
     7
 79
     3
170
     0
171
     0
290
     0
174
     0
 93
       13
 44
0.0
173
     0
291
     0
 45
0.0
1001
ACAD
1000
AcDbSavedByObjectVersion
1070
     0
  0
VISUALSTYLE
  5
42
102
{ACAD_REACTORS
330
2A
102
}
102
{ACAD_XDICTIONARY
360
406
102
}
330
2A
100
AcDbVisualStyle
  2
Shaded
 70
    27
 71
     2
 72
     2
 73
     1
 90
        2
 40
0.6
 41
30.0
 62
     5
 63
     7
 74
     0
 91
        4
 64
     7
 65
   257
 75
     1
175
     1
 42
1.0
 92
        8
 66
   257
 43
1.0
 76
     1
 77
     6
 78
     2
 67
     8
 79
     3
170
     0
171
     0
290
     0
174
     0
 93
        5
 44
0.0
173
     0
291
     0
 45
0.0
1001
ACAD
1000
AcDbSavedByObjectVersion
1070
     0
  0
VISUALSTYLE
  5
41
102
{ACAD_REACTORS
330
2A
102
}
102
{ACAD_XDICTIONARY
360
404
102
}
330
2A
100
AcDbVisualStyle
  2
Shaded with edges
 70
    26
 71
     2
 72
     2
 73
     1
 90
        2
 40
0.6
 41
30.0
 62
     5
 63
     7
 74
     1
 91
       10
 64
     7
 65
   257
 75
     2
175
     1
 42
1.0
 92
        8
 66
   257
 43
1.0
 76
     1
 77
     6
 78
     2
 67
     7
 79
     3
170
     0
171
     0
290
     0
174
     0
 93
        5
 44
0.0
173
     0
291
     0
 45
0.0
1001
ACAD
1000
AcDbSavedByObjectVersion
1070
     0
  0
VISUALSTYLE
  5
3E
102
{ACAD_REACTORS
330
2A
102
}
102
{ACAD_XDICTIONARY
360
3FE
102
}
330
2A
100
AcDbVisualStyle
  2
Shades of Gray
 70
    23
 71
     2
 72
     2
 73
     3
 90
        0
 40
0.6
 41
30.0
 62
     5
 63
     7
 74
     2
 91
        2
 64
     7
 65
     7
 75
     1
175
     1
 42
40.0
 92
        8
 66
     7
 43
1.0
 76
     1
 77
     6
 78
     2
 67
     7
 79
     3
170
     0
171
     0
290
     0
174
     0
 93
        1
 44
0.0
173
     0
291
     0
 45
0.0
1001
ACAD
1000
AcDbSavedByObjectVersion
1070
     0
  0
VISUALSTYLE
  5
3F
102
{ACAD_REACTORS
330
2A
102
}
102
{ACAD_XDICTIONARY
360
400
102
}
330
2A
100
AcDbVisualStyle
  2
Sketchy
 70
    24
 71
     1
 72
     2
 73
     2
 90
        0
 40
0.6
 41
30.0
 62
     5
 63
     7
 74
     2
 91
        2
 64
     7
 65
     7
 75
     1
175
     1
 42
40.0
 92
       11
 66
     7
 43
1.0
 76
     1
 77
     6
 78
     2
 67
     7
 79
     6
170
     0
171
     0
290
     0
174
     0
 93
        1
 44
0.0
173
     0
291
     0
 45
0.0
1001
ACAD
1000
AcDbSavedByObjectVersion
1070
     0
  0
VISUALSTYLE
  5
37
102
{ACAD_REACTORS
330
2A
102
}
102
{ACAD_XDICTIONARY
360
3F0
102
}
330
2A
100
AcDbVisualStyle
  2
Thicken
 70
    13
 71
     2
 72
     2
 73
     0
 90
        0
 40
0.6
 41
30.0
 62
     5
 63
     7
 74
     1
 91
        4
 64
     7
 65
   257
 75
     1
175
     1
 42
1.0
 92
       12
 66
     7
 43
1.0
 76
     1
 77
     6
 78
     2
 67
     7
 79
     5
170
     0
171
     0
290
     0
174
     0
 93
        1
 44
0.0
173
     0
291
     1
 45
0.0
1001
ACAD
1000
AcDbSavedByObjectVersion
1070
     0
  0
VISUALSTYLE
  5
30
102
{ACAD_REACTORS
330
2A
102
}
102
{ACAD_XDICTIONARY
360
3E2
102
}
330
2A
100
AcDbVisualStyle
  2
Wireframe
 70
     5
 71
     0
 72
     2
 73
     0
 90
        0
 40
0.6
 41
30.0
 62
     5
 63
     7
 74
     1
 91
        4
 64
     7
 65
   257
 75
     1
175
     1
 42
1.0
 92
        0
 66
   257
 43
1.0
 76
     1
 77
     6
 78
     2
 67
     7
 79
     3
170
     0
171
     0
290
     0
174
     0
 93
        1
 44
0.0
173
     0
291
     0
 45
0.0
1001
ACAD
1000
AcDbSavedByObjectVersion
1070
     0
  0
VISUALSTYLE
  5
40
102
{ACAD_REACTORS
330
2A
102
}
102
{ACAD_XDICTIONARY
360
402
102
}
330
2A
100
AcDbVisualStyle
  2
X-Ray
 70
    25
 71
     2
 72
     2
 73
     1
 90
        1
 40
0.5
 41
30.0
 62
     5
 63
     7
 74
     1
 91
        0
 64
     7
 65
   257
 75
     1
175
     1
 42
1.0
 92
        8
 66
     7
 43
1.0
 76
     1
 77
     6
 78
     2
 67
     7
 79
     3
170
     0
171
     0
290
     0
174
     0
 93
       13
 44
0.0
173
     0
291
     0
 45
0.0
1001
ACAD
1000
AcDbSavedByObjectVersion
1070
     0
  0
DICTIONARYVAR
  5
3D6
102
{ACAD_REACTORS
330
3CF
102
}
330
3CF
100
DictionaryVariables
280
     0
  1
1:1
  0
DICTIONARYVAR
  5
3D4
102
{ACAD_REACTORS
330
3CF
102
}
330
3CF
100
DictionaryVariables
280
     0
  1
2
  0
DICTIONARYVAR
  5
3D5
102
{ACAD_REACTORS
330
3CF
102
}
330
3CF
100
DictionaryVariables
280
     0
  1
1
  0
DICTIONARYVAR
  5
3D7
102
{ACAD_REACTORS
330
3CF
102
}
330
3CF
100
DictionaryVariables
280
     0
  1
1
  0
DICTIONARY
  5
40A
330
45
100
AcDbDictionary
280
     1
281
     1
  3
ACAD_XREC_ROUNDTRIP
360
40B
  0
DICTIONARY
  5
408
330
44
100
AcDbDictionary
280
     1
281
     1
  3
ACAD_XREC_ROUNDTRIP
360
409
  0
DICTIONARY
  5
40C
330
46
100
AcDbDictionary
280
     1
281
     1
  3
ACAD_XREC_ROUNDTRIP
360
40D
  0
DICTIONARY
  5
3E0
330
2F
100
AcDbDictionary
280
     1
281
     1
  3
ACAD_XREC_ROUNDTRIP
360
3E1
  0
DICTIONARY
  5
3E6
330
32
100
AcDbDictionary
280
     1
281
     1
  3
ACAD_XREC_ROUNDTRIP
360
3E7
  0
DICTIONARY
  5
3EE
330
36
100
AcDbDictionary
280
     1
281
     1
  3
ACAD_XREC_ROUNDTRIP
360
3EF
  0
DICTIONARY
  5
3F6
330
3A
100
AcDbDictionary
280
     1
281
     1
  3
ACAD_XREC_ROUNDTRIP
360
3F7
  0
DICTIONARY
  5
3EA
330
34
100
AcDbDictionary
280
     1
281
     1
  3
ACAD_XREC_ROUNDTRIP
360
3EB
  0
DICTIONARY
  5
3EC
330
35
100
AcDbDictionary
280
     1
281
     1
  3
ACAD_XREC_ROUNDTRIP
360
3ED
  0
DICTIONARY
  5
3FC
330
3D
100
AcDbDictionary
280
     1
281
     1
  3
ACAD_XREC_ROUNDTRIP
360
3FD
  0
DICTIONARY
  5
3F4
330
39
100
AcDbDictionary
280
     1
281
     1
  3
ACAD_XREC_ROUNDTRIP
360
3F5
  0
DICTIONARY
  5
3D8
330
2B
100
AcDbDictionary
280
     1
281
     1
  3
ACAD_XREC_ROUNDTRIP
360
3D9
  0
DICTIONARY
  5
3DA
330
2C
100
AcDbDictionary
280
     1
281
     1
  3
ACAD_XREC_ROUNDTRIP
360
3DB
  0
DICTIONARY
  5
3DC
330
2D
100
AcDbDictionary
280
     1
281
     1
  3
ACAD_XREC_ROUNDTRIP
360
3DD
  0
DICTIONARY
  5
3DE
330
2E
100
AcDbDictionary
280
     1
281
     1
  3
ACAD_XREC_ROUNDTRIP
360
3DF
  0
DICTIONARY
  5
3E4
330
31
100
AcDbDictionary
280
     1
281
     1
  3
ACAD_XREC_ROUNDTRIP
360
3E5
  0
DICTIONARY
  5
3F8
330
3B
100
AcDbDictionary
280
     1
281
     1
  3
ACAD_XREC_ROUNDTRIP
360
3F9
  0
DICTIONARY
  5
3F2
330
38
100
AcDbDictionary
280
     1
281
     1
  3
ACAD_XREC_ROUNDTRIP
360
3F3
  0
DICTIONARY
  5
3FA
330
3C
100
AcDbDictionary
280
     1
281
     1
  3
ACAD_XREC_ROUNDTRIP
360
3FB
  0
DICTIONARY
  5
3E8
330
33
100
AcDbDictionary
280
     1
281
     1
  3
ACAD_XREC_ROUNDTRIP
360
3E9
  0
DICTIONARY
  5
406
330
42
100
AcDbDictionary
280
     1
281
     1
  3
ACAD_XREC_ROUNDTRIP
360
407
  0
DICTIONARY
  5
404
330
41
100
AcDbDictionary
280
     1
281
     1
  3
ACAD_XREC_ROUNDTRIP
360
405
  0
DICTIONARY
  5
3FE
330
3E
100
AcDbDictionary
280
     1
281
     1
  3
ACAD_XREC_ROUNDTRIP
360
3FF
  0
DICTIONARY
  5
400
330
3F
100
AcDbDictionary
280
     1
281
     1
  3
ACAD_XREC_ROUNDTRIP
360
401
  0
DICTIONARY
  5
3F0
330
37
100
AcDbDictionary
280
     1
281
     1
  3
ACAD_XREC_ROUNDTRIP
360
3F1
  0
DICTIONARY
  5
3E2
330
30
100
AcDbDictionary
280
     1
281
     1
  3
ACAD_XREC_ROUNDTRIP
360
3E3
  0
DICTIONARY
  5
402
330
40
100
AcDbDictionary
280
     1
281
     1
  3
ACAD_XREC_ROUNDTRIP
360
403
  0
XRECORD
  5
40B
102
{ACAD_REACTORS
330
40A
102
}
330
40A
100
AcDbXrecord
280
     1
102
MATERIAL
148
0.0
149
0.0
149
0.0
 93
        0
 94
      127
282
     0
 72
     1
 77
     1
171
     1
175
     1
179
     1
273
     0
  0
XRECORD
  5
409
102
{ACAD_REACTORS
330
408
102
}
330
408
100
AcDbXrecord
280
     1
102
MATERIAL
148
0.0
149
0.0
149
0.0
 93
        0
 94
      127
282
     0
 72
     1
 77
     1
171
     1
175
     1
179
     1
273
     0
  0
XRECORD
  5
40D
102
{ACAD_REACTORS
330
40C
102
}
330
40C
100
AcDbXrecord
280
     1
102
MATERIAL
148
0.0
149
0.0
149
0.0
 93
        0
 94
      127
282
     0
 72
     1
 77
     1
171
     1
175
     1
179
     1
273
     0
  0
XRECORD
  5
3E1
102
{ACAD_REACTORS
330
3E0
102
}
330
3E0
100
AcDbXrecord
280
     1
102
RTVSPropertyOp0
 70
     1
102
RTVSPropertyOp1
 70
     1
102
RTVSPropertyOp2
 70
     1
102
RTVSPropertyOp3
 70
     1
102
RTVSPropertyOp4
 70
     1
102
RTVSPropertyOp5
 70
     1
102
RTVSPropertyOp6
 70
     1
102
RTVSPropertyOp7
 70
     1
102
RTVSPropertyOp8
 70
     1
102
RTVSPropertyOp9
 70
     1
102
RTVSPropertyOp10
 70
     1
102
RTVSPropertyOp11
 70
     1
102
RTVSPropertyOp12
 70
     1
102
RTVSPropertyOp13
 70
     1
102
RTVSPropertyOp14
 70
     1
102
RTVSPropertyOp15
 70
     1
102
RTVSPropertyOp16
 70
     1
102
RTVSPropertyOp17
 70
     1
102
RTVSPropertyOp18
 70
     1
102
RTVSPropertyOp19
 70
     1
102
RTVSPropertyOp20
 70
     1
102
RTVSPropertyOp21
 70
     1
102
RTVSPropertyOp22
 70
     1
102
RTVSPropertyOp23
 70
     1
102
RTVSPropertyOp24
 70
     1
102
RTVSPropertyOp25
 70
     1
102
RTVSPropertyOp26
 70
     1
102
RTVSPropertyOp27
 70
     1
102
RTVSPropertyOp28
 70
     1
102
RTVSPropertyOp29
 70
     1
102
RTVSPropertyOp30
 70
     1
102
RTVSPropertyOp31
 70
     1
102
RTVSPropertyOp32
 70
     1
102
RTVSPropertyOp33
 70
     1
102
RTVSPropertyOp34
 70
     1
102
RTVSPropertyOp35
 70
     1
102
RTVSPropertyOp36
 70
     1
102
RTVSPropertyOp37
 70
     1
102
RTVSPropertyOp38
 70
     1
102
RTVSPropertyOp39
 70
     1
102
RTVSPropertyOp40
 70
     1
102
RTVSPropertyOp41
 70
     1
102
RTVSPropertyOp42
 70
     1
102
RTVSPropertyOp43
 70
     1
102
RTVSPropertyOp44
 70
     1
102
RTVSPropertyOp45
 70
     1
102
RTVSPropertyOp46
 70
     1
102
RTVSPropertyOp47
 70
     1
102
RTVSPropertyOp48
 70
     1
102
RTVSPropertyOp49
 70
     1
102
RTVSPropertyOp50
 70
     1
102
RTVSPropertyOp51
 70
     0
102
RTVSPropertyOp52
 70
     0
102
RTVSPropertyOp53
 70
     1
102
RTVSPropertyOp54
 70
     1
102
RTVSPropertyOp55
 70
     1
102
RTVSPropertyOp56
 70
     1
102
RTVSPropertyOp57
 70
     1
102
RTVSPost2010Prop28
280
     1
102
RTVSPost2010PropOp28
 70
     1
102
RTVSPost2010Prop29
280
     1
102
RTVSPost2010PropOp29
 70
     1
102
RTVSPost2010Prop30
280
     0
102
RTVSPost2010PropOp30
 70
     1
102
RTVSPost2010Prop31
280
     0
102
RTVSPost2010PropOp31
 70
     1
102
RTVSPost2010Prop32
280
     0
102
RTVSPost2010PropOp32
 70
     1
102
RTVSPost2010Prop33
280
     0
102
RTVSPost2010PropOp33
 70
     1
102
RTVSPost2010Prop34
280
     0
102
RTVSPost2010PropOp34
 70
     1
102
RTVSPost2010Prop35
280
     0
102
RTVSPost2010PropOp35
 70
     1
102
RTVSPost2010Prop36
280
     0
102
RTVSPost2010PropOp36
 70
     1
102
RTVSPost2010Prop37
 90
       50
102
RTVSPost2010PropOp37
 70
     1
102
RTVSPost2010Prop38
140
0.0
102
RTVSPost2010PropOp38
 70
     1
102
RTVSPost2010Prop39
140
1.0
102
RTVSPost2010PropOp39
 70
     1
102
RTVSPost2010Prop40
 90
        0
102
RTVSPost2010PropOp40
 70
     1
102
RTVSPost2010Prop41ColorIndex
 90
       18
102
RTVSPost2010Prop41ColorRGB
 90
        0
102
RTVSPost2010PropOp41
 70
     1
102
RTVSPost2010Prop42
 90
       50
102
RTVSPost2010PropOp42
 70
     1
102
RTVSPost2010Prop43
 90
        3
102
RTVSPost2010PropOp43
 70
     1
102
RTVSPost2010Prop44ColorIndex
 90
        5
102
RTVSPost2010Prop44ColorRGB
 90
      255
102
RTVSPost2010PropOp44
 70
     1
102
RTVSPost2010Prop45
280
     0
102
RTVSPost2010PropOp45
 70
     1
102
RTVSPost2010Prop46
 90
       50
102
RTVSPost2010PropOp46
 70
     1
102
RTVSPost2010Prop47
 90
       50
102
RTVSPost2010PropOp47
 70
     1
102
RTVSPost2010Prop48
 90
       50
102
RTVSPost2010PropOp48
 70
     1
102
RTVSPost2010Prop49
280
     0
102
RTVSPost2010PropOp49
 70
     1
102
RTVSPost2010Prop50
 90
       50
102
RTVSPost2010PropOp50
 70
     1
102
RTVSPost2010Prop51ColorIndex
 90
      256
102
RTVSPost2010Prop51ColorRGB
 90
-16777216
102
RTVSPost2010PropOp51
 70
     0
102
RTVSPost2010Prop52
140
1.0
102
RTVSPost2010PropOp52
 70
     0
102
RTVSPost2010Prop53
 90
        2
102
RTVSPost2010PropOp53
 70
     1
102
RTVSPost2010Prop54
  1
strokes_ogs.tif
102
RTVSPost2010PropOp54
 70
     1
102
RTVSPost2010Prop55
280
     0
102
RTVSPost2010PropOp55
 70
     1
102
RTVSPost2010Prop56
140
1.0
102
RTVSPost2010PropOp56
 70
     1
102
RTVSPost2010Prop57
140
1.0
102
RTVSPost2010PropOp57
 70
     1
  0
XRECORD
  5
3E7
102
{ACAD_REACTORS
330
3E6
102
}
330
3E6
100
AcDbXrecord
280
     1
102
RTVSPropertyOp0
 70
     1
102
RTVSPropertyOp1
 70
     1
102
RTVSPropertyOp2
 70
     1
102
RTVSPropertyOp3
 70
     1
102
RTVSPropertyOp4
 70
     1
102
RTVSPropertyOp5
 70
     1
102
RTVSPropertyOp6
 70
     1
102
RTVSPropertyOp7
 70
     1
102
RTVSPropertyOp8
 70
     1
102
RTVSPropertyOp9
 70
     1
102
RTVSPropertyOp10
 70
     1
102
RTVSPropertyOp11
 70
     1
102
RTVSPropertyOp12
 70
     1
102
RTVSPropertyOp13
 70
     1
102
RTVSPropertyOp14
 70
     1
102
RTVSPropertyOp15
 70
     1
102
RTVSPropertyOp16
 70
     1
102
RTVSPropertyOp17
 70
     1
102
RTVSPropertyOp18
 70
     1
102
RTVSPropertyOp19
 70
     1
102
RTVSPropertyOp20
 70
     1
102
RTVSPropertyOp21
 70
     1
102
RTVSPropertyOp22
 70
     1
102
RTVSPropertyOp23
 70
     1
102
RTVSPropertyOp24
 70
     1
102
RTVSPropertyOp25
 70
     1
102
RTVSPropertyOp26
 70
     1
102
RTVSPropertyOp27
 70
     1
102
RTVSPropertyOp28
 70
     1
102
RTVSPropertyOp29
 70
     1
102
RTVSPropertyOp30
 70
     1
102
RTVSPropertyOp31
 70
     1
102
RTVSPropertyOp32
 70
     1
102
RTVSPropertyOp33
 70
     1
102
RTVSPropertyOp34
 70
     1
102
RTVSPropertyOp35
 70
     1
102
RTVSPropertyOp36
 70
     1
102
RTVSPropertyOp37
 70
     1
102
RTVSPropertyOp38
 70
     1
102
RTVSPropertyOp39
 70
     1
102
RTVSPropertyOp40
 70
     1
102
RTVSPropertyOp41
 70
     1
102
RTVSPropertyOp42
 70
     1
102
RTVSPropertyOp43
 70
     1
102
RTVSPropertyOp44
 70
     1
102
RTVSPropertyOp45
 70
     1
102
RTVSPropertyOp46
 70
     1
102
RTVSPropertyOp47
 70
     1
102
RTVSPropertyOp48
 70
     1
102
RTVSPropertyOp49
 70
     1
102
RTVSPropertyOp50
 70
     1
102
RTVSPropertyOp51
 70
     0
102
RTVSPropertyOp52
 70
     0
102
RTVSPropertyOp53
 70
     1
102
RTVSPropertyOp54
 70
     1
102
RTVSPropertyOp55
 70
     1
102
RTVSPropertyOp56
 70
     1
102
RTVSPropertyOp57
 70
     1
102
RTVSPost2010Prop28
280
     0
102
RTVSPost2010PropOp28
 70
     1
102
RTVSPost2010Prop29
280
     1
102
RTVSPost2010PropOp29
 70
     1
102
RTVSPost2010Prop30
280
     1
102
RTVSPost2010PropOp30
 70
     1
102
RTVSPost2010Prop31
280
     0
102
RTVSPost2010PropOp31
 70
     1
102
RTVSPost2010Prop32
280
     0
102
RTVSPost2010PropOp32
 70
     1
102
RTVSPost2010Prop33
280
     0
102
RTVSPost2010PropOp33
 70
     1
102
RTVSPost2010Prop34
280
     0
102
RTVSPost2010PropOp34
 70
     1
102
RTVSPost2010Prop35
280
     0
102
RTVSPost2010PropOp35
 70
     1
102
RTVSPost2010Prop36
280
     0
102
RTVSPost2010PropOp36
 70
     1
102
RTVSPost2010Prop37
 90
       50
102
RTVSPost2010PropOp37
 70
     1
102
RTVSPost2010Prop38
140
0.0
102
RTVSPost2010PropOp38
 70
     1
102
RTVSPost2010Prop39
140
1.0
102
RTVSPost2010PropOp39
 70
     1
102
RTVSPost2010Prop40
 90
        0
102
RTVSPost2010PropOp40
 70
     1
102
RTVSPost2010Prop41ColorIndex
 90
       18
102
RTVSPost2010Prop41ColorRGB
 90
        0
102
RTVSPost2010PropOp41
 70
     1
102
RTVSPost2010Prop42
 90
       50
102
RTVSPost2010PropOp42
 70
     1
102
RTVSPost2010Prop43
 90
        3
102
RTVSPost2010PropOp43
 70
     1
102
RTVSPost2010Prop44ColorIndex
 90
        5
102
RTVSPost2010Prop44ColorRGB
 90
      255
102
RTVSPost2010PropOp44
 70
     1
102
RTVSPost2010Prop45
280
     0
102
RTVSPost2010PropOp45
 70
     1
102
RTVSPost2010Prop46
 90
       50
102
RTVSPost2010PropOp46
 70
     1
102
RTVSPost2010Prop47
 90
       50
102
RTVSPost2010PropOp47
 70
     1
102
RTVSPost2010Prop48
 90
       50
102
RTVSPost2010PropOp48
 70
     1
102
RTVSPost2010Prop49
280
     0
102
RTVSPost2010PropOp49
 70
     1
102
RTVSPost2010Prop50
 90
       50
102
RTVSPost2010PropOp50
 70
     1
102
RTVSPost2010Prop51ColorIndex
 90
      256
102
RTVSPost2010Prop51ColorRGB
 90
-16777216
102
RTVSPost2010PropOp51
 70
     0
102
RTVSPost2010Prop52
140
1.0
102
RTVSPost2010PropOp52
 70
     0
102
RTVSPost2010Prop53
 90
        2
102
RTVSPost2010PropOp53
 70
     1
102
RTVSPost2010Prop54
  1
strokes_ogs.tif
102
RTVSPost2010PropOp54
 70
     1
102
RTVSPost2010Prop55
280
     0
102
RTVSPost2010PropOp55
 70
     1
102
RTVSPost2010Prop56
140
1.0
102
RTVSPost2010PropOp56
 70
     1
102
RTVSPost2010Prop57
140
1.0
102
RTVSPost2010PropOp57
 70
     1
  0
XRECORD
  5
3EF
102
{ACAD_REACTORS
330
3EE
102
}
330
3EE
100
AcDbXrecord
280
     1
102
RTVSPropertyOp0
 70
     1
102
RTVSPropertyOp1
 70
     1
102
RTVSPropertyOp2
 70
     1
102
RTVSPropertyOp3
 70
     1
102
RTVSPropertyOp4
 70
     1
102
RTVSPropertyOp5
 70
     1
102
RTVSPropertyOp6
 70
     1
102
RTVSPropertyOp7
 70
     1
102
RTVSPropertyOp8
 70
     1
102
RTVSPropertyOp9
 70
     1
102
RTVSPropertyOp10
 70
     1
102
RTVSPropertyOp11
 70
     1
102
RTVSPropertyOp12
 70
     1
102
RTVSPropertyOp13
 70
     1
102
RTVSPropertyOp14
 70
     1
102
RTVSPropertyOp15
 70
     1
102
RTVSPropertyOp16
 70
     1
102
RTVSPropertyOp17
 70
     1
102
RTVSPropertyOp18
 70
     1
102
RTVSPropertyOp19
 70
     1
102
RTVSPropertyOp20
 70
     1
102
RTVSPropertyOp21
 70
     1
102
RTVSPropertyOp22
 70
     1
102
RTVSPropertyOp23
 70
     1
102
RTVSPropertyOp24
 70
     1
102
RTVSPropertyOp25
 70
     1
102
RTVSPropertyOp26
 70
     1
102
RTVSPropertyOp27
 70
     1
102
RTVSPropertyOp28
 70
     1
102
RTVSPropertyOp29
 70
     1
102
RTVSPropertyOp30
 70
     1
102
RTVSPropertyOp31
 70
     1
102
RTVSPropertyOp32
 70
     1
102
RTVSPropertyOp33
 70
     1
102
RTVSPropertyOp34
 70
     1
102
RTVSPropertyOp35
 70
     1
102
RTVSPropertyOp36
 70
     1
102
RTVSPropertyOp37
 70
     1
102
RTVSPropertyOp38
 70
     1
102
RTVSPropertyOp39
 70
     1
102
RTVSPropertyOp40
 70
     1
102
RTVSPropertyOp41
 70
     1
102
RTVSPropertyOp42
 70
     1
102
RTVSPropertyOp43
 70
     1
102
RTVSPropertyOp44
 70
     1
102
RTVSPropertyOp45
 70
     1
102
RTVSPropertyOp46
 70
     1
102
RTVSPropertyOp47
 70
     1
102
RTVSPropertyOp48
 70
     1
102
RTVSPropertyOp49
 70
     1
102
RTVSPropertyOp50
 70
     1
102
RTVSPropertyOp51
 70
     0
102
RTVSPropertyOp52
 70
     0
102
RTVSPropertyOp53
 70
     1
102
RTVSPropertyOp54
 70
     1
102
RTVSPropertyOp55
 70
     1
102
RTVSPropertyOp56
 70
     1
102
RTVSPropertyOp57
 70
     1
102
RTVSPost2010Prop28
280
     0
102
RTVSPost2010PropOp28
 70
     1
102
RTVSPost2010Prop29
280
     1
102
RTVSPost2010PropOp29
 70
     1
102
RTVSPost2010Prop30
280
     1
102
RTVSPost2010PropOp30
 70
     1
102
RTVSPost2010Prop31
280
     0
102
RTVSPost2010PropOp31
 70
     1
102
RTVSPost2010Prop32
280
     0
102
RTVSPost2010PropOp32
 70
     1
102
RTVSPost2010Prop33
280
     0
102
RTVSPost2010PropOp33
 70
     1
102
RTVSPost2010Prop34
280
     0
102
RTVSPost2010PropOp34
 70
     1
102
RTVSPost2010Prop35
280
     0
102
RTVSPost2010PropOp35
 70
     1
102
RTVSPost2010Prop36
280
     0
102
RTVSPost2010PropOp36
 70
     1
102
RTVSPost2010Prop37
 90
       50
102
RTVSPost2010PropOp37
 70
     1
102
RTVSPost2010Prop38
140
0.0
102
RTVSPost2010PropOp38
 70
     1
102
RTVSPost2010Prop39
140
1.0
102
RTVSPost2010PropOp39
 70
     1
102
RTVSPost2010Prop40
 90
        0
102
RTVSPost2010PropOp40
 70
     1
102
RTVSPost2010Prop41ColorIndex
 90
       18
102
RTVSPost2010Prop41ColorRGB
 90
        0
102
RTVSPost2010PropOp41
 70
     1
102
RTVSPost2010Prop42
 90
       50
102
RTVSPost2010PropOp42
 70
     1
102
RTVSPost2010Prop43
 90
        3
102
RTVSPost2010PropOp43
 70
     1
102
RTVSPost2010Prop44ColorIndex
 90
        5
102
RTVSPost2010Prop44ColorRGB
 90
      255
102
RTVSPost2010PropOp44
 70
     1
102
RTVSPost2010Prop45
280
     0
102
RTVSPost2010PropOp45
 70
     1
102
RTVSPost2010Prop46
 90
       50
102
RTVSPost2010PropOp46
 70
     1
102
RTVSPost2010Prop47
 90
       50
102
RTVSPost2010PropOp47
 70
     1
102
RTVSPost2010Prop48
 90
       50
102
RTVSPost2010PropOp48
 70
     1
102
RTVSPost2010Prop49
280
     0
102
RTVSPost2010PropOp49
 70
     1
102
RTVSPost2010Prop50
 90
       50
102
RTVSPost2010PropOp50
 70
     1
102
RTVSPost2010Prop51ColorIndex
 90
      256
102
RTVSPost2010Prop51ColorRGB
 90
-16777216
102
RTVSPost2010PropOp51
 70
     0
102
RTVSPost2010Prop52
140
1.0
102
RTVSPost2010PropOp52
 70
     0
102
RTVSPost2010Prop53
 90
        2
102
RTVSPost2010PropOp53
 70
     1
102
RTVSPost2010Prop54
  1
strokes_ogs.tif
102
RTVSPost2010PropOp54
 70
     1
102
RTVSPost2010Prop55
280
     0
102
RTVSPost2010PropOp55
 70
     1
102
RTVSPost2010Prop56
140
1.0
102
RTVSPost2010PropOp56
 70
     1
102
RTVSPost2010Prop57
140
1.0
102
RTVSPost2010PropOp57
 70
     1
  0
XRECORD
  5
3F7
102
{ACAD_REACTORS
330
3F6
102
}
330
3F6
100
AcDbXrecord
280
     1
102
RTVSPropertyOp0
 70
     1
102
RTVSPropertyOp1
 70
     1
102
RTVSPropertyOp2
 70
     1
102
RTVSPropertyOp3
 70
     1
102
RTVSPropertyOp4
 70
     1
102
RTVSPropertyOp5
 70
     1
102
RTVSPropertyOp6
 70
     1
102
RTVSPropertyOp7
 70
     1
102
RTVSPropertyOp8
 70
     1
102
RTVSPropertyOp9
 70
     1
102
RTVSPropertyOp10
 70
     1
102
RTVSPropertyOp11
 70
     1
102
RTVSPropertyOp12
 70
     1
102
RTVSPropertyOp13
 70
     1
102
RTVSPropertyOp14
 70
     1
102
RTVSPropertyOp15
 70
     1
102
RTVSPropertyOp16
 70
     1
102
RTVSPropertyOp17
 70
     1
102
RTVSPropertyOp18
 70
     1
102
RTVSPropertyOp19
 70
     1
102
RTVSPropertyOp20
 70
     1
102
RTVSPropertyOp21
 70
     1
102
RTVSPropertyOp22
 70
     1
102
RTVSPropertyOp23
 70
     1
102
RTVSPropertyOp24
 70
     1
102
RTVSPropertyOp25
 70
     1
102
RTVSPropertyOp26
 70
     1
102
RTVSPropertyOp27
 70
     1
102
RTVSPropertyOp28
 70
     1
102
RTVSPropertyOp29
 70
     1
102
RTVSPropertyOp30
 70
     1
102
RTVSPropertyOp31
 70
     1
102
RTVSPropertyOp32
 70
     1
102
RTVSPropertyOp33
 70
     1
102
RTVSPropertyOp34
 70
     1
102
RTVSPropertyOp35
 70
     1
102
RTVSPropertyOp36
 70
     1
102
RTVSPropertyOp37
 70
     1
102
RTVSPropertyOp38
 70
     1
102
RTVSPropertyOp39
 70
     1
102
RTVSPropertyOp40
 70
     1
102
RTVSPropertyOp41
 70
     1
102
RTVSPropertyOp42
 70
     1
102
RTVSPropertyOp43
 70
     1
102
RTVSPropertyOp44
 70
     1
102
RTVSPropertyOp45
 70
     1
102
RTVSPropertyOp46
 70
     1
102
RTVSPropertyOp47
 70
     1
102
RTVSPropertyOp48
 70
     1
102
RTVSPropertyOp49
 70
     1
102
RTVSPropertyOp50
 70
     1
102
RTVSPropertyOp51
 70
     0
102
RTVSPropertyOp52
 70
     0
102
RTVSPropertyOp53
 70
     1
102
RTVSPropertyOp54
 70
     1
102
RTVSPropertyOp55
 70
     1
102
RTVSPropertyOp56
 70
     1
102
RTVSPropertyOp57
 70
     1
102
RTVSPost2010Prop28
280
     0
102
RTVSPost2010PropOp28
 70
     1
102
RTVSPost2010Prop29
280
     1
102
RTVSPost2010PropOp29
 70
     1
102
RTVSPost2010Prop30
280
     1
102
RTVSPost2010PropOp30
 70
     1
102
RTVSPost2010Prop31
280
     0
102
RTVSPost2010PropOp31
 70
     1
102
RTVSPost2010Prop32
280
     0
102
RTVSPost2010PropOp32
 70
     1
102
RTVSPost2010Prop33
280
     0
102
RTVSPost2010PropOp33
 70
     1
102
RTVSPost2010Prop34
280
     0
102
RTVSPost2010PropOp34
 70
     1
102
RTVSPost2010Prop35
280
     0
102
RTVSPost2010PropOp35
 70
     1
102
RTVSPost2010Prop36
280
     0
102
RTVSPost2010PropOp36
 70
     1
102
RTVSPost2010Prop37
 90
       50
102
RTVSPost2010PropOp37
 70
     1
102
RTVSPost2010Prop38
140
0.0
102
RTVSPost2010PropOp38
 70
     1
102
RTVSPost2010Prop39
140
1.0
102
RTVSPost2010PropOp39
 70
     1
102
RTVSPost2010Prop40
 90
        0
102
RTVSPost2010PropOp40
 70
     1
102
RTVSPost2010Prop41ColorIndex
 90
       18
102
RTVSPost2010Prop41ColorRGB
 90
        0
102
RTVSPost2010PropOp41
 70
     1
102
RTVSPost2010Prop42
 90
       50
102
RTVSPost2010PropOp42
 70
     1
102
RTVSPost2010Prop43
 90
        3
102
RTVSPost2010PropOp43
 70
     1
102
RTVSPost2010Prop44ColorIndex
 90
        5
102
RTVSPost2010Prop44ColorRGB
 90
      255
102
RTVSPost2010PropOp44
 70
     1
102
RTVSPost2010Prop45
280
     0
102
RTVSPost2010PropOp45
 70
     1
102
RTVSPost2010Prop46
 90
       50
102
RTVSPost2010PropOp46
 70
     1
102
RTVSPost2010Prop47
 90
       50
102
RTVSPost2010PropOp47
 70
     1
102
RTVSPost2010Prop48
 90
       50
102
RTVSPost2010PropOp48
 70
     1
102
RTVSPost2010Prop49
280
     0
102
RTVSPost2010PropOp49
 70
     1
102
RTVSPost2010Prop50
 90
       50
102
RTVSPost2010PropOp50
 70
     1
102
RTVSPost2010Prop51ColorIndex
 90
      256
102
RTVSPost2010Prop51ColorRGB
 90
-16777216
102
RTVSPost2010PropOp51
 70
     0
102
RTVSPost2010Prop52
140
1.0
102
RTVSPost2010PropOp52
 70
     0
102
RTVSPost2010Prop53
 90
        2
102
RTVSPost2010PropOp53
 70
     1
102
RTVSPost2010Prop54
  1
strokes_ogs.tif
102
RTVSPost2010PropOp54
 70
     1
102
RTVSPost2010Prop55
280
     0
102
RTVSPost2010PropOp55
 70
     1
102
RTVSPost2010Prop56
140
1.0
102
RTVSPost2010PropOp56
 70
     1
102
RTVSPost2010Prop57
140
1.0
102
RTVSPost2010PropOp57
 70
     1
  0
XRECORD
  5
3EB
102
{ACAD_REACTORS
330
3EA
102
}
330
3EA
100
AcDbXrecord
280
     1
102
RTVSPropertyOp0
 70
     1
102
RTVSPropertyOp1
 70
     1
102
RTVSPropertyOp2
 70
     1
102
RTVSPropertyOp3
 70
     1
102
RTVSPropertyOp4
 70
     1
102
RTVSPropertyOp5
 70
     1
102
RTVSPropertyOp6
 70
     1
102
RTVSPropertyOp7
 70
     1
102
RTVSPropertyOp8
 70
     1
102
RTVSPropertyOp9
 70
     1
102
RTVSPropertyOp10
 70
     1
102
RTVSPropertyOp11
 70
     1
102
RTVSPropertyOp12
 70
     1
102
RTVSPropertyOp13
 70
     1
102
RTVSPropertyOp14
 70
     1
102
RTVSPropertyOp15
 70
     1
102
RTVSPropertyOp16
 70
     1
102
RTVSPropertyOp17
 70
     1
102
RTVSPropertyOp18
 70
     1
102
RTVSPropertyOp19
 70
     1
102
RTVSPropertyOp20
 70
     1
102
RTVSPropertyOp21
 70
     1
102
RTVSPropertyOp22
 70
     1
102
RTVSPropertyOp23
 70
     1
102
RTVSPropertyOp24
 70
     1
102
RTVSPropertyOp25
 70
     1
102
RTVSPropertyOp26
 70
     1
102
RTVSPropertyOp27
 70
     1
102
RTVSPropertyOp28
 70
     1
102
RTVSPropertyOp29
 70
     1
102
RTVSPropertyOp30
 70
     1
102
RTVSPropertyOp31
 70
     1
102
RTVSPropertyOp32
 70
     1
102
RTVSPropertyOp33
 70
     1
102
RTVSPropertyOp34
 70
     1
102
RTVSPropertyOp35
 70
     1
102
RTVSPropertyOp36
 70
     1
102
RTVSPropertyOp37
 70
     1
102
RTVSPropertyOp38
 70
     1
102
RTVSPropertyOp39
 70
     1
102
RTVSPropertyOp40
 70
     1
102
RTVSPropertyOp41
 70
     1
102
RTVSPropertyOp42
 70
     1
102
RTVSPropertyOp43
 70
     1
102
RTVSPropertyOp44
 70
     1
102
RTVSPropertyOp45
 70
     1
102
RTVSPropertyOp46
 70
     1
102
RTVSPropertyOp47
 70
     1
102
RTVSPropertyOp48
 70
     1
102
RTVSPropertyOp49
 70
     1
102
RTVSPropertyOp50
 70
     1
102
RTVSPropertyOp51
 70
     0
102
RTVSPropertyOp52
 70
     0
102
RTVSPropertyOp53
 70
     1
102
RTVSPropertyOp54
 70
     1
102
RTVSPropertyOp55
 70
     1
102
RTVSPropertyOp56
 70
     1
102
RTVSPropertyOp57
 70
     1
102
RTVSPost2010Prop28
280
     0
102
RTVSPost2010PropOp28
 70
     1
102
RTVSPost2010Prop29
280
     1
102
RTVSPost2010PropOp29
 70
     1
102
RTVSPost2010Prop30
280
     1
102
RTVSPost2010PropOp30
 70
     1
102
RTVSPost2010Prop31
280
     0
102
RTVSPost2010PropOp31
 70
     1
102
RTVSPost2010Prop32
280
     0
102
RTVSPost2010PropOp32
 70
     1
102
RTVSPost2010Prop33
280
     0
102
RTVSPost2010PropOp33
 70
     1
102
RTVSPost2010Prop34
280
     0
102
RTVSPost2010PropOp34
 70
     1
102
RTVSPost2010Prop35
280
     0
102
RTVSPost2010PropOp35
 70
     1
102
RTVSPost2010Prop36
280
     0
102
RTVSPost2010PropOp36
 70
     1
102
RTVSPost2010Prop37
 90
       50
102
RTVSPost2010PropOp37
 70
     1
102
RTVSPost2010Prop38
140
0.0
102
RTVSPost2010PropOp38
 70
     1
102
RTVSPost2010Prop39
140
1.0
102
RTVSPost2010PropOp39
 70
     1
102
RTVSPost2010Prop40
 90
        0
102
RTVSPost2010PropOp40
 70
     1
102
RTVSPost2010Prop41ColorIndex
 90
       18
102
RTVSPost2010Prop41ColorRGB
 90
        0
102
RTVSPost2010PropOp41
 70
     1
102
RTVSPost2010Prop42
 90
       50
102
RTVSPost2010PropOp42
 70
     1
102
RTVSPost2010Prop43
 90
        3
102
RTVSPost2010PropOp43
 70
     1
102
RTVSPost2010Prop44ColorIndex
 90
        5
102
RTVSPost2010Prop44ColorRGB
 90
      255
102
RTVSPost2010PropOp44
 70
     1
102
RTVSPost2010Prop45
280
     0
102
RTVSPost2010PropOp45
 70
     1
102
RTVSPost2010Prop46
 90
       50
102
RTVSPost2010PropOp46
 70
     1
102
RTVSPost2010Prop47
 90
       50
102
RTVSPost2010PropOp47
 70
     1
102
RTVSPost2010Prop48
 90
       50
102
RTVSPost2010PropOp48
 70
     1
102
RTVSPost2010Prop49
280
     0
102
RTVSPost2010PropOp49
 70
     1
102
RTVSPost2010Prop50
 90
       50
102
RTVSPost2010PropOp50
 70
     1
102
RTVSPost2010Prop51ColorIndex
 90
      256
102
RTVSPost2010Prop51ColorRGB
 90
-16777216
102
RTVSPost2010PropOp51
 70
     0
102
RTVSPost2010Prop52
140
1.0
102
RTVSPost2010PropOp52
 70
     0
102
RTVSPost2010Prop53
 90
        2
102
RTVSPost2010PropOp53
 70
     1
102
RTVSPost2010Prop54
  1
strokes_ogs.tif
102
RTVSPost2010PropOp54
 70
     1
102
RTVSPost2010Prop55
280
     0
102
RTVSPost2010PropOp55
 70
     1
102
RTVSPost2010Prop56
140
1.0
102
RTVSPost2010PropOp56
 70
     1
102
RTVSPost2010Prop57
140
1.0
102
RTVSPost2010PropOp57
 70
     1
  0
XRECORD
  5
3ED
102
{ACAD_REACTORS
330
3EC
102
}
330
3EC
100
AcDbXrecord
280
     1
102
RTVSPropertyOp0
 70
     1
102
RTVSPropertyOp1
 70
     1
102
RTVSPropertyOp2
 70
     1
102
RTVSPropertyOp3
 70
     1
102
RTVSPropertyOp4
 70
     1
102
RTVSPropertyOp5
 70
     1
102
RTVSPropertyOp6
 70
     1
102
RTVSPropertyOp7
 70
     1
102
RTVSPropertyOp8
 70
     1
102
RTVSPropertyOp9
 70
     1
102
RTVSPropertyOp10
 70
     1
102
RTVSPropertyOp11
 70
     1
102
RTVSPropertyOp12
 70
     1
102
RTVSPropertyOp13
 70
     1
102
RTVSPropertyOp14
 70
     1
102
RTVSPropertyOp15
 70
     1
102
RTVSPropertyOp16
 70
     1
102
RTVSPropertyOp17
 70
     1
102
RTVSPropertyOp18
 70
     1
102
RTVSPropertyOp19
 70
     1
102
RTVSPropertyOp20
 70
     1
102
RTVSPropertyOp21
 70
     1
102
RTVSPropertyOp22
 70
     1
102
RTVSPropertyOp23
 70
     1
102
RTVSPropertyOp24
 70
     1
102
RTVSPropertyOp25
 70
     1
102
RTVSPropertyOp26
 70
     1
102
RTVSPropertyOp27
 70
     1
102
RTVSPropertyOp28
 70
     1
102
RTVSPropertyOp29
 70
     1
102
RTVSPropertyOp30
 70
     1
102
RTVSPropertyOp31
 70
     1
102
RTVSPropertyOp32
 70
     1
102
RTVSPropertyOp33
 70
     1
102
RTVSPropertyOp34
 70
     1
102
RTVSPropertyOp35
 70
     1
102
RTVSPropertyOp36
 70
     1
102
RTVSPropertyOp37
 70
     1
102
RTVSPropertyOp38
 70
     1
102
RTVSPropertyOp39
 70
     1
102
RTVSPropertyOp40
 70
     1
102
RTVSPropertyOp41
 70
     1
102
RTVSPropertyOp42
 70
     1
102
RTVSPropertyOp43
 70
     1
102
RTVSPropertyOp44
 70
     1
102
RTVSPropertyOp45
 70
     1
102
RTVSPropertyOp46
 70
     1
102
RTVSPropertyOp47
 70
     1
102
RTVSPropertyOp48
 70
     1
102
RTVSPropertyOp49
 70
     1
102
RTVSPropertyOp50
 70
     1
102
RTVSPropertyOp51
 70
     0
102
RTVSPropertyOp52
 70
     0
102
RTVSPropertyOp53
 70
     1
102
RTVSPropertyOp54
 70
     1
102
RTVSPropertyOp55
 70
     1
102
RTVSPropertyOp56
 70
     1
102
RTVSPropertyOp57
 70
     1
102
RTVSPost2010Prop28
280
     0
102
RTVSPost2010PropOp28
 70
     1
102
RTVSPost2010Prop29
280
     1
102
RTVSPost2010PropOp29
 70
     1
102
RTVSPost2010Prop30
280
     1
102
RTVSPost2010PropOp30
 70
     1
102
RTVSPost2010Prop31
280
     0
102
RTVSPost2010PropOp31
 70
     1
102
RTVSPost2010Prop32
280
     0
102
RTVSPost2010PropOp32
 70
     1
102
RTVSPost2010Prop33
280
     0
102
RTVSPost2010PropOp33
 70
     1
102
RTVSPost2010Prop34
280
     0
102
RTVSPost2010PropOp34
 70
     1
102
RTVSPost2010Prop35
280
     0
102
RTVSPost2010PropOp35
 70
     1
102
RTVSPost2010Prop36
280
     0
102
RTVSPost2010PropOp36
 70
     1
102
RTVSPost2010Prop37
 90
       50
102
RTVSPost2010PropOp37
 70
     1
102
RTVSPost2010Prop38
140
0.0
102
RTVSPost2010PropOp38
 70
     1
102
RTVSPost2010Prop39
140
1.0
102
RTVSPost2010PropOp39
 70
     1
102
RTVSPost2010Prop40
 90
        0
102
RTVSPost2010PropOp40
 70
     1
102
RTVSPost2010Prop41ColorIndex
 90
       18
102
RTVSPost2010Prop41ColorRGB
 90
        0
102
RTVSPost2010PropOp41
 70
     1
102
RTVSPost2010Prop42
 90
       50
102
RTVSPost2010PropOp42
 70
     1
102
RTVSPost2010Prop43
 90
        3
102
RTVSPost2010PropOp43
 70
     1
102
RTVSPost2010Prop44ColorIndex
 90
        5
102
RTVSPost2010Prop44ColorRGB
 90
      255
102
RTVSPost2010PropOp44
 70
     1
102
RTVSPost2010Prop45
280
     0
102
RTVSPost2010PropOp45
 70
     1
102
RTVSPost2010Prop46
 90
       50
102
RTVSPost2010PropOp46
 70
     1
102
RTVSPost2010Prop47
 90
       50
102
RTVSPost2010PropOp47
 70
     1
102
RTVSPost2010Prop48
 90
       50
102
RTVSPost2010PropOp48
 70
     1
102
RTVSPost2010Prop49
280
     0
102
RTVSPost2010PropOp49
 70
     1
102
RTVSPost2010Prop50
 90
       50
102
RTVSPost2010PropOp50
 70
     1
102
RTVSPost2010Prop51ColorIndex
 90
      256
102
RTVSPost2010Prop51ColorRGB
 90
-16777216
102
RTVSPost2010PropOp51
 70
     0
102
RTVSPost2010Prop52
140
1.0
102
RTVSPost2010PropOp52
 70
     0
102
RTVSPost2010Prop53
 90
        2
102
RTVSPost2010PropOp53
 70
     1
102
RTVSPost2010Prop54
  1
strokes_ogs.tif
102
RTVSPost2010PropOp54
 70
     1
102
RTVSPost2010Prop55
280
     0
102
RTVSPost2010PropOp55
 70
     1
102
RTVSPost2010Prop56
140
1.0
102
RTVSPost2010PropOp56
 70
     1
102
RTVSPost2010Prop57
140
1.0
102
RTVSPost2010PropOp57
 70
     1
  0
XRECORD
  5
3FD
102
{ACAD_REACTORS
330
3FC
102
}
330
3FC
100
AcDbXrecord
280
     1
102
RTVSPropertyOp0
 70
     0
102
RTVSPropertyOp1
 70
     0
102
RTVSPropertyOp2
 70
     0
102
RTVSPropertyOp3
 70
     0
102
RTVSPropertyOp4
 70
     0
102
RTVSPropertyOp5
 70
     0
102
RTVSPropertyOp6
 70
     0
102
RTVSPropertyOp7
 70
     0
102
RTVSPropertyOp8
 70
     0
102
RTVSPropertyOp9
 70
     0
102
RTVSPropertyOp10
 70
     0
102
RTVSPropertyOp11
 70
     0
102
RTVSPropertyOp12
 70
     0
102
RTVSPropertyOp13
 70
     0
102
RTVSPropertyOp14
 70
     2
102
RTVSPropertyOp15
 70
     0
102
RTVSPropertyOp16
 70
     0
102
RTVSPropertyOp17
 70
     0
102
RTVSPropertyOp18
 70
     0
102
RTVSPropertyOp19
 70
     0
102
RTVSPropertyOp20
 70
     0
102
RTVSPropertyOp21
 70
     0
102
RTVSPropertyOp22
 70
     0
102
RTVSPropertyOp23
 70
     0
102
RTVSPropertyOp24
 70
     0
102
RTVSPropertyOp25
 70
     0
102
RTVSPropertyOp26
 70
     0
102
RTVSPropertyOp27
 70
     0
102
RTVSPropertyOp28
 70
     0
102
RTVSPropertyOp29
 70
     0
102
RTVSPropertyOp30
 70
     0
102
RTVSPropertyOp31
 70
     0
102
RTVSPropertyOp32
 70
     0
102
RTVSPropertyOp33
 70
     0
102
RTVSPropertyOp34
 70
     0
102
RTVSPropertyOp35
 70
     0
102
RTVSPropertyOp36
 70
     0
102
RTVSPropertyOp37
 70
     0
102
RTVSPropertyOp38
 70
     0
102
RTVSPropertyOp39
 70
     0
102
RTVSPropertyOp40
 70
     0
102
RTVSPropertyOp41
 70
     0
102
RTVSPropertyOp42
 70
     0
102
RTVSPropertyOp43
 70
     0
102
RTVSPropertyOp44
 70
     0
102
RTVSPropertyOp45
 70
     0
102
RTVSPropertyOp46
 70
     0
102
RTVSPropertyOp47
 70
     0
102
RTVSPropertyOp48
 70
     0
102
RTVSPropertyOp49
 70
     0
102
RTVSPropertyOp50
 70
     0
102
RTVSPropertyOp51
 70
     0
102
RTVSPropertyOp52
 70
     0
102
RTVSPropertyOp53
 70
     0
102
RTVSPropertyOp54
 70
     0
102
RTVSPropertyOp55
 70
     0
102
RTVSPropertyOp56
 70
     0
102
RTVSPropertyOp57
 70
     0
102
RTVSPost2010Prop28
280
     0
102
RTVSPost2010PropOp28
 70
     0
102
RTVSPost2010Prop29
280
     1
102
RTVSPost2010PropOp29
 70
     0
102
RTVSPost2010Prop30
280
     1
102
RTVSPost2010PropOp30
 70
     0
102
RTVSPost2010Prop31
280
     0
102
RTVSPost2010PropOp31
 70
     0
102
RTVSPost2010Prop32
280
     0
102
RTVSPost2010PropOp32
 70
     0
102
RTVSPost2010Prop33
280
     0
102
RTVSPost2010PropOp33
 70
     0
102
RTVSPost2010Prop34
280
     0
102
RTVSPost2010PropOp34
 70
     0
102
RTVSPost2010Prop35
280
     0
102
RTVSPost2010PropOp35
 70
     0
102
RTVSPost2010Prop36
280
     0
102
RTVSPost2010PropOp36
 70
     0
102
RTVSPost2010Prop37
 90
       50
102
RTVSPost2010PropOp37
 70
     0
102
RTVSPost2010Prop38
140
0.0
102
RTVSPost2010PropOp38
 70
     0
102
RTVSPost2010Prop39
140
1.0
102
RTVSPost2010PropOp39
 70
     0
102
RTVSPost2010Prop40
 90
        0
102
RTVSPost2010PropOp40
 70
     0
102
RTVSPost2010Prop41ColorIndex
 90
       18
102
RTVSPost2010Prop41ColorRGB
 90
        0
102
RTVSPost2010PropOp41
 70
     0
102
RTVSPost2010Prop42
 90
       50
102
RTVSPost2010PropOp42
 70
     0
102
RTVSPost2010Prop43
 90
        3
102
RTVSPost2010PropOp43
 70
     0
102
RTVSPost2010Prop44ColorIndex
 90
        5
102
RTVSPost2010Prop44ColorRGB
 90
      255
102
RTVSPost2010PropOp44
 70
     0
102
RTVSPost2010Prop45
280
     0
102
RTVSPost2010PropOp45
 70
     0
102
RTVSPost2010Prop46
 90
       50
102
RTVSPost2010PropOp46
 70
     0
102
RTVSPost2010Prop47
 90
       50
102
RTVSPost2010PropOp47
 70
     0
102
RTVSPost2010Prop48
 90
       50
102
RTVSPost2010PropOp48
 70
     0
102
RTVSPost2010Prop49
280
     0
102
RTVSPost2010PropOp49
 70
     0
102
RTVSPost2010Prop50
 90
       50
102
RTVSPost2010PropOp50
 70
     0
102
RTVSPost2010Prop51ColorIndex
 90
      256
102
RTVSPost2010Prop51ColorRGB
 90
-16777216
102
RTVSPost2010PropOp51
 70
     0
102
RTVSPost2010Prop52
140
1.0
102
RTVSPost2010PropOp52
 70
     0
102
RTVSPost2010Prop53
 90
        2
102
RTVSPost2010PropOp53
 70
     0
102
RTVSPost2010Prop54
  1
strokes_ogs.tif
102
RTVSPost2010PropOp54
 70
     0
102
RTVSPost2010Prop55
280
     0
102
RTVSPost2010PropOp55
 70
     0
102
RTVSPost2010Prop56
140
1.0
102
RTVSPost2010PropOp56
 70
     0
102
RTVSPost2010Prop57
140
1.0
102
RTVSPost2010PropOp57
 70
     0
  0
XRECORD
  5
3F5
102
{ACAD_REACTORS
330
3F4
102
}
330
3F4
100
AcDbXrecord
280
     1
102
RTVSPropertyOp0
 70
     1
102
RTVSPropertyOp1
 70
     1
102
RTVSPropertyOp2
 70
     1
102
RTVSPropertyOp3
 70
     1
102
RTVSPropertyOp4
 70
     1
102
RTVSPropertyOp5
 70
     1
102
RTVSPropertyOp6
 70
     1
102
RTVSPropertyOp7
 70
     1
102
RTVSPropertyOp8
 70
     1
102
RTVSPropertyOp9
 70
     1
102
RTVSPropertyOp10
 70
     1
102
RTVSPropertyOp11
 70
     1
102
RTVSPropertyOp12
 70
     1
102
RTVSPropertyOp13
 70
     1
102
RTVSPropertyOp14
 70
     1
102
RTVSPropertyOp15
 70
     1
102
RTVSPropertyOp16
 70
     1
102
RTVSPropertyOp17
 70
     1
102
RTVSPropertyOp18
 70
     1
102
RTVSPropertyOp19
 70
     1
102
RTVSPropertyOp20
 70
     1
102
RTVSPropertyOp21
 70
     1
102
RTVSPropertyOp22
 70
     1
102
RTVSPropertyOp23
 70
     1
102
RTVSPropertyOp24
 70
     1
102
RTVSPropertyOp25
 70
     1
102
RTVSPropertyOp26
 70
     1
102
RTVSPropertyOp27
 70
     1
102
RTVSPropertyOp28
 70
     1
102
RTVSPropertyOp29
 70
     1
102
RTVSPropertyOp30
 70
     1
102
RTVSPropertyOp31
 70
     1
102
RTVSPropertyOp32
 70
     1
102
RTVSPropertyOp33
 70
     1
102
RTVSPropertyOp34
 70
     1
102
RTVSPropertyOp35
 70
     1
102
RTVSPropertyOp36
 70
     1
102
RTVSPropertyOp37
 70
     1
102
RTVSPropertyOp38
 70
     1
102
RTVSPropertyOp39
 70
     1
102
RTVSPropertyOp40
 70
     1
102
RTVSPropertyOp41
 70
     1
102
RTVSPropertyOp42
 70
     1
102
RTVSPropertyOp43
 70
     1
102
RTVSPropertyOp44
 70
     1
102
RTVSPropertyOp45
 70
     1
102
RTVSPropertyOp46
 70
     1
102
RTVSPropertyOp47
 70
     1
102
RTVSPropertyOp48
 70
     1
102
RTVSPropertyOp49
 70
     1
102
RTVSPropertyOp50
 70
     1
102
RTVSPropertyOp51
 70
     0
102
RTVSPropertyOp52
 70
     0
102
RTVSPropertyOp53
 70
     1
102
RTVSPropertyOp54
 70
     1
102
RTVSPropertyOp55
 70
     1
102
RTVSPropertyOp56
 70
     1
102
RTVSPropertyOp57
 70
     1
102
RTVSPost2010Prop28
280
     0
102
RTVSPost2010PropOp28
 70
     1
102
RTVSPost2010Prop29
280
     1
102
RTVSPost2010PropOp29
 70
     1
102
RTVSPost2010Prop30
280
     1
102
RTVSPost2010PropOp30
 70
     1
102
RTVSPost2010Prop31
280
     0
102
RTVSPost2010PropOp31
 70
     1
102
RTVSPost2010Prop32
280
     0
102
RTVSPost2010PropOp32
 70
     1
102
RTVSPost2010Prop33
280
     0
102
RTVSPost2010PropOp33
 70
     1
102
RTVSPost2010Prop34
280
     0
102
RTVSPost2010PropOp34
 70
     1
102
RTVSPost2010Prop35
280
     0
102
RTVSPost2010PropOp35
 70
     1
102
RTVSPost2010Prop36
280
     0
102
RTVSPost2010PropOp36
 70
     1
102
RTVSPost2010Prop37
 90
       50
102
RTVSPost2010PropOp37
 70
     1
102
RTVSPost2010Prop38
140
0.0
102
RTVSPost2010PropOp38
 70
     1
102
RTVSPost2010Prop39
140
1.0
102
RTVSPost2010PropOp39
 70
     1
102
RTVSPost2010Prop40
 90
        0
102
RTVSPost2010PropOp40
 70
     1
102
RTVSPost2010Prop41ColorIndex
 90
       18
102
RTVSPost2010Prop41ColorRGB
 90
        0
102
RTVSPost2010PropOp41
 70
     1
102
RTVSPost2010Prop42
 90
       50
102
RTVSPost2010PropOp42
 70
     1
102
RTVSPost2010Prop43
 90
        3
102
RTVSPost2010PropOp43
 70
     1
102
RTVSPost2010Prop44ColorIndex
 90
        5
102
RTVSPost2010Prop44ColorRGB
 90
      255
102
RTVSPost2010PropOp44
 70
     1
102
RTVSPost2010Prop45
280
     0
102
RTVSPost2010PropOp45
 70
     1
102
RTVSPost2010Prop46
 90
       50
102
RTVSPost2010PropOp46
 70
     1
102
RTVSPost2010Prop47
 90
       50
102
RTVSPost2010PropOp47
 70
     1
102
RTVSPost2010Prop48
 90
       50
102
RTVSPost2010PropOp48
 70
     1
102
RTVSPost2010Prop49
280
     0
102
RTVSPost2010PropOp49
 70
     1
102
RTVSPost2010Prop50
 90
       50
102
RTVSPost2010PropOp50
 70
     1
102
RTVSPost2010Prop51ColorIndex
 90
      256
102
RTVSPost2010Prop51ColorRGB
 90
-16777216
102
RTVSPost2010PropOp51
 70
     0
102
RTVSPost2010Prop52
140
1.0
102
RTVSPost2010PropOp52
 70
     0
102
RTVSPost2010Prop53
 90
        2
102
RTVSPost2010PropOp53
 70
     1
102
RTVSPost2010Prop54
  1
strokes_ogs.tif
102
RTVSPost2010PropOp54
 70
     1
102
RTVSPost2010Prop55
280
     0
102
RTVSPost2010PropOp55
 70
     1
102
RTVSPost2010Prop56
140
1.0
102
RTVSPost2010PropOp56
 70
     1
102
RTVSPost2010Prop57
140
1.0
102
RTVSPost2010PropOp57
 70
     1
  0
XRECORD
  5
3D9
102
{ACAD_REACTORS
330
3D8
102
}
330
3D8
100
AcDbXrecord
280
     1
102
RTVSPropertyOp0
 70
     1
102
RTVSPropertyOp1
 70
     1
102
RTVSPropertyOp2
 70
     1
102
RTVSPropertyOp3
 70
     1
102
RTVSPropertyOp4
 70
     1
102
RTVSPropertyOp5
 70
     1
102
RTVSPropertyOp6
 70
     1
102
RTVSPropertyOp7
 70
     1
102
RTVSPropertyOp8
 70
     1
102
RTVSPropertyOp9
 70
     1
102
RTVSPropertyOp10
 70
     1
102
RTVSPropertyOp11
 70
     1
102
RTVSPropertyOp12
 70
     1
102
RTVSPropertyOp13
 70
     1
102
RTVSPropertyOp14
 70
     1
102
RTVSPropertyOp15
 70
     1
102
RTVSPropertyOp16
 70
     1
102
RTVSPropertyOp17
 70
     1
102
RTVSPropertyOp18
 70
     1
102
RTVSPropertyOp19
 70
     1
102
RTVSPropertyOp20
 70
     1
102
RTVSPropertyOp21
 70
     1
102
RTVSPropertyOp22
 70
     1
102
RTVSPropertyOp23
 70
     1
102
RTVSPropertyOp24
 70
     1
102
RTVSPropertyOp25
 70
     1
102
RTVSPropertyOp26
 70
     1
102
RTVSPropertyOp27
 70
     1
102
RTVSPropertyOp28
 70
     1
102
RTVSPropertyOp29
 70
     1
102
RTVSPropertyOp30
 70
     1
102
RTVSPropertyOp31
 70
     1
102
RTVSPropertyOp32
 70
     1
102
RTVSPropertyOp33
 70
     1
102
RTVSPropertyOp34
 70
     1
102
RTVSPropertyOp35
 70
     1
102
RTVSPropertyOp36
 70
     1
102
RTVSPropertyOp37
 70
     1
102
RTVSPropertyOp38
 70
     1
102
RTVSPropertyOp39
 70
     1
102
RTVSPropertyOp40
 70
     1
102
RTVSPropertyOp41
 70
     1
102
RTVSPropertyOp42
 70
     1
102
RTVSPropertyOp43
 70
     1
102
RTVSPropertyOp44
 70
     1
102
RTVSPropertyOp45
 70
     1
102
RTVSPropertyOp46
 70
     1
102
RTVSPropertyOp47
 70
     1
102
RTVSPropertyOp48
 70
     1
102
RTVSPropertyOp49
 70
     1
102
RTVSPropertyOp50
 70
     1
102
RTVSPropertyOp51
 70
     0
102
RTVSPropertyOp52
 70
     0
102
RTVSPropertyOp53
 70
     1
102
RTVSPropertyOp54
 70
     1
102
RTVSPropertyOp55
 70
     1
102
RTVSPropertyOp56
 70
     1
102
RTVSPropertyOp57
 70
     1
102
RTVSPost2010Prop28
280
     0
102
RTVSPost2010PropOp28
 70
     1
102
RTVSPost2010Prop29
280
     1
102
RTVSPost2010PropOp29
 70
     1
102
RTVSPost2010Prop30
280
     1
102
RTVSPost2010PropOp30
 70
     1
102
RTVSPost2010Prop31
280
     0
102
RTVSPost2010PropOp31
 70
     1
102
RTVSPost2010Prop32
280
     0
102
RTVSPost2010PropOp32
 70
     1
102
RTVSPost2010Prop33
280
     0
102
RTVSPost2010PropOp33
 70
     1
102
RTVSPost2010Prop34
280
     0
102
RTVSPost2010PropOp34
 70
     1
102
RTVSPost2010Prop35
280
     0
102
RTVSPost2010PropOp35
 70
     1
102
RTVSPost2010Prop36
280
     0
102
RTVSPost2010PropOp36
 70
     1
102
RTVSPost2010Prop37
 90
       50
102
RTVSPost2010PropOp37
 70
     1
102
RTVSPost2010Prop38
140
0.0
102
RTVSPost2010PropOp38
 70
     1
102
RTVSPost2010Prop39
140
1.0
102
RTVSPost2010PropOp39
 70
     1
102
RTVSPost2010Prop40
 90
        0
102
RTVSPost2010PropOp40
 70
     1
102
RTVSPost2010Prop41ColorIndex
 90
       18
102
RTVSPost2010Prop41ColorRGB
 90
        0
102
RTVSPost2010PropOp41
 70
     1
102
RTVSPost2010Prop42
 90
       50
102
RTVSPost2010PropOp42
 70
     1
102
RTVSPost2010Prop43
 90
        3
102
RTVSPost2010PropOp43
 70
     1
102
RTVSPost2010Prop44ColorIndex
 90
        5
102
RTVSPost2010Prop44ColorRGB
 90
      255
102
RTVSPost2010PropOp44
 70
     1
102
RTVSPost2010Prop45
280
     0
102
RTVSPost2010PropOp45
 70
     1
102
RTVSPost2010Prop46
 90
       50
102
RTVSPost2010PropOp46
 70
     1
102
RTVSPost2010Prop47
 90
       50
102
RTVSPost2010PropOp47
 70
     1
102
RTVSPost2010Prop48
 90
       50
102
RTVSPost2010PropOp48
 70
     1
102
RTVSPost2010Prop49
280
     0
102
RTVSPost2010PropOp49
 70
     1
102
RTVSPost2010Prop50
 90
       50
102
RTVSPost2010PropOp50
 70
     1
102
RTVSPost2010Prop51ColorIndex
 90
      256
102
RTVSPost2010Prop51ColorRGB
 90
-16777216
102
RTVSPost2010PropOp51
 70
     0
102
RTVSPost2010Prop52
140
1.0
102
RTVSPost2010PropOp52
 70
     0
102
RTVSPost2010Prop53
 90
        2
102
RTVSPost2010PropOp53
 70
     1
102
RTVSPost2010Prop54
  1
strokes_ogs.tif
102
RTVSPost2010PropOp54
 70
     1
102
RTVSPost2010Prop55
280
     0
102
RTVSPost2010PropOp55
 70
     1
102
RTVSPost2010Prop56
140
1.0
102
RTVSPost2010PropOp56
 70
     1
102
RTVSPost2010Prop57
140
1.0
102
RTVSPost2010PropOp57
 70
     1
  0
XRECORD
  5
3DB
102
{ACAD_REACTORS
330
3DA
102
}
330
3DA
100
AcDbXrecord
280
     1
102
RTVSPropertyOp0
 70
     1
102
RTVSPropertyOp1
 70
     1
102
RTVSPropertyOp2
 70
     1
102
RTVSPropertyOp3
 70
     1
102
RTVSPropertyOp4
 70
     1
102
RTVSPropertyOp5
 70
     1
102
RTVSPropertyOp6
 70
     1
102
RTVSPropertyOp7
 70
     1
102
RTVSPropertyOp8
 70
     1
102
RTVSPropertyOp9
 70
     1
102
RTVSPropertyOp10
 70
     1
102
RTVSPropertyOp11
 70
     1
102
RTVSPropertyOp12
 70
     1
102
RTVSPropertyOp13
 70
     1
102
RTVSPropertyOp14
 70
     1
102
RTVSPropertyOp15
 70
     1
102
RTVSPropertyOp16
 70
     1
102
RTVSPropertyOp17
 70
     1
102
RTVSPropertyOp18
 70
     1
102
RTVSPropertyOp19
 70
     1
102
RTVSPropertyOp20
 70
     1
102
RTVSPropertyOp21
 70
     1
102
RTVSPropertyOp22
 70
     1
102
RTVSPropertyOp23
 70
     1
102
RTVSPropertyOp24
 70
     1
102
RTVSPropertyOp25
 70
     1
102
RTVSPropertyOp26
 70
     1
102
RTVSPropertyOp27
 70
     1
102
RTVSPropertyOp28
 70
     1
102
RTVSPropertyOp29
 70
     1
102
RTVSPropertyOp30
 70
     1
102
RTVSPropertyOp31
 70
     1
102
RTVSPropertyOp32
 70
     1
102
RTVSPropertyOp33
 70
     1
102
RTVSPropertyOp34
 70
     1
102
RTVSPropertyOp35
 70
     1
102
RTVSPropertyOp36
 70
     1
102
RTVSPropertyOp37
 70
     1
102
RTVSPropertyOp38
 70
     1
102
RTVSPropertyOp39
 70
     1
102
RTVSPropertyOp40
 70
     1
102
RTVSPropertyOp41
 70
     1
102
RTVSPropertyOp42
 70
     1
102
RTVSPropertyOp43
 70
     1
102
RTVSPropertyOp44
 70
     1
102
RTVSPropertyOp45
 70
     1
102
RTVSPropertyOp46
 70
     1
102
RTVSPropertyOp47
 70
     1
102
RTVSPropertyOp48
 70
     1
102
RTVSPropertyOp49
 70
     1
102
RTVSPropertyOp50
 70
     1
102
RTVSPropertyOp51
 70
     0
102
RTVSPropertyOp52
 70
     0
102
RTVSPropertyOp53
 70
     1
102
RTVSPropertyOp54
 70
     1
102
RTVSPropertyOp55
 70
     1
102
RTVSPropertyOp56
 70
     1
102
RTVSPropertyOp57
 70
     1
102
RTVSPost2010Prop28
280
     0
102
RTVSPost2010PropOp28
 70
     1
102
RTVSPost2010Prop29
280
     1
102
RTVSPost2010PropOp29
 70
     1
102
RTVSPost2010Prop30
280
     1
102
RTVSPost2010PropOp30
 70
     1
102
RTVSPost2010Prop31
280
     0
102
RTVSPost2010PropOp31
 70
     1
102
RTVSPost2010Prop32
280
     0
102
RTVSPost2010PropOp32
 70
     1
102
RTVSPost2010Prop33
280
     0
102
RTVSPost2010PropOp33
 70
     1
102
RTVSPost2010Prop34
280
     0
102
RTVSPost2010PropOp34
 70
     1
102
RTVSPost2010Prop35
280
     0
102
RTVSPost2010PropOp35
 70
     1
102
RTVSPost2010Prop36
280
     0
102
RTVSPost2010PropOp36
 70
     1
102
RTVSPost2010Prop37
 90
       50
102
RTVSPost2010PropOp37
 70
     1
102
RTVSPost2010Prop38
140
0.0
102
RTVSPost2010PropOp38
 70
     1
102
RTVSPost2010Prop39
140
1.0
102
RTVSPost2010PropOp39
 70
     1
102
RTVSPost2010Prop40
 90
        0
102
RTVSPost2010PropOp40
 70
     1
102
RTVSPost2010Prop41ColorIndex
 90
       18
102
RTVSPost2010Prop41ColorRGB
 90
        0
102
RTVSPost2010PropOp41
 70
     1
102
RTVSPost2010Prop42
 90
       50
102
RTVSPost2010PropOp42
 70
     1
102
RTVSPost2010Prop43
 90
        3
102
RTVSPost2010PropOp43
 70
     1
102
RTVSPost2010Prop44ColorIndex
 90
        5
102
RTVSPost2010Prop44ColorRGB
 90
      255
102
RTVSPost2010PropOp44
 70
     1
102
RTVSPost2010Prop45
280
     0
102
RTVSPost2010PropOp45
 70
     1
102
RTVSPost2010Prop46
 90
       50
102
RTVSPost2010PropOp46
 70
     1
102
RTVSPost2010Prop47
 90
       50
102
RTVSPost2010PropOp47
 70
     1
102
RTVSPost2010Prop48
 90
       50
102
RTVSPost2010PropOp48
 70
     1
102
RTVSPost2010Prop49
280
     0
102
RTVSPost2010PropOp49
 70
     1
102
RTVSPost2010Prop50
 90
       50
102
RTVSPost2010PropOp50
 70
     1
102
RTVSPost2010Prop51ColorIndex
 90
      256
102
RTVSPost2010Prop51ColorRGB
 90
-16777216
102
RTVSPost2010PropOp51
 70
     0
102
RTVSPost2010Prop52
140
1.0
102
RTVSPost2010PropOp52
 70
     0
102
RTVSPost2010Prop53
 90
        2
102
RTVSPost2010PropOp53
 70
     1
102
RTVSPost2010Prop54
  1
strokes_ogs.tif
102
RTVSPost2010PropOp54
 70
     1
102
RTVSPost2010Prop55
280
     0
102
RTVSPost2010PropOp55
 70
     1
102
RTVSPost2010Prop56
140
1.0
102
RTVSPost2010PropOp56
 70
     1
102
RTVSPost2010Prop57
140
1.0
102
RTVSPost2010PropOp57
 70
     1
  0
XRECORD
  5
3DD
102
{ACAD_REACTORS
330
3DC
102
}
330
3DC
100
AcDbXrecord
280
     1
102
RTVSPropertyOp0
 70
     1
102
RTVSPropertyOp1
 70
     1
102
RTVSPropertyOp2
 70
     1
102
RTVSPropertyOp3
 70
     1
102
RTVSPropertyOp4
 70
     1
102
RTVSPropertyOp5
 70
     1
102
RTVSPropertyOp6
 70
     1
102
RTVSPropertyOp7
 70
     1
102
RTVSPropertyOp8
 70
     1
102
RTVSPropertyOp9
 70
     1
102
RTVSPropertyOp10
 70
     1
102
RTVSPropertyOp11
 70
     1
102
RTVSPropertyOp12
 70
     1
102
RTVSPropertyOp13
 70
     1
102
RTVSPropertyOp14
 70
     1
102
RTVSPropertyOp15
 70
     1
102
RTVSPropertyOp16
 70
     1
102
RTVSPropertyOp17
 70
     1
102
RTVSPropertyOp18
 70
     1
102
RTVSPropertyOp19
 70
     1
102
RTVSPropertyOp20
 70
     1
102
RTVSPropertyOp21
 70
     1
102
RTVSPropertyOp22
 70
     1
102
RTVSPropertyOp23
 70
     1
102
RTVSPropertyOp24
 70
     1
102
RTVSPropertyOp25
 70
     1
102
RTVSPropertyOp26
 70
     1
102
RTVSPropertyOp27
 70
     1
102
RTVSPropertyOp28
 70
     1
102
RTVSPropertyOp29
 70
     1
102
RTVSPropertyOp30
 70
     1
102
RTVSPropertyOp31
 70
     1
102
RTVSPropertyOp32
 70
     1
102
RTVSPropertyOp33
 70
     1
102
RTVSPropertyOp34
 70
     1
102
RTVSPropertyOp35
 70
     1
102
RTVSPropertyOp36
 70
     1
102
RTVSPropertyOp37
 70
     1
102
RTVSPropertyOp38
 70
     1
102
RTVSPropertyOp39
 70
     1
102
RTVSPropertyOp40
 70
     1
102
RTVSPropertyOp41
 70
     1
102
RTVSPropertyOp42
 70
     1
102
RTVSPropertyOp43
 70
     1
102
RTVSPropertyOp44
 70
     1
102
RTVSPropertyOp45
 70
     1
102
RTVSPropertyOp46
 70
     1
102
RTVSPropertyOp47
 70
     1
102
RTVSPropertyOp48
 70
     1
102
RTVSPropertyOp49
 70
     1
102
RTVSPropertyOp50
 70
     1
102
RTVSPropertyOp51
 70
     0
102
RTVSPropertyOp52
 70
     0
102
RTVSPropertyOp53
 70
     1
102
RTVSPropertyOp54
 70
     1
102
RTVSPropertyOp55
 70
     1
102
RTVSPropertyOp56
 70
     1
102
RTVSPropertyOp57
 70
     1
102
RTVSPost2010Prop28
280
     0
102
RTVSPost2010PropOp28
 70
     1
102
RTVSPost2010Prop29
280
     1
102
RTVSPost2010PropOp29
 70
     1
102
RTVSPost2010Prop30
280
     1
102
RTVSPost2010PropOp30
 70
     1
102
RTVSPost2010Prop31
280
     0
102
RTVSPost2010PropOp31
 70
     1
102
RTVSPost2010Prop32
280
     0
102
RTVSPost2010PropOp32
 70
     1
102
RTVSPost2010Prop33
280
     0
102
RTVSPost2010PropOp33
 70
     1
102
RTVSPost2010Prop34
280
     0
102
RTVSPost2010PropOp34
 70
     1
102
RTVSPost2010Prop35
280
     0
102
RTVSPost2010PropOp35
 70
     1
102
RTVSPost2010Prop36
280
     0
102
RTVSPost2010PropOp36
 70
     1
102
RTVSPost2010Prop37
 90
       50
102
RTVSPost2010PropOp37
 70
     1
102
RTVSPost2010Prop38
140
0.0
102
RTVSPost2010PropOp38
 70
     1
102
RTVSPost2010Prop39
140
1.0
102
RTVSPost2010PropOp39
 70
     1
102
RTVSPost2010Prop40
 90
        0
102
RTVSPost2010PropOp40
 70
     1
102
RTVSPost2010Prop41ColorIndex
 90
       18
102
RTVSPost2010Prop41ColorRGB
 90
        0
102
RTVSPost2010PropOp41
 70
     1
102
RTVSPost2010Prop42
 90
       50
102
RTVSPost2010PropOp42
 70
     1
102
RTVSPost2010Prop43
 90
        3
102
RTVSPost2010PropOp43
 70
     1
102
RTVSPost2010Prop44ColorIndex
 90
        5
102
RTVSPost2010Prop44ColorRGB
 90
      255
102
RTVSPost2010PropOp44
 70
     1
102
RTVSPost2010Prop45
280
     0
102
RTVSPost2010PropOp45
 70
     1
102
RTVSPost2010Prop46
 90
       50
102
RTVSPost2010PropOp46
 70
     1
102
RTVSPost2010Prop47
 90
       50
102
RTVSPost2010PropOp47
 70
     1
102
RTVSPost2010Prop48
 90
       50
102
RTVSPost2010PropOp48
 70
     1
102
RTVSPost2010Prop49
280
     0
102
RTVSPost2010PropOp49
 70
     1
102
RTVSPost2010Prop50
 90
       50
102
RTVSPost2010PropOp50
 70
     1
102
RTVSPost2010Prop51ColorIndex
 90
      256
102
RTVSPost2010Prop51ColorRGB
 90
-16777216
102
RTVSPost2010PropOp51
 70
     0
102
RTVSPost2010Prop52
140
1.0
102
RTVSPost2010PropOp52
 70
     0
102
RTVSPost2010Prop53
 90
        2
102
RTVSPost2010PropOp53
 70
     1
102
RTVSPost2010Prop54
  1
strokes_ogs.tif
102
RTVSPost2010PropOp54
 70
     1
102
RTVSPost2010Prop55
280
     0
102
RTVSPost2010PropOp55
 70
     1
102
RTVSPost2010Prop56
140
1.0
102
RTVSPost2010PropOp56
 70
     1
102
RTVSPost2010Prop57
140
1.0
102
RTVSPost2010PropOp57
 70
     1
  0
XRECORD
  5
3DF
102
{ACAD_REACTORS
330
3DE
102
}
330
3DE
100
AcDbXrecord
280
     1
102
RTVSPropertyOp0
 70
     1
102
RTVSPropertyOp1
 70
     1
102
RTVSPropertyOp2
 70
     1
102
RTVSPropertyOp3
 70
     1
102
RTVSPropertyOp4
 70
     1
102
RTVSPropertyOp5
 70
     1
102
RTVSPropertyOp6
 70
     1
102
RTVSPropertyOp7
 70
     1
102
RTVSPropertyOp8
 70
     1
102
RTVSPropertyOp9
 70
     1
102
RTVSPropertyOp10
 70
     1
102
RTVSPropertyOp11
 70
     1
102
RTVSPropertyOp12
 70
     1
102
RTVSPropertyOp13
 70
     1
102
RTVSPropertyOp14
 70
     1
102
RTVSPropertyOp15
 70
     1
102
RTVSPropertyOp16
 70
     1
102
RTVSPropertyOp17
 70
     1
102
RTVSPropertyOp18
 70
     1
102
RTVSPropertyOp19
 70
     1
102
RTVSPropertyOp20
 70
     1
102
RTVSPropertyOp21
 70
     1
102
RTVSPropertyOp22
 70
     1
102
RTVSPropertyOp23
 70
     1
102
RTVSPropertyOp24
 70
     1
102
RTVSPropertyOp25
 70
     1
102
RTVSPropertyOp26
 70
     1
102
RTVSPropertyOp27
 70
     1
102
RTVSPropertyOp28
 70
     1
102
RTVSPropertyOp29
 70
     1
102
RTVSPropertyOp30
 70
     1
102
RTVSPropertyOp31
 70
     1
102
RTVSPropertyOp32
 70
     1
102
RTVSPropertyOp33
 70
     1
102
RTVSPropertyOp34
 70
     1
102
RTVSPropertyOp35
 70
     1
102
RTVSPropertyOp36
 70
     1
102
RTVSPropertyOp37
 70
     1
102
RTVSPropertyOp38
 70
     1
102
RTVSPropertyOp39
 70
     1
102
RTVSPropertyOp40
 70
     1
102
RTVSPropertyOp41
 70
     1
102
RTVSPropertyOp42
 70
     1
102
RTVSPropertyOp43
 70
     1
102
RTVSPropertyOp44
 70
     1
102
RTVSPropertyOp45
 70
     1
102
RTVSPropertyOp46
 70
     1
102
RTVSPropertyOp47
 70
     1
102
RTVSPropertyOp48
 70
     1
102
RTVSPropertyOp49
 70
     1
102
RTVSPropertyOp50
 70
     1
102
RTVSPropertyOp51
 70
     0
102
RTVSPropertyOp52
 70
     0
102
RTVSPropertyOp53
 70
     1
102
RTVSPropertyOp54
 70
     1
102
RTVSPropertyOp55
 70
     1
102
RTVSPropertyOp56
 70
     1
102
RTVSPropertyOp57
 70
     1
102
RTVSPost2010Prop28
280
     0
102
RTVSPost2010PropOp28
 70
     1
102
RTVSPost2010Prop29
280
     1
102
RTVSPost2010PropOp29
 70
     1
102
RTVSPost2010Prop30
280
     1
102
RTVSPost2010PropOp30
 70
     1
102
RTVSPost2010Prop31
280
     0
102
RTVSPost2010PropOp31
 70
     1
102
RTVSPost2010Prop32
280
     0
102
RTVSPost2010PropOp32
 70
     1
102
RTVSPost2010Prop33
280
     0
102
RTVSPost2010PropOp33
 70
     1
102
RTVSPost2010Prop34
280
     0
102
RTVSPost2010PropOp34
 70
     1
102
RTVSPost2010Prop35
280
     0
102
RTVSPost2010PropOp35
 70
     1
102
RTVSPost2010Prop36
280
     0
102
RTVSPost2010PropOp36
 70
     1
102
RTVSPost2010Prop37
 90
       50
102
RTVSPost2010PropOp37
 70
     1
102
RTVSPost2010Prop38
140
0.0
102
RTVSPost2010PropOp38
 70
     1
102
RTVSPost2010Prop39
140
1.0
102
RTVSPost2010PropOp39
 70
     1
102
RTVSPost2010Prop40
 90
        0
102
RTVSPost2010PropOp40
 70
     1
102
RTVSPost2010Prop41ColorIndex
 90
       18
102
RTVSPost2010Prop41ColorRGB
 90
        0
102
RTVSPost2010PropOp41
 70
     1
102
RTVSPost2010Prop42
 90
       50
102
RTVSPost2010PropOp42
 70
     1
102
RTVSPost2010Prop43
 90
        3
102
RTVSPost2010PropOp43
 70
     1
102
RTVSPost2010Prop44ColorIndex
 90
        5
102
RTVSPost2010Prop44ColorRGB
 90
      255
102
RTVSPost2010PropOp44
 70
     1
102
RTVSPost2010Prop45
280
     0
102
RTVSPost2010PropOp45
 70
     1
102
RTVSPost2010Prop46
 90
       50
102
RTVSPost2010PropOp46
 70
     1
102
RTVSPost2010Prop47
 90
       50
102
RTVSPost2010PropOp47
 70
     1
102
RTVSPost2010Prop48
 90
       50
102
RTVSPost2010PropOp48
 70
     1
102
RTVSPost2010Prop49
280
     0
102
RTVSPost2010PropOp49
 70
     1
102
RTVSPost2010Prop50
 90
       50
102
RTVSPost2010PropOp50
 70
     1
102
RTVSPost2010Prop51ColorIndex
 90
      256
102
RTVSPost2010Prop51ColorRGB
 90
-16777216
102
RTVSPost2010PropOp51
 70
     0
102
RTVSPost2010Prop52
140
1.0
102
RTVSPost2010PropOp52
 70
     0
102
RTVSPost2010Prop53
 90
        2
102
RTVSPost2010PropOp53
 70
     1
102
RTVSPost2010Prop54
  1
strokes_ogs.tif
102
RTVSPost2010PropOp54
 70
     1
102
RTVSPost2010Prop55
280
     0
102
RTVSPost2010PropOp55
 70
     1
102
RTVSPost2010Prop56
140
1.0
102
RTVSPost2010PropOp56
 70
     1
102
RTVSPost2010Prop57
140
1.0
102
RTVSPost2010PropOp57
 70
     1
  0
XRECORD
  5
3E5
102
{ACAD_REACTORS
330
3E4
102
}
330
3E4
100
AcDbXrecord
280
     1
102
RTVSPropertyOp0
 70
     1
102
RTVSPropertyOp1
 70
     1
102
RTVSPropertyOp2
 70
     1
102
RTVSPropertyOp3
 70
     1
102
RTVSPropertyOp4
 70
     1
102
RTVSPropertyOp5
 70
     1
102
RTVSPropertyOp6
 70
     1
102
RTVSPropertyOp7
 70
     1
102
RTVSPropertyOp8
 70
     1
102
RTVSPropertyOp9
 70
     1
102
RTVSPropertyOp10
 70
     1
102
RTVSPropertyOp11
 70
     1
102
RTVSPropertyOp12
 70
     1
102
RTVSPropertyOp13
 70
     1
102
RTVSPropertyOp14
 70
     1
102
RTVSPropertyOp15
 70
     1
102
RTVSPropertyOp16
 70
     1
102
RTVSPropertyOp17
 70
     1
102
RTVSPropertyOp18
 70
     1
102
RTVSPropertyOp19
 70
     1
102
RTVSPropertyOp20
 70
     1
102
RTVSPropertyOp21
 70
     1
102
RTVSPropertyOp22
 70
     1
102
RTVSPropertyOp23
 70
     1
102
RTVSPropertyOp24
 70
     1
102
RTVSPropertyOp25
 70
     1
102
RTVSPropertyOp26
 70
     1
102
RTVSPropertyOp27
 70
     1
102
RTVSPropertyOp28
 70
     1
102
RTVSPropertyOp29
 70
     1
102
RTVSPropertyOp30
 70
     1
102
RTVSPropertyOp31
 70
     1
102
RTVSPropertyOp32
 70
     1
102
RTVSPropertyOp33
 70
     1
102
RTVSPropertyOp34
 70
     1
102
RTVSPropertyOp35
 70
     1
102
RTVSPropertyOp36
 70
     1
102
RTVSPropertyOp37
 70
     1
102
RTVSPropertyOp38
 70
     1
102
RTVSPropertyOp39
 70
     1
102
RTVSPropertyOp40
 70
     1
102
RTVSPropertyOp41
 70
     1
102
RTVSPropertyOp42
 70
     1
102
RTVSPropertyOp43
 70
     1
102
RTVSPropertyOp44
 70
     1
102
RTVSPropertyOp45
 70
     1
102
RTVSPropertyOp46
 70
     1
102
RTVSPropertyOp47
 70
     1
102
RTVSPropertyOp48
 70
     1
102
RTVSPropertyOp49
 70
     1
102
RTVSPropertyOp50
 70
     1
102
RTVSPropertyOp51
 70
     0
102
RTVSPropertyOp52
 70
     0
102
RTVSPropertyOp53
 70
     1
102
RTVSPropertyOp54
 70
     1
102
RTVSPropertyOp55
 70
     1
102
RTVSPropertyOp56
 70
     1
102
RTVSPropertyOp57
 70
     1
102
RTVSPost2010Prop28
280
     0
102
RTVSPost2010PropOp28
 70
     1
102
RTVSPost2010Prop29
280
     1
102
RTVSPost2010PropOp29
 70
     1
102
RTVSPost2010Prop30
280
     1
102
RTVSPost2010PropOp30
 70
     1
102
RTVSPost2010Prop31
280
     0
102
RTVSPost2010PropOp31
 70
     1
102
RTVSPost2010Prop32
280
     0
102
RTVSPost2010PropOp32
 70
     1
102
RTVSPost2010Prop33
280
     0
102
RTVSPost2010PropOp33
 70
     1
102
RTVSPost2010Prop34
280
     0
102
RTVSPost2010PropOp34
 70
     1
102
RTVSPost2010Prop35
280
     0
102
RTVSPost2010PropOp35
 70
     1
102
RTVSPost2010Prop36
280
     0
102
RTVSPost2010PropOp36
 70
     1
102
RTVSPost2010Prop37
 90
       50
102
RTVSPost2010PropOp37
 70
     1
102
RTVSPost2010Prop38
140
0.0
102
RTVSPost2010PropOp38
 70
     1
102
RTVSPost2010Prop39
140
1.0
102
RTVSPost2010PropOp39
 70
     1
102
RTVSPost2010Prop40
 90
        0
102
RTVSPost2010PropOp40
 70
     1
102
RTVSPost2010Prop41ColorIndex
 90
       18
102
RTVSPost2010Prop41ColorRGB
 90
        0
102
RTVSPost2010PropOp41
 70
     1
102
RTVSPost2010Prop42
 90
       50
102
RTVSPost2010PropOp42
 70
     1
102
RTVSPost2010Prop43
 90
        3
102
RTVSPost2010PropOp43
 70
     1
102
RTVSPost2010Prop44ColorIndex
 90
        5
102
RTVSPost2010Prop44ColorRGB
 90
      255
102
RTVSPost2010PropOp44
 70
     1
102
RTVSPost2010Prop45
280
     0
102
RTVSPost2010PropOp45
 70
     1
102
RTVSPost2010Prop46
 90
       50
102
RTVSPost2010PropOp46
 70
     1
102
RTVSPost2010Prop47
 90
       50
102
RTVSPost2010PropOp47
 70
     1
102
RTVSPost2010Prop48
 90
       50
102
RTVSPost2010PropOp48
 70
     1
102
RTVSPost2010Prop49
280
     0
102
RTVSPost2010PropOp49
 70
     1
102
RTVSPost2010Prop50
 90
       50
102
RTVSPost2010PropOp50
 70
     1
102
RTVSPost2010Prop51ColorIndex
 90
      256
102
RTVSPost2010Prop51ColorRGB
 90
-16777216
102
RTVSPost2010PropOp51
 70
     0
102
RTVSPost2010Prop52
140
1.0
102
RTVSPost2010PropOp52
 70
     0
102
RTVSPost2010Prop53
 90
        2
102
RTVSPost2010PropOp53
 70
     1
102
RTVSPost2010Prop54
  1
strokes_ogs.tif
102
RTVSPost2010PropOp54
 70
     1
102
RTVSPost2010Prop55
280
     0
102
RTVSPost2010PropOp55
 70
     1
102
RTVSPost2010Prop56
140
1.0
102
RTVSPost2010PropOp56
 70
     1
102
RTVSPost2010Prop57
140
1.0
102
RTVSPost2010PropOp57
 70
     1
  0
XRECORD
  5
3F9
102
{ACAD_REACTORS
330
3F8
102
}
330
3F8
100
AcDbXrecord
280
     1
102
RTVSPropertyOp0
 70
     0
102
RTVSPropertyOp1
 70
     0
102
RTVSPropertyOp2
 70
     0
102
RTVSPropertyOp3
 70
     0
102
RTVSPropertyOp4
 70
     0
102
RTVSPropertyOp5
 70
     0
102
RTVSPropertyOp6
 70
     0
102
RTVSPropertyOp7
 70
     0
102
RTVSPropertyOp8
 70
     0
102
RTVSPropertyOp9
 70
     0
102
RTVSPropertyOp10
 70
     0
102
RTVSPropertyOp11
 70
     0
102
RTVSPropertyOp12
 70
     0
102
RTVSPropertyOp13
 70
     0
102
RTVSPropertyOp14
 70
     2
102
RTVSPropertyOp15
 70
     0
102
RTVSPropertyOp16
 70
     0
102
RTVSPropertyOp17
 70
     0
102
RTVSPropertyOp18
 70
     0
102
RTVSPropertyOp19
 70
     0
102
RTVSPropertyOp20
 70
     0
102
RTVSPropertyOp21
 70
     0
102
RTVSPropertyOp22
 70
     0
102
RTVSPropertyOp23
 70
     0
102
RTVSPropertyOp24
 70
     0
102
RTVSPropertyOp25
 70
     0
102
RTVSPropertyOp26
 70
     0
102
RTVSPropertyOp27
 70
     0
102
RTVSPropertyOp28
 70
     0
102
RTVSPropertyOp29
 70
     0
102
RTVSPropertyOp30
 70
     0
102
RTVSPropertyOp31
 70
     0
102
RTVSPropertyOp32
 70
     0
102
RTVSPropertyOp33
 70
     0
102
RTVSPropertyOp34
 70
     0
102
RTVSPropertyOp35
 70
     0
102
RTVSPropertyOp36
 70
     0
102
RTVSPropertyOp37
 70
     0
102
RTVSPropertyOp38
 70
     0
102
RTVSPropertyOp39
 70
     0
102
RTVSPropertyOp40
 70
     0
102
RTVSPropertyOp41
 70
     0
102
RTVSPropertyOp42
 70
     0
102
RTVSPropertyOp43
 70
     0
102
RTVSPropertyOp44
 70
     0
102
RTVSPropertyOp45
 70
     0
102
RTVSPropertyOp46
 70
     0
102
RTVSPropertyOp47
 70
     0
102
RTVSPropertyOp48
 70
     0
102
RTVSPropertyOp49
 70
     0
102
RTVSPropertyOp50
 70
     0
102
RTVSPropertyOp51
 70
     0
102
RTVSPropertyOp52
 70
     0
102
RTVSPropertyOp53
 70
     0
102
RTVSPropertyOp54
 70
     0
102
RTVSPropertyOp55
 70
     0
102
RTVSPropertyOp56
 70
     0
102
RTVSPropertyOp57
 70
     0
102
RTVSPost2010Prop28
280
     0
102
RTVSPost2010PropOp28
 70
     0
102
RTVSPost2010Prop29
280
     1
102
RTVSPost2010PropOp29
 70
     0
102
RTVSPost2010Prop30
280
     1
102
RTVSPost2010PropOp30
 70
     0
102
RTVSPost2010Prop31
280
     0
102
RTVSPost2010PropOp31
 70
     0
102
RTVSPost2010Prop32
280
     0
102
RTVSPost2010PropOp32
 70
     0
102
RTVSPost2010Prop33
280
     0
102
RTVSPost2010PropOp33
 70
     0
102
RTVSPost2010Prop34
280
     0
102
RTVSPost2010PropOp34
 70
     0
102
RTVSPost2010Prop35
280
     0
102
RTVSPost2010PropOp35
 70
     0
102
RTVSPost2010Prop36
280
     0
102
RTVSPost2010PropOp36
 70
     0
102
RTVSPost2010Prop37
 90
       50
102
RTVSPost2010PropOp37
 70
     0
102
RTVSPost2010Prop38
140
0.0
102
RTVSPost2010PropOp38
 70
     0
102
RTVSPost2010Prop39
140
1.0
102
RTVSPost2010PropOp39
 70
     0
102
RTVSPost2010Prop40
 90
        0
102
RTVSPost2010PropOp40
 70
     0
102
RTVSPost2010Prop41ColorIndex
 90
       18
102
RTVSPost2010Prop41ColorRGB
 90
        0
102
RTVSPost2010PropOp41
 70
     0
102
RTVSPost2010Prop42
 90
       50
102
RTVSPost2010PropOp42
 70
     0
102
RTVSPost2010Prop43
 90
        3
102
RTVSPost2010PropOp43
 70
     0
102
RTVSPost2010Prop44ColorIndex
 90
        5
102
RTVSPost2010Prop44ColorRGB
 90
      255
102
RTVSPost2010PropOp44
 70
     0
102
RTVSPost2010Prop45
280
     0
102
RTVSPost2010PropOp45
 70
     0
102
RTVSPost2010Prop46
 90
       50
102
RTVSPost2010PropOp46
 70
     0
102
RTVSPost2010Prop47
 90
       50
102
RTVSPost2010PropOp47
 70
     0
102
RTVSPost2010Prop48
 90
       50
102
RTVSPost2010PropOp48
 70
     0
102
RTVSPost2010Prop49
280
     0
102
RTVSPost2010PropOp49
 70
     0
102
RTVSPost2010Prop50
 90
       50
102
RTVSPost2010PropOp50
 70
     0
102
RTVSPost2010Prop51ColorIndex
 90
      256
102
RTVSPost2010Prop51ColorRGB
 90
-16777216
102
RTVSPost2010PropOp51
 70
     0
102
RTVSPost2010Prop52
140
1.0
102
RTVSPost2010PropOp52
 70
     0
102
RTVSPost2010Prop53
 90
        2
102
RTVSPost2010PropOp53
 70
     0
102
RTVSPost2010Prop54
  1
strokes_ogs.tif
102
RTVSPost2010PropOp54
 70
     0
102
RTVSPost2010Prop55
280
     0
102
RTVSPost2010PropOp55
 70
     0
102
RTVSPost2010Prop56
140
1.0
102
RTVSPost2010PropOp56
 70
     0
102
RTVSPost2010Prop57
140
1.0
102
RTVSPost2010PropOp57
 70
     0
  0
XRECORD
  5
3F3
102
{ACAD_REACTORS
330
3F2
102
}
330
3F2
100
AcDbXrecord
280
     1
102
RTVSPropertyOp0
 70
     1
102
RTVSPropertyOp1
 70
     1
102
RTVSPropertyOp2
 70
     1
102
RTVSPropertyOp3
 70
     1
102
RTVSPropertyOp4
 70
     1
102
RTVSPropertyOp5
 70
     1
102
RTVSPropertyOp6
 70
     1
102
RTVSPropertyOp7
 70
     1
102
RTVSPropertyOp8
 70
     1
102
RTVSPropertyOp9
 70
     1
102
RTVSPropertyOp10
 70
     1
102
RTVSPropertyOp11
 70
     1
102
RTVSPropertyOp12
 70
     1
102
RTVSPropertyOp13
 70
     1
102
RTVSPropertyOp14
 70
     1
102
RTVSPropertyOp15
 70
     1
102
RTVSPropertyOp16
 70
     1
102
RTVSPropertyOp17
 70
     1
102
RTVSPropertyOp18
 70
     1
102
RTVSPropertyOp19
 70
     1
102
RTVSPropertyOp20
 70
     1
102
RTVSPropertyOp21
 70
     1
102
RTVSPropertyOp22
 70
     1
102
RTVSPropertyOp23
 70
     1
102
RTVSPropertyOp24
 70
     1
102
RTVSPropertyOp25
 70
     1
102
RTVSPropertyOp26
 70
     1
102
RTVSPropertyOp27
 70
     1
102
RTVSPropertyOp28
 70
     1
102
RTVSPropertyOp29
 70
     1
102
RTVSPropertyOp30
 70
     1
102
RTVSPropertyOp31
 70
     1
102
RTVSPropertyOp32
 70
     1
102
RTVSPropertyOp33
 70
     1
102
RTVSPropertyOp34
 70
     1
102
RTVSPropertyOp35
 70
     1
102
RTVSPropertyOp36
 70
     1
102
RTVSPropertyOp37
 70
     1
102
RTVSPropertyOp38
 70
     1
102
RTVSPropertyOp39
 70
     1
102
RTVSPropertyOp40
 70
     1
102
RTVSPropertyOp41
 70
     1
102
RTVSPropertyOp42
 70
     1
102
RTVSPropertyOp43
 70
     1
102
RTVSPropertyOp44
 70
     1
102
RTVSPropertyOp45
 70
     1
102
RTVSPropertyOp46
 70
     1
102
RTVSPropertyOp47
 70
     1
102
RTVSPropertyOp48
 70
     1
102
RTVSPropertyOp49
 70
     1
102
RTVSPropertyOp50
 70
     1
102
RTVSPropertyOp51
 70
     0
102
RTVSPropertyOp52
 70
     0
102
RTVSPropertyOp53
 70
     1
102
RTVSPropertyOp54
 70
     1
102
RTVSPropertyOp55
 70
     1
102
RTVSPropertyOp56
 70
     1
102
RTVSPropertyOp57
 70
     1
102
RTVSPost2010Prop28
280
     0
102
RTVSPost2010PropOp28
 70
     1
102
RTVSPost2010Prop29
280
     1
102
RTVSPost2010PropOp29
 70
     1
102
RTVSPost2010Prop30
280
     1
102
RTVSPost2010PropOp30
 70
     1
102
RTVSPost2010Prop31
280
     0
102
RTVSPost2010PropOp31
 70
     1
102
RTVSPost2010Prop32
280
     0
102
RTVSPost2010PropOp32
 70
     1
102
RTVSPost2010Prop33
280
     0
102
RTVSPost2010PropOp33
 70
     1
102
RTVSPost2010Prop34
280
     0
102
RTVSPost2010PropOp34
 70
     1
102
RTVSPost2010Prop35
280
     0
102
RTVSPost2010PropOp35
 70
     1
102
RTVSPost2010Prop36
280
     0
102
RTVSPost2010PropOp36
 70
     1
102
RTVSPost2010Prop37
 90
       50
102
RTVSPost2010PropOp37
 70
     1
102
RTVSPost2010Prop38
140
0.0
102
RTVSPost2010PropOp38
 70
     1
102
RTVSPost2010Prop39
140
1.0
102
RTVSPost2010PropOp39
 70
     1
102
RTVSPost2010Prop40
 90
        0
102
RTVSPost2010PropOp40
 70
     1
102
RTVSPost2010Prop41ColorIndex
 90
       18
102
RTVSPost2010Prop41ColorRGB
 90
        0
102
RTVSPost2010PropOp41
 70
     1
102
RTVSPost2010Prop42
 90
       50
102
RTVSPost2010PropOp42
 70
     1
102
RTVSPost2010Prop43
 90
        3
102
RTVSPost2010PropOp43
 70
     1
102
RTVSPost2010Prop44ColorIndex
 90
        5
102
RTVSPost2010Prop44ColorRGB
 90
      255
102
RTVSPost2010PropOp44
 70
     1
102
RTVSPost2010Prop45
280
     0
102
RTVSPost2010PropOp45
 70
     1
102
RTVSPost2010Prop46
 90
       50
102
RTVSPost2010PropOp46
 70
     1
102
RTVSPost2010Prop47
 90
       50
102
RTVSPost2010PropOp47
 70
     1
102
RTVSPost2010Prop48
 90
       50
102
RTVSPost2010PropOp48
 70
     1
102
RTVSPost2010Prop49
280
     0
102
RTVSPost2010PropOp49
 70
     1
102
RTVSPost2010Prop50
 90
       50
102
RTVSPost2010PropOp50
 70
     1
102
RTVSPost2010Prop51ColorIndex
 90
      256
102
RTVSPost2010Prop51ColorRGB
 90
-16777216
102
RTVSPost2010PropOp51
 70
     0
102
RTVSPost2010Prop52
140
1.0
102
RTVSPost2010PropOp52
 70
     0
102
RTVSPost2010Prop53
 90
        2
102
RTVSPost2010PropOp53
 70
     1
102
RTVSPost2010Prop54
  1
strokes_ogs.tif
102
RTVSPost2010PropOp54
 70
     1
102
RTVSPost2010Prop55
280
     0
102
RTVSPost2010PropOp55
 70
     1
102
RTVSPost2010Prop56
140
1.0
102
RTVSPost2010PropOp56
 70
     1
102
RTVSPost2010Prop57
140
1.0
102
RTVSPost2010PropOp57
 70
     1
  0
XRECORD
  5
3FB
102
{ACAD_REACTORS
330
3FA
102
}
330
3FA
100
AcDbXrecord
280
     1
102
RTVSPropertyOp0
 70
     0
102
RTVSPropertyOp1
 70
     0
102
RTVSPropertyOp2
 70
     0
102
RTVSPropertyOp3
 70
     0
102
RTVSPropertyOp4
 70
     0
102
RTVSPropertyOp5
 70
     0
102
RTVSPropertyOp6
 70
     0
102
RTVSPropertyOp7
 70
     0
102
RTVSPropertyOp8
 70
     0
102
RTVSPropertyOp9
 70
     0
102
RTVSPropertyOp10
 70
     0
102
RTVSPropertyOp11
 70
     0
102
RTVSPropertyOp12
 70
     0
102
RTVSPropertyOp13
 70
     0
102
RTVSPropertyOp14
 70
     2
102
RTVSPropertyOp15
 70
     0
102
RTVSPropertyOp16
 70
     0
102
RTVSPropertyOp17
 70
     0
102
RTVSPropertyOp18
 70
     0
102
RTVSPropertyOp19
 70
     0
102
RTVSPropertyOp20
 70
     0
102
RTVSPropertyOp21
 70
     0
102
RTVSPropertyOp22
 70
     0
102
RTVSPropertyOp23
 70
     0
102
RTVSPropertyOp24
 70
     0
102
RTVSPropertyOp25
 70
     0
102
RTVSPropertyOp26
 70
     0
102
RTVSPropertyOp27
 70
     0
102
RTVSPropertyOp28
 70
     0
102
RTVSPropertyOp29
 70
     0
102
RTVSPropertyOp30
 70
     0
102
RTVSPropertyOp31
 70
     0
102
RTVSPropertyOp32
 70
     0
102
RTVSPropertyOp33
 70
     0
102
RTVSPropertyOp34
 70
     0
102
RTVSPropertyOp35
 70
     0
102
RTVSPropertyOp36
 70
     0
102
RTVSPropertyOp37
 70
     0
102
RTVSPropertyOp38
 70
     0
102
RTVSPropertyOp39
 70
     0
102
RTVSPropertyOp40
 70
     0
102
RTVSPropertyOp41
 70
     0
102
RTVSPropertyOp42
 70
     0
102
RTVSPropertyOp43
 70
     0
102
RTVSPropertyOp44
 70
     0
102
RTVSPropertyOp45
 70
     0
102
RTVSPropertyOp46
 70
     0
102
RTVSPropertyOp47
 70
     0
102
RTVSPropertyOp48
 70
     0
102
RTVSPropertyOp49
 70
     0
102
RTVSPropertyOp50
 70
     0
102
RTVSPropertyOp51
 70
     0
102
RTVSPropertyOp52
 70
     0
102
RTVSPropertyOp53
 70
     0
102
RTVSPropertyOp54
 70
     0
102
RTVSPropertyOp55
 70
     0
102
RTVSPropertyOp56
 70
     0
102
RTVSPropertyOp57
 70
     0
102
RTVSPost2010Prop28
280
     0
102
RTVSPost2010PropOp28
 70
     0
102
RTVSPost2010Prop29
280
     1
102
RTVSPost2010PropOp29
 70
     0
102
RTVSPost2010Prop30
280
     1
102
RTVSPost2010PropOp30
 70
     0
102
RTVSPost2010Prop31
280
     0
102
RTVSPost2010PropOp31
 70
     0
102
RTVSPost2010Prop32
280
     0
102
RTVSPost2010PropOp32
 70
     0
102
RTVSPost2010Prop33
280
     0
102
RTVSPost2010PropOp33
 70
     0
102
RTVSPost2010Prop34
280
     0
102
RTVSPost2010PropOp34
 70
     0
102
RTVSPost2010Prop35
280
     0
102
RTVSPost2010PropOp35
 70
     0
102
RTVSPost2010Prop36
280
     0
102
RTVSPost2010PropOp36
 70
     0
102
RTVSPost2010Prop37
 90
       50
102
RTVSPost2010PropOp37
 70
     0
102
RTVSPost2010Prop38
140
0.0
102
RTVSPost2010PropOp38
 70
     0
102
RTVSPost2010Prop39
140
1.0
102
RTVSPost2010PropOp39
 70
     0
102
RTVSPost2010Prop40
 90
        0
102
RTVSPost2010PropOp40
 70
     0
102
RTVSPost2010Prop41ColorIndex
 90
       18
102
RTVSPost2010Prop41ColorRGB
 90
        0
102
RTVSPost2010PropOp41
 70
     0
102
RTVSPost2010Prop42
 90
       50
102
RTVSPost2010PropOp42
 70
     0
102
RTVSPost2010Prop43
 90
        3
102
RTVSPost2010PropOp43
 70
     0
102
RTVSPost2010Prop44ColorIndex
 90
        5
102
RTVSPost2010Prop44ColorRGB
 90
      255
102
RTVSPost2010PropOp44
 70
     0
102
RTVSPost2010Prop45
280
     0
102
RTVSPost2010PropOp45
 70
     0
102
RTVSPost2010Prop46
 90
       50
102
RTVSPost2010PropOp46
 70
     0
102
RTVSPost2010Prop47
 90
       50
102
RTVSPost2010PropOp47
 70
     0
102
RTVSPost2010Prop48
 90
       50
102
RTVSPost2010PropOp48
 70
     0
102
RTVSPost2010Prop49
280
     0
102
RTVSPost2010PropOp49
 70
     0
102
RTVSPost2010Prop50
 90
       50
102
RTVSPost2010PropOp50
 70
     0
102
RTVSPost2010Prop51ColorIndex
 90
      256
102
RTVSPost2010Prop51ColorRGB
 90
-16777216
102
RTVSPost2010PropOp51
 70
     0
102
RTVSPost2010Prop52
140
1.0
102
RTVSPost2010PropOp52
 70
     0
102
RTVSPost2010Prop53
 90
        2
102
RTVSPost2010PropOp53
 70
     0
102
RTVSPost2010Prop54
  1
strokes_ogs.tif
102
RTVSPost2010PropOp54
 70
     0
102
RTVSPost2010Prop55
280
     0
102
RTVSPost2010PropOp55
 70
     0
102
RTVSPost2010Prop56
140
1.0
102
RTVSPost2010PropOp56
 70
     0
102
RTVSPost2010Prop57
140
1.0
102
RTVSPost2010PropOp57
 70
     0
  0
XRECORD
  5
3E9
102
{ACAD_REACTORS
330
3E8
102
}
330
3E8
100
AcDbXrecord
280
     1
102
RTVSPropertyOp0
 70
     1
102
RTVSPropertyOp1
 70
     1
102
RTVSPropertyOp2
 70
     1
102
RTVSPropertyOp3
 70
     1
102
RTVSPropertyOp4
 70
     1
102
RTVSPropertyOp5
 70
     1
102
RTVSPropertyOp6
 70
     1
102
RTVSPropertyOp7
 70
     1
102
RTVSPropertyOp8
 70
     1
102
RTVSPropertyOp9
 70
     1
102
RTVSPropertyOp10
 70
     1
102
RTVSPropertyOp11
 70
     1
102
RTVSPropertyOp12
 70
     1
102
RTVSPropertyOp13
 70
     1
102
RTVSPropertyOp14
 70
     1
102
RTVSPropertyOp15
 70
     1
102
RTVSPropertyOp16
 70
     1
102
RTVSPropertyOp17
 70
     1
102
RTVSPropertyOp18
 70
     1
102
RTVSPropertyOp19
 70
     1
102
RTVSPropertyOp20
 70
     1
102
RTVSPropertyOp21
 70
     1
102
RTVSPropertyOp22
 70
     1
102
RTVSPropertyOp23
 70
     1
102
RTVSPropertyOp24
 70
     1
102
RTVSPropertyOp25
 70
     1
102
RTVSPropertyOp26
 70
     1
102
RTVSPropertyOp27
 70
     1
102
RTVSPropertyOp28
 70
     1
102
RTVSPropertyOp29
 70
     1
102
RTVSPropertyOp30
 70
     1
102
RTVSPropertyOp31
 70
     1
102
RTVSPropertyOp32
 70
     1
102
RTVSPropertyOp33
 70
     1
102
RTVSPropertyOp34
 70
     1
102
RTVSPropertyOp35
 70
     1
102
RTVSPropertyOp36
 70
     1
102
RTVSPropertyOp37
 70
     1
102
RTVSPropertyOp38
 70
     1
102
RTVSPropertyOp39
 70
     1
102
RTVSPropertyOp40
 70
     1
102
RTVSPropertyOp41
 70
     1
102
RTVSPropertyOp42
 70
     1
102
RTVSPropertyOp43
 70
     1
102
RTVSPropertyOp44
 70
     1
102
RTVSPropertyOp45
 70
     1
102
RTVSPropertyOp46
 70
     1
102
RTVSPropertyOp47
 70
     1
102
RTVSPropertyOp48
 70
     1
102
RTVSPropertyOp49
 70
     1
102
RTVSPropertyOp50
 70
     1
102
RTVSPropertyOp51
 70
     0
102
RTVSPropertyOp52
 70
     0
102
RTVSPropertyOp53
 70
     1
102
RTVSPropertyOp54
 70
     1
102
RTVSPropertyOp55
 70
     1
102
RTVSPropertyOp56
 70
     1
102
RTVSPropertyOp57
 70
     1
102
RTVSPost2010Prop28
280
     0
102
RTVSPost2010PropOp28
 70
     1
102
RTVSPost2010Prop29
280
     1
102
RTVSPost2010PropOp29
 70
     1
102
RTVSPost2010Prop30
280
     1
102
RTVSPost2010PropOp30
 70
     1
102
RTVSPost2010Prop31
280
     0
102
RTVSPost2010PropOp31
 70
     1
102
RTVSPost2010Prop32
280
     0
102
RTVSPost2010PropOp32
 70
     1
102
RTVSPost2010Prop33
280
     0
102
RTVSPost2010PropOp33
 70
     1
102
RTVSPost2010Prop34
280
     0
102
RTVSPost2010PropOp34
 70
     1
102
RTVSPost2010Prop35
280
     0
102
RTVSPost2010PropOp35
 70
     1
102
RTVSPost2010Prop36
280
     0
102
RTVSPost2010PropOp36
 70
     1
102
RTVSPost2010Prop37
 90
       50
102
RTVSPost2010PropOp37
 70
     1
102
RTVSPost2010Prop38
140
0.0
102
RTVSPost2010PropOp38
 70
     1
102
RTVSPost2010Prop39
140
1.0
102
RTVSPost2010PropOp39
 70
     1
102
RTVSPost2010Prop40
 90
        0
102
RTVSPost2010PropOp40
 70
     1
102
RTVSPost2010Prop41ColorIndex
 90
       18
102
RTVSPost2010Prop41ColorRGB
 90
        0
102
RTVSPost2010PropOp41
 70
     1
102
RTVSPost2010Prop42
 90
       50
102
RTVSPost2010PropOp42
 70
     1
102
RTVSPost2010Prop43
 90
        3
102
RTVSPost2010PropOp43
 70
     1
102
RTVSPost2010Prop44ColorIndex
 90
        5
102
RTVSPost2010Prop44ColorRGB
 90
      255
102
RTVSPost2010PropOp44
 70
     1
102
RTVSPost2010Prop45
280
     0
102
RTVSPost2010PropOp45
 70
     1
102
RTVSPost2010Prop46
 90
       50
102
RTVSPost2010PropOp46
 70
     1
102
RTVSPost2010Prop47
 90
       50
102
RTVSPost2010PropOp47
 70
     1
102
RTVSPost2010Prop48
 90
       50
102
RTVSPost2010PropOp48
 70
     1
102
RTVSPost2010Prop49
280
     0
102
RTVSPost2010PropOp49
 70
     1
102
RTVSPost2010Prop50
 90
       50
102
RTVSPost2010PropOp50
 70
     1
102
RTVSPost2010Prop51ColorIndex
 90
      256
102
RTVSPost2010Prop51ColorRGB
 90
-16777216
102
RTVSPost2010PropOp51
 70
     0
102
RTVSPost2010Prop52
140
1.0
102
RTVSPost2010PropOp52
 70
     0
102
RTVSPost2010Prop53
 90
        2
102
RTVSPost2010PropOp53
 70
     1
102
RTVSPost2010Prop54
  1
strokes_ogs.tif
102
RTVSPost2010PropOp54
 70
     1
102
RTVSPost2010Prop55
280
     0
102
RTVSPost2010PropOp55
 70
     1
102
RTVSPost2010Prop56
140
1.0
102
RTVSPost2010PropOp56
 70
     1
102
RTVSPost2010Prop57
140
1.0
102
RTVSPost2010PropOp57
 70
     1
  0
XRECORD
  5
407
102
{ACAD_REACTORS
330
406
102
}
330
406
100
AcDbXrecord
280
     1
102
RTVSPropertyOp0
 70
     1
102
RTVSPropertyOp1
 70
     1
102
RTVSPropertyOp2
 70
     1
102
RTVSPropertyOp3
 70
     1
102
RTVSPropertyOp4
 70
     1
102
RTVSPropertyOp5
 70
     1
102
RTVSPropertyOp6
 70
     1
102
RTVSPropertyOp7
 70
     1
102
RTVSPropertyOp8
 70
     1
102
RTVSPropertyOp9
 70
     1
102
RTVSPropertyOp10
 70
     1
102
RTVSPropertyOp11
 70
     1
102
RTVSPropertyOp12
 70
     1
102
RTVSPropertyOp13
 70
     1
102
RTVSPropertyOp14
 70
     1
102
RTVSPropertyOp15
 70
     1
102
RTVSPropertyOp16
 70
     1
102
RTVSPropertyOp17
 70
     1
102
RTVSPropertyOp18
 70
     1
102
RTVSPropertyOp19
 70
     1
102
RTVSPropertyOp20
 70
     1
102
RTVSPropertyOp21
 70
     1
102
RTVSPropertyOp22
 70
     1
102
RTVSPropertyOp23
 70
     1
102
RTVSPropertyOp24
 70
     1
102
RTVSPropertyOp25
 70
     1
102
RTVSPropertyOp26
 70
     1
102
RTVSPropertyOp27
 70
     1
102
RTVSPropertyOp28
 70
     1
102
RTVSPropertyOp29
 70
     1
102
RTVSPropertyOp30
 70
     1
102
RTVSPropertyOp31
 70
     1
102
RTVSPropertyOp32
 70
     1
102
RTVSPropertyOp33
 70
     1
102
RTVSPropertyOp34
 70
     1
102
RTVSPropertyOp35
 70
     1
102
RTVSPropertyOp36
 70
     1
102
RTVSPropertyOp37
 70
     1
102
RTVSPropertyOp38
 70
     1
102
RTVSPropertyOp39
 70
     1
102
RTVSPropertyOp40
 70
     1
102
RTVSPropertyOp41
 70
     1
102
RTVSPropertyOp42
 70
     1
102
RTVSPropertyOp43
 70
     1
102
RTVSPropertyOp44
 70
     1
102
RTVSPropertyOp45
 70
     1
102
RTVSPropertyOp46
 70
     1
102
RTVSPropertyOp47
 70
     1
102
RTVSPropertyOp48
 70
     1
102
RTVSPropertyOp49
 70
     1
102
RTVSPropertyOp50
 70
     1
102
RTVSPropertyOp51
 70
     0
102
RTVSPropertyOp52
 70
     0
102
RTVSPropertyOp53
 70
     1
102
RTVSPropertyOp54
 70
     1
102
RTVSPropertyOp55
 70
     1
102
RTVSPropertyOp56
 70
     1
102
RTVSPropertyOp57
 70
     1
102
RTVSPost2010Prop28
280
     0
102
RTVSPost2010PropOp28
 70
     1
102
RTVSPost2010Prop29
280
     1
102
RTVSPost2010PropOp29
 70
     1
102
RTVSPost2010Prop30
280
     1
102
RTVSPost2010PropOp30
 70
     1
102
RTVSPost2010Prop31
280
     0
102
RTVSPost2010PropOp31
 70
     1
102
RTVSPost2010Prop32
280
     0
102
RTVSPost2010PropOp32
 70
     1
102
RTVSPost2010Prop33
280
     0
102
RTVSPost2010PropOp33
 70
     1
102
RTVSPost2010Prop34
280
     0
102
RTVSPost2010PropOp34
 70
     1
102
RTVSPost2010Prop35
280
     0
102
RTVSPost2010PropOp35
 70
     1
102
RTVSPost2010Prop36
280
     0
102
RTVSPost2010PropOp36
 70
     1
102
RTVSPost2010Prop37
 90
       50
102
RTVSPost2010PropOp37
 70
     1
102
RTVSPost2010Prop38
140
0.0
102
RTVSPost2010PropOp38
 70
     1
102
RTVSPost2010Prop39
140
1.0
102
RTVSPost2010PropOp39
 70
     1
102
RTVSPost2010Prop40
 90
        0
102
RTVSPost2010PropOp40
 70
     1
102
RTVSPost2010Prop41ColorIndex
 90
       18
102
RTVSPost2010Prop41ColorRGB
 90
        0
102
RTVSPost2010PropOp41
 70
     1
102
RTVSPost2010Prop42
 90
       50
102
RTVSPost2010PropOp42
 70
     1
102
RTVSPost2010Prop43
 90
        3
102
RTVSPost2010PropOp43
 70
     1
102
RTVSPost2010Prop44ColorIndex
 90
        5
102
RTVSPost2010Prop44ColorRGB
 90
      255
102
RTVSPost2010PropOp44
 70
     1
102
RTVSPost2010Prop45
280
     0
102
RTVSPost2010PropOp45
 70
     1
102
RTVSPost2010Prop46
 90
       50
102
RTVSPost2010PropOp46
 70
     1
102
RTVSPost2010Prop47
 90
       50
102
RTVSPost2010PropOp47
 70
     1
102
RTVSPost2010Prop48
 90
       50
102
RTVSPost2010PropOp48
 70
     1
102
RTVSPost2010Prop49
280
     0
102
RTVSPost2010PropOp49
 70
     1
102
RTVSPost2010Prop50
 90
       50
102
RTVSPost2010PropOp50
 70
     1
102
RTVSPost2010Prop51ColorIndex
 90
      256
102
RTVSPost2010Prop51ColorRGB
 90
-16777216
102
RTVSPost2010PropOp51
 70
     0
102
RTVSPost2010Prop52
140
1.0
102
RTVSPost2010PropOp52
 70
     0
102
RTVSPost2010Prop53
 90
        2
102
RTVSPost2010PropOp53
 70
     1
102
RTVSPost2010Prop54
  1
strokes_ogs.tif
102
RTVSPost2010PropOp54
 70
     1
102
RTVSPost2010Prop55
280
     0
102
RTVSPost2010PropOp55
 70
     1
102
RTVSPost2010Prop56
140
1.0
102
RTVSPost2010PropOp56
 70
     1
102
RTVSPost2010Prop57
140
1.0
102
RTVSPost2010PropOp57
 70
     1
  0
XRECORD
  5
405
102
{ACAD_REACTORS
330
404
102
}
330
404
100
AcDbXrecord
280
     1
102
RTVSPropertyOp0
 70
     1
102
RTVSPropertyOp1
 70
     1
102
RTVSPropertyOp2
 70
     1
102
RTVSPropertyOp3
 70
     1
102
RTVSPropertyOp4
 70
     1
102
RTVSPropertyOp5
 70
     1
102
RTVSPropertyOp6
 70
     1
102
RTVSPropertyOp7
 70
     1
102
RTVSPropertyOp8
 70
     1
102
RTVSPropertyOp9
 70
     1
102
RTVSPropertyOp10
 70
     1
102
RTVSPropertyOp11
 70
     1
102
RTVSPropertyOp12
 70
     1
102
RTVSPropertyOp13
 70
     1
102
RTVSPropertyOp14
 70
     1
102
RTVSPropertyOp15
 70
     1
102
RTVSPropertyOp16
 70
     1
102
RTVSPropertyOp17
 70
     1
102
RTVSPropertyOp18
 70
     1
102
RTVSPropertyOp19
 70
     1
102
RTVSPropertyOp20
 70
     1
102
RTVSPropertyOp21
 70
     1
102
RTVSPropertyOp22
 70
     1
102
RTVSPropertyOp23
 70
     1
102
RTVSPropertyOp24
 70
     1
102
RTVSPropertyOp25
 70
     1
102
RTVSPropertyOp26
 70
     1
102
RTVSPropertyOp27
 70
     1
102
RTVSPropertyOp28
 70
     1
102
RTVSPropertyOp29
 70
     1
102
RTVSPropertyOp30
 70
     1
102
RTVSPropertyOp31
 70
     1
102
RTVSPropertyOp32
 70
     1
102
RTVSPropertyOp33
 70
     1
102
RTVSPropertyOp34
 70
     1
102
RTVSPropertyOp35
 70
     1
102
RTVSPropertyOp36
 70
     1
102
RTVSPropertyOp37
 70
     1
102
RTVSPropertyOp38
 70
     1
102
RTVSPropertyOp39
 70
     1
102
RTVSPropertyOp40
 70
     1
102
RTVSPropertyOp41
 70
     1
102
RTVSPropertyOp42
 70
     1
102
RTVSPropertyOp43
 70
     1
102
RTVSPropertyOp44
 70
     1
102
RTVSPropertyOp45
 70
     1
102
RTVSPropertyOp46
 70
     1
102
RTVSPropertyOp47
 70
     1
102
RTVSPropertyOp48
 70
     1
102
RTVSPropertyOp49
 70
     1
102
RTVSPropertyOp50
 70
     1
102
RTVSPropertyOp51
 70
     0
102
RTVSPropertyOp52
 70
     0
102
RTVSPropertyOp53
 70
     1
102
RTVSPropertyOp54
 70
     1
102
RTVSPropertyOp55
 70
     1
102
RTVSPropertyOp56
 70
     1
102
RTVSPropertyOp57
 70
     1
102
RTVSPost2010Prop28
280
     0
102
RTVSPost2010PropOp28
 70
     1
102
RTVSPost2010Prop29
280
     1
102
RTVSPost2010PropOp29
 70
     1
102
RTVSPost2010Prop30
280
     1
102
RTVSPost2010PropOp30
 70
     1
102
RTVSPost2010Prop31
280
     0
102
RTVSPost2010PropOp31
 70
     1
102
RTVSPost2010Prop32
280
     0
102
RTVSPost2010PropOp32
 70
     1
102
RTVSPost2010Prop33
280
     0
102
RTVSPost2010PropOp33
 70
     1
102
RTVSPost2010Prop34
280
     0
102
RTVSPost2010PropOp34
 70
     1
102
RTVSPost2010Prop35
280
     0
102
RTVSPost2010PropOp35
 70
     1
102
RTVSPost2010Prop36
280
     0
102
RTVSPost2010PropOp36
 70
     1
102
RTVSPost2010Prop37
 90
       50
102
RTVSPost2010PropOp37
 70
     1
102
RTVSPost2010Prop38
140
0.0
102
RTVSPost2010PropOp38
 70
     1
102
RTVSPost2010Prop39
140
1.0
102
RTVSPost2010PropOp39
 70
     1
102
RTVSPost2010Prop40
 90
        0
102
RTVSPost2010PropOp40
 70
     1
102
RTVSPost2010Prop41ColorIndex
 90
       18
102
RTVSPost2010Prop41ColorRGB
 90
        0
102
RTVSPost2010PropOp41
 70
     1
102
RTVSPost2010Prop42
 90
       50
102
RTVSPost2010PropOp42
 70
     1
102
RTVSPost2010Prop43
 90
        3
102
RTVSPost2010PropOp43
 70
     1
102
RTVSPost2010Prop44ColorIndex
 90
        5
102
RTVSPost2010Prop44ColorRGB
 90
      255
102
RTVSPost2010PropOp44
 70
     1
102
RTVSPost2010Prop45
280
     0
102
RTVSPost2010PropOp45
 70
     1
102
RTVSPost2010Prop46
 90
       50
102
RTVSPost2010PropOp46
 70
     1
102
RTVSPost2010Prop47
 90
       50
102
RTVSPost2010PropOp47
 70
     1
102
RTVSPost2010Prop48
 90
       50
102
RTVSPost2010PropOp48
 70
     1
102
RTVSPost2010Prop49
280
     0
102
RTVSPost2010PropOp49
 70
     1
102
RTVSPost2010Prop50
 90
       50
102
RTVSPost2010PropOp50
 70
     1
102
RTVSPost2010Prop51ColorIndex
 90
      256
102
RTVSPost2010Prop51ColorRGB
 90
-16777216
102
RTVSPost2010PropOp51
 70
     0
102
RTVSPost2010Prop52
140
1.0
102
RTVSPost2010PropOp52
 70
     0
102
RTVSPost2010Prop53
 90
        2
102
RTVSPost2010PropOp53
 70
     1
102
RTVSPost2010Prop54
  1
strokes_ogs.tif
102
RTVSPost2010PropOp54
 70
     1
102
RTVSPost2010Prop55
280
     0
102
RTVSPost2010PropOp55
 70
     1
102
RTVSPost2010Prop56
140
1.0
102
RTVSPost2010PropOp56
 70
     1
102
RTVSPost2010Prop57
140
1.0
102
RTVSPost2010PropOp57
 70
     1
  0
XRECORD
  5
3FF
102
{ACAD_REACTORS
330
3FE
102
}
330
3FE
100
AcDbXrecord
280
     1
102
RTVSPropertyOp0
 70
     1
102
RTVSPropertyOp1
 70
     1
102
RTVSPropertyOp2
 70
     1
102
RTVSPropertyOp3
 70
     1
102
RTVSPropertyOp4
 70
     1
102
RTVSPropertyOp5
 70
     1
102
RTVSPropertyOp6
 70
     1
102
RTVSPropertyOp7
 70
     1
102
RTVSPropertyOp8
 70
     1
102
RTVSPropertyOp9
 70
     1
102
RTVSPropertyOp10
 70
     1
102
RTVSPropertyOp11
 70
     1
102
RTVSPropertyOp12
 70
     1
102
RTVSPropertyOp13
 70
     1
102
RTVSPropertyOp14
 70
     1
102
RTVSPropertyOp15
 70
     1
102
RTVSPropertyOp16
 70
     1
102
RTVSPropertyOp17
 70
     1
102
RTVSPropertyOp18
 70
     1
102
RTVSPropertyOp19
 70
     1
102
RTVSPropertyOp20
 70
     1
102
RTVSPropertyOp21
 70
     1
102
RTVSPropertyOp22
 70
     1
102
RTVSPropertyOp23
 70
     1
102
RTVSPropertyOp24
 70
     1
102
RTVSPropertyOp25
 70
     1
102
RTVSPropertyOp26
 70
     1
102
RTVSPropertyOp27
 70
     1
102
RTVSPropertyOp28
 70
     1
102
RTVSPropertyOp29
 70
     1
102
RTVSPropertyOp30
 70
     1
102
RTVSPropertyOp31
 70
     1
102
RTVSPropertyOp32
 70
     1
102
RTVSPropertyOp33
 70
     1
102
RTVSPropertyOp34
 70
     1
102
RTVSPropertyOp35
 70
     1
102
RTVSPropertyOp36
 70
     1
102
RTVSPropertyOp37
 70
     1
102
RTVSPropertyOp38
 70
     1
102
RTVSPropertyOp39
 70
     1
102
RTVSPropertyOp40
 70
     1
102
RTVSPropertyOp41
 70
     1
102
RTVSPropertyOp42
 70
     1
102
RTVSPropertyOp43
 70
     1
102
RTVSPropertyOp44
 70
     1
102
RTVSPropertyOp45
 70
     1
102
RTVSPropertyOp46
 70
     1
102
RTVSPropertyOp47
 70
     1
102
RTVSPropertyOp48
 70
     1
102
RTVSPropertyOp49
 70
     1
102
RTVSPropertyOp50
 70
     1
102
RTVSPropertyOp51
 70
     0
102
RTVSPropertyOp52
 70
     0
102
RTVSPropertyOp53
 70
     1
102
RTVSPropertyOp54
 70
     1
102
RTVSPropertyOp55
 70
     1
102
RTVSPropertyOp56
 70
     1
102
RTVSPropertyOp57
 70
     1
102
RTVSPost2010Prop28
280
     0
102
RTVSPost2010PropOp28
 70
     1
102
RTVSPost2010Prop29
280
     1
102
RTVSPost2010PropOp29
 70
     1
102
RTVSPost2010Prop30
280
     1
102
RTVSPost2010PropOp30
 70
     1
102
RTVSPost2010Prop31
280
     0
102
RTVSPost2010PropOp31
 70
     1
102
RTVSPost2010Prop32
280
     0
102
RTVSPost2010PropOp32
 70
     1
102
RTVSPost2010Prop33
280
     0
102
RTVSPost2010PropOp33
 70
     1
102
RTVSPost2010Prop34
280
     0
102
RTVSPost2010PropOp34
 70
     1
102
RTVSPost2010Prop35
280
     0
102
RTVSPost2010PropOp35
 70
     1
102
RTVSPost2010Prop36
280
     0
102
RTVSPost2010PropOp36
 70
     1
102
RTVSPost2010Prop37
 90
       50
102
RTVSPost2010PropOp37
 70
     1
102
RTVSPost2010Prop38
140
0.0
102
RTVSPost2010PropOp38
 70
     1
102
RTVSPost2010Prop39
140
1.0
102
RTVSPost2010PropOp39
 70
     1
102
RTVSPost2010Prop40
 90
        0
102
RTVSPost2010PropOp40
 70
     1
102
RTVSPost2010Prop41ColorIndex
 90
       18
102
RTVSPost2010Prop41ColorRGB
 90
        0
102
RTVSPost2010PropOp41
 70
     1
102
RTVSPost2010Prop42
 90
       50
102
RTVSPost2010PropOp42
 70
     1
102
RTVSPost2010Prop43
 90
        3
102
RTVSPost2010PropOp43
 70
     1
102
RTVSPost2010Prop44ColorIndex
 90
        5
102
RTVSPost2010Prop44ColorRGB
 90
      255
102
RTVSPost2010PropOp44
 70
     1
102
RTVSPost2010Prop45
280
     0
102
RTVSPost2010PropOp45
 70
     1
102
RTVSPost2010Prop46
 90
       50
102
RTVSPost2010PropOp46
 70
     1
102
RTVSPost2010Prop47
 90
       50
102
RTVSPost2010PropOp47
 70
     1
102
RTVSPost2010Prop48
 90
       50
102
RTVSPost2010PropOp48
 70
     1
102
RTVSPost2010Prop49
280
     0
102
RTVSPost2010PropOp49
 70
     1
102
RTVSPost2010Prop50
 90
       50
102
RTVSPost2010PropOp50
 70
     1
102
RTVSPost2010Prop51ColorIndex
 90
      256
102
RTVSPost2010Prop51ColorRGB
 90
-16777216
102
RTVSPost2010PropOp51
 70
     0
102
RTVSPost2010Prop52
140
1.0
102
RTVSPost2010PropOp52
 70
     0
102
RTVSPost2010Prop53
 90
        2
102
RTVSPost2010PropOp53
 70
     1
102
RTVSPost2010Prop54
  1
strokes_ogs.tif
102
RTVSPost2010PropOp54
 70
     1
102
RTVSPost2010Prop55
280
     0
102
RTVSPost2010PropOp55
 70
     1
102
RTVSPost2010Prop56
140
1.0
102
RTVSPost2010PropOp56
 70
     1
102
RTVSPost2010Prop57
140
1.0
102
RTVSPost2010PropOp57
 70
     1
  0
XRECORD
  5
401
102
{ACAD_REACTORS
330
400
102
}
330
400
100
AcDbXrecord
280
     1
102
RTVSPropertyOp0
 70
     1
102
RTVSPropertyOp1
 70
     1
102
RTVSPropertyOp2
 70
     1
102
RTVSPropertyOp3
 70
     1
102
RTVSPropertyOp4
 70
     1
102
RTVSPropertyOp5
 70
     1
102
RTVSPropertyOp6
 70
     1
102
RTVSPropertyOp7
 70
     1
102
RTVSPropertyOp8
 70
     1
102
RTVSPropertyOp9
 70
     1
102
RTVSPropertyOp10
 70
     1
102
RTVSPropertyOp11
 70
     1
102
RTVSPropertyOp12
 70
     1
102
RTVSPropertyOp13
 70
     1
102
RTVSPropertyOp14
 70
     1
102
RTVSPropertyOp15
 70
     1
102
RTVSPropertyOp16
 70
     1
102
RTVSPropertyOp17
 70
     1
102
RTVSPropertyOp18
 70
     1
102
RTVSPropertyOp19
 70
     1
102
RTVSPropertyOp20
 70
     1
102
RTVSPropertyOp21
 70
     1
102
RTVSPropertyOp22
 70
     1
102
RTVSPropertyOp23
 70
     1
102
RTVSPropertyOp24
 70
     1
102
RTVSPropertyOp25
 70
     1
102
RTVSPropertyOp26
 70
     1
102
RTVSPropertyOp27
 70
     1
102
RTVSPropertyOp28
 70
     1
102
RTVSPropertyOp29
 70
     1
102
RTVSPropertyOp30
 70
     1
102
RTVSPropertyOp31
 70
     1
102
RTVSPropertyOp32
 70
     1
102
RTVSPropertyOp33
 70
     1
102
RTVSPropertyOp34
 70
     1
102
RTVSPropertyOp35
 70
     1
102
RTVSPropertyOp36
 70
     1
102
RTVSPropertyOp37
 70
     1
102
RTVSPropertyOp38
 70
     1
102
RTVSPropertyOp39
 70
     1
102
RTVSPropertyOp40
 70
     1
102
RTVSPropertyOp41
 70
     1
102
RTVSPropertyOp42
 70
     1
102
RTVSPropertyOp43
 70
     1
102
RTVSPropertyOp44
 70
     1
102
RTVSPropertyOp45
 70
     1
102
RTVSPropertyOp46
 70
     1
102
RTVSPropertyOp47
 70
     1
102
RTVSPropertyOp48
 70
     1
102
RTVSPropertyOp49
 70
     1
102
RTVSPropertyOp50
 70
     1
102
RTVSPropertyOp51
 70
     0
102
RTVSPropertyOp52
 70
     0
102
RTVSPropertyOp53
 70
     1
102
RTVSPropertyOp54
 70
     1
102
RTVSPropertyOp55
 70
     1
102
RTVSPropertyOp56
 70
     1
102
RTVSPropertyOp57
 70
     1
102
RTVSPost2010Prop28
280
     0
102
RTVSPost2010PropOp28
 70
     1
102
RTVSPost2010Prop29
280
     1
102
RTVSPost2010PropOp29
 70
     1
102
RTVSPost2010Prop30
280
     1
102
RTVSPost2010PropOp30
 70
     1
102
RTVSPost2010Prop31
280
     0
102
RTVSPost2010PropOp31
 70
     1
102
RTVSPost2010Prop32
280
     0
102
RTVSPost2010PropOp32
 70
     1
102
RTVSPost2010Prop33
280
     0
102
RTVSPost2010PropOp33
 70
     1
102
RTVSPost2010Prop34
280
     0
102
RTVSPost2010PropOp34
 70
     1
102
RTVSPost2010Prop35
280
     0
102
RTVSPost2010PropOp35
 70
     1
102
RTVSPost2010Prop36
280
     0
102
RTVSPost2010PropOp36
 70
     1
102
RTVSPost2010Prop37
 90
       50
102
RTVSPost2010PropOp37
 70
     1
102
RTVSPost2010Prop38
140
0.0
102
RTVSPost2010PropOp38
 70
     1
102
RTVSPost2010Prop39
140
1.0
102
RTVSPost2010PropOp39
 70
     1
102
RTVSPost2010Prop40
 90
        0
102
RTVSPost2010PropOp40
 70
     1
102
RTVSPost2010Prop41ColorIndex
 90
       18
102
RTVSPost2010Prop41ColorRGB
 90
        0
102
RTVSPost2010PropOp41
 70
     1
102
RTVSPost2010Prop42
 90
       50
102
RTVSPost2010PropOp42
 70
     1
102
RTVSPost2010Prop43
 90
        3
102
RTVSPost2010PropOp43
 70
     1
102
RTVSPost2010Prop44ColorIndex
 90
        5
102
RTVSPost2010Prop44ColorRGB
 90
      255
102
RTVSPost2010PropOp44
 70
     1
102
RTVSPost2010Prop45
280
     0
102
RTVSPost2010PropOp45
 70
     1
102
RTVSPost2010Prop46
 90
       50
102
RTVSPost2010PropOp46
 70
     1
102
RTVSPost2010Prop47
 90
       50
102
RTVSPost2010PropOp47
 70
     1
102
RTVSPost2010Prop48
 90
       50
102
RTVSPost2010PropOp48
 70
     1
102
RTVSPost2010Prop49
280
     0
102
RTVSPost2010PropOp49
 70
     1
102
RTVSPost2010Prop50
 90
       50
102
RTVSPost2010PropOp50
 70
     1
102
RTVSPost2010Prop51ColorIndex
 90
      256
102
RTVSPost2010Prop51ColorRGB
 90
-16777216
102
RTVSPost2010PropOp51
 70
     0
102
RTVSPost2010Prop52
140
1.0
102
RTVSPost2010PropOp52
 70
     0
102
RTVSPost2010Prop53
 90
        2
102
RTVSPost2010PropOp53
 70
     1
102
RTVSPost2010Prop54
  1
strokes_ogs.tif
102
RTVSPost2010PropOp54
 70
     1
102
RTVSPost2010Prop55
280
     0
102
RTVSPost2010PropOp55
 70
     1
102
RTVSPost2010Prop56
140
1.0
102
RTVSPost2010PropOp56
 70
     1
102
RTVSPost2010Prop57
140
1.0
102
RTVSPost2010PropOp57
 70
     1
  0
XRECORD
  5
3F1
102
{ACAD_REACTORS
330
3F0
102
}
330
3F0
100
AcDbXrecord
280
     1
102
RTVSPropertyOp0
 70
     1
102
RTVSPropertyOp1
 70
     1
102
RTVSPropertyOp2
 70
     1
102
RTVSPropertyOp3
 70
     1
102
RTVSPropertyOp4
 70
     1
102
RTVSPropertyOp5
 70
     1
102
RTVSPropertyOp6
 70
     1
102
RTVSPropertyOp7
 70
     1
102
RTVSPropertyOp8
 70
     1
102
RTVSPropertyOp9
 70
     1
102
RTVSPropertyOp10
 70
     1
102
RTVSPropertyOp11
 70
     1
102
RTVSPropertyOp12
 70
     1
102
RTVSPropertyOp13
 70
     1
102
RTVSPropertyOp14
 70
     1
102
RTVSPropertyOp15
 70
     1
102
RTVSPropertyOp16
 70
     1
102
RTVSPropertyOp17
 70
     1
102
RTVSPropertyOp18
 70
     1
102
RTVSPropertyOp19
 70
     1
102
RTVSPropertyOp20
 70
     1
102
RTVSPropertyOp21
 70
     1
102
RTVSPropertyOp22
 70
     1
102
RTVSPropertyOp23
 70
     1
102
RTVSPropertyOp24
 70
     1
102
RTVSPropertyOp25
 70
     1
102
RTVSPropertyOp26
 70
     1
102
RTVSPropertyOp27
 70
     1
102
RTVSPropertyOp28
 70
     1
102
RTVSPropertyOp29
 70
     1
102
RTVSPropertyOp30
 70
     1
102
RTVSPropertyOp31
 70
     1
102
RTVSPropertyOp32
 70
     1
102
RTVSPropertyOp33
 70
     1
102
RTVSPropertyOp34
 70
     1
102
RTVSPropertyOp35
 70
     1
102
RTVSPropertyOp36
 70
     1
102
RTVSPropertyOp37
 70
     1
102
RTVSPropertyOp38
 70
     1
102
RTVSPropertyOp39
 70
     1
102
RTVSPropertyOp40
 70
     1
102
RTVSPropertyOp41
 70
     1
102
RTVSPropertyOp42
 70
     1
102
RTVSPropertyOp43
 70
     1
102
RTVSPropertyOp44
 70
     1
102
RTVSPropertyOp45
 70
     1
102
RTVSPropertyOp46
 70
     1
102
RTVSPropertyOp47
 70
     1
102
RTVSPropertyOp48
 70
     1
102
RTVSPropertyOp49
 70
     1
102
RTVSPropertyOp50
 70
     1
102
RTVSPropertyOp51
 70
     0
102
RTVSPropertyOp52
 70
     0
102
RTVSPropertyOp53
 70
     1
102
RTVSPropertyOp54
 70
     1
102
RTVSPropertyOp55
 70
     1
102
RTVSPropertyOp56
 70
     1
102
RTVSPropertyOp57
 70
     1
102
RTVSPost2010Prop28
280
     0
102
RTVSPost2010PropOp28
 70
     1
102
RTVSPost2010Prop29
280
     1
102
RTVSPost2010PropOp29
 70
     1
102
RTVSPost2010Prop30
280
     1
102
RTVSPost2010PropOp30
 70
     1
102
RTVSPost2010Prop31
280
     0
102
RTVSPost2010PropOp31
 70
     1
102
RTVSPost2010Prop32
280
     0
102
RTVSPost2010PropOp32
 70
     1
102
RTVSPost2010Prop33
280
     0
102
RTVSPost2010PropOp33
 70
     1
102
RTVSPost2010Prop34
280
     0
102
RTVSPost2010PropOp34
 70
     1
102
RTVSPost2010Prop35
280
     0
102
RTVSPost2010PropOp35
 70
     1
102
RTVSPost2010Prop36
280
     0
102
RTVSPost2010PropOp36
 70
     1
102
RTVSPost2010Prop37
 90
       50
102
RTVSPost2010PropOp37
 70
     1
102
RTVSPost2010Prop38
140
0.0
102
RTVSPost2010PropOp38
 70
     1
102
RTVSPost2010Prop39
140
1.0
102
RTVSPost2010PropOp39
 70
     1
102
RTVSPost2010Prop40
 90
        0
102
RTVSPost2010PropOp40
 70
     1
102
RTVSPost2010Prop41ColorIndex
 90
       18
102
RTVSPost2010Prop41ColorRGB
 90
        0
102
RTVSPost2010PropOp41
 70
     1
102
RTVSPost2010Prop42
 90
       50
102
RTVSPost2010PropOp42
 70
     1
102
RTVSPost2010Prop43
 90
        3
102
RTVSPost2010PropOp43
 70
     1
102
RTVSPost2010Prop44ColorIndex
 90
        5
102
RTVSPost2010Prop44ColorRGB
 90
      255
102
RTVSPost2010PropOp44
 70
     1
102
RTVSPost2010Prop45
280
     0
102
RTVSPost2010PropOp45
 70
     1
102
RTVSPost2010Prop46
 90
       50
102
RTVSPost2010PropOp46
 70
     1
102
RTVSPost2010Prop47
 90
       50
102
RTVSPost2010PropOp47
 70
     1
102
RTVSPost2010Prop48
 90
       50
102
RTVSPost2010PropOp48
 70
     1
102
RTVSPost2010Prop49
280
     0
102
RTVSPost2010PropOp49
 70
     1
102
RTVSPost2010Prop50
 90
       50
102
RTVSPost2010PropOp50
 70
     1
102
RTVSPost2010Prop51ColorIndex
 90
      256
102
RTVSPost2010Prop51ColorRGB
 90
-16777216
102
RTVSPost2010PropOp51
 70
     0
102
RTVSPost2010Prop52
140
1.0
102
RTVSPost2010PropOp52
 70
     0
102
RTVSPost2010Prop53
 90
        2
102
RTVSPost2010PropOp53
 70
     1
102
RTVSPost2010Prop54
  1
strokes_ogs.tif
102
RTVSPost2010PropOp54
 70
     1
102
RTVSPost2010Prop55
280
     0
102
RTVSPost2010PropOp55
 70
     1
102
RTVSPost2010Prop56
140
1.0
102
RTVSPost2010PropOp56
 70
     1
102
RTVSPost2010Prop57
140
1.0
102
RTVSPost2010PropOp57
 70
     1
  0
XRECORD
  5
3E3
102
{ACAD_REACTORS
330
3E2
102
}
330
3E2
100
AcDbXrecord
280
     1
102
RTVSPropertyOp0
 70
     1
102
RTVSPropertyOp1
 70
     1
102
RTVSPropertyOp2
 70
     1
102
RTVSPropertyOp3
 70
     1
102
RTVSPropertyOp4
 70
     1
102
RTVSPropertyOp5
 70
     1
102
RTVSPropertyOp6
 70
     1
102
RTVSPropertyOp7
 70
     1
102
RTVSPropertyOp8
 70
     1
102
RTVSPropertyOp9
 70
     1
102
RTVSPropertyOp10
 70
     1
102
RTVSPropertyOp11
 70
     1
102
RTVSPropertyOp12
 70
     1
102
RTVSPropertyOp13
 70
     1
102
RTVSPropertyOp14
 70
     1
102
RTVSPropertyOp15
 70
     1
102
RTVSPropertyOp16
 70
     1
102
RTVSPropertyOp17
 70
     1
102
RTVSPropertyOp18
 70
     1
102
RTVSPropertyOp19
 70
     1
102
RTVSPropertyOp20
 70
     1
102
RTVSPropertyOp21
 70
     1
102
RTVSPropertyOp22
 70
     1
102
RTVSPropertyOp23
 70
     1
102
RTVSPropertyOp24
 70
     1
102
RTVSPropertyOp25
 70
     1
102
RTVSPropertyOp26
 70
     1
102
RTVSPropertyOp27
 70
     1
102
RTVSPropertyOp28
 70
     1
102
RTVSPropertyOp29
 70
     1
102
RTVSPropertyOp30
 70
     1
102
RTVSPropertyOp31
 70
     1
102
RTVSPropertyOp32
 70
     1
102
RTVSPropertyOp33
 70
     1
102
RTVSPropertyOp34
 70
     1
102
RTVSPropertyOp35
 70
     1
102
RTVSPropertyOp36
 70
     1
102
RTVSPropertyOp37
 70
     1
102
RTVSPropertyOp38
 70
     1
102
RTVSPropertyOp39
 70
     1
102
RTVSPropertyOp40
 70
     1
102
RTVSPropertyOp41
 70
     1
102
RTVSPropertyOp42
 70
     1
102
RTVSPropertyOp43
 70
     1
102
RTVSPropertyOp44
 70
     1
102
RTVSPropertyOp45
 70
     1
102
RTVSPropertyOp46
 70
     1
102
RTVSPropertyOp47
 70
     1
102
RTVSPropertyOp48
 70
     1
102
RTVSPropertyOp49
 70
     1
102
RTVSPropertyOp50
 70
     1
102
RTVSPropertyOp51
 70
     0
102
RTVSPropertyOp52
 70
     0
102
RTVSPropertyOp53
 70
     1
102
RTVSPropertyOp54
 70
     1
102
RTVSPropertyOp55
 70
     1
102
RTVSPropertyOp56
 70
     1
102
RTVSPropertyOp57
 70
     1
102
RTVSPost2010Prop28
280
     0
102
RTVSPost2010PropOp28
 70
     1
102
RTVSPost2010Prop29
280
     1
102
RTVSPost2010PropOp29
 70
     1
102
RTVSPost2010Prop30
280
     1
102
RTVSPost2010PropOp30
 70
     1
102
RTVSPost2010Prop31
280
     0
102
RTVSPost2010PropOp31
 70
     1
102
RTVSPost2010Prop32
280
     0
102
RTVSPost2010PropOp32
 70
     1
102
RTVSPost2010Prop33
280
     0
102
RTVSPost2010PropOp33
 70
     1
102
RTVSPost2010Prop34
280
     0
102
RTVSPost2010PropOp34
 70
     1
102
RTVSPost2010Prop35
280
     0
102
RTVSPost2010PropOp35
 70
     1
102
RTVSPost2010Prop36
280
     0
102
RTVSPost2010PropOp36
 70
     1
102
RTVSPost2010Prop37
 90
       50
102
RTVSPost2010PropOp37
 70
     1
102
RTVSPost2010Prop38
140
0.0
102
RTVSPost2010PropOp38
 70
     1
102
RTVSPost2010Prop39
140
1.0
102
RTVSPost2010PropOp39
 70
     1
102
RTVSPost2010Prop40
 90
        0
102
RTVSPost2010PropOp40
 70
     1
102
RTVSPost2010Prop41ColorIndex
 90
       18
102
RTVSPost2010Prop41ColorRGB
 90
        0
102
RTVSPost2010PropOp41
 70
     1
102
RTVSPost2010Prop42
 90
       50
102
RTVSPost2010PropOp42
 70
     1
102
RTVSPost2010Prop43
 90
        3
102
RTVSPost2010PropOp43
 70
     1
102
RTVSPost2010Prop44ColorIndex
 90
        5
102
RTVSPost2010Prop44ColorRGB
 90
      255
102
RTVSPost2010PropOp44
 70
     1
102
RTVSPost2010Prop45
280
     0
102
RTVSPost2010PropOp45
 70
     1
102
RTVSPost2010Prop46
 90
       50
102
RTVSPost2010PropOp46
 70
     1
102
RTVSPost2010Prop47
 90
       50
102
RTVSPost2010PropOp47
 70
     1
102
RTVSPost2010Prop48
 90
       50
102
RTVSPost2010PropOp48
 70
     1
102
RTVSPost2010Prop49
280
     0
102
RTVSPost2010PropOp49
 70
     1
102
RTVSPost2010Prop50
 90
       50
102
RTVSPost2010PropOp50
 70
     1
102
RTVSPost2010Prop51ColorIndex
 90
      256
102
RTVSPost2010Prop51ColorRGB
 90
-16777216
102
RTVSPost2010PropOp51
 70
     0
102
RTVSPost2010Prop52
140
1.0
102
RTVSPost2010PropOp52
 70
     0
102
RTVSPost2010Prop53
 90
        2
102
RTVSPost2010PropOp53
 70
     1
102
RTVSPost2010Prop54
  1
strokes_ogs.tif
102
RTVSPost2010PropOp54
 70
     1
102
RTVSPost2010Prop55
280
     0
102
RTVSPost2010PropOp55
 70
     1
102
RTVSPost2010Prop56
140
1.0
102
RTVSPost2010PropOp56
 70
     1
102
RTVSPost2010Prop57
140
1.0
102
RTVSPost2010PropOp57
 70
     1
  0
XRECORD
  5
403
102
{ACAD_REACTORS
330
402
102
}
330
402
100
AcDbXrecord
280
     1
102
RTVSPropertyOp0
 70
     1
102
RTVSPropertyOp1
 70
     1
102
RTVSPropertyOp2
 70
     1
102
RTVSPropertyOp3
 70
     1
102
RTVSPropertyOp4
 70
     1
102
RTVSPropertyOp5
 70
     1
102
RTVSPropertyOp6
 70
     1
102
RTVSPropertyOp7
 70
     1
102
RTVSPropertyOp8
 70
     1
102
RTVSPropertyOp9
 70
     1
102
RTVSPropertyOp10
 70
     1
102
RTVSPropertyOp11
 70
     1
102
RTVSPropertyOp12
 70
     1
102
RTVSPropertyOp13
 70
     1
102
RTVSPropertyOp14
 70
     1
102
RTVSPropertyOp15
 70
     1
102
RTVSPropertyOp16
 70
     1
102
RTVSPropertyOp17
 70
     1
102
RTVSPropertyOp18
 70
     1
102
RTVSPropertyOp19
 70
     1
102
RTVSPropertyOp20
 70
     1
102
RTVSPropertyOp21
 70
     1
102
RTVSPropertyOp22
 70
     1
102
RTVSPropertyOp23
 70
     1
102
RTVSPropertyOp24
 70
     1
102
RTVSPropertyOp25
 70
     1
102
RTVSPropertyOp26
 70
     1
102
RTVSPropertyOp27
 70
     1
102
RTVSPropertyOp28
 70
     1
102
RTVSPropertyOp29
 70
     1
102
RTVSPropertyOp30
 70
     1
102
RTVSPropertyOp31
 70
     1
102
RTVSPropertyOp32
 70
     1
102
RTVSPropertyOp33
 70
     1
102
RTVSPropertyOp34
 70
     1
102
RTVSPropertyOp35
 70
     1
102
RTVSPropertyOp36
 70
     1
102
RTVSPropertyOp37
 70
     1
102
RTVSPropertyOp38
 70
     1
102
RTVSPropertyOp39
 70
     1
102
RTVSPropertyOp40
 70
     1
102
RTVSPropertyOp41
 70
     1
102
RTVSPropertyOp42
 70
     1
102
RTVSPropertyOp43
 70
     1
102
RTVSPropertyOp44
 70
     1
102
RTVSPropertyOp45
 70
     1
102
RTVSPropertyOp46
 70
     1
102
RTVSPropertyOp47
 70
     1
102
RTVSPropertyOp48
 70
     1
102
RTVSPropertyOp49
 70
     1
102
RTVSPropertyOp50
 70
     1
102
RTVSPropertyOp51
 70
     0
102
RTVSPropertyOp52
 70
     0
102
RTVSPropertyOp53
 70
     1
102
RTVSPropertyOp54
 70
     1
102
RTVSPropertyOp55
 70
     1
102
RTVSPropertyOp56
 70
     1
102
RTVSPropertyOp57
 70
     1
102
RTVSPost2010Prop28
280
     0
102
RTVSPost2010PropOp28
 70
     1
102
RTVSPost2010Prop29
280
     1
102
RTVSPost2010PropOp29
 70
     1
102
RTVSPost2010Prop30
280
     1
102
RTVSPost2010PropOp30
 70
     1
102
RTVSPost2010Prop31
280
     0
102
RTVSPost2010PropOp31
 70
     1
102
RTVSPost2010Prop32
280
     0
102
RTVSPost2010PropOp32
 70
     1
102
RTVSPost2010Prop33
280
     0
102
RTVSPost2010PropOp33
 70
     1
102
RTVSPost2010Prop34
280
     0
102
RTVSPost2010PropOp34
 70
     1
102
RTVSPost2010Prop35
280
     0
102
RTVSPost2010PropOp35
 70
     1
102
RTVSPost2010Prop36
280
     0
102
RTVSPost2010PropOp36
 70
     1
102
RTVSPost2010Prop37
 90
       50
102
RTVSPost2010PropOp37
 70
     1
102
RTVSPost2010Prop38
140
0.0
102
RTVSPost2010PropOp38
 70
     1
102
RTVSPost2010Prop39
140
1.0
102
RTVSPost2010PropOp39
 70
     1
102
RTVSPost2010Prop40
 90
        0
102
RTVSPost2010PropOp40
 70
     1
102
RTVSPost2010Prop41ColorIndex
 90
       18
102
RTVSPost2010Prop41ColorRGB
 90
        0
102
RTVSPost2010PropOp41
 70
     1
102
RTVSPost2010Prop42
 90
       50
102
RTVSPost2010PropOp42
 70
     1
102
RTVSPost2010Prop43
 90
        3
102
RTVSPost2010PropOp43
 70
     1
102
RTVSPost2010Prop44ColorIndex
 90
        5
102
RTVSPost2010Prop44ColorRGB
 90
      255
102
RTVSPost2010PropOp44
 70
     1
102
RTVSPost2010Prop45
280
     0
102
RTVSPost2010PropOp45
 70
     1
102
RTVSPost2010Prop46
 90
       50
102
RTVSPost2010PropOp46
 70
     1
102
RTVSPost2010Prop47
 90
       50
102
RTVSPost2010PropOp47
 70
     1
102
RTVSPost2010Prop48
 90
       50
102
RTVSPost2010PropOp48
 70
     1
102
RTVSPost2010Prop49
280
     0
102
RTVSPost2010PropOp49
 70
     1
102
RTVSPost2010Prop50
 90
       50
102
RTVSPost2010PropOp50
 70
     1
102
RTVSPost2010Prop51ColorIndex
 90
      256
102
RTVSPost2010Prop51ColorRGB
 90
-16777216
102
RTVSPost2010PropOp51
 70
     0
102
RTVSPost2010Prop52
140
1.0
102
RTVSPost2010PropOp52
 70
     0
102
RTVSPost2010Prop53
 90
        2
102
RTVSPost2010PropOp53
 70
     1
102
RTVSPost2010Prop54
  1
strokes_ogs.tif
102
RTVSPost2010PropOp54
 70
     1
102
RTVSPost2010Prop55
280
     0
102
RTVSPost2010PropOp55
 70
     1
102
RTVSPost2010Prop56
140
1.0
102
RTVSPost2010PropOp56
 70
     1
102
RTVSPost2010Prop57
140
1.0
102
RTVSPost2010PropOp57
 70
     1
  0
ENDSEC
  0
SECTION
  2
THUMBNAILIMAGE
 90
    16364
310
28000000B40000005500000001000800000000000000000000000000000000000000000000000000FFFFFF00FF000000FFFF000000FF000000FFFF000000FF00FF00FF000000000080808000C0C0C000FF000000FF7F7F00A5000000A55252007F0000007F3F3F004C0000004C2626002600000026131300FF3F0000FF9F7F
310
00A5290000A56752007F1F00007F4F3F004C1300004C2F26002609000026171300FF7F0000FFBF7F00A5520000A57C52007F3F00007F5F3F004C2600004C39260026130000261C1300FFBF0000FFDF7F00A57C0000A59152007F5F00007F6F3F004C3900004C422600261C000026211300FFFF0000FFFF7F00A5A50000A5A5
310
52007F7F00007F7F3F004C4C00004C4C26002626000026261300BFFF0000DFFF7F007CA5000091A552005F7F00006F7F3F00394C0000424C26001C260000212613007FFF0000BFFF7F0052A500007CA552003F7F00005F7F3F00264C0000394C2600132600001C2613003FFF00009FFF7F0029A5000067A552001F7F00004F
310
7F3F00134C00002F4C2600092600001726130000FF00007FFF7F0000A5000052A55200007F00003F7F3F00004C0000264C2600002600001326130000FF3F007FFF9F0000A5290052A56700007F1F003F7F4F00004C1300264C2F00002609001326170000FF7F007FFFBF0000A5520052A57C00007F3F003F7F5F00004C2600
310
264C39000026130013261C0000FFBF007FFFDF0000A57C0052A59100007F5F003F7F6F00004C3900264C420000261C001326210000FFFF007FFFFF0000A5A50052A5A500007F7F003F7F7F00004C4C00264C4C00002626001326260000BFFF007FDFFF00007CA5005291A500005F7F003F6F7F0000394C0026424C00001C26
310
0013212600007FFF007FBFFF000052A500527CA500003F7F003F5F7F0000264C0026394C0000132600131C2600003FFF007F9FFF000029A5005267A500001F7F003F4F7F0000134C00262F4C0000092600131726000000FF007F7FFF000000A5005252A50000007F003F3F7F0000004C0026264C0000002600131326003F00
310
FF009F7FFF002900A5006752A5001F007F004F3F7F0013004C002F264C0009002600171326007F00FF00BF7FFF005200A5007C52A5003F007F005F3F7F0026004C0039264C00130026001C132600BF00FF00DF7FFF007C00A5009152A5005F007F006F3F7F0039004C0042264C001C00260021132600FF00FF00FF7FFF00A5
310
00A500A552A5007F007F007F3F7F004C004C004C264C002600260026132600FF00BF00FF7FDF00A5007C00A55291007F005F007F3F6F004C0039004C26420026001C0026132100FF007F00FF7FBF00A5005200A5527C007F003F007F3F5F004C0026004C2639002600130026131C00FF003F00FF7F9F00A5002900A5526700
310
7F001F007F3F4F004C0013004C262F002600090026131700000000002D2D2D005B5B5B0089898900B7B7B700B3B3B30000000000000000000000000000000000000000000000000000000000000000000000000000000000000000000000000000000000000000000000000000000000000000000000000000000000000000
310
00000000000000000000000000000000000000000000000000000000000000000000000000000000000000000000000000000000000000000000000000000000000000000000000000000000000000000000000000000000000000000000000000000000000000000000000000000000000000000000000000000000000000
310
00000000000000000000000000000000000000000000000000000000000000000000000000000000000000000000000000000000000000000000000000000000000000000000000000000000000000000000000000000000000000000000000000000000000000000000000000000000000000000000000000000000000000
310
00000000000000000000000000000000000000000000000000000000000000000000000000000000000000000000000000000000000000000000000000000000000000000000000000000000000000000000000000000000000000000000000000980000000000000000000000000000000000000000000000000000000000
310
00000000000000000000000000009800009800000000000000000000000000000000000000000000000000000000000000000000000000000000000000000000000000000000000000000000000000000000000000000000000000000000000000000000000000000000000000000000000000000000000000000000000000
310
00000000000000000000000000000000000000000000009898989898989898989898989898989898989898989898989898989898989898989898989898989898989898989898989898989898989898989800000000000000000000000000000000000000000000000000000000000000000000000000000000000000000000
310
00000000000000000000000000000000000000000000000000000000000000000000000000000000000000000000000000000000000000000000000000000000000000000000000000000000980000000000000000000000000000000000009898989898989898980000000000000000000000000000000098000098000098
310
98989898000000000000000000000000000000000000000000000000000000000000000000000000000000000000000000000000000000000000000000000000000000000000000000000000000000000000000000000000000000000000000000000000000000000000000000000000000000000000000000000000000000
310
00009800000000000000000000000000000000000098989898989898989800000000000000000000000000000000980000980000989898009898000000000000000000000000000000000000000000000000000000000000000000000000000000000000000000000000000000000000000000000000000000000000000000
310
00000000000000000000000000000000000000000000000000000000000000000000000000000000000000000000000000000000000000980000000000000000000000000000000000009898989898989898980000000000000000000000000000000098000098000098989898989800000000000000000000000000000000
310
00000000000000000000000000000000000000000000000000000000000000000000000000000000000000000000000000000000000000000000000000000000000000000000000000000000000000000000000000000000000000000000000000000000000000000000000098000000000000000000000000000000000000
310
98989898989898989800000000000000000000000000000000980000980000989898989898000000000000000000000000000000000000000000000000000000000000000000000000000000000000000000000000000000000000000000000000000000000000000000000000000000000000000000000000000000000000
310
00000000000000000000000000000000000000000000000000000000000000000000980000000000000000000000000000000000000098000098009898000000000000000000000000000000000098000098000000000000000000000000000000000000000000000000000000000000000000000000000000000000000000
310
00000000000000000000000000000000000000000000000000000000000000000000000000000000000000000000000000000000000000000000000000000000000000000000000000000000000000000000000000000098000000000000000098000000000000000000000000000000000000000000000000000098000000
310
00000000980000980000000000000000000000000000000000000000000000000000000000000000000000000000000000000000000000000000000000000000000000000000000000000000000000000000000000000000000000000000000000000000000000000000000000000000000000000000000000000000000000
310
00000098989898989898989898989898989898989898989898989898989898989898989898989898989898989898989898980000000000000098000098000000000000000000000000000000000000000000000000000000000000000000000000000000000000000000000000000000000000000000000000000000000000
310
00000000000000000000000000000000000000000000000000000000000000000000000000000000000000000000000000000000000000000000009800989898989898000000000000000098000000000000000000989898989898989898000000000000000098000000000000009800009800000000000000000000000000
310
00000000000000000000000000000000000000000000000000000000000000000000000000000000000000000000000000000000000000000000000000000000000000000000000000000000000000000000000000000000000000000000000000000000000000000000000000000000980098989898989800000000000000
310
00980000000000000000009898989898989898980000000000000000980000000000000098000098000000000000000000000000000000000000000000000000000000000000000000000000000000000000000000000000000000000000000000000000000000000000000000000000000000000000000000000000000000
310
00000000000000000000000000000000000000000000000000000000000000000000000000009800989898989898000000000000000098000000000000000000989898989898989898000000000000000098000000000000009800009800000000000000000000000000000000000000000000000000000000000000000000
310
00000000000000000000000000000000000000000000000000000000000000000000000000000000000000000000000000000000000000000000000000000000000000000000000000000000000000000000000000000000000098980098989898989800000000000000009800000000000000000098989898989898980000
310
00000000000000980000000000000098000098000000000000000000000000000000000000000000000000000000000000000000000000000000000000000000000000000000000000000000000000000000000000000000000000000000000000000000000000000000000000000000000000000000000000000000000000
310
00000000000000000000000000000000009800989898989898000000000000000098000000000000000000000000000000000000000000000000000098000000000000009800009800000000000002000000000000000000000000000000000000000000000000000000000000000000000000000000000000000000000000
310
00000000000000000000000000000000000000000000000000000000000000000000000000000000000000000000000000000000000000020000000000000000000000000000000000000000009800000000000000009800000000000000000000000098000000000000000000000000009800000000000000980000980002
310
02020202020202020202020202020000000000000000000000000000000000000000000000000000000000000000000000000000000000000000000000000000000000000000000000000000000000000000000000000000000000000202020202020202020202020202020202020202020202020202020202020202020200
310
00000098989898989898989898989898989898989898989898989800000000000000000000000098000000000000009800000202000202020202020202020202020000000000000000000000000000000000000000000000000000000000000000000000000000000000000000000000000000000000000000000000000000
310
00000000000000000000000000000000000000020202020200020000020202000002020202000202020202020200020202020002020000009898000000000000009800989898989898989898000098000000000000000000000000009800000000000000980202980000020202000202020202020202000000000000000000
310
00000000000000000000000000000000000000000000000000000000000000000000000000000000000000000000000000000000000000000000000000000000000000000000000000020202020202000002020202020202020200020202000200020200000202000200020000980000000000000000980098989898989898
310
98980000980000000000000000000000000098000000000000020200009800000202020000020000020002020000000000000000000000000000000000000000000000000000000000000000000000000000000000000000000000000000000000000000000000000000000000000000000000000000000000000000000002
310
02000200020000020200000000020202000202020202020202020002020202000002009800000000000000009800989898989898989898000098000000000000000000000000009800000000020200980000980000000000000000000000000000000000000000000000000000000000000000000000000000000000000000
310
00000000000000000000000000000000000000000000000000000000000000000000000000000000000000000000000000000000000200020002000002020000000000020200020202020200020002000202000200000002980000000000000000980000989898989898989800009800000000000000000000000000980000
310
00020000009800009800000000000000000000000000000000000000000000000000000000000000000000000000000000000000000000000000000000000000000000000000000000000000000000000000000000000000000000000000000000000000000000000000000000000000000000000000000000000000000000
310
00000000000000000000000000000200000000000000009800000000000000000000000098000000000000000000000000009800020200000000980000980000000000000000000000000000020000000000000000000000000000000000000000000000000000000000000000000000000000000000000000000000000000
310
00000000000000000000000000000000000000000000000000000000000000000000000000000000000000000000000000000000000000000000000000000098000000980200000000000000980000000000000000000000009800000000000000000000000000020200000000000098000098000000000000020202020202
310
02020202020202020202020202020202000000000000000000000000000000000000000000000000000000000000000000000000000000000000000000000000000000000000000000000000000000000000000000000000000000000000000000000000000000000000000000000000000000009800000098000202000000
310
00009800000000000000000000000098000000000000000000000002029800000000000000980000980000000000020002020202020202020202000202020200000200000000000000000000000000000000000000000000000000000000000000000000000000000000000000000000000000000000000000000000000000
310
00000000000000000000000000000000000000000000000000000000000000000000000000989898989898000000980000000200000000980000000000000000000000009800000000000000000002020000980000000000000098000098000000000002000202020202020002020200020202020200020000000000000000
310
00000000000000000000000000000000000000000000000000000000000000000000000000000000000000000000000000000000000000000000000000000000000000000000000000000000000000000000000000000000000098989898989800000098000000000200000098000000000000000000000000980000000000
310
00000002000000009800000000000000980000980000000002000002020202020200000200000202020202020202000000000000000000000000000000000000000000000000000000000000000000000000000000000000000000000000000000000000000000000000000000000000000000000000000000000000000000
310
00000000000000000000000000000000989898989898000000980000000000020000980000000000000000000000009800000000000002020000000000980000000000000098000098000000020000000000000000000000020000000000000000000000000000000000000000000000000000000000000000000000000000
310
00000000000000000000000000000000000000000000000000000000000000000000000000000000000000000000000000000000000000000000000000000000000000000098980098989800000098000000000000020098000000000000000000000000050500000002020000000000000098000000000000009800009800
310
00000200000000000000000000000000000000000000000000000000000000000000000000000000000000000000000000000000000000000000000000000000000000000000000000000000000000000000000000000000000000000000000000000000000000000000000000000000000000000000000000009898989898
310
98000000980000000000000202980000000000000000000000050000050202000000000000000000980000000000000098000098000002000000000000000000000000000000000000000000000000000000000000000000000000000000000000000000000000000000000000000000000000000000000000000000000000
310
00000000000000000000000000000000000000000000000000000000000000000000000000000000009898989898989898989898989898989898989898989898030202030000000000000000000500050205000000000000000000000306039898989898989898989898029898989898989898989898989800000000000000
310
00000000000000000000000000000000000000000000000000000000000000000000000000000000000000000000000000000000000000000000000000000000000000000000000000000000000000000000000000000000000000000000009800000000000000000098989898989898030303030303030603030303030303
310
03030303050202050303030303030303030303060303030303030398000098980298989800009800000000009800000000000000000000000000000000000000000000000000000000000000000000000000000000000000000000000000000000000000000000000000000000000000000000000000000000000000000000
310
00000000000000000000000000000000000000000098000000000000000000009800000003030303030303030303030303030303030303030305050505030303030303030303030303030303030303030303009802989898980000989800000000980000000000000000000000000000000000000000000000000000000000
310
00000000000000000000000000000000000000000000000000000000000000000000000000000000000000000000000000000000000000000000000000000000000000000000000000009800000000000000000000980000000300000000010000000000000000000000060000000006000000000000000100000000000000
310
00000000000003000303029898989800009898989898989800000000000000000000000000000000000000000000000000000000000000000000000000000000000000000000000000000000000000000000000000000000000000000000000000000000000000000000000000000000000000000000000000000000000000
310
98000000000000000000009800000003000001010101010101010101010101010601010101060101010101010101010000000000000000000000000301010298989898989800989898989800980000000000000000000000000000000000000000000000000000000000000000000000000000000000000000000000000000
310
00000000000000000000000000000000000000000000000000000000000000000000000000000000000000000000000000000000009800000000009898009898980000000300000101010101010101010101010101060101010106010101010101010101000000000100000100000100030102029898989898980098989898
310
98989800000000000000000000000000000000000000000000000000000000000000000000000000000000000000000000000000000000000000000000000000000000000000000000000000000000000000000000000000000000000000000000000000000000000000980000000000989898989898000000030000010101
310
01010101010101010101010601010101060101010101010101010001000001000001000001000302020398989898989800989898989898980000000000000000000000000000000000000000000000000000000000000000000000000000000000000000000000000000000000000000000000000000000000000000000000
310
00000000000000000000000000000000000000000000000000000000000000009800000000009898989898980000000300000101010101010101010101010101060101010106010101010101010101000100000100000100000100020202029898989898989898989898989898000000000000000000000000000000000000
310
00000000000000000000000000000000000000000000000000000000000000000000000000000000000000000000000000000000000000000000000000000000000000000000000000000000000000000000000000980000000000989898989898000000030000010101010101010101010101010106010101010601010101
310
01010101010001000001000001000001000302000300000000000000989898989898980000000000000000000000000000000000000000000000000000000000000000000000000000000000000000000000000000000000000000000000000000000000000000000000000000000000000000000000000000000000000000
310
00000000000000000000009800000000009898989898980000000300000101010101010101010101010101060101010106010101010101010101000100000100000100000100030201030000000000000000000000000098000000000000000000000000000000000000000000000000000000000000000000000000000000
310
00000000000000000000000000000000000000000000000000000000000000000000000000000000000000000000000000000000000000000000000000000000980000000000009898989898000000030000010101010101010101010101010106010101010601010101010101010100010000010000010000010002020202
310
98989898989898989898989898989800000000000000000000000000000000000000000000000000000000000000000000000000000000000000000000000000000000000000000000000000000000000000000000000000000000000000000000000000000000000000000000000000000000000098000000000098989898
310
98980000000300000101010101010101010101010101060101010106010101010101010101000100000100000100000100030202020000000000000000000000000000000000000000000000000000000000000000000000000000000000000000000000000000000000000000000000000000000000000000000000000000
310
00000000000000000000000000000000000000000000000000000000000000000000000000000000000000980000000000989898989898000000030000010101010101010101010101010106010101010601010101010101010100010000010000010000010003000202000000000000000000000000000000000000000000
310
00000000000000000000000000000000000000000000000000000000000000000000000000000000000000000000000000000000000000000000000000000000000000000000000000000000000000000000000000000000000000000000000098000000000000989898989800000003000001010101010101010101010101
310
01060101010106010101010101010101000100000100000100000100030003000200000000000000000000000000000000000000000000000000000000000000000000000000000000000000000000000000000000000000000000000000000000000000000000000000000000000000000000000000000000000000000000
310
00000000000000000000000000000000000000000000980000000000000000000098000000030000010101010101010101010101010106010101010601010101010101010100010000010000010000010003000300000200000000000000000000000000000000000000000000000000000000000000000000000000000000
310
00000000000000000000000000000000000000000000000000000000000000000000000000000000000000000000000000000000000000000000000000000000000000000098989898000098000000000000000000009800000003000001010101010101010101010101010601010101060101010101010101010001000001
310
00000100000100030303000002000000000000000000000000000000000000000000000000000000000000000000000000000000000000000000000000000000000000000000000000000000000000000000000000000000000000000000000000000000000000000000000000000000000000000000000000989898989898
310
00980000000000000000000098000000030000010101010101010101010101010106010101010601010101010101010100010000010000010000010003030300000002000000000000000000000000000000000000000000000000000000000000000000000000000000000000000000000000000000000000000000000000
310
00000000000000000000000000000000000000000000000000000000000000000000000000000000000000000000000098989898000098000000000000000000009800000003000001010101010101010101010101010601010101060101010101010101010001000001000001000001000303030000000002000000000000
310
00000000000000000000000000000000000000000000000000000000000000000000000000000000000000000000000000000000000000000000000000000000000000000000000000000000000000000000000000000000000000000000000000000000009898989800009800000000000000000098989898980306060606
310
06060606060606060606060606060606060606060606060606060606060000010000010000010003030300000000000200000000000000000000000000000000000000000000000000000000000000000000000000000000000000000000000000000000000000000000000000000000000000000000000000000000000000
310
00000000000000000000000000000000000000000000000000009898989898980098000000000000000000009800000003000001010101010101010101010101010601010101060101010101010101010001000001000001000001000398030000000000000200000000000000000200000000000000000000000000000000
310
00000000000000000000000000000000000000000000000000000000000000000000000000000000000000000000000000000000000000000000000000000000000000000000000000000000000000009898989800009800000000000000000000000000000300000101010101010101010101010101060101010106010101
310
01010101010100010000010000010000010003980300000000000000020202020202020202020202020202020202020202020000000000000000000000000000000000000000000000000000000000000000000000000000000000000000000000000000000000000000000000000000000000000000000000000000000000
310
00000000000098989898000098000000000000000000000000000003000001010101010101010101010101010601010101060101010101010101010001000001000001000001000398030000000000000000020202020202020202020202020202020202020000000000000000000000000000000000000000000000000000
310
00000000000000000000000000000000000000000000000000000000000000000000000000000000000000000000000000000000000000000000989800009898009800000000000000000000000000000300000101010101010101010101010101060101010106010101010101010101000100000100000100000100039803
310
00000000000000000202020200000202020202020200020202020200000000000000000000000000000000000000000000000000000000000000000000000000000000000000000000000000000000000000000000000000000000000000000000000000000000000000000000000000989898980000980000000000000000
310
00000000000003000001010101010101010101010101010601010101060101010101010101010001000001000001000001000398030000000000000000020202020000020202020202020002020202020000000000000000000000000000000000000000000000000000000000000000000000000000000000000000000000
310
00000000000000000000000000000000000000000000000000000000000000000000000000000000000000009800000000000000000000000000000300000101010101010101010101010101060101010106010101010101010101000100000100000100000100039803000000000000000002020202000000000200000202
310
00020202020200000000000000000000000000000000000000000000000000000000000000000000000000000000000000000000000000000000000000000000000000000000000000000000000000000000000000000000000000000000000000980000000000000000000000000000030000010101010101010101010101
310
01010601010101060101010101010101010001000001000001000001000398030000000000000000000000000000000000000000000000000000000000000000000000000000000000000000000000000000000000000000000000000000000000000000000000000000000000000000000000000000000000000000000000
310
00000000000000000000000000000000000000000000009800000000000000000000000000000300000101010101010101010101010101060101010106010101010101010101000100000100000100000100039803000000000000000000000000000000000000000000000000000000000000000000000000000000000000
310
00000000000000000000000000000000000000000000000000000000000000000000000000000000000000000000000000000000000000000000000000000000000000000000000000000000980000000000000000000000000000030000010101010101010101010101010106010101010601010101010101010100010000
310
01000001000001000398030000000000000000000000000000000000000000000000000000000000000000000000000000000000000000000000000000000000000000000000000000000000000000000000000000000000000000000000000000000000000000000000000000000000000000000000000000000000000000
310
00009800000000000000000000000000000300000101010101010101010101010101060101010106010101010101010101000000000000000000000000039803000000000000000000000000000000000000000000000000000000000000000000000000000000000000000000000000000000000000000000000000000000
310
00000000000000000000000000000000000000000000000000000000000000000000000000000000000000000000000000000000000000980000000000000000000000000000030000010101010101010101010101010106010101010601010101010101010100000000000000000000000003030000000000000000000000
310
00000000000000000000000000000000000000000000000000000000000000000000000000000000000000000000000000000000000000000000000000000000000000000000000000000000000000000000000000000000000000000000000000000000000000000000000098000000000000000000000000000003000001
310
01010101010101010101010101010101010106010101010101010101000000000000000000000000030303000000000000000000000000000000000000000000000000000000000000000000000000000000000000000000000000000000000000000000000000000000000000000000000000000000000000000000000000
310
00000000000000000000000000000000000000000000000000000000000000000000980000000000000000000000000000030000010101010101010101010101010101010101010601010101010101010100000000000000000000000003030300000000000000000000000000000000000000000000000000000000000000
310
00000000000000000000000000000000000000000000000000000000000000000000000000000000000000000000000000000000000000000000000000000000000000000000000000000000000000000000000000000098000000000000000000000000000003000001010101010101010101010101010101010101010101
310
01010101010101000000000000000000000000039800000000000000000000000000000000000000000000000000000000000000000000000000000000000000000000000000000000000000000000000000000000000000000000000000000000000000000000000000000000000000000000000000000000000000000000
310
00000000000000000000000000980000000000000000000000000003030303030303030303030303030303030303030303030303030303030303030303030303030303030303030303980000000000000000000000000000000000000000000000000000000000000000000000000000000000000000000000000000000000
310
00000000000000000000000000000000000000000000000000000000000000000000000000000000000000000000000000000000000000000000000000000000000098000000000000000000000000009803030303030303030303030303030303030303030303030303030303030303030303030303030303030303030398
310
00000000000000000000000000000000000000000000000000000000000000000000000000000000000000000000000000000000000000000000000000000000000000000000000000000000000000000000000000000000000000000000000000000000000000000000000000000000000098989898989898989898989898
310
98989898989898040404040404040404040404040404040404040404040404040404040404040404040404040404040404040404980000000000000000000000000000000000000000000000000000000000000000000000000000000000000000000000000000000000000000000000000000000000000000000000000000
310
00000000000000000000000000000000000000000000000000000000000000000000000000000000989898980098000000000000000000000000009804000000000404040404040404040000020200000202000000000000000000040404040404040404000000000498000000000000000000000000000000000000000000
310
00000000000000000000000000000000000000000000000000000000000000000000000000000000000000000000000000000000000000000000000000000000000000000000000000000000000000000000000000000000000000000098989898009800000000000000000000000000980400000000000000000000000000
310
04040404040404040404040404040404040002020202000000000000000004980000000000000000000000000000000000000000000000000000000000000000000000000000000000000000000000000000000000000000000000000000000000000000000000000000000000000000000000000000000000000000000000
310
00000000000000000000000000000000000000989898980098000000000000000000000000009804000000000000000000000000000404040404040404040404040404040404020202020000000000000000000498000000000000000000000000000000000000000000000000000000000000000000000000000000000000
310
00000000000000000000000000000000000000000000000000000000000000000000000000000000000000000000000000000000000000000000000000000000000000000000000098989898009800000000000000000000000000980400000000040404040404040404000202020200020200020202020202000204040404
310
04040404040000000004980000000000000000000000000000000000000000000000000000000000000000000000000000000000000000000000000000000000000000000000000000000000000000000000000000000000000000000000000000000000000000000000000000000000000000000000000000000000009898
310
98989898989898989898989898989898989804040404040404040404040404040404040404040404040404040404040404040404040404040404040404040498000000000000000000000000000000000000000000000000000000000000000000000000000000000000000000000000000000000000000000000000000000
310
00000000000000000000000000000000000000000000000000000000000000000000000000000000000000000000000000000098989898989800000000000000000000000000989800000000000000000000000000000000000000000000000000000000000000000000000000000000000000989800000000000000000000
310
00000000000000000000000000000000000000000000000000000000000000000000000000000000000000000000000000000000000000000000000000000000000000000000000000000000000000000000000000000000000000000000000000000000000000009898989800980000000000000000000000000098980000
310
00000000000000000000000000000000000000000000000000000000000000000000000000000000009898989898989898000000000000000000000000000000000000000000000000000000000000000000000000000000000000000000000000000000000000000000000000000000000000000000000000000000000000
310
00000000000000000000000000000000000000000000000000000000000000000098009800989898989898989898989898989898000000000000000000000000000000000000000000000000000000000000000000000000000000000000989898989898989898000000000000000000000000000000000000000000000000
310
00000000000000000000000000000000000000000000000000000000000000000000000000000000000000000000000000000000000000000000000000000000000000000000000000000000000000000000009898989800980000000098980098980098989898980000000000000000000000000000000000000000000000
310
00000000000000000000000000000000000000009898009898989898980000000000000000000000000000000000000000000000000000000000000000000000000000000000000000000000000000000000000000000000000000000000000000000000000000000000000000000000000000000000000000000000000000
310
00000000000000000098989898009800000000009898989800009898000000000000000000000000000000000000000000000000000000000000000000000000000000000000000000000000989898989800000067676767676767676767676767676767676767676767670000000000000000000000000000000000000000
310
00000000000000000000000000000000000000000000000000000000000000000000000000000000000000000000000000000000000000000000000000000098009800980000000098989898980098989800000000000000000000000000000000000000000000000000000000000000000000000000000000000000000000
310
00009898989898000000676767676767676700676700006767676767676767676700000000000000000000000000000000000000000000000000000000000000000000000000000000000000000000000000000000000000000000000000000000000000000000000000000000000000000000000000000098000000009898
310
98989800989898000000000000000000000000000000000000000000000000000000000000000000000000000000000000000000000000989800989800000067676767676767670067006700676767676767676767670000000000000000000000000000000000000000000000000000000000000000000000000000000000
310
00000000000000000000000000000000000000000000000000000000000000000000000000000000000000000000980000000000000000000000000000000000000000000000000000000000000000000000000000000000000000000000000000000000000000000000000000000000000000006767676767676767006767
310
67676767676767676767676700000000000000000000000000000000000000000000000000000000000000000000000000000000000000000000000000000000000000000000000000000000000000000000000000000000000000000000000000000000000000000000000000000000000000000000000000000000000000
310
00000000000000000000000000000000000000000000000000000000000000000000000000000000000067676767676767676767676767676700676767670067670000000000000000000000000000000000000000000000000000000000000000000000000000000000000000000000000000000000000000000000000000
310
00000000000000000000000000000000000000000000000000000000000000000000000000000000000000000000000000000000000000000000000000000000000000000000000000000000000000000000000000000000000000000000006767676767676767670000000000000000000000000000000000000000000000
310
00000000000000000000000000000000000000000000000000000000000000000000000000000000000000000000000000000000000000000000000000000000000000000000000000000000000000000000000000000000000000000000000000000000000000000000000000000000000000000000000000000000000000
310
00000000000000000000000000000000000000000067676767676767676700000000000000000000000000000000000000000000000000000000000000000000000000000000000000000000000000000000000000000000000000000000000000000000000000000000000000000000000000000000000000000000000000
310
00000000000000000000000000000000000000000000000000000000000000000000000000000000000000000000000000000000000000000000000000000000000000000000000000006767676767676767000000000000000000000000000000000000000000000000000000000000000000000000000000000000000000
310
00000000000000000000000000000000000000000000000000000000000000000000000000000000000000000000000000000000000000000000000000000000000000000000000000000000000000000000000000000000000000000000000000000000000000000000000000000000000000000000000000000000000000
310
00000000000000000000000000000000000000000000000000000000000000000000000000000000000000000000000000000000000000000000000000000000000000000000000000000000000000000000000000000000000000000000000000000000000000000000000000000000000000000000000000000000000000
310
000000000000000000000000000000000000000000000000000000000000000000000000000000000000000000000000000000000000000000000000000000000000000000000000000000000000000000000000000000000000000000000000000000000000000000000000
  0
ENDSEC
  0
EOF
