  0
SECTION
  2
HEADER
  9
$ACADVER
  1
AC1015
  9
$ACADMAINTVER
 70
    10
  9
$DWGCODEPAGE
  3
ANSI_932
  9
$INSBASE
 10
0.0
 20
0.0
 30
0.0
  9
$EXTMIN
 10
-776.5912826896074
 20
-298.077260337844
 30
0.0
  9
$EXTMAX
 10
848.0078844415952
 20
952.1781954976244
 30
0.0
  9
$LIMMIN
 10
-1116.496722510956
 20
-755.8589898163773
  9
$LIMMAX
 10
1185.464464355012
 20
1117.534222162794
  9
$ORTHOMODE
 70
     1
  9
$REGENMODE
 70
     1
  9
$FILLMODE
 70
     1
  9
$QTEXTMODE
 70
     0
  9
$MIRRTEXT
 70
     0
  9
$LTSCALE
 40
20.0
  9
$ATTMODE
 70
     1
  9
$TEXTSIZE
 40
64.0
  9
$TRACEWID
 40
0.05
  9
$TEXTSTYLE
  7
STANDARD
  9
$CLAYER
  8
OUTLINE
  9
$CELTYPE
  6
BYLAYER
  9
$CECOLOR
 62
     2
  9
$CELTSCALE
 40
1.0
  9
$DISPSILH
 70
     0
  9
$DIMSCALE
 40
1.0
  9
$DIMASZ
 40
10.0
  9
$DIMEXO
 40
20.0
  9
$DIMDLI
 40
200.0
  9
$DIMRND
 40
0.0
  9
$DIMDLE
 40
0.0
  9
$DIMEXE
 40
20.0
  9
$DIMTP
 40
0.0
  9
$DIMTM
 40
0.0
  9
$DIMTXT
 40
50.0
  9
$DIMCEN
 40
0.082
  9
$DIMTSZ
 40
0.0
  9
$DIMTOL
 70
     0
  9
$DIMLIM
 70
     0
  9
$DIMTIH
 70
     0
  9
$DIMTOH
 70
     0
  9
$DIMSE1
 70
     0
  9
$DIMSE2
 70
     0
  9
$DIMTAD
 70
     1
  9
$DIMZIN
 70
     8
  9
$DIMBLK
  1
ORIGIN
  9
$DIMASO
 70
     1
  9
$DIMSHO
 70
     0
  9
$DIMPOST
  1

  9
$DIMAPOST
  1

  9
$DIMALT
 70
     0
  9
$DIMALTD
 70
     2
  9
$DIMALTF
 40
25.4
  9
$DIMLFAC
 40
1.0
  9
$DIMTOFL
 70
     1
  9
$DIMTVP
 40
0.0
  9
$DIMTIX
 70
     0
  9
$DIMSOXD
 70
     0
  9
$DIMSAH
 70
     0
  9
$DIMBLK1
  1

  9
$DIMBLK2
  1

  9
$DIMSTYLE
  2
STANDARD
  9
$DIMCLRD
 70
     0
  9
$DIMCLRE
 70
     0
  9
$DIMCLRT
 70
     0
  9
$DIMTFAC
 40
1.0
  9
$DIMGAP
 40
10.0
  9
$DIMJUST
 70
     0
  9
$DIMSD1
 70
     0
  9
$DIMSD2
 70
     0
  9
$DIMTOLJ
 70
     1
  9
$DIMTZIN
 70
     0
  9
$DIMALTZ
 70
     0
  9
$DIMALTTZ
 70
     0
  9
$DIMUPT
 70
     0
  9
$DIMDEC
 70
     6
  9
$DIMTDEC
 70
     6
  9
$DIMALTU
 70
     2
  9
$DIMALTTD
 70
     2
  9
$DIMTXSTY
  7
STANDARD
  9
$DIMAUNIT
 70
     0
  9
$DIMADEC
 70
     0
  9
$DIMALTRND
 40
0.0
  9
$DIMAZIN
 70
     0
  9
$DIMDSEP
 70
    46
  9
$DIMATFIT
 70
     3
  9
$DIMFRAC
 70
     0
  9
$DIMLDRBLK
  1
ORIGIN
  9
$DIMLUNIT
 70
     2
  9
$DIMLWD
 70
    -2
  9
$DIMLWE
 70
    -2
  9
$DIMTMOVE
 70
     0
  9
$LUNITS
 70
     2
  9
$LUPREC
 70
     4
  9
$SKETCHINC
 40
0.1
  9
$FILLETRAD
 40
10.0
  9
$AUNITS
 70
     1
  9
$AUPREC
 70
     3
  9
$MENU
  1
ACAD
  9
$ELEVATION
 40
0.0
  9
$PELEVATION
 40
0.0
  9
$THICKNESS
 40
0.0
  9
$LIMCHECK
 70
     0
  9
$CHAMFERA
 40
0.0
  9
$CHAMFERB
 40
0.0
  9
$CHAMFERC
 40
0.0
  9
$CHAMFERD
 40
0.0
  9
$SKPOLY
 70
     0
  9
$TDCREATE
 40
2450330.393205995
  9
$TDUCREATE
 40
2450330.018205995
  9
$TDUPDATE
 40
2456527.805397488
  9
$TDUUPDATE
 40
2456527.430397489
  9
$TDINDWG
 40
2.7251588079
  9
$TDUSRTIMER
 40
2.7251582523
  9
$USRTIMER
 70
     1
  9
$ANGBASE
 50
0.0
  9
$ANGDIR
 70
     0
  9
$PDMODE
 70
     3
  9
$PDSIZE
 40
-2.0
  9
$PLINEWID
 40
0.0
  9
$SPLFRAME
 70
     0
  9
$SPLINETYPE
 70
     6
  9
$SPLINESEGS
 70
     8
  9
$HANDSEED
  5
85B48
  9
$SURFTAB1
 70
     6
  9
$SURFTAB2
 70
     6
  9
$SURFTYPE
 70
     6
  9
$SURFU
 70
     6
  9
$SURFV
 70
     6
  9
$UCSBASE
  2

  9
$UCSNAME
  2

  9
$UCSORG
 10
0.0
 20
0.0
 30
0.0
  9
$UCSXDIR
 10
1.0
 20
0.0
 30
0.0
  9
$UCSYDIR
 10
0.0
 20
1.0
 30
0.0
  9
$UCSORTHOREF
  2

  9
$UCSORTHOVIEW
 70
     0
  9
$UCSORGTOP
 10
0.0
 20
0.0
 30
0.0
  9
$UCSORGBOTTOM
 10
0.0
 20
0.0
 30
0.0
  9
$UCSORGLEFT
 10
0.0
 20
0.0
 30
0.0
  9
$UCSORGRIGHT
 10
0.0
 20
0.0
 30
0.0
  9
$UCSORGFRONT
 10
0.0
 20
0.0
 30
0.0
  9
$UCSORGBACK
 10
0.0
 20
0.0
 30
0.0
  9
$PUCSBASE
  2

  9
$PUCSNAME
  2

  9
$PUCSORG
 10
0.0
 20
0.0
 30
0.0
  9
$PUCSXDIR
 10
1.0
 20
0.0
 30
0.0
  9
$PUCSYDIR
 10
0.0
 20
1.0
 30
0.0
  9
$PUCSORTHOREF
  2

  9
$PUCSORTHOVIEW
 70
     0
  9
$PUCSORGTOP
 10
0.0
 20
0.0
 30
0.0
  9
$PUCSORGBOTTOM
 10
0.0
 20
0.0
 30
0.0
  9
$PUCSORGLEFT
 10
0.0
 20
0.0
 30
0.0
  9
$PUCSORGRIGHT
 10
0.0
 20
0.0
 30
0.0
  9
$PUCSORGFRONT
 10
0.0
 20
0.0
 30
0.0
  9
$PUCSORGBACK
 10
0.0
 20
0.0
 30
0.0
  9
$USERI1
 70
     0
  9
$USERI2
 70
     0
  9
$USERI3
 70
     0
  9
$USERI4
 70
     0
  9
$USERI5
 70
     0
  9
$USERR1
 40
20.0
  9
$USERR2
 40
0.0
  9
$USERR3
 40
0.0
  9
$USERR4
 40
0.0
  9
$USERR5
 40
0.0
  9
$WORLDVIEW
 70
     1
  9
$SHADEDGE
 70
     3
  9
$SHADEDIF
 70
    70
  9
$TILEMODE
 70
     1
  9
$MAXACTVP
 70
    64
  9
$PINSBASE
 10
0.0
 20
0.0
 30
0.0
  9
$PLIMCHECK
 70
     0
  9
$PEXTMIN
 10
1.000000000000000E+20
 20
1.000000000000000E+20
 30
1.000000000000000E+20
  9
$PEXTMAX
 10
-1.000000000000000E+20
 20
-1.000000000000000E+20
 30
-1.000000000000000E+20
  9
$PLIMMIN
 10
0.0
 20
0.0
  9
$PLIMMAX
 10
12.0
 20
9.0
  9
$UNITMODE
 70
     0
  9
$VISRETAIN
 70
     1
  9
$PLINEGEN
 70
     0
  9
$PSLTSCALE
 70
     1
  9
$TREEDEPTH
 70
  3020
  9
$CMLSTYLE
  2
STANDARD
  9
$CMLJUST
 70
     0
  9
$CMLSCALE
 40
1.0
  9
$PROXYGRAPHICS
 70
     1
  9
$MEASUREMENT
 70
     0
  9
$CELWEIGHT
370
    -1
  9
$ENDCAPS
280
     0
  9
$JOINSTYLE
280
     0
  9
$LWDISPLAY
290
     0
  9
$INSUNITS
 70
     0
  9
$HYPERLINKBASE
  1

  9
$STYLESHEET
  1
monochrome.ctb
  9
$XEDIT
290
     1
  9
$CEPSNTYPE
380
     0
  9
$PSTYLEMODE
290
     1
  9
$FINGERPRINTGUID
  2
{97DA8DB6-C4F0-4C3D-ABEB-53C4FBBC7EFF}
  9
$VERSIONGUID
  2
{6F57A288-02C5-4E5A-9207-77FA29F57998}
  9
$EXTNAMES
290
     1
  9
$PSVPSCALE
 40
0.0
  9
$OLESTARTUP
290
     0
  0
ENDSEC
  0
SECTION
  2
CLASSES
  0
CLASS
  1
ACDBDICTIONARYWDFLT
  2
AcDbDictionaryWithDefault
  3
AutoCAD 2000
 90
        0
280
     0
281
     0
  0
CLASS
  1
ACDBPLACEHOLDER
  2
AcDbPlaceHolder
  3
AutoCAD 2000
 90
        0
280
     0
281
     0
  0
CLASS
  1
LAYOUT
  2
AcDbLayout
  3
AutoCAD 2000
 90
        0
280
     0
281
     0
  0
CLASS
  1
LONG_TRANSACTION
  2
AcDbLongTransaction
  3
AutoCAD 2000
 90
    32768
280
     0
281
     0
  0
CLASS
  1
LWPOLYLINE
  2
AcDbPolyline
  3
AutoCAD 2000
 90
    32768
280
     0
281
     1
  0
CLASS
  1
HATCH
  2
AcDbHatch
  3
AutoCAD 2000
 90
    32768
280
     0
281
     1
  0
CLASS
  1
XRECORD
  2
AcDbXrecord
  3
AutoCAD 2000
 90
    32768
280
     0
281
     0
  0
CLASS
  1
LONG_TRANSACTION
  2
AcDbLongTransaction
  3
AutoCAD 2000
 90
    32768
280
     0
281
     0
  0
CLASS
  1
LWPOLYLINE
  2
AcDbPolyline
  3
AutoCAD 2000
 90
    32768
280
     0
281
     1
  0
CLASS
  1
HATCH
  2
AcDbHatch
  3
AutoCAD 2000
 90
    32768
280
     0
281
     1
  0
CLASS
  1
XRECORD
  2
AcDbXrecord
  3
AutoCAD 2000
 90
    32768
280
     0
281
     0
  0
CLASS
  1
LONG_TRANSACTION
  2
AcDbLongTransaction
  3
AutoCAD 2000
 90
    32768
280
     0
281
     0
  0
CLASS
  1
LWPOLYLINE
  2
AcDbPolyline
  3
AutoCAD 2000
 90
    32768
280
     0
281
     1
  0
CLASS
  1
HATCH
  2
AcDbHatch
  3
AutoCAD 2000
 90
    32768
280
     0
281
     1
  0
CLASS
  1
XRECORD
  2
AcDbXrecord
  3
AutoCAD 2000
 90
    32768
280
     0
281
     0
  0
CLASS
  1
LONG_TRANSACTION
  2
AcDbLongTransaction
  3
AutoCAD 2000
 90
    32768
280
     0
281
     0
  0
CLASS
  1
LWPOLYLINE
  2
AcDbPolyline
  3
AutoCAD 2000
 90
    32768
280
     0
281
     1
  0
CLASS
  1
HATCH
  2
AcDbHatch
  3
AutoCAD 2000
 90
    32768
280
     0
281
     1
  0
CLASS
  1
XRECORD
  2
AcDbXrecord
  3
AutoCAD 2000
 90
    32768
280
     0
281
     0
  0
ENDSEC
  0
SECTION
  2
TABLES
  0
TABLE
  2
VPORT
  5
8
330
0
100
AcDbSymbolTable
 70
     2
  0
VPORT
  5
85B47
330
8
100
AcDbSymbolTableRecord
100
AcDbViewportTableRecord
  2
*Active
 70
     0
 10
0.0
 20
0.0
 11
1.0
 21
1.0
 12
152.3622298798138
 22
341.9967647749158
 13
0.0
 23
0.0
 14
50.0
 24
50.0
 15
100.0
 25
100.0
 16
0.0
 26
0.0
 36
1.0
 17
0.0
 27
0.0
 37
0.0
 40
1572.221273024808
 41
1.56020278833967
 42
50.0
 43
0.0
 44
0.0
 50
0.0
 51
0.0
 71
     0
 72
   500
 73
     1
 74
     0
 75
     0
 76
     0
 77
     0
 78
     0
281
     0
 65
     1
110
0.0
120
0.0
130
0.0
111
1.0
121
0.0
131
0.0
112
0.0
122
1.0
132
0.0
 79
     0
146
0.0
  0
ENDTAB
  0
TABLE
  2
LTYPE
  5
5
330
0
100
AcDbSymbolTable
 70
     3
  0
LTYPE
  5
13
330
5
100
AcDbSymbolTableRecord
100
AcDbLinetypeTableRecord
  2
BYBLOCK
 70
     0
  3

 72
    65
 73
     0
 40
0.0
  0
LTYPE
  5
14
330
5
100
AcDbSymbolTableRecord
100
AcDbLinetypeTableRecord
  2
BYLAYER
 70
     0
  3

 72
    65
 73
     0
 40
0.0
  0
LTYPE
  5
15
330
5
100
AcDbSymbolTableRecord
100
AcDbLinetypeTableRecord
  2
CONTINUOUS
 70
     0
  3
実線
 72
    65
 73
     0
 40
0.0
  0
LTYPE
  5
23
330
5
100
AcDbSymbolTableRecord
100
AcDbLinetypeTableRecord
  2
DASHDOT
 70
     0
  3
____ _ ____ _ ____ _ ____ _ ____ _ ____ _ ____
 72
    65
 73
     4
 40
5.5
 49
4.0
 74
     0
 49
-0.6
 74
     0
 49
0.3
 74
     0
 49
-0.6
 74
     0
  0
LTYPE
  5
6ACAA
330
5
100
AcDbSymbolTableRecord
100
AcDbLinetypeTableRecord
  2
DASHED
 70
     0
  3
DASHED
 72
    65
 73
     2
 40
0.75
 49
0.5
 74
     0
 49
-0.25
 74
     0
  0
ENDTAB
  0
TABLE
  2
LAYER
  5
2
330
0
100
AcDbSymbolTable
 70
    11
  0
LAYER
  5
10
330
2
100
AcDbSymbolTableRecord
100
AcDbLayerTableRecord
  2
0
 70
     0
 62
     7
  6
CONTINUOUS
370
    -3
390
F
  0
LAYER
  5
22
330
2
100
AcDbSymbolTableRecord
100
AcDbLayerTableRecord
  2
SIZE
 70
     0
 62
    32
  6
CONTINUOUS
370
    -3
390
F
  0
LAYER
  5
31
330
2
100
AcDbSymbolTableRecord
100
AcDbLayerTableRecord
  2
DETAIL
 70
     0
 62
     5
  6
CONTINUOUS
370
    -3
390
F
  0
LAYER
  5
32
330
2
100
AcDbSymbolTableRecord
100
AcDbLayerTableRecord
  2
OUTLINE
 70
     0
 62
     3
  6
CONTINUOUS
370
    -3
390
F
  0
LAYER
  5
33
330
2
100
AcDbSymbolTableRecord
100
AcDbLayerTableRecord
  2
BASIS
 70
     0
 62
     6
  6
CONTINUOUS
370
    -3
390
F
  0
LAYER
  5
34
330
2
100
AcDbSymbolTableRecord
100
AcDbLayerTableRecord
  2
NOTE
 70
     0
 62
     4
  6
CONTINUOUS
370
    -3
390
F
  0
LAYER
  5
35
330
2
100
AcDbSymbolTableRecord
100
AcDbLayerTableRecord
  2
ARRANGE
 70
     0
 62
     1
  6
CONTINUOUS
370
    -3
390
F
  0
LAYER
  5
37
330
2
100
AcDbSymbolTableRecord
100
AcDbLayerTableRecord
  2
ETC
 70
     0
 62
    83
  6
CONTINUOUS
370
    -3
390
F
  0
LAYER
  5
3A
330
2
100
AcDbSymbolTableRecord
100
AcDbLayerTableRecord
  2
DEFPOINTS
 70
     0
 62
     7
  6
CONTINUOUS
290
     0
370
    -3
390
F
  0
LAYER
  5
6ACAB
330
2
100
AcDbSymbolTableRecord
100
AcDbLayerTableRecord
  2
FIX
 70
     0
 62
   253
  6
CONTINUOUS
370
    -3
390
F
  0
LAYER
  5
6ACAC
330
2
100
AcDbSymbolTableRecord
100
AcDbLayerTableRecord
  2
SERVICE_SPACE
 70
     0
 62
     2
  6
CONTINUOUS
370
    -3
390
F
  0
ENDTAB
  0
TABLE
  2
STYLE
  5
3
330
0
100
AcDbSymbolTable
 70
     3
  0
STYLE
  5
11
330
3
100
AcDbSymbolTableRecord
100
AcDbTextStyleTableRecord
  2
STANDARD
 70
     0
 40
0.0
 41
0.9
 50
0.0
 71
     0
 42
64.0
  3
SIMPLEX
  4
BIGFONT
  0
STYLE
  5
6ACAD
330
3
100
AcDbSymbolTableRecord
100
AcDbTextStyleTableRecord
  2
STANDARD1
 70
     0
 40
0.0
 41
1.0
 50
0.0
 71
     0
 42
64.0
  3
MONOTXT
  4
BIGFONT
  0
STYLE
  5
6ACAE
330
3
100
AcDbSymbolTableRecord
100
AcDbTextStyleTableRecord
  2
ZU_SHPTB00001
 70
     0
 40
0.0
 41
1.0
 50
0.0
 71
     0
 42
0.0
  3
monotxt
  4
bigfont
  0
ENDTAB
  0
TABLE
  2
VIEW
  5
6
330
0
100
AcDbSymbolTable
 70
     1
  0
VIEW
  5
3C
330
6
100
AcDbSymbolTableRecord
100
AcDbViewTableRecord
  2
ALL
 70
     0
 40
4282.62
 10
0.0
 20
41.30990399999999
 41
5940.0
 11
0.0
 21
0.0
 31
1.0
 12
0.0
 22
0.0
 32
0.0
 42
50.0
 43
0.0
 44
0.0
 50
0.0
 71
     0
281
     0
 72
     0
  0
ENDTAB
  0
TABLE
  2
UCS
  5
7
330
0
100
AcDbSymbolTable
 70
     0
  0
ENDTAB
  0
TABLE
  2
APPID
  5
9
330
0
100
AcDbSymbolTable
 70
     1
  0
APPID
  5
12
330
9
100
AcDbSymbolTableRecord
100
AcDbRegAppTableRecord
  2
ACAD
 70
     0
  0
ENDTAB
  0
TABLE
  2
DIMSTYLE
  5
A
330
0
100
AcDbSymbolTable
 70
     1
100
AcDbDimStyleTable
 71
     1
340
213
  0
DIMSTYLE
105
213
330
A
100
AcDbSymbolTableRecord
100
AcDbDimStyleTableRecord
  2
STANDARD
 70
     0
340
11
  0
ENDTAB
  0
TABLE
  2
BLOCK_RECORD
  5
1
330
0
100
AcDbSymbolTable
 70
     2
  0
BLOCK_RECORD
  5
1E
102
{ACAD_XDICTIONARY
360
66E76
102
}
330
1
100
AcDbSymbolTableRecord
100
AcDbBlockTableRecord
  2
*MODEL_SPACE
340
84EC7
  0
BLOCK_RECORD
  5
1A
102
{ACAD_XDICTIONARY
360
66E74
102
}
330
1
100
AcDbSymbolTableRecord
100
AcDbBlockTableRecord
  2
*PAPER_SPACE
340
84EC8
  0
BLOCK_RECORD
  5
46
330
1
100
AcDbSymbolTableRecord
100
AcDbBlockTableRecord
  2
_ORIGIN
340
0
  0
BLOCK_RECORD
  5
8563C
330
1
100
AcDbSymbolTableRecord
100
AcDbBlockTableRecord
  2
A$C1A65646B
340
0
  0
ENDTAB
  0
ENDSEC
  0
SECTION
  2
BLOCKS
  0
BLOCK
  5
1F
330
1E
100
AcDbEntity
  8
0
100
AcDbBlockBegin
  2
*MODEL_SPACE
 70
     0
 10
0.0
 20
0.0
 30
0.0
  3
*MODEL_SPACE
  1

  0
ENDBLK
  5
20
330
1E
100
AcDbEntity
  8
0
100
AcDbBlockEnd
  0
BLOCK
  5
1B
330
1A
100
AcDbEntity
 67
     1
  8
0
100
AcDbBlockBegin
  2
*PAPER_SPACE
 70
     0
 10
0.0
 20
0.0
 30
0.0
  3
*PAPER_SPACE
  1

  0
ENDBLK
  5
1C
330
1A
100
AcDbEntity
 67
     1
  8
0
100
AcDbBlockEnd
  0
BLOCK
  5
47
330
46
100
AcDbEntity
  8
0
100
AcDbBlockBegin
  2
_ORIGIN
 70
     0
 10
0.0
 20
0.0
 30
0.0
  3
_ORIGIN
  1

  0
CIRCLE
  5
48
330
46
100
AcDbEntity
  8
0
  6
ByBlock
 62
     0
100
AcDbCircle
 10
0.0
 20
0.0
 30
0.0
 40
0.5
  0
LINE
  5
49
330
46
100
AcDbEntity
  8
0
  6
ByBlock
 62
     0
100
AcDbLine
 10
0.0
 20
0.0
 30
0.0
 11
-1.0
 21
0.0
 31
0.0
  0
ENDBLK
  5
4A
330
46
100
AcDbEntity
  8
0
100
AcDbBlockEnd
  0
BLOCK
  5
859DB
330
8563C
100
AcDbEntity
  8
0
100
AcDbBlockBegin
  2
A$C1A65646B
 70
     0
 10
0.0
 20
0.0
 30
0.0
  3
A$C1A65646B
  1

  0
LINE
  5
8563D
330
8563C
100
AcDbEntity
  8
DETAIL
  6
Continuous
100
AcDbLine
 10
277.2641488134861
 20
628.5000006458517
 30
0.0
 11
175.0000021468488
 21
628.5000006458517
 31
0.0
  0
LINE
  5
8563E
330
8563C
100
AcDbEntity
  8
DETAIL
  6
Continuous
100
AcDbLine
 10
206.0000021468015
 20
630.0000006458481
 30
0.0
 11
175.0000021468488
 21
630.0000006458481
 31
0.0
  0
ARC
  5
8563F
330
8563C
100
AcDbEntity
  8
DETAIL
  6
Continuous
100
AcDbCircle
 10
180.5000021468267
 20
558.8570205145379
 30
0.0
 40
6.499999999998373
100
AcDbArc
 50
0.0
 51
90.0
  0
ARC
  5
85640
330
8563C
100
AcDbEntity
  8
DETAIL
  6
Continuous
100
AcDbCircle
 10
180.5000021468267
 20
558.8570205145379
 30
0.0
 40
10.49999999999736
100
AcDbArc
 50
0.0
 51
90.0
  0
ARC
  5
85641
330
8563C
100
AcDbEntity
  8
DETAIL
  6
Continuous
100
AcDbCircle
 10
188.5000021468067
 20
350.2000006457651
 30
0.0
 40
1.499999999999625
100
AcDbArc
 50
90.0
 51
180.0
  0
ARC
  5
85642
330
8563C
100
AcDbEntity
  8
DETAIL
  6
Continuous
100
AcDbCircle
 10
189.0000021468358
 20
249.870827312457
 30
0.0
 40
1.999999999999499
100
AcDbArc
 50
180.0
 51
0.0
  0
ARC
  5
85643
330
8563C
100
AcDbEntity
  8
DETAIL
  6
Continuous
100
AcDbCircle
 10
188.5000021468067
 20
242.7839606457904
 30
0.0
 40
2.99999999999925
100
AcDbArc
 50
180.0
 51
270.0
  0
LINE
  5
85644
330
8563C
100
AcDbEntity
  8
DETAIL
  6
Continuous
100
AcDbLine
 10
185.5000021468267
 20
234.7839606457931
 30
0.0
 11
198.0000021468231
 21
234.7839606457931
 31
0.0
  0
LINE
  5
85645
330
8563C
100
AcDbEntity
  8
DETAIL
  6
Continuous
100
AcDbLine
 10
136.5000021468486
 20
214.3075073124649
 30
0.0
 11
200.0000021468413
 21
214.3075073124649
 31
0.0
  0
ARC
  5
85646
330
8563C
100
AcDbEntity
  8
DETAIL
  6
Continuous
100
AcDbCircle
 10
188.5000021468067
 20
339.2000006457696
 30
0.0
 40
1.499999999999625
100
AcDbArc
 50
180.0
 51
270.0
  0
LINE
  5
85647
330
8563C
100
AcDbEntity
  8
DETAIL
  6
Continuous
100
AcDbLine
 10
316.0000021467742
 20
602.5000006458554
 30
0.0
 11
70.00000214687432
 21
602.5000006458554
 31
0.0
  0
LINE
  5
85648
330
8563C
100
AcDbEntity
  8
DETAIL
  6
Continuous
100
AcDbLine
 10
318.0000021467942
 20
603.500000645859
 30
0.0
 11
175.0000021468488
 21
603.500000645859
 31
0.0
  0
LINE
  5
85649
330
8563C
100
AcDbEntity
  8
DETAIL
  6
Continuous
100
AcDbLine
 10
218.7606554801395
 20
19.50000064585082
 30
0.0
 11
154.8994954801646
 21
19.50000064585082
 31
0.0
  0
LINE
  5
8564A
330
8563C
100
AcDbEntity
  8
DETAIL
  6
Continuous
100
AcDbLine
 10
105.0000021468667
 20
28.21678731251313
 30
0.0
 11
264.9727754801578
 21
19.50000064585082
 31
0.0
  0
LINE
  5
8564B
330
8563C
100
AcDbEntity
  8
DETAIL
  6
Continuous
100
AcDbLine
 10
136.5000021468486
 20
50.41794731250456
 30
0.0
 11
200.0000021468413
 21
50.41794731250456
 31
0.0
  0
LINE
  5
8564C
330
8563C
100
AcDbEntity
  8
DETAIL
  6
Continuous
100
AcDbLine
 10
187.5000021468449
 20
30.18778731251268
 30
0.0
 11
152.4980688134974
 21
30.18778731251268
 31
0.0
  0
LINE
  5
8564D
330
8563C
100
AcDbEntity
  8
DETAIL
  6
Continuous
100
AcDbLine
 10
305.4289354801303
 20
19.50000064585082
 30
0.0
 11
175.0000021468486
 21
19.50000064585082
 31
0.0
  0
LINE
  5
8564E
330
8563C
100
AcDbEntity
  8
DETAIL
  6
Continuous
100
AcDbLine
 10
344.5000021467776
 20
0.0000006458481039
 30
0.0
 11
175.0000021468486
 21
0.0000006458481039
 31
0.0
  0
LINE
  5
8564F
330
8563C
100
AcDbEntity
  8
DETAIL
  6
Continuous
100
AcDbLine
 10
29.05000214689221
 20
571.9328671811958
 30
0.0
 11
29.05000214689221
 21
77.56716731257353
 31
0.0
  0
LINE
  5
85650
330
8563C
100
AcDbEntity
  8
DETAIL
  6
Continuous
100
AcDbLine
 10
21.70000214689216
 20
572.4328671811957
 30
0.0
 11
21.70000214689218
 21
77.56716731257347
 31
0.0
  0
LINE
  5
85651
330
8563C
100
AcDbEntity
  8
DETAIL
  6
Continuous
100
AcDbLine
 10
24.15000214689209
 20
571.9328671811958
 30
0.0
 11
24.15000214689217
 21
77.56716731257347
 31
0.0
  0
LINE
  5
85652
330
8563C
100
AcDbEntity
  8
DETAIL
  6
Continuous
100
AcDbLine
 10
31.5000021468922
 20
572.4328671811954
 30
0.0
 11
31.50000214689223
 21
77.56716731257352
 31
0.0
  0
LINE
  5
85653
330
8563C
100
AcDbEntity
  8
DETAIL
  6
Continuous
100
AcDbLine
 10
20.70000214685848
 20
75.35374865671975
 30
0.0
 11
20.70000214686564
 21
577.1462791703693
 31
0.0
  0
LINE
  5
85654
330
8563C
100
AcDbEntity
  8
DETAIL
  6
Continuous
100
AcDbLine
 10
18.20000214687323
 20
75.06006865672464
 30
0.0
 11
18.2000021468657
 21
577.4399591703644
 31
0.0
  0
LINE
  5
85655
330
8563C
100
AcDbEntity
  8
DETAIL
  6
Continuous
100
AcDbLine
 10
68.50000214683589
 20
53.50000064583809
 30
0.0
 11
68.50000214687469
 21
601.0000006458592
 31
0.0
  0
LINE
  5
85656
330
8563C
100
AcDbEntity
  8
DETAIL
  6
Continuous
100
AcDbLine
 10
86.00000214683221
 20
558.8570205145379
 30
0.0
 11
86.00000214683221
 21
76.50000064583173
 31
0.0
  0
LINE
  5
85657
330
8563C
100
AcDbEntity
  8
DETAIL
  6
Continuous
100
AcDbLine
 10
82.00000214684315
 20
558.8570205145379
 30
0.0
 11
82.00000214684314
 21
76.50000064583173
 31
0.0
  0
LINE
  5
85658
330
8563C
100
AcDbEntity
  8
DETAIL
  6
Continuous
100
AcDbLine
 10
32.50000214687469
 20
601.0000006458592
 30
0.0
 11
32.50000214688501
 21
30.20000064584519
 31
0.0
  0
LINE
  5
85659
330
8563C
100
AcDbEntity
  8
DETAIL
  6
Continuous
100
AcDbLine
 10
62.0185088135231
 20
27.70000064584611
 30
0.0
 11
62.0185088135231
 21
602.5000006458554
 31
0.0
  0
LINE
  5
8565A
330
8563C
100
AcDbEntity
  8
DETAIL
  6
Continuous
100
AcDbLine
 10
51.78645548021361
 20
27.70000064584611
 30
0.0
 11
51.78645548021359
 21
602.5000006458554
 31
0.0
  0
LINE
  5
8565B
330
8563C
100
AcDbEntity
  8
DETAIL
  6
Continuous
100
AcDbLine
 10
50.24358881354881
 20
27.70000064584611
 30
0.0
 11
50.24358881354881
 21
602.5000006458554
 31
0.0
  0
LINE
  5
8565C
330
8563C
100
AcDbEntity
  8
DETAIL
  6
Continuous
100
AcDbLine
 10
67.5000021468759
 20
53.50000064583809
 30
0.0
 11
67.50000214687613
 21
601.5000006458572
 31
0.0
  0
LINE
  5
8565D
330
8563C
100
AcDbEntity
  8
DETAIL
  6
Continuous
100
AcDbLine
 10
63.6350821468741
 20
27.70000064584611
 30
0.0
 11
63.6350821468741
 21
602.5000006458554
 31
0.0
  0
LINE
  5
8565E
330
8563C
100
AcDbEntity
  8
DETAIL
  6
Continuous
100
AcDbLine
 10
92.50000214686862
 20
551.5893271812029
 30
0.0
 11
92.50000214686862
 21
41.9294539791731
 31
0.0
  0
LINE
  5
8565F
330
8563C
100
AcDbEntity
  8
DETAIL
  6
Continuous
100
AcDbLine
 10
87.50000214687045
 20
558.8570205145379
 30
0.0
 11
87.50000214687045
 21
41.9294539791731
 31
0.0
  0
LINE
  5
85660
330
8563C
100
AcDbEntity
  8
DETAIL
  6
Continuous
100
AcDbLine
 10
107.9462688135108
 20
215.4303873124613
 30
0.0
 11
107.9462688135108
 21
51.02265397917154
 31
0.0
  0
LINE
  5
85661
330
8563C
100
AcDbEntity
  8
DETAIL
  6
Continuous
100
AcDbLine
 10
75.00000214687403
 20
56.50000064583629
 30
0.0
 11
75.00000214687403
 21
49.50000064584355
 31
0.0
  0
LINE
  5
85662
330
8563C
100
AcDbEntity
  8
DETAIL
  6
Continuous
100
AcDbLine
 10
69.50000214684502
 20
27.70000064584611
 30
0.0
 11
105.0000021468667
 21
27.70000064584611
 31
0.0
  0
LINE
  5
85663
330
8563C
100
AcDbEntity
  8
DETAIL
  6
Continuous
100
AcDbLine
 10
141.1071088135095
 20
19.50000064585082
 30
0.0
 11
50.69949548020758
 21
19.50000064585082
 31
0.0
  0
LINE
  5
85664
330
8563C
100
AcDbEntity
  8
DETAIL
  6
Continuous
100
AcDbLine
 10
175.0000021468486
 20
19.50000064585082
 30
0.0
 11
44.57106881351779
 21
19.50000064585082
 31
0.0
  0
ARC
  5
85665
330
8563C
100
AcDbEntity
  8
DETAIL
  6
Continuous
100
AcDbCircle
 10
97.50000214686863
 20
41.9294539791731
 30
0.0
 40
9.999999999997497
100
AcDbArc
 50
180.0
 51
270.0
  0
LINE
  5
85666
330
8563C
100
AcDbEntity
  8
DETAIL
  6
Continuous
100
AcDbLine
 10
89.6175488135259
 20
26.30333397918047
 30
0.0
 11
85.15736214683512
 21
21.84314731251242
 31
0.0
  0
LINE
  5
85667
330
8563C
100
AcDbEntity
  8
DETAIL
  6
Continuous
100
AcDbLine
 10
0.0000021468922853
 20
0.0000006458481039
 30
0.0
 11
175.0000021468486
 21
0.0000006458481039
 31
0.0
  0
ARC
  5
85668
330
8563C
100
AcDbEntity
  8
DETAIL
  6
Continuous
100
AcDbCircle
 10
35.5963754801788
 20
21.38992064584499
 30
0.0
 40
6.99999999999825
100
AcDbArc
 50
45.00000000006425
 51
64.34798100005085
  0
LINE
  5
85669
330
8563C
100
AcDbEntity
  8
DETAIL
  6
Continuous
100
AcDbLine
 10
32.4644688135514
 20
9.46446731252081
 30
0.0
 11
41.03553548017692
 21
18.03553397918176
 31
0.0
  0
LINE
  5
8566A
330
8563C
100
AcDbEntity
  8
DETAIL
  6
Continuous
100
AcDbLine
 10
35.00000214688319
 20
27.70000064584611
 30
0.0
 11
66.00000214683769
 21
27.70000064584611
 31
0.0
  0
LINE
  5
8566B
330
8563C
100
AcDbEntity
  8
DETAIL
  6
Continuous
100
AcDbLine
 10
3.000002146872276
 20
8.00000064585083
 30
0.0
 11
28.92893548020859
 21
8.00000064585083
 31
0.0
  0
ARC
  5
8566C
330
8563C
100
AcDbEntity
  8
DETAIL
  6
Continuous
100
AcDbCircle
 10
3.000002146872276
 20
5.000000645847193
 30
0.0
 40
2.99999999999925
100
AcDbArc
 50
90.0
 51
180.0
  0
LINE
  5
8566D
330
8563C
100
AcDbEntity
  8
DETAIL
  6
Continuous
100
AcDbLine
 10
0.0000021468922853
 20
0.0000006458481039
 30
0.0
 11
0.0000021468922853
 21
5.000000645847193
 31
0.0
  0
ARC
  5
8566E
330
8563C
100
AcDbEntity
  8
DETAIL
  6
Continuous
100
AcDbCircle
 10
28.92893548020859
 20
13.00000064584991
 30
0.0
 40
4.999999999998748
100
AcDbArc
 50
270.0
 51
314.9999999999357
  0
ARC
  5
8566F
330
8563C
100
AcDbEntity
  8
DETAIL
  6
Continuous
100
AcDbCircle
 10
35.00000214688319
 20
30.20000064584519
 30
0.0
 40
2.499999999999374
100
AcDbArc
 50
180.0
 51
270.0
  0
ARC
  5
85670
330
8563C
100
AcDbEntity
  8
DETAIL
  6
Continuous
100
AcDbCircle
 10
50.69949548020758
 20
27.50000064584173
 30
0.0
 40
7.999999999997998
100
AcDbArc
 50
225.0000000000642
 51
270.0
  0
CIRCLE
  5
85671
330
8563C
100
AcDbEntity
  8
DETAIL
  6
Continuous
100
AcDbCircle
 10
42.5000021468814
 20
19.50000064585082
 30
0.0
 40
0.499999999999875
  0
LINE
  5
85672
330
8563C
100
AcDbEntity
  8
DETAIL
  6
DASHDOT
100
AcDbLine
 10
44.57106881351779
 20
19.50000064585082
 30
0.0
 11
42.5000021468814
 21
19.50000064585082
 31
0.0
  0
CIRCLE
  5
85673
330
8563C
100
AcDbEntity
  8
DETAIL
  6
Continuous
100
AcDbCircle
 10
56.9024821468675
 20
39.65000064583956
 30
0.0
 40
3.999999999998998
  0
LINE
  5
85674
330
8563C
100
AcDbEntity
  8
DETAIL
  6
Continuous
100
AcDbLine
 10
59.02380214687311
 20
41.77132064584521
 30
0.0
 11
54.7811621468618
 21
37.52868064584663
 31
0.0
  0
LINE
  5
85675
330
8563C
100
AcDbEntity
  8
DETAIL
  6
Continuous
100
AcDbLine
 10
59.02380214687311
 20
37.52868064584663
 30
0.0
 11
54.7811621468618
 21
41.77132064584521
 31
0.0
  0
LINE
  5
85676
330
8563C
100
AcDbEntity
  8
DETAIL
  6
Continuous
100
AcDbLine
 10
40.54612214685678
 20
26.3396673125103
 30
0.0
 11
45.042642146861
 21
21.84314731251242
 31
0.0
  0
LINE
  5
85677
330
8563C
100
AcDbEntity
  8
DETAIL
  6
DASHDOT
100
AcDbLine
 10
41.03553548017692
 20
18.03553397918176
 30
0.0
 11
42.5000021468814
 21
19.50000064585082
 31
0.0
  0
ARC
  5
85678
330
8563C
100
AcDbEntity
  8
DETAIL
  6
Continuous
100
AcDbCircle
 10
44.57106881351779
 20
14.50000064585264
 30
0.0
 40
4.999999999998748
100
AcDbArc
 50
90.0
 51
134.9999999999357
  0
ARC
  5
85679
330
8563C
100
AcDbEntity
  8
DETAIL
  6
Continuous
100
AcDbCircle
 10
79.00000214686315
 20
49.50000064584355
 30
0.0
 40
3.999999999998998
100
AcDbArc
 50
180.0
 51
270.0
  0
LINE
  5
8567A
330
8563C
100
AcDbEntity
  8
DETAIL
  6
Continuous
100
AcDbLine
 10
85.00000214687045
 20
45.50000064584173
 30
0.0
 11
79.00000214686315
 21
45.50000064584173
 31
0.0
  0
ARC
  5
8567B
330
8563C
100
AcDbEntity
  8
DETAIL
  6
Continuous
100
AcDbCircle
 10
85.00000214687045
 20
49.50000064584355
 30
0.0
 40
3.999999999998998
100
AcDbArc
 50
270.0
 51
308.6821870000536
  0
LINE
  5
8567C
330
8563C
100
AcDbEntity
  8
DETAIL
  6
Continuous
100
AcDbLine
 10
69.50000214684502
 20
27.70000064584611
 30
0.0
 11
69.50000214684502
 21
53.50000064583809
 31
0.0
  0
LINE
  5
8567D
330
8563C
100
AcDbEntity
  8
DETAIL
  6
Continuous
100
AcDbLine
 10
69.50000214684502
 20
53.50000064583809
 30
0.0
 11
67.5000021468759
 21
53.50000064583809
 31
0.0
  0
ARC
  5
8567E
330
8563C
100
AcDbEntity
  8
DETAIL
  6
Continuous
100
AcDbCircle
 10
79.50050881353582
 20
27.50000064584173
 30
0.0
 40
7.999999999997998
100
AcDbArc
 50
270.0
 51
314.9999999999357
  0
LINE
  5
8567F
330
8563C
100
AcDbEntity
  8
DETAIL
  6
Continuous
100
AcDbLine
 10
66.08620214686661
 20
28.30000064584646
 30
0.0
 11
66.08620214686661
 21
51.5000006458381
 31
0.0
  0
LINE
  5
85680
330
8563C
100
AcDbEntity
  8
DETAIL
  6
Continuous
100
AcDbLine
 10
68.0710688135214
 20
52.37868064583699
 30
0.0
 11
69.19238881351801
 21
53.50000064583809
 31
0.0
  0
ARC
  5
85681
330
8563C
100
AcDbEntity
  8
DETAIL
  6
Continuous
100
AcDbCircle
 10
65.9497488135176
 20
54.50000064584173
 30
0.0
 40
2.99999999999925
100
AcDbArc
 50
270.9597980000119
 51
314.9999999999357
  0
LINE
  5
85682
330
8563C
100
AcDbEntity
  8
DETAIL
  6
Continuous
100
AcDbLine
 10
69.50000214684502
 20
28.30000064584646
 30
0.0
 11
66.00000214683769
 21
28.30000064584646
 31
0.0
  0
LINE
  5
85683
330
8563C
100
AcDbEntity
  8
DETAIL
  6
Continuous
100
AcDbLine
 10
66.00000214683769
 20
53.50000064583809
 30
0.0
 11
67.5000021468759
 21
53.50000064583809
 31
0.0
  0
LINE
  5
85684
330
8563C
100
AcDbEntity
  8
DETAIL
  6
Continuous
100
AcDbLine
 10
66.00000214683769
 20
27.70000064584611
 30
0.0
 11
66.00000214683769
 21
53.50000064583809
 31
0.0
  0
LINE
  5
85685
330
8563C
100
AcDbEntity
  8
DETAIL
  6
Continuous
100
AcDbLine
 10
141.5019354801561
 20
30.18778731251268
 30
0.0
 11
106.5000021468558
 21
30.18778731251268
 31
0.0
  0
ARC
  5
85686
330
8563C
100
AcDbEntity
  8
DETAIL
  6
Continuous
100
AcDbCircle
 10
136.5000021468486
 20
-29.58205268747542
 30
0.0
 40
79.99999999997998
100
AcDbArc
 50
90.0
 51
119.1645000000654
  0
ARC
  5
85687
330
8563C
100
AcDbEntity
  8
DETAIL
  6
Continuous
100
AcDbCircle
 10
102.5000021468667
 20
41.9294539791731
 30
0.0
 40
9.999999999997497
100
AcDbArc
 50
180.0
 51
270.0
  0
ARC
  5
85688
330
8563C
100
AcDbEntity
  8
DETAIL
  6
Continuous
100
AcDbCircle
 10
94.56729548020394
 20
21.35358731251335
 30
0.0
 40
6.99999999999825
100
AcDbArc
 50
114.9562360000826
 51
134.9999999999357
  0
LINE
  5
85689
330
8563C
100
AcDbEntity
  8
DETAIL
  6
Continuous
100
AcDbLine
 10
105.0000021468667
 20
31.92945397917582
 30
0.0
 11
105.0000021468667
 21
27.70000064584611
 31
0.0
  0
LINE
  5
8568A
330
8563C
100
AcDbEntity
  8
DETAIL
  6
Continuous
100
AcDbLine
 10
97.50000214686863
 20
31.92945397917582
 30
0.0
 11
105.5000021468467
 21
31.92945397917582
 31
0.0
  0
LINE
  5
8568B
330
8563C
100
AcDbEntity
  8
DETAIL
  6
Continuous
100
AcDbLine
 10
106.0000021468267
 20
30.68778731251085
 30
0.0
 11
106.0000021468267
 21
31.42945397917765
 31
0.0
  0
ARC
  5
8568C
330
8563C
100
AcDbEntity
  8
DETAIL
  6
Continuous
100
AcDbCircle
 10
105.5000021468467
 20
31.42945397917765
 30
0.0
 40
0.499999999999875
100
AcDbArc
 50
0.0
 51
90.0
  0
ARC
  5
8568D
330
8563C
100
AcDbEntity
  8
DETAIL
  6
Continuous
100
AcDbCircle
 10
106.5000021468558
 20
30.68778731251085
 30
0.0
 40
0.499999999999875
100
AcDbArc
 50
180.0
 51
270.0
  0
LINE
  5
8568E
330
8563C
100
AcDbEntity
  8
DETAIL
  6
Continuous
100
AcDbLine
 10
145.0513754801677
 20
26.03442731251334
 30
0.0
 11
149.242642146818
 21
21.84314731251242
 31
0.0
  0
ARC
  5
8568F
330
8563C
100
AcDbEntity
  8
DETAIL
  6
Continuous
100
AcDbCircle
 10
154.8994954801646
 20
27.50000064584173
 30
0.0
 40
7.999999999997998
100
AcDbArc
 50
225.0000000000642
 51
270.0
  0
LINE
  5
85690
330
8563C
100
AcDbEntity
  8
DETAIL
  6
DASHDOT
100
AcDbLine
 10
152.0000021468249
 20
30.33940064584612
 30
0.0
 11
152.0000021468249
 21
30.62560064584385
 31
0.0
  0
LINE
  5
85691
330
8563C
100
AcDbEntity
  8
DETAIL
  6
DASHDOT
100
AcDbLine
 10
142.0000021468267
 20
30.33940064584612
 30
0.0
 11
142.0000021468267
 21
30.62560064584385
 31
0.0
  0
LINE
  5
85692
330
8563C
100
AcDbEntity
  8
DETAIL
  6
Continuous
100
AcDbLine
 10
142.5000021468558
 20
31.12560064584295
 30
0.0
 11
151.5000021468449
 21
31.12560064584295
 31
0.0
  0
ARC
  5
85693
330
8563C
100
AcDbEntity
  8
DETAIL
  6
Continuous
100
AcDbCircle
 10
151.5000021468449
 20
30.62560064584385
 30
0.0
 40
0.499999999999875
100
AcDbArc
 50
3.564827000005899
 51
90.0
  0
ARC
  5
85694
330
8563C
100
AcDbEntity
  8
DETAIL
  6
Continuous
100
AcDbCircle
 10
142.5000021468558
 20
30.62560064584385
 30
0.0
 40
0.499999999999875
100
AcDbArc
 50
90.0
 51
176.435172999994
  0
ARC
  5
85695
330
8563C
100
AcDbEntity
  8
DETAIL
  6
Continuous
100
AcDbCircle
 10
152.4980688134974
 20
30.68778731251085
 30
0.0
 40
0.499999999999875
100
AcDbArc
 50
183.5648270000058
 51
270.0
  0
ARC
  5
85696
330
8563C
100
AcDbEntity
  8
DETAIL
  6
Continuous
100
AcDbCircle
 10
141.5019354801561
 20
30.68778731251085
 30
0.0
 40
0.499999999999875
100
AcDbArc
 50
270.0
 51
356.4351729999941
  0
LINE
  5
85697
330
8563C
100
AcDbEntity
  8
DETAIL
  6
Continuous
100
AcDbLine
 10
67.5000021468759
 20
129.000000645818
 30
0.0
 11
68.50000214683589
 21
128.7320539791494
 31
0.0
  0
ARC
  5
85698
330
8563C
100
AcDbEntity
  8
DETAIL
100
AcDbCircle
 10
22.80000214685796
 20
75.35374865671975
 30
0.0
 40
2.099999999999475
100
AcDbArc
 50
180.0
 51
259.9999999999452
  0
ARC
  5
85699
330
8563C
100
AcDbEntity
  8
DETAIL
100
AcDbCircle
 10
22.45000214687217
 20
75.06006865672464
 30
0.0
 40
4.249999999998935
100
AcDbArc
 50
180.0
 51
259.9999999999452
  0
LINE
  5
8569A
330
8563C
100
AcDbEntity
  8
DETAIL
100
AcDbLine
 10
32.50000214688498
 20
70.00002064590262
 30
0.0
 11
21.71199739178388
 21
70.87463570642455
 31
0.0
  0
LINE
  5
8569B
330
8563C
100
AcDbEntity
  8
DETAIL
100
AcDbLine
 10
32.50000214688316
 20
72.53859390750903
 30
0.0
 11
22.4353409737555
 21
73.28565237539499
 31
0.0
  0
LINE
  5
8569C
330
8563C
100
AcDbEntity
  8
DETAIL
  6
Continuous
100
AcDbLine
 10
29.05000214689221
 20
77.56716731257359
 30
0.0
 11
31.5000021468922
 21
77.56716731257353
 31
0.0
  0
LINE
  5
8569D
330
8563C
100
AcDbEntity
  8
DETAIL
  6
Continuous
100
AcDbLine
 10
21.70000214689218
 20
77.56716731257347
 30
0.0
 11
24.15000214689217
 21
77.56716731257347
 31
0.0
  0
LINE
  5
8569E
330
8563C
100
AcDbEntity
  8
DETAIL
100
AcDbLine
 10
20.70000214685888
 20
98.27249105449709
 30
0.0
 11
21.70000214688647
 21
98.27249105449709
 31
0.0
  0
LINE
  5
8569F
330
8563C
100
AcDbEntity
  8
DETAIL
100
AcDbLine
 10
31.50000214688651
 20
98.27249105449709
 30
0.0
 11
32.50000214688651
 21
98.27249105449709
 31
0.0
  0
LINE
  5
856A0
330
8563C
100
AcDbEntity
  8
DETAIL
100
AcDbLine
 10
24.15000214689217
 20
98.27249105449704
 30
0.0
 11
29.05000214688652
 21
98.27249105449704
 31
0.0
  0
LINE
  5
856A1
330
8563C
100
AcDbEntity
  8
DETAIL
100
AcDbLine
 10
31.50000214688651
 20
95.772491054498
 30
0.0
 11
32.50000214687932
 21
95.772491054498
 31
0.0
  0
LINE
  5
856A2
330
8563C
100
AcDbEntity
  8
DETAIL
100
AcDbLine
 10
24.15000214689217
 20
95.77249105449794
 30
0.0
 11
29.05000214688652
 21
95.77249105449794
 31
0.0
  0
LINE
  5
856A3
330
8563C
100
AcDbEntity
  8
DETAIL
100
AcDbLine
 10
20.70000214685884
 20
95.772491054498
 30
0.0
 11
21.70000214688647
 21
95.772491054498
 31
0.0
  0
LINE
  5
856A4
330
8563C
100
AcDbEntity
  8
DETAIL
  6
Continuous
100
AcDbLine
 10
87.00000214684134
 20
55.50000064583991
 30
0.0
 11
77.00000214684314
 21
55.50000064583991
 31
0.0
  0
ARC
  5
856A5
330
8563C
100
AcDbEntity
  8
DETAIL
  6
Continuous
100
AcDbCircle
 10
88.00000214685042
 20
56.50000064583629
 30
0.0
 40
0.9999999999997497
100
AcDbArc
 50
119.9999999999979
 51
180.0
  0
LINE
  5
856A6
330
8563C
100
AcDbEntity
  8
DETAIL
  6
Continuous
100
AcDbLine
 10
77.00000214684314
 20
55.50000064583991
 30
0.0
 11
77.04374881352579
 21
55.00000064583446
 31
0.0
  0
LINE
  5
856A7
330
8563C
100
AcDbEntity
  8
DETAIL
  6
Continuous
100
AcDbLine
 10
77.00000214684314
 20
56.50000064583629
 30
0.0
 11
77.00000214684314
 21
55.50000064583991
 31
0.0
  0
ARC
  5
856A8
330
8563C
100
AcDbEntity
  8
DETAIL
  6
Continuous
100
AcDbCircle
 10
76.00000214683404
 20
56.50000064583629
 30
0.0
 40
0.9999999999997497
100
AcDbArc
 50
0.0
 51
180.0
  0
LINE
  5
856A9
330
8563C
100
AcDbEntity
  8
DETAIL
  6
Continuous
100
AcDbLine
 10
87.00000214684134
 20
56.50000064583629
 30
0.0
 11
87.00000214684134
 21
55.50000064583991
 31
0.0
  0
LINE
  5
856AA
330
8563C
100
AcDbEntity
  8
DETAIL
  6
Continuous
100
AcDbLine
 10
87.00000214684134
 20
55.50000064583991
 30
0.0
 11
86.9562554802078
 21
55.00000064583446
 31
0.0
  0
ARC
  5
856AB
330
8563C
100
AcDbEntity
  8
DETAIL
  6
Continuous
100
AcDbCircle
 10
87.06497548019706
 20
58.0000006458381
 30
0.0
 40
2.99999999999925
100
AcDbArc
 50
270.0
 51
278.3378360001043
  0
LINE
  5
856AC
330
8563C
100
AcDbEntity
  8
DETAIL
  6
Continuous
100
AcDbLine
 10
87.06497548019706
 20
55.00000064583446
 30
0.0
 11
75.00000214687403
 21
55.00000064583446
 31
0.0
  0
ARC
  5
856AD
330
8563C
100
AcDbEntity
  8
DETAIL
  6
Continuous
100
AcDbCircle
 10
84.00000214686132
 20
76.50000064583173
 30
0.0
 40
1.999999999999499
100
AcDbArc
 50
180.0
 51
0.0
  0
LINE
  5
856AE
330
8563C
100
AcDbEntity
  8
DETAIL
  6
Continuous
100
AcDbLine
 10
68.50000214683589
 20
128.5000006458198
 30
0.0
 11
67.5000021468759
 21
128.5000006458198
 31
0.0
  0
LINE
  5
856AF
330
8563C
100
AcDbEntity
  8
DETAIL
100
AcDbLine
 10
20.70000214685987
 20
168.7500076108487
 30
0.0
 11
21.70000214688749
 21
168.7500076108487
 31
0.0
  0
LINE
  5
856B0
330
8563C
100
AcDbEntity
  8
DETAIL
100
AcDbLine
 10
24.15000214689217
 20
168.7500076108487
 30
0.0
 11
29.05000214688755
 21
168.7500076108487
 31
0.0
  0
LINE
  5
856B1
330
8563C
100
AcDbEntity
  8
DETAIL
100
AcDbLine
 10
31.50000214688754
 20
168.7500076108487
 30
0.0
 11
32.50000214688034
 21
168.7500076108487
 31
0.0
  0
LINE
  5
856B2
330
8563C
100
AcDbEntity
  8
DETAIL
100
AcDbLine
 10
24.15000214689217
 20
171.2500076108478
 30
0.0
 11
29.05000214688755
 21
171.2500076108478
 31
0.0
  0
LINE
  5
856B3
330
8563C
100
AcDbEntity
  8
DETAIL
100
AcDbLine
 10
31.50000214688754
 20
171.2500076108478
 30
0.0
 11
32.50000214688753
 21
171.2500076108478
 31
0.0
  0
LINE
  5
856B4
330
8563C
100
AcDbEntity
  8
DETAIL
100
AcDbLine
 10
20.7000021468599
 20
171.2500076108478
 30
0.0
 11
21.70000214688749
 21
171.2500076108478
 31
0.0
  0
LINE
  5
856B5
330
8563C
100
AcDbEntity
  8
DETAIL
  6
Continuous
100
AcDbLine
 10
68.50000214683589
 20
149.500000645818
 30
0.0
 11
67.5000021468759
 21
149.500000645818
 31
0.0
  0
LINE
  5
856B6
330
8563C
100
AcDbEntity
  8
DETAIL
  6
Continuous
100
AcDbLine
 10
67.5000021468759
 20
149.0000006458135
 30
0.0
 11
68.50000214683589
 21
148.7320539791439
 31
0.0
  0
LINE
  5
856B7
330
8563C
100
AcDbEntity
  8
DETAIL
  6
DASHDOT
100
AcDbLine
 10
149.8821495388559
 20
189.4988535888657
 30
0.0
 11
149.8821495388559
 21
55.3660358729926
 31
0.0
  0
CIRCLE
  5
856B8
330
8563C
100
AcDbEntity
  8
DETAIL
  6
Continuous
100
AcDbCircle
 10
134.2771001707348
 20
105.2355128253998
 30
0.0
 40
5.87499999999853
  0
LINE
  5
856B9
330
8563C
100
AcDbEntity
  8
DETAIL
  6
Continuous
100
AcDbLine
 10
144.4657790861699
 20
105.8585631647226
 30
0.0
 11
137.193060890193
 21
95.45295790859494
 31
0.0
  0
LINE
  5
856BA
330
8563C
100
AcDbEntity
  8
DETAIL
  6
Continuous
100
AcDbLine
 10
145.7757716738273
 20
105.7450768687023
 30
0.0
 11
137.1750862562403
 21
110.4892452227068
 31
0.0
  0
LINE
  5
856BB
330
8563C
100
AcDbEntity
  8
DETAIL
  6
Continuous
100
AcDbLine
 10
137.7398606137602
 20
94.28300869810344
 30
0.0
 11
130.3434429371844
 21
100.7049246567389
 31
0.0
  0
LINE
  5
856BC
330
8563C
100
AcDbEntity
  8
DETAIL
  6
Continuous
100
AcDbLine
 10
137.193060890193
 20
95.45295790859494
 30
0.0
 11
142.57593229453
 21
83.93554698358569
 31
0.0
  0
LINE
  5
856BD
330
8563C
100
AcDbEntity
  8
DETAIL
  6
Continuous
100
AcDbLine
 10
135.7769629589909
 20
84.68871599627819
 30
0.0
 11
139.6404323389671
 21
90.216461485111
 31
0.0
  0
LINE
  5
856BE
330
8563C
100
AcDbEntity
  8
DETAIL
  6
DASHDOT
100
AcDbLine
 10
132.6560019960924
 20
94.32877545855754
 30
0.0
 11
166.1174553294257
 21
94.32877545855754
 31
0.0
  0
LINE
  5
856BF
330
8563C
100
AcDbEntity
  8
DETAIL
  6
Continuous
100
AcDbLine
 10
139.0855384896017
 20
78.94896578428897
 30
0.0
 11
132.2111039797124
 21
69.11320569840227
 31
0.0
  0
LINE
  5
856C0
330
8563C
100
AcDbEntity
  8
DETAIL
  6
Continuous
100
AcDbLine
 10
138.7281734354176
 20
63.33824181217851
 30
0.0
 11
124.5482931195479
 21
73.24888710330556
 31
0.0
  0
ARC
  5
856C1
330
8563C
100
AcDbEntity
  8
DETAIL
  6
Continuous
100
AcDbCircle
 10
140.8275895429863
 20
73.89172633171473
 30
0.0
 40
9.852813333330868
100
AcDbArc
 50
209.011791037743
 51
261.0870010377344
  0
LINE
  5
856C2
330
8563C
100
AcDbEntity
  8
DETAIL
  6
Continuous
100
AcDbLine
 10
146.7483493497651
 20
74.81328437939104
 30
0.0
 11
132.5684690338953
 21
84.72392967051899
 31
0.0
  0
LINE
  5
856C3
330
8563C
100
AcDbEntity
  8
DETAIL
  6
Continuous
100
AcDbLine
 10
135.7845117763686
 20
84.69953010541557
 30
0.0
 11
145.6202746456335
 21
77.82508255595705
 31
0.0
  0
LINE
  5
856C4
330
8563C
100
AcDbEntity
  8
DETAIL
  6
Continuous
100
AcDbLine
 10
144.3385266743757
 20
76.86358091072746
 30
0.0
 11
135.3222202981888
 21
83.16528874352552
 31
0.0
  0
LINE
  5
856C5
330
8563C
100
AcDbEntity
  8
DETAIL
  6
DASHDOT
100
AcDbLine
 10
134.2771001707348
 20
105.2355128253998
 30
0.0
 11
165.4236526535174
 21
83.46645206829299
 31
0.0
  0
LINE
  5
856C6
330
8563C
100
AcDbEntity
  8
DETAIL
  6
Continuous
100
AcDbLine
 10
135.7845117763686
 20
84.69953010541557
 30
0.0
 11
145.6202746456335
 21
77.82508255595705
 31
0.0
  0
ARC
  5
856C7
330
8563C
100
AcDbEntity
  8
DETAIL
  6
Continuous
100
AcDbCircle
 10
130.4690659659058
 20
74.17044793437518
 30
0.0
 40
9.852813333330868
100
AcDbArc
 50
29.01179103774298
 51
81.08700103773449
  0
LINE
  5
856C8
330
8563C
100
AcDbEntity
  8
DETAIL
  6
Continuous
100
AcDbLine
 10
135.1503653728234
 20
82.9193956679188
 30
0.0
 11
136.1866514213856
 21
84.40208542204938
 31
0.0
  0
LINE
  5
856C9
330
8563C
100
AcDbEntity
  8
DETAIL
  6
Continuous
100
AcDbLine
 10
135.7241056264358
 20
82.51838501912395
 30
0.0
 11
135.8959735913314
 21
82.76428087812563
 31
0.0
  0
LINE
  5
856CA
330
8563C
100
AcDbEntity
  8
DETAIL
  6
Continuous
100
AcDbLine
 10
135.7769629589909
 20
84.68871599627819
 30
0.0
 11
137.4081503526769
 21
87.02257393080385
 31
0.0
  0
LINE
  5
856CB
330
8563C
100
AcDbEntity
  8
DETAIL
  6
Continuous
100
AcDbLine
 10
135.8959735913314
 20
82.76428087812563
 30
0.0
 11
136.0167888261886
 21
84.15905805919233
 31
0.0
  0
ARC
  5
856CC
330
8563C
100
AcDbEntity
  8
DETAIL
  6
Continuous
100
AcDbCircle
 10
133.7376442569381
 20
78.84704106579049
 30
0.0
 40
9.852813333330868
100
AcDbArc
 50
209.011791037743
 51
261.0870010377344
  0
LINE
  5
856CD
330
8563C
100
AcDbEntity
  8
DETAIL
  6
Continuous
100
AcDbLine
 10
124.5482931195479
 20
73.24888710330556
 30
0.0
 11
132.5684690338953
 21
84.72392967051899
 31
0.0
  0
LINE
  5
856CE
330
8563C
100
AcDbEntity
  8
DETAIL
  6
Continuous
100
AcDbLine
 10
132.0743585463506
 20
106.6632915562903
 30
0.0
 11
136.4798417950723
 21
103.8077340944929
 31
0.0
  0
LINE
  5
856CF
330
8563C
100
AcDbEntity
  8
DETAIL
  6
Continuous
100
AcDbLine
 10
132.8493214398015
 20
103.0327712010381
 30
0.0
 11
135.7048789016215
 21
107.4382544497451
 31
0.0
  0
ARC
  5
856D0
330
8563C
100
AcDbEntity
  8
DETAIL
  6
Continuous
100
AcDbCircle
 10
134.2771001707348
 20
105.2355128253998
 30
0.0
 40
5.999999999998498
100
AcDbArc
 50
61.11867503768189
 51
229.0340190377408
  0
LINE
  5
856D1
330
8563C
100
AcDbEntity
  8
DETAIL
  6
Continuous
100
AcDbLine
 10
162.5116538229953
 20
93.24009094384821
 30
0.0
 11
155.2417343830277
 21
82.8384915318634
 31
0.0
  0
LINE
  5
856D2
330
8563C
100
AcDbEntity
  8
DETAIL
  6
Continuous
100
AcDbLine
 10
169.3615057285446
 20
87.99309590450359
 30
0.0
 11
161.9510653182279
 21
94.43957233191166
 31
0.0
  0
CIRCLE
  5
856D3
330
8563C
100
AcDbEntity
  8
DETAIL
  6
Continuous
100
AcDbCircle
 10
149.8503829318918
 20
94.3509838385413
 30
0.0
 40
10.99999999999724
  0
LINE
  5
856D4
330
8563C
100
AcDbEntity
  8
DETAIL
  6
Continuous
100
AcDbLine
 10
162.5205234975863
 20
78.2152893108353
 30
0.0
 11
153.9566917381332
 21
82.9498050465561
 31
0.0
  0
CIRCLE
  5
856D5
330
8563C
100
AcDbEntity
  8
DETAIL
  6
Continuous
100
AcDbCircle
 10
165.4236526535174
 20
83.46645206829295
 30
0.0
 40
5.87499999999853
  0
LINE
  5
856D6
330
8563C
100
AcDbEntity
  8
DETAIL
  6
Continuous
100
AcDbLine
 10
145.6125766750018
 20
77.81407300435144
 30
0.0
 11
149.4734552059453
 21
83.33811606892483
 31
0.0
  0
LINE
  5
856D7
330
8563C
100
AcDbEntity
  8
DETAIL
  6
Continuous
100
AcDbLine
 10
138.7281734354176
 20
63.33824181217851
 30
0.0
 11
146.7483493497651
 21
74.81328437939104
 31
0.0
  0
LINE
  5
856D8
330
8563C
100
AcDbEntity
  8
DETAIL
  6
Continuous
100
AcDbLine
 10
143.592918455869
 20
77.01869570051441
 30
0.0
 11
143.7647733812331
 21
77.26458877612732
 31
0.0
  0
LINE
  5
856D9
330
8563C
100
AcDbEntity
  8
DETAIL
  6
Continuous
100
AcDbLine
 10
144.1666717490116
 20
76.61768783511455
 30
0.0
 11
145.2030939112519
 21
78.10057024831512
 31
0.0
  0
LINE
  5
856DA
330
8563C
100
AcDbEntity
  8
DETAIL
  6
Continuous
100
AcDbLine
 10
143.7647733812331
 20
77.26458877612732
 30
0.0
 11
145.0330952023755
 21
77.85735022639427
 31
0.0
  0
ARC
  5
856DB
330
8563C
100
AcDbEntity
  8
DETAIL
  6
Continuous
100
AcDbCircle
 10
137.5589982123752
 20
69.21513041690518
 30
0.0
 40
9.852813333330868
100
AcDbArc
 50
29.01179103774298
 51
81.08700103773449
  0
LINE
  5
856DC
330
8563C
100
AcDbEntity
  8
DETAIL
  6
Continuous
100
AcDbLine
 10
155.2417343830277
 20
82.8384915318634
 30
0.0
 11
142.57593229453
 21
83.93554698358569
 31
0.0
  0
LINE
  5
856DD
330
8563C
100
AcDbEntity
  8
DETAIL
  6
Continuous
100
AcDbLine
 10
163.2209110291832
 20
84.89423079919315
 30
0.0
 11
167.6263942778535
 21
82.03867333739227
 31
0.0
  0
LINE
  5
856DE
330
8563C
100
AcDbEntity
  8
DETAIL
  6
Continuous
100
AcDbLine
 10
163.9958739226325
 20
81.26371044394806
 30
0.0
 11
166.8514313844042
 21
85.66919369263734
 31
0.0
  0
ARC
  5
856DF
330
8563C
100
AcDbEntity
  8
DETAIL
  6
Continuous
100
AcDbCircle
 10
165.423516539841
 20
83.46625940922423
 30
0.0
 40
5.999999999998498
100
AcDbArc
 50
241.0640360377418
 51
48.97938103769356
  0
LINE
  5
856E0
330
8563C
100
AcDbEntity
  8
DETAIL
  6
Continuous
100
AcDbLine
 10
157.1269158202363
 20
104.7617116233111
 30
0.0
 11
162.5116538229953
 21
93.24009094384821
 31
0.0
  0
LINE
  5
856E1
330
8563C
100
AcDbEntity
  8
DETAIL
  6
Continuous
100
AcDbLine
 10
160.4329856636623
 20
97.68784232586824
 30
0.0
 11
162.8432648990763
 21
101.153091534069
 31
0.0
  0
LINE
  5
856E2
330
8563C
100
AcDbEntity
  8
DETAIL
  6
Continuous
100
AcDbLine
 10
164.2352789838899
 20
101.4026551481281
 30
0.0
 11
151.5129747651525
 21
110.2566399170042
 31
0.0
  0
LINE
  5
856E3
330
8563C
100
AcDbEntity
  8
DETAIL
100
AcDbLine
 10
149.8821495388559
 20
94.32877545855754
 30
0.0
 11
170.9046908134383
 21
124.5596891904017
 31
0.0
  0
LINE
  5
856E4
330
8563C
100
AcDbEntity
  8
DETAIL
  6
Continuous
100
AcDbLine
 10
168.0985295569134
 20
108.7043964330372
 30
0.0
 11
157.0178030371172
 21
116.4159307311867
 31
0.0
  0
LINE
  5
856E5
330
8563C
100
AcDbEntity
  8
DETAIL
  6
Continuous
100
AcDbLine
 10
162.8432648990763
 20
101.153091534069
 30
0.0
 11
151.7625383792334
 21
108.8646258322018
 31
0.0
  0
LINE
  5
856E6
330
8563C
100
AcDbEntity
  8
DETAIL
  6
Continuous
100
AcDbLine
 10
169.2695323199253
 20
110.387018801728
 30
0.0
 11
158.18881883405
 21
118.0985559094139
 31
0.0
  0
LINE
  5
856E7
330
8563C
100
AcDbEntity
  8
DETAIL
100
AcDbLine
 10
162.01687245497
 20
118.7848658769936
 30
0.0
 11
168.5832223523123
 21
114.2150724226297
 31
0.0
  0
LINE
  5
856E8
330
8563C
100
AcDbEntity
  8
DETAIL
  6
Continuous
100
AcDbLine
 10
168.3480959805472
 20
107.3123693142683
 30
0.0
 11
155.6257917618566
 21
116.166354083161
 31
0.0
  0
LINE
  5
856E9
330
8563C
100
AcDbEntity
  8
DETAIL
100
AcDbLine
 10
149.8797810996402
 20
94.32400756061406
 30
0.0
 11
149.8877035690638
 21
94.32400756061406
 31
0.0
  0
LINE
  5
856EA
330
8563C
100
AcDbEntity
  8
DETAIL
100
AcDbLine
 10
149.8798984116265
 20
94.324055781462
 30
0.0
 11
149.8874298410973
 21
94.324055781462
 31
0.0
  0
LINE
  5
856EB
330
8563C
100
AcDbEntity
  8
DETAIL
100
AcDbLine
 10
149.880101752401
 20
94.32407989188641
 30
0.0
 11
149.8867963563761
 21
94.32407989188641
 31
0.0
  0
LINE
  5
856EC
330
8563C
100
AcDbEntity
  8
DETAIL
  6
Continuous
100
AcDbLine
 10
144.4657790861699
 20
105.8585631647226
 30
0.0
 11
157.1269158202363
 21
104.7617116233111
 31
0.0
  0
LINE
  5
856ED
330
8563C
100
AcDbEntity
  8
DETAIL
  6
Continuous
100
AcDbLine
 10
149.374529758668
 20
105.4332844957837
 30
0.0
 11
151.7625383792334
 21
108.8646258322018
 31
0.0
  0
LINE
  5
856EE
330
8563C
100
AcDbEntity
  8
DETAIL
  6
Continuous
100
AcDbLine
 10
151.5129747651525
 20
110.2566399170042
 30
0.0
 11
155.6257917618566
 21
116.166354083161
 31
0.0
  0
LINE
  5
856EF
330
8563C
100
AcDbEntity
  8
DETAIL
  6
Continuous
100
AcDbLine
 10
157.0177368824636
 20
116.4158815730667
 30
0.0
 11
155.625725607203
 21
116.166304925041
 31
0.0
  0
LINE
  5
856F0
330
8563C
100
AcDbEntity
  8
DETAIL
  6
Continuous
100
AcDbLine
 10
157.0177368824636
 20
116.4158815730667
 30
0.0
 11
158.1887526793964
 21
118.098506751294
 31
0.0
  0
LINE
  5
856F1
330
8563C
100
AcDbEntity
  8
DETAIL
  6
Continuous
100
AcDbLine
 10
151.7625383792334
 20
108.8646258322018
 30
0.0
 11
151.5129747651525
 21
110.2566399170042
 31
0.0
  0
LINE
  5
856F2
330
8563C
100
AcDbEntity
  8
DETAIL
  6
Continuous
100
AcDbLine
 10
162.01687245497
 20
118.7848658769936
 30
0.0
 11
158.18881883405
 21
118.0985559094139
 31
0.0
  0
LINE
  5
856F3
330
8563C
100
AcDbEntity
  8
DETAIL
  6
Continuous
100
AcDbLine
 10
168.5829381890857
 20
114.2146648902402
 30
0.0
 11
169.2687721148985
 21
110.3865259530609
 31
0.0
  0
LINE
  5
856F4
330
8563C
100
AcDbEntity
  8
DETAIL
  6
Continuous
100
AcDbLine
 10
164.2352789838899
 20
101.4026551481281
 30
0.0
 11
168.3480959805472
 21
107.3123693142683
 31
0.0
  0
LINE
  5
856F5
330
8563C
100
AcDbEntity
  8
DETAIL
  6
Continuous
100
AcDbLine
 10
168.099583138998
 20
108.6995086968751
 30
0.0
 11
169.2705859020099
 21
110.3821310655658
 31
0.0
  0
LINE
  5
856F6
330
8563C
100
AcDbEntity
  8
DETAIL
  6
Continuous
100
AcDbLine
 10
162.8432648990763
 20
101.153091534069
 30
0.0
 11
164.2352789838899
 21
101.4026551481281
 31
0.0
  0
LINE
  5
856F7
330
8563C
100
AcDbEntity
  8
DETAIL
  6
Continuous
100
AcDbLine
 10
168.099583138998
 20
108.6995086968751
 30
0.0
 11
168.3491495626318
 21
107.3074815781061
 31
0.0
  0
CIRCLE
  5
856F8
330
8563C
100
AcDbEntity
  8
DETAIL
  6
Continuous
100
AcDbCircle
 10
138.9840448973016
 20
182.0777489916284
 30
0.0
 40
5.87499999999853
  0
ARC
  5
856F9
330
8563C
100
AcDbEntity
  8
DETAIL
  6
Continuous
100
AcDbCircle
 10
138.9836448973117
 20
182.0774689916245
 30
0.0
 40
5.999999999998498
100
AcDbArc
 50
38.01684499996311
 51
211.9831549999768
  0
LINE
  5
856FA
330
8563C
100
AcDbEntity
  8
DETAIL
  6
Continuous
100
AcDbLine
 10
137.1278898973167
 20
183.9339039916269
 30
0.0
 11
140.8401998973375
 21
180.2215939916243
 31
0.0
  0
LINE
  5
856FB
330
8563C
100
AcDbEntity
  8
DETAIL
  6
Continuous
100
AcDbLine
 10
137.1278898973167
 20
180.2215939916243
 30
0.0
 11
140.8401998973375
 21
183.9339039916269
 31
0.0
  0
LINE
  5
856FC
330
8563C
100
AcDbEntity
  8
DETAIL
  6
DASHDOT
100
AcDbLine
 10
132.3286715640104
 20
166.5138556582982
 30
0.0
 11
172.9465248972909
 21
166.5138556582982
 31
0.0
  0
LINE
  5
856FD
330
8563C
100
AcDbEntity
  8
DETAIL
  6
Continuous
100
AcDbLine
 10
138.8234715639854
 20
158.7696956582979
 30
0.0
 11
137.6468715639992
 21
172.218322324957
 31
0.0
  0
LINE
  5
856FE
330
8563C
100
AcDbEntity
  8
DETAIL
  6
Continuous
100
AcDbLine
 10
137.9388448973193
 20
172.4227756582925
 30
0.0
 11
133.8944182306593
 21
178.8994423249618
 31
0.0
  0
LINE
  5
856FF
330
8563C
100
AcDbEntity
  8
DETAIL
  6
Continuous
100
AcDbLine
 10
148.7054182306536
 20
179.9616023249622
 30
0.0
 11
137.6468715639992
 21
172.218322324957
 31
0.0
  0
CIRCLE
  5
85700
330
8563C
100
AcDbEntity
  8
DETAIL
  6
Continuous
100
AcDbCircle
 10
138.9845248973186
 20
182.0774823249569
 30
0.0
 40
3.599999999999099
  0
LINE
  5
85701
330
8563C
100
AcDbEntity
  8
DETAIL
  6
DASHDOT
100
AcDbLine
 10
138.9845248973186
 20
182.0774823249569
 30
0.0
 11
160.7799515639625
 21
150.9499756582993
 31
0.0
  0
LINE
  5
85702
330
8563C
100
AcDbEntity
  8
DETAIL
  6
DASHDOT
100
AcDbLine
 10
149.8821495388559
 20
166.5138464877639
 30
0.0
 11
174.775561710192
 21
183.9433512971942
 31
0.0
  0
CIRCLE
  5
85703
330
8563C
100
AcDbEntity
  8
DETAIL
  6
Continuous
100
AcDbCircle
 10
149.8820048973019
 20
166.5138556582982
 30
0.0
 40
11.49999999999712
  0
LINE
  5
85704
330
8563C
100
AcDbEntity
  8
DETAIL
  6
Continuous
100
AcDbLine
 10
162.1171782306672
 20
160.8076289916255
 30
0.0
 11
160.9405782306319
 21
174.2562556582964
 31
0.0
  0
CIRCLE
  5
85705
330
8563C
100
AcDbEntity
  8
DETAIL
  6
Continuous
100
AcDbCircle
 10
160.7799515639625
 20
150.9499756582993
 30
0.0
 40
5.87499999999853
  0
LINE
  5
85706
330
8563C
100
AcDbEntity
  8
DETAIL
  6
Continuous
100
AcDbLine
 10
158.9237965639757
 20
152.8061306582979
 30
0.0
 11
162.6361065639983
 21
149.0938206582953
 31
0.0
  0
LINE
  5
85707
330
8563C
100
AcDbEntity
  8
DETAIL
  6
Continuous
100
AcDbLine
 10
158.9237965639757
 20
149.0938206582953
 30
0.0
 11
162.6361065639983
 21
152.8061306582979
 31
0.0
  0
LINE
  5
85708
330
8563C
100
AcDbEntity
  8
DETAIL
  6
Continuous
100
AcDbLine
 10
165.8690315639967
 20
154.1280023249631
 30
0.0
 11
161.8253382306273
 21
160.6032823249627
 31
0.0
  0
ARC
  5
85709
330
8563C
100
AcDbEntity
  8
DETAIL
  6
Continuous
100
AcDbCircle
 10
160.7798582306466
 20
150.9498956583023
 30
0.0
 40
5.999999999998498
100
AcDbArc
 50
218.0181909999732
 51
31.9840360000223
  0
LINE
  5
8570A
330
8563C
100
AcDbEntity
  8
DETAIL
  6
Continuous
100
AcDbLine
 10
156.0529648973177
 20
147.2544289916289
 30
0.0
 11
151.3508315639799
 21
153.2689489916295
 31
0.0
  0
LINE
  5
8570B
330
8563C
100
AcDbEntity
  8
DETAIL
  6
Continuous
100
AcDbLine
 10
138.8234715639854
 20
158.7696956582979
 30
0.0
 11
151.0586182306259
 21
153.0643489916323
 31
0.0
  0
LINE
  5
8570C
330
8563C
100
AcDbEntity
  8
DETAIL
  6
Continuous
100
AcDbLine
 10
162.1171782306672
 20
160.8076289916255
 30
0.0
 11
151.0586182306259
 21
153.0643489916323
 31
0.0
  0
LINE
  5
8570D
330
8563C
100
AcDbEntity
  8
DETAIL
  6
Continuous
100
AcDbLine
 10
164.6270163988357
 20
183.5509623249539
 30
0.0
 11
156.1493363988648
 21
177.6148289916249
 31
0.0
  0
LINE
  5
8570E
330
8563C
100
AcDbEntity
  8
DETAIL
  6
Continuous
100
AcDbLine
 10
162.7454430655089
 20
168.1945623249642
 30
0.0
 11
161.2902830655167
 21
170.2727489916282
 31
0.0
  0
LINE
  5
8570F
330
8563C
100
AcDbEntity
  8
DETAIL
  6
Continuous
100
AcDbLine
 10
162.7443895388599
 20
168.1960669222094
 30
0.0
 11
161.5445495388643
 21
167.3559202555402
 31
0.0
  0
LINE
  5
85710
330
8563C
100
AcDbEntity
  8
DETAIL
  6
Continuous
100
AcDbLine
 10
159.5892297321826
 20
180.0234689916245
 30
0.0
 11
165.8985763988586
 21
171.0127889916288
 31
0.0
  0
LINE
  5
85711
330
8563C
100
AcDbEntity
  8
DETAIL
  6
Continuous
100
AcDbLine
 10
148.7054182306536
 20
179.9616023249622
 30
0.0
 11
160.9405782306319
 21
174.2562556582964
 31
0.0
  0
LINE
  5
85712
330
8563C
100
AcDbEntity
  8
DETAIL
  6
Continuous
100
AcDbLine
 10
157.317723065502
 20
175.9461756582925
 30
0.0
 11
155.8625497321719
 21
178.0244023249574
 31
0.0
  0
LINE
  5
85713
330
8563C
100
AcDbEntity
  8
DETAIL
  6
Continuous
100
AcDbLine
 10
155.8614962055229
 20
178.0259069222026
 30
0.0
 11
154.6616295388515
 21
177.1857469222083
 31
0.0
  0
LINE
  5
85714
330
8563C
100
AcDbEntity
  8
DETAIL
  6
Continuous
100
AcDbLine
 10
148.4134315639938
 20
179.7571489916203
 30
0.0
 11
143.7106315640056
 21
185.7728289916261
 31
0.0
  0
LINE
  5
85715
330
8563C
100
AcDbEntity
  8
DETAIL
  6
Continuous
100
AcDbLine
 10
173.1847363988346
 20
177.5185089916251
 30
0.0
 11
171.2187763988441
 21
176.1419223249608
 31
0.0
  0
LINE
  5
85716
330
8563C
100
AcDbEntity
  8
DETAIL
  6
Continuous
100
AcDbLine
 10
170.4229897321803
 20
184.2522156582903
 30
0.0
 11
168.1946163988342
 21
184.6451356582913
 31
0.0
  0
LINE
  5
85717
330
8563C
100
AcDbEntity
  8
DETAIL
  6
Continuous
100
AcDbLine
 10
166.2286563988437
 20
183.2685489916205
 30
0.0
 11
164.6270163988357
 21
183.5509623249539
 31
0.0
  0
LINE
  5
85718
330
8563C
100
AcDbEntity
  8
DETAIL
  6
Continuous
100
AcDbLine
 10
168.1946163988342
 20
184.6451356582913
 30
0.0
 11
166.2286563988437
 21
183.2685489916205
 31
0.0
  0
LINE
  5
85719
330
8563C
100
AcDbEntity
  8
DETAIL
  6
Continuous
100
AcDbLine
 10
173.1847363988346
 20
177.5185089916251
 30
0.0
 11
168.1946163988342
 21
184.6451356582913
 31
0.0
  0
LINE
  5
8571A
330
8563C
100
AcDbEntity
  8
DETAIL
  6
Continuous
100
AcDbLine
 10
170.422989732134
 20
184.2522156582984
 30
0.0
 11
173.5776563988475
 21
179.7468689916206
 31
0.0
  0
LINE
  5
8571B
330
8563C
100
AcDbEntity
  8
DETAIL
  6
Continuous
100
AcDbLine
 10
173.5776563988475
 20
179.7468689916206
 30
0.0
 11
173.1847363988346
 21
177.5185089916251
 31
0.0
  0
LINE
  5
8571C
330
8563C
100
AcDbEntity
  8
DETAIL
  6
Continuous
100
AcDbLine
 10
170.9363630655099
 20
174.5402823249582
 30
0.0
 11
164.6270163988357
 21
183.5509623249539
 31
0.0
  0
LINE
  5
8571D
330
8563C
100
AcDbEntity
  8
DETAIL
  6
Continuous
100
AcDbLine
 10
171.2187763988441
 20
176.1419223249608
 30
0.0
 11
170.9363630655099
 21
174.5402823249582
 31
0.0
  0
LINE
  5
8571E
330
8563C
100
AcDbEntity
  8
DETAIL
  6
Continuous
100
AcDbLine
 10
166.2286563988437
 20
183.2685489916205
 30
0.0
 11
171.2187763988441
 21
176.1419223249608
 31
0.0
  0
LINE
  5
8571F
330
8563C
100
AcDbEntity
  8
DETAIL
  6
Continuous
100
AcDbLine
 10
170.9363630655099
 20
174.5402823249582
 30
0.0
 11
162.4586563988633
 21
168.6041356582967
 31
0.0
  0
ARC
  5
85720
330
8563C
100
AcDbEntity
  8
DETAIL
  6
Continuous
100
AcDbCircle
 10
136.5000021468486
 20
831.3157405144702
 30
0.0
 40
326.529906666585
100
AcDbArc
 50
270.0
 51
277.0329120000762
  0
ARC
  5
85721
330
8563C
100
AcDbEntity
  8
DETAIL
  6
Continuous
100
AcDbCircle
 10
136.5000021468486
 20
831.3157405144702
 30
0.0
 40
326.529906666585
100
AcDbArc
 50
262.9670879999221
 51
270.0
  0
LINE
  5
85722
330
8563C
100
AcDbEntity
  8
DETAIL
  6
Continuous
100
AcDbLine
 10
187.0000021468158
 20
558.8570205145379
 30
0.0
 11
187.0000021468158
 21
249.870827312457
 31
0.0
  0
LINE
  5
85723
330
8563C
100
AcDbEntity
  8
DETAIL
  6
Continuous
100
AcDbLine
 10
185.5000021468267
 20
558.8570205145379
 30
0.0
 11
185.5000021468267
 21
242.7839606457904
 31
0.0
  0
LINE
  5
85724
330
8563C
100
AcDbEntity
  8
DETAIL
  6
Continuous
100
AcDbLine
 10
180.5000021468267
 20
551.5893271812029
 30
0.0
 11
180.5000021468267
 21
239.7839606457932
 31
0.0
  0
LINE
  5
85725
330
8563C
100
AcDbEntity
  8
DETAIL
100
AcDbLine
 10
31.50000214688867
 20
251.2500076108478
 30
0.0
 11
32.50000214688867
 21
251.2500076108478
 31
0.0
  0
LINE
  5
85726
330
8563C
100
AcDbEntity
  8
DETAIL
100
AcDbLine
 10
24.15000214689214
 20
251.2500076108478
 30
0.0
 11
29.05000214688868
 21
251.2500076108478
 31
0.0
  0
LINE
  5
85727
330
8563C
100
AcDbEntity
  8
DETAIL
100
AcDbLine
 10
31.50000214688867
 20
248.7500076108488
 30
0.0
 11
32.50000214688148
 21
248.7500076108488
 31
0.0
  0
LINE
  5
85728
330
8563C
100
AcDbEntity
  8
DETAIL
100
AcDbLine
 10
24.15000214689214
 20
248.7500076108487
 30
0.0
 11
29.05000214688868
 21
248.7500076108487
 31
0.0
  0
LINE
  5
85729
330
8563C
100
AcDbEntity
  8
DETAIL
100
AcDbLine
 10
20.70000214686101
 20
248.7500076108488
 30
0.0
 11
21.70000214688863
 21
248.7500076108488
 31
0.0
  0
LINE
  5
8572A
330
8563C
100
AcDbEntity
  8
DETAIL
100
AcDbLine
 10
20.70000214686103
 20
251.2500076108478
 30
0.0
 11
21.70000214688863
 21
251.2500076108478
 31
0.0
  0
LINE
  5
8572B
330
8563C
100
AcDbEntity
  8
DETAIL
100
AcDbLine
 10
20.70000214686217
 20
331.2500076108479
 30
0.0
 11
21.70000214688977
 21
331.2500076108479
 31
0.0
  0
LINE
  5
8572C
330
8563C
100
AcDbEntity
  8
DETAIL
100
AcDbLine
 10
20.70000214686214
 20
328.7500076108488
 30
0.0
 11
21.70000214688977
 21
328.7500076108488
 31
0.0
  0
LINE
  5
8572D
330
8563C
100
AcDbEntity
  8
DETAIL
100
AcDbLine
 10
24.15000214689214
 20
328.7500076108486
 30
0.0
 11
29.05000214688982
 21
328.7500076108487
 31
0.0
  0
LINE
  5
8572E
330
8563C
100
AcDbEntity
  8
DETAIL
100
AcDbLine
 10
31.50000214688981
 20
328.7500076108488
 30
0.0
 11
32.50000214688262
 21
328.7500076108488
 31
0.0
  0
LINE
  5
8572F
330
8563C
100
AcDbEntity
  8
DETAIL
100
AcDbLine
 10
24.15000214689214
 20
331.2500076108478
 30
0.0
 11
29.05000214688982
 21
331.2500076108478
 31
0.0
  0
LINE
  5
85730
330
8563C
100
AcDbEntity
  8
DETAIL
100
AcDbLine
 10
31.50000214688981
 20
331.2500076108479
 30
0.0
 11
32.50000214688981
 21
331.2500076108479
 31
0.0
  0
LINE
  5
85731
330
8563C
100
AcDbEntity
  8
DETAIL
  6
Continuous
100
AcDbLine
 10
68.50000214683589
 20
338.5000006457671
 30
0.0
 11
67.5000021468759
 21
338.5000006457671
 31
0.0
  0
LINE
  5
85732
330
8563C
100
AcDbEntity
  8
DETAIL
  6
Continuous
100
AcDbLine
 10
67.5000021468759
 20
339.0000006457662
 30
0.0
 11
68.50000214683589
 21
338.7320539790967
 31
0.0
  0
ARC
  5
85733
330
8563C
100
AcDbEntity
  8
DETAIL
  6
Continuous
100
AcDbCircle
 10
137.4952821468605
 20
530.4225739790539
 30
0.0
 40
255.9278533332693
100
AcDbArc
 50
263.9560989999949
 51
276.0460060000923
  0
ARC
  5
85734
330
8563C
100
AcDbEntity
  8
DETAIL
  6
Continuous
100
AcDbCircle
 10
137.5000021468576
 20
272.1467739791137
 30
0.0
 40
0.9999999999997497
100
AcDbArc
 50
221.4096219999614
 51
318.5903780000385
  0
ARC
  5
85735
330
8563C
100
AcDbEntity
  8
DETAIL
  6
Continuous
100
AcDbCircle
 10
137.4952821468605
 20
525.7848139790562
 30
0.0
 40
255.9278533332693
100
AcDbArc
 50
263.845784999934
 51
276.1563589998989
  0
ARC
  5
85736
330
8563C
100
AcDbEntity
  8
DETAIL
  6
Continuous
100
AcDbCircle
 10
137.4952821468605
 20
520.6317473123895
 30
0.0
 40
255.9278533332693
100
AcDbArc
 50
263.9560989999949
 51
276.0460060000923
  0
ARC
  5
85737
330
8563C
100
AcDbEntity
  8
DETAIL
  6
Continuous
100
AcDbCircle
 10
137.5000021468576
 20
262.3559473124554
 30
0.0
 40
0.9999999999997497
100
AcDbArc
 50
221.4096219999614
 51
318.5903780000385
  0
ARC
  5
85738
330
8563C
100
AcDbEntity
  8
DETAIL
  6
Continuous
100
AcDbCircle
 10
137.4952821468605
 20
515.9939873123915
 30
0.0
 40
255.9278533332693
100
AcDbArc
 50
263.845784999934
 51
276.1563589998989
  0
ARC
  5
85739
330
8563C
100
AcDbEntity
  8
DETAIL
  6
Continuous
100
AcDbCircle
 10
136.5000021468486
 20
430.2246939790769
 30
0.0
 40
200.3324266666165
100
AcDbArc
 50
260.6973839999712
 51
281.9917720000845
  0
ARC
  5
8573A
330
8563C
100
AcDbEntity
  8
DETAIL
  6
Continuous
100
AcDbCircle
 10
136.5000021468486
 20
294.3075073124449
 30
0.0
 40
79.99999999997998
100
AcDbArc
 50
240.8259230000854
 51
270.0
  0
ARC
  5
8573B
330
8563C
100
AcDbEntity
  8
DETAIL
  6
Continuous
100
AcDbCircle
 10
102.5000021468667
 20
222.6584939791341
 30
0.0
 40
9.999999999997497
100
AcDbArc
 50
80.69738399997131
 51
117.2081449999886
  0
ARC
  5
8573C
330
8563C
100
AcDbEntity
  8
DETAIL
  6
Continuous
100
AcDbCircle
 10
137.4952821468605
 20
527.4653473123903
 30
0.0
 40
255.9278533332693
100
AcDbArc
 50
263.845784999934
 51
264.7466329999326
  0
ARC
  5
8573D
330
8563C
100
AcDbEntity
  8
DETAIL
  6
Continuous
100
AcDbCircle
 10
137.4952821468605
 20
517.6745206457194
 30
0.0
 40
255.9278533332693
100
AcDbArc
 50
263.845784999934
 51
264.7466329999326
  0
ARC
  5
8573E
330
8563C
100
AcDbEntity
  8
DETAIL
  6
Continuous
100
AcDbCircle
 10
110.3057621468624
 20
273.6243606457869
 30
0.0
 40
2.305759999999423
100
AcDbArc
 50
83.9560989999949
 51
263.845784999934
  0
ARC
  5
8573F
330
8563C
100
AcDbEntity
  8
DETAIL
  6
Continuous
100
AcDbCircle
 10
110.3057621468624
 20
275.3048939791209
 30
0.0
 40
2.305759999999423
100
AcDbArc
 50
201.371953000008
 51
263.845784999934
  0
ARC
  5
85740
330
8563C
100
AcDbEntity
  8
DETAIL
  6
Continuous
100
AcDbCircle
 10
110.3057621468624
 20
263.83352064579
 30
0.0
 40
2.305759999999423
100
AcDbArc
 50
83.9560989999949
 51
263.845784999934
  0
ARC
  5
85741
330
8563C
100
AcDbEntity
  8
DETAIL
  6
Continuous
100
AcDbCircle
 10
110.3057621468624
 20
265.5140539791176
 30
0.0
 40
2.305759999999423
100
AcDbArc
 50
201.371953000008
 51
263.845784999934
  0
LINE
  5
85742
330
8563C
100
AcDbEntity
  8
DETAIL
  6
Continuous
100
AcDbLine
 10
136.7500021468376
 20
274.4958139791155
 30
0.0
 11
136.7500021468376
 21
271.4853339791175
 31
0.0
  0
ARC
  5
85743
330
8563C
100
AcDbEntity
  8
DETAIL
  6
Continuous
100
AcDbCircle
 10
137.4952821468605
 20
527.4653473123903
 30
0.0
 40
255.9278533332693
100
AcDbArc
 50
268.4757290000427
 51
269.833148999966
  0
LINE
  5
85744
330
8563C
100
AcDbEntity
  8
DETAIL
  6
Continuous
100
AcDbLine
 10
130.6874954801996
 20
274.5852806457837
 30
0.0
 11
130.6874954801996
 21
271.5969606457806
 31
0.0
  0
LINE
  5
85745
330
8563C
100
AcDbEntity
  8
DETAIL
  6
Continuous
100
AcDbLine
 10
129.1874954801614
 20
274.6296006457874
 30
0.0
 11
129.1874954801614
 21
271.5969606457806
 31
0.0
  0
ARC
  5
85746
330
8563C
100
AcDbEntity
  8
DETAIL
  6
Continuous
100
AcDbCircle
 10
137.4952821468605
 20
527.4653473123903
 30
0.0
 40
255.9278533332693
100
AcDbArc
 50
266.7811629999539
 51
268.1397690000078
  0
LINE
  5
85747
330
8563C
100
AcDbEntity
  8
DETAIL
  6
Continuous
100
AcDbLine
 10
123.1250021468613
 20
274.8984806457842
 30
0.0
 11
123.1250021468613
 21
271.9323873124471
 31
0.0
  0
LINE
  5
85748
330
8563C
100
AcDbEntity
  8
DETAIL
  6
Continuous
100
AcDbLine
 10
121.6250021468231
 20
274.9872673124522
 30
0.0
 11
121.6250021468231
 21
271.9323873124471
 31
0.0
  0
ARC
  5
85749
330
8563C
100
AcDbEntity
  8
DETAIL
  6
Continuous
100
AcDbCircle
 10
137.4952821468605
 20
527.4653473123903
 30
0.0
 40
255.9278533332693
100
AcDbArc
 50
265.0837729999266
 51
266.4447629999549
  0
LINE
  5
8574A
330
8563C
100
AcDbEntity
  8
DETAIL
  6
Continuous
100
AcDbLine
 10
115.5624954801851
 20
275.4362673124481
 30
0.0
 11
115.5624954801851
 21
272.4925073124509
 31
0.0
  0
LINE
  5
8574B
330
8563C
100
AcDbEntity
  8
DETAIL
  6
Continuous
100
AcDbLine
 10
114.0624954801942
 20
275.5697339791145
 30
0.0
 11
114.0624954801942
 21
272.4925073124509
 31
0.0
  0
ARC
  5
8574C
330
8563C
100
AcDbEntity
  8
DETAIL
  6
Continuous
100
AcDbCircle
 10
114.8124954801651
 20
273.1539339791165
 30
0.0
 40
0.9999999999997497
100
AcDbArc
 50
221.4096219999614
 51
318.5903780000385
  0
ARC
  5
8574D
330
8563C
100
AcDbEntity
  8
DETAIL
  6
Continuous
100
AcDbCircle
 10
122.3750021468413
 20
272.593813979119
 30
0.0
 40
0.9999999999997497
100
AcDbArc
 50
221.4096219999614
 51
318.5903780000385
  0
ARC
  5
8574E
330
8563C
100
AcDbEntity
  8
DETAIL
  6
Continuous
100
AcDbCircle
 10
129.9374954801814
 20
272.2583873124516
 30
0.0
 40
0.9999999999997497
100
AcDbArc
 50
221.4096219999614
 51
318.5903780000385
  0
LINE
  5
8574F
330
8563C
100
AcDbEntity
  8
DETAIL
  6
Continuous
100
AcDbLine
 10
136.7500021468376
 20
264.7049739791186
 30
0.0
 11
136.7500021468376
 21
261.694507312452
 31
0.0
  0
ARC
  5
85750
330
8563C
100
AcDbEntity
  8
DETAIL
  6
Continuous
100
AcDbCircle
 10
137.4952821468605
 20
517.6745206457194
 30
0.0
 40
255.9278533332693
100
AcDbArc
 50
268.4757290000427
 51
269.833148999966
  0
LINE
  5
85751
330
8563C
100
AcDbEntity
  8
DETAIL
  6
Continuous
100
AcDbLine
 10
130.6874954801996
 20
264.7944539791192
 30
0.0
 11
130.6874954801996
 21
261.8061206457845
 31
0.0
  0
LINE
  5
85752
330
8563C
100
AcDbEntity
  8
DETAIL
  6
Continuous
100
AcDbLine
 10
129.1874954801614
 20
264.8387739791164
 30
0.0
 11
129.1874954801614
 21
261.8061206457845
 31
0.0
  0
ARC
  5
85753
330
8563C
100
AcDbEntity
  8
DETAIL
  6
Continuous
100
AcDbCircle
 10
137.4952821468605
 20
517.6745206457194
 30
0.0
 40
255.9278533332693
100
AcDbArc
 50
266.7811629999539
 51
268.1397690000078
  0
LINE
  5
85754
330
8563C
100
AcDbEntity
  8
DETAIL
  6
Continuous
100
AcDbLine
 10
123.1250021468613
 20
265.1076539791196
 30
0.0
 11
123.1250021468613
 21
262.141547312451
 31
0.0
  0
LINE
  5
85755
330
8563C
100
AcDbEntity
  8
DETAIL
  6
Continuous
100
AcDbLine
 10
121.6250021468231
 20
265.1964273124562
 30
0.0
 11
121.6250021468231
 21
262.141547312451
 31
0.0
  0
ARC
  5
85756
330
8563C
100
AcDbEntity
  8
DETAIL
  6
Continuous
100
AcDbCircle
 10
137.4952821468605
 20
517.6745206457194
 30
0.0
 40
255.9278533332693
100
AcDbArc
 50
265.0837729999266
 51
266.4447629999549
  0
LINE
  5
85757
330
8563C
100
AcDbEntity
  8
DETAIL
  6
Continuous
100
AcDbLine
 10
115.5624954801851
 20
265.6454406457892
 30
0.0
 11
115.5624954801851
 21
262.7016673124539
 31
0.0
  0
LINE
  5
85758
330
8563C
100
AcDbEntity
  8
DETAIL
  6
Continuous
100
AcDbLine
 10
114.0624954801942
 20
265.7789073124554
 30
0.0
 11
114.0624954801942
 21
262.7016673124539
 31
0.0
  0
ARC
  5
85759
330
8563C
100
AcDbEntity
  8
DETAIL
  6
Continuous
100
AcDbCircle
 10
114.8124954801651
 20
263.3631073124511
 30
0.0
 40
0.9999999999997497
100
AcDbArc
 50
221.4096219999614
 51
318.5903780000385
  0
ARC
  5
8575A
330
8563C
100
AcDbEntity
  8
DETAIL
  6
Continuous
100
AcDbCircle
 10
122.3750021468413
 20
262.8029873124546
 30
0.0
 40
0.9999999999997497
100
AcDbArc
 50
221.4096219999614
 51
318.5903780000385
  0
ARC
  5
8575B
330
8563C
100
AcDbEntity
  8
DETAIL
  6
Continuous
100
AcDbCircle
 10
129.9374954801814
 20
262.4675606457871
 30
0.0
 40
0.9999999999997497
100
AcDbArc
 50
221.4096219999614
 51
318.5903780000385
  0
ARC
  5
8575C
330
8563C
100
AcDbEntity
  8
DETAIL
  6
Continuous
100
AcDbCircle
 10
185.5000021468267
 20
239.7839606457932
 30
0.0
 40
4.999999999998748
100
AcDbArc
 50
180.0
 51
270.0
  0
ARC
  5
8575D
330
8563C
100
AcDbEntity
  8
DETAIL
  6
Continuous
100
AcDbCircle
 10
137.4952821468605
 20
527.4653473123903
 30
0.0
 40
255.9278533332693
100
AcDbArc
 50
275.2554850000076
 51
276.1563589998989
  0
ARC
  5
8575E
330
8563C
100
AcDbEntity
  8
DETAIL
  6
Continuous
100
AcDbCircle
 10
137.4952821468605
 20
517.6745206457194
 30
0.0
 40
255.9278533332693
100
AcDbArc
 50
275.2554850000076
 51
276.1563589998989
  0
LINE
  5
8575F
330
8563C
100
AcDbEntity
  8
DETAIL
  6
Continuous
100
AcDbLine
 10
159.4374954801924
 20
275.437080645784
 30
0.0
 11
159.4374954801924
 21
272.4933339791182
 31
0.0
  0
ARC
  5
85760
330
8563C
100
AcDbEntity
  8
DETAIL
  6
Continuous
100
AcDbCircle
 10
137.4952821468605
 20
527.4653473123903
 30
0.0
 40
255.9278533332693
100
AcDbArc
 50
273.557351000086
 51
274.9183449999492
  0
LINE
  5
85761
330
8563C
100
AcDbEntity
  8
DETAIL
  6
Continuous
100
AcDbLine
 10
160.9374954801833
 20
275.5706006457835
 30
0.0
 11
160.9374954801833
 21
272.4933339791182
 31
0.0
  0
LINE
  5
85762
330
8563C
100
AcDbEntity
  8
DETAIL
  6
Continuous
100
AcDbLine
 10
153.3750021468449
 20
274.9878539791175
 30
0.0
 11
153.3750021468449
 21
271.9329339791169
 31
0.0
  0
LINE
  5
85763
330
8563C
100
AcDbEntity
  8
DETAIL
  6
Continuous
100
AcDbLine
 10
151.875002146854
 20
274.8990139791162
 30
0.0
 11
151.875002146854
 21
271.9329339791169
 31
0.0
  0
ARC
  5
85764
330
8563C
100
AcDbEntity
  8
DETAIL
  6
Continuous
100
AcDbCircle
 10
137.4952821468605
 20
527.4653473123903
 30
0.0
 40
255.9278533332693
100
AcDbArc
 50
271.8623420000243
 51
273.2209500000499
  0
LINE
  5
85765
330
8563C
100
AcDbEntity
  8
DETAIL
  6
Continuous
100
AcDbLine
 10
145.8124954801669
 20
274.6299073124487
 30
0.0
 11
145.8124954801669
 21
271.5972273124521
 31
0.0
  0
LINE
  5
85766
330
8563C
100
AcDbEntity
  8
DETAIL
  6
Continuous
100
AcDbLine
 10
144.3124954801778
 20
274.5855339791182
 30
0.0
 11
144.3124954801778
 21
271.5972273124521
 31
0.0
  0
ARC
  5
85767
330
8563C
100
AcDbEntity
  8
DETAIL
  6
Continuous
100
AcDbCircle
 10
137.4952821468605
 20
527.4653473123903
 30
0.0
 40
255.9278533332693
100
AcDbArc
 50
270.1689609999789
 51
271.5263820000378
  0
LINE
  5
85768
330
8563C
100
AcDbEntity
  8
DETAIL
  6
Continuous
100
AcDbLine
 10
138.2500021468285
 20
274.4958406457849
 30
0.0
 11
138.2500021468285
 21
271.4853339791175
 31
0.0
  0
ARC
  5
85769
330
8563C
100
AcDbEntity
  8
DETAIL
  6
Continuous
100
AcDbCircle
 10
145.062495480196
 20
272.25866731245
 30
0.0
 40
0.9999999999997497
100
AcDbArc
 50
221.4096219999614
 51
318.5903780000385
  0
ARC
  5
8576A
330
8563C
100
AcDbEntity
  8
DETAIL
  6
Continuous
100
AcDbCircle
 10
152.6250021468249
 20
272.5943739791205
 30
0.0
 40
0.9999999999997497
100
AcDbArc
 50
221.4096219999614
 51
318.5903780000385
  0
ARC
  5
8576B
330
8563C
100
AcDbEntity
  8
DETAIL
  6
Continuous
100
AcDbCircle
 10
160.1874954801633
 20
273.1547739791153
 30
0.0
 40
0.9999999999997497
100
AcDbArc
 50
221.4096219999614
 51
318.5903780000385
  0
LINE
  5
8576C
330
8563C
100
AcDbEntity
  8
DETAIL
  6
Continuous
100
AcDbLine
 10
159.4374954801924
 20
265.6462539791195
 30
0.0
 11
159.4374954801924
 21
262.7025073124535
 31
0.0
  0
ARC
  5
8576D
330
8563C
100
AcDbEntity
  8
DETAIL
  6
Continuous
100
AcDbCircle
 10
137.4952821468605
 20
517.6745206457194
 30
0.0
 40
255.9278533332693
100
AcDbArc
 50
273.557351000086
 51
274.9183449999492
  0
LINE
  5
8576E
330
8563C
100
AcDbEntity
  8
DETAIL
  6
Continuous
100
AcDbLine
 10
160.9374954801833
 20
265.779773979119
 30
0.0
 11
160.9374954801833
 21
262.7025073124535
 31
0.0
  0
LINE
  5
8576F
330
8563C
100
AcDbEntity
  8
DETAIL
  6
Continuous
100
AcDbLine
 10
153.3750021468449
 20
265.197013979115
 30
0.0
 11
153.3750021468449
 21
262.1421073124525
 31
0.0
  0
LINE
  5
85770
330
8563C
100
AcDbEntity
  8
DETAIL
  6
Continuous
100
AcDbLine
 10
151.875002146854
 20
265.1081873124516
 30
0.0
 11
151.875002146854
 21
262.1421073124525
 31
0.0
  0
ARC
  5
85771
330
8563C
100
AcDbEntity
  8
DETAIL
  6
Continuous
100
AcDbCircle
 10
137.4952821468605
 20
517.6745206457194
 30
0.0
 40
255.9278533332693
100
AcDbArc
 50
271.8623420000243
 51
273.2209500000499
  0
LINE
  5
85772
330
8563C
100
AcDbEntity
  8
DETAIL
  6
Continuous
100
AcDbLine
 10
145.8124954801669
 20
264.8390806457896
 30
0.0
 11
145.8124954801669
 21
261.8064006457884
 31
0.0
  0
LINE
  5
85773
330
8563C
100
AcDbEntity
  8
DETAIL
  6
Continuous
100
AcDbLine
 10
144.3124954801778
 20
264.7947073124527
 30
0.0
 11
144.3124954801778
 21
261.8064006457884
 31
0.0
  0
ARC
  5
85774
330
8563C
100
AcDbEntity
  8
DETAIL
  6
Continuous
100
AcDbCircle
 10
137.4952821468605
 20
517.6745206457194
 30
0.0
 40
255.9278533332693
100
AcDbArc
 50
270.1689609999789
 51
271.5263820000378
  0
LINE
  5
85775
330
8563C
100
AcDbEntity
  8
DETAIL
  6
Continuous
100
AcDbLine
 10
138.2500021468285
 20
264.7050006457889
 30
0.0
 11
138.2500021468285
 21
261.694507312452
 31
0.0
  0
ARC
  5
85776
330
8563C
100
AcDbEntity
  8
DETAIL
  6
Continuous
100
AcDbCircle
 10
145.062495480196
 20
262.4678406457845
 30
0.0
 40
0.9999999999997497
100
AcDbArc
 50
221.4096219999614
 51
318.5903780000385
  0
ARC
  5
85777
330
8563C
100
AcDbEntity
  8
DETAIL
  6
Continuous
100
AcDbCircle
 10
152.6250021468249
 20
262.8035473124496
 30
0.0
 40
0.9999999999997497
100
AcDbArc
 50
221.4096219999614
 51
318.5903780000385
  0
ARC
  5
85778
330
8563C
100
AcDbEntity
  8
DETAIL
  6
Continuous
100
AcDbCircle
 10
160.1874954801633
 20
263.3639473124571
 30
0.0
 40
0.9999999999997497
100
AcDbArc
 50
221.4096219999614
 51
318.5903780000385
  0
ARC
  5
85779
330
8563C
100
AcDbEntity
  8
DETAIL
  6
Continuous
100
AcDbCircle
 10
164.6942554801908
 20
275.3058939791193
 30
0.0
 40
2.305746666666089
100
AcDbArc
 50
276.1563589998989
 51
338.6279579999685
  0
ARC
  5
8577A
330
8563C
100
AcDbEntity
  8
DETAIL
  6
Continuous
100
AcDbCircle
 10
164.6942554801908
 20
273.6253606457852
 30
0.0
 40
2.305746666666089
100
AcDbArc
 50
276.1563589998989
 51
96.04600600009247
  0
ARC
  5
8577B
330
8563C
100
AcDbEntity
  8
DETAIL
  6
Continuous
100
AcDbCircle
 10
164.6942554801908
 20
265.5150673124485
 30
0.0
 40
2.305746666666089
100
AcDbArc
 50
276.1563589998989
 51
338.6279579999685
  0
ARC
  5
8577C
330
8563C
100
AcDbEntity
  8
DETAIL
  6
Continuous
100
AcDbCircle
 10
164.6942554801908
 20
263.8345339791206
 30
0.0
 40
2.305746666666089
100
AcDbArc
 50
276.1563589998989
 51
96.04600600009247
  0
ARC
  5
8577D
330
8563C
100
AcDbEntity
  8
DETAIL
  6
Continuous
100
AcDbCircle
 10
137.4952821468605
 20
564.9481339790403
 30
0.0
 40
255.9278533332693
100
AcDbArc
 50
263.845784999934
 51
276.1563589998989
  0
ARC
  5
8577E
330
8563C
100
AcDbEntity
  8
DETAIL
  6
Continuous
100
AcDbCircle
 10
137.4952821468605
 20
559.7950673123799
 30
0.0
 40
255.9278533332693
100
AcDbArc
 50
263.9560989999949
 51
276.0460060000923
  0
ARC
  5
8577F
330
8563C
100
AcDbEntity
  8
DETAIL
  6
Continuous
100
AcDbCircle
 10
137.5000021468576
 20
301.5192673124406
 30
0.0
 40
0.9999999999997497
100
AcDbArc
 50
221.4096219999614
 51
318.5903780000385
  0
ARC
  5
85780
330
8563C
100
AcDbEntity
  8
DETAIL
  6
Continuous
100
AcDbCircle
 10
137.4952821468605
 20
555.1573073123822
 30
0.0
 40
255.9278533332693
100
AcDbArc
 50
263.845784999934
 51
276.1563589998989
  0
ARC
  5
85781
330
8563C
100
AcDbEntity
  8
DETAIL
  6
Continuous
100
AcDbCircle
 10
137.4952821468605
 20
550.0042406457155
 30
0.0
 40
255.9278533332693
100
AcDbArc
 50
263.9560989999949
 51
276.0460060000923
  0
ARC
  5
85782
330
8563C
100
AcDbEntity
  8
DETAIL
  6
Continuous
100
AcDbCircle
 10
137.5000021468576
 20
291.7284406457816
 30
0.0
 40
0.9999999999997497
100
AcDbArc
 50
221.4096219999614
 51
318.5903780000385
  0
ARC
  5
85783
330
8563C
100
AcDbEntity
  8
DETAIL
  6
Continuous
100
AcDbCircle
 10
137.4952821468605
 20
545.3664806457168
 30
0.0
 40
255.9278533332693
100
AcDbArc
 50
263.845784999934
 51
276.1563589998989
  0
ARC
  5
85784
330
8563C
100
AcDbEntity
  8
DETAIL
  6
Continuous
100
AcDbCircle
 10
137.4952821468605
 20
540.2134006457186
 30
0.0
 40
255.9278533332693
100
AcDbArc
 50
263.9560989999949
 51
276.0460060000923
  0
ARC
  5
85785
330
8563C
100
AcDbEntity
  8
DETAIL
  6
Continuous
100
AcDbCircle
 10
137.5000021468576
 20
281.9376006457845
 30
0.0
 40
0.9999999999997497
100
AcDbArc
 50
221.4096219999614
 51
318.5903780000385
  0
ARC
  5
85786
330
8563C
100
AcDbEntity
  8
DETAIL
  6
Continuous
100
AcDbCircle
 10
137.4952821468605
 20
535.5756406457152
 30
0.0
 40
255.9278533332693
100
AcDbArc
 50
263.845784999934
 51
276.1563589998989
  0
ARC
  5
85787
330
8563C
100
AcDbEntity
  8
DETAIL
  6
Continuous
100
AcDbCircle
 10
137.4952821468605
 20
569.5858939790455
 30
0.0
 40
255.9278533332693
100
AcDbArc
 50
263.9560989999949
 51
276.0460060000923
  0
ARC
  5
85788
330
8563C
100
AcDbEntity
  8
DETAIL
  6
Continuous
100
AcDbCircle
 10
137.5000021468576
 20
311.3100939791114
 30
0.0
 40
0.9999999999997497
100
AcDbArc
 50
221.4096219999614
 51
318.5903780000385
  0
ARC
  5
85789
330
8563C
100
AcDbEntity
  8
DETAIL
  6
Continuous
100
AcDbCircle
 10
137.4952821468605
 20
556.8378406457163
 30
0.0
 40
255.9278533332693
100
AcDbArc
 50
263.845784999934
 51
264.7466329999326
  0
ARC
  5
8578A
330
8563C
100
AcDbEntity
  8
DETAIL
  6
Continuous
100
AcDbCircle
 10
137.4952821468605
 20
547.0470006457203
 30
0.0
 40
255.9278533332693
100
AcDbArc
 50
263.845784999934
 51
264.7466329999326
  0
ARC
  5
8578B
330
8563C
100
AcDbEntity
  8
DETAIL
  6
Continuous
100
AcDbCircle
 10
137.4952821468605
 20
537.2561739790494
 30
0.0
 40
255.9278533332693
100
AcDbArc
 50
263.845784999934
 51
264.7466329999326
  0
ARC
  5
8578C
330
8563C
100
AcDbEntity
  8
DETAIL
  6
Continuous
100
AcDbCircle
 10
137.4952821468605
 20
566.6286673123753
 30
0.0
 40
255.9278533332693
100
AcDbArc
 50
263.845784999934
 51
264.7466329999326
  0
ARC
  5
8578D
330
8563C
100
AcDbEntity
  8
DETAIL
  6
Continuous
100
AcDbCircle
 10
110.3057621468624
 20
302.9968406457742
 30
0.0
 40
2.305759999999423
100
AcDbArc
 50
83.9560989999949
 51
263.845784999934
  0
ARC
  5
8578E
330
8563C
100
AcDbEntity
  8
DETAIL
  6
Continuous
100
AcDbCircle
 10
110.3057621468624
 20
304.6773739791092
 30
0.0
 40
2.305759999999423
100
AcDbArc
 50
201.371953000008
 51
263.845784999934
  0
ARC
  5
8578F
330
8563C
100
AcDbEntity
  8
DETAIL
  6
Continuous
100
AcDbCircle
 10
110.3057621468624
 20
293.2060139791159
 30
0.0
 40
2.305759999999423
100
AcDbArc
 50
83.9560989999949
 51
263.845784999934
  0
ARC
  5
85790
330
8563C
100
AcDbEntity
  8
DETAIL
  6
Continuous
100
AcDbCircle
 10
110.3057621468624
 20
294.8865473124445
 30
0.0
 40
2.305759999999423
100
AcDbArc
 50
201.371953000008
 51
263.845784999934
  0
ARC
  5
85791
330
8563C
100
AcDbEntity
  8
DETAIL
  6
Continuous
100
AcDbCircle
 10
110.3057621468624
 20
283.415187312445
 30
0.0
 40
2.305759999999423
100
AcDbArc
 50
83.9560989999949
 51
263.845784999934
  0
ARC
  5
85792
330
8563C
100
AcDbEntity
  8
DETAIL
  6
Continuous
100
AcDbCircle
 10
110.3057621468624
 20
285.0957206457792
 30
0.0
 40
2.305759999999423
100
AcDbArc
 50
201.371953000008
 51
263.845784999934
  0
ARC
  5
85793
330
8563C
100
AcDbEntity
  8
DETAIL
  6
Continuous
100
AcDbCircle
 10
110.3057621468624
 20
312.787680645771
 30
0.0
 40
2.305759999999423
100
AcDbArc
 50
83.9560989999949
 51
263.845784999934
  0
ARC
  5
85794
330
8563C
100
AcDbEntity
  8
DETAIL
  6
Continuous
100
AcDbCircle
 10
110.3057621468624
 20
314.4682139791061
 30
0.0
 40
2.305759999999423
100
AcDbArc
 50
201.371953000008
 51
263.845784999934
  0
LINE
  5
85795
330
8563C
100
AcDbEntity
  8
DETAIL
  6
Continuous
100
AcDbLine
 10
136.7500021468376
 20
303.8682939791101
 30
0.0
 11
136.7500021468376
 21
300.8578273124426
 31
0.0
  0
ARC
  5
85796
330
8563C
100
AcDbEntity
  8
DETAIL
  6
Continuous
100
AcDbCircle
 10
137.4952821468605
 20
556.8378406457163
 30
0.0
 40
255.9278533332693
100
AcDbArc
 50
268.4757290000427
 51
269.833148999966
  0
LINE
  5
85797
330
8563C
100
AcDbEntity
  8
DETAIL
  6
Continuous
100
AcDbLine
 10
130.6874954801996
 20
303.9577739791097
 30
0.0
 11
130.6874954801996
 21
300.9694406457806
 31
0.0
  0
LINE
  5
85798
330
8563C
100
AcDbEntity
  8
DETAIL
  6
Continuous
100
AcDbLine
 10
129.1874954801614
 20
304.0020939791133
 30
0.0
 11
129.1874954801614
 21
300.9694406457806
 31
0.0
  0
ARC
  5
85799
330
8563C
100
AcDbEntity
  8
DETAIL
  6
Continuous
100
AcDbCircle
 10
137.4952821468605
 20
556.8378406457163
 30
0.0
 40
255.9278533332693
100
AcDbArc
 50
266.7811629999539
 51
268.1397690000078
  0
LINE
  5
8579A
330
8563C
100
AcDbEntity
  8
DETAIL
  6
Continuous
100
AcDbLine
 10
123.1250021468613
 20
304.2709739791102
 30
0.0
 11
123.1250021468613
 21
301.304867312448
 31
0.0
  0
LINE
  5
8579B
330
8563C
100
AcDbEntity
  8
DETAIL
  6
Continuous
100
AcDbLine
 10
121.6250021468231
 20
304.3597473124414
 30
0.0
 11
121.6250021468231
 21
301.304867312448
 31
0.0
  0
ARC
  5
8579C
330
8563C
100
AcDbEntity
  8
DETAIL
  6
Continuous
100
AcDbCircle
 10
137.4952821468605
 20
556.8378406457163
 30
0.0
 40
255.9278533332693
100
AcDbArc
 50
265.0837729999266
 51
266.4447629999549
  0
LINE
  5
8579D
330
8563C
100
AcDbEntity
  8
DETAIL
  6
Continuous
100
AcDbLine
 10
115.5624954801851
 20
304.8087606457742
 30
0.0
 11
115.5624954801851
 21
301.8649873124453
 31
0.0
  0
LINE
  5
8579E
330
8563C
100
AcDbEntity
  8
DETAIL
  6
Continuous
100
AcDbLine
 10
114.0624954801942
 20
304.9422273124404
 30
0.0
 11
114.0624954801942
 21
301.8649873124453
 31
0.0
  0
ARC
  5
8579F
330
8563C
100
AcDbEntity
  8
DETAIL
  6
Continuous
100
AcDbCircle
 10
114.8124954801651
 20
302.5264273124424
 30
0.0
 40
0.9999999999997497
100
AcDbArc
 50
221.4096219999614
 51
318.5903780000385
  0
ARC
  5
857A0
330
8563C
100
AcDbEntity
  8
DETAIL
  6
Continuous
100
AcDbCircle
 10
122.3750021468413
 20
301.9663073124397
 30
0.0
 40
0.9999999999997497
100
AcDbArc
 50
221.4096219999614
 51
318.5903780000385
  0
ARC
  5
857A1
330
8563C
100
AcDbEntity
  8
DETAIL
  6
Continuous
100
AcDbCircle
 10
129.9374954801814
 20
301.6308806457785
 30
0.0
 40
0.9999999999997497
100
AcDbArc
 50
221.4096219999614
 51
318.5903780000385
  0
LINE
  5
857A2
330
8563C
100
AcDbEntity
  8
DETAIL
  6
Continuous
100
AcDbLine
 10
136.7500021468376
 20
294.0774673124455
 30
0.0
 11
136.7500021468376
 21
291.0670006457779
 31
0.0
  0
ARC
  5
857A3
330
8563C
100
AcDbEntity
  8
DETAIL
  6
Continuous
100
AcDbCircle
 10
137.4952821468605
 20
547.0470006457203
 30
0.0
 40
255.9278533332693
100
AcDbArc
 50
268.4757290000427
 51
269.833148999966
  0
LINE
  5
857A4
330
8563C
100
AcDbEntity
  8
DETAIL
  6
Continuous
100
AcDbLine
 10
130.6874954801996
 20
294.1669473124452
 30
0.0
 11
130.6874954801996
 21
291.1786139791097
 31
0.0
  0
LINE
  5
857A5
330
8563C
100
AcDbEntity
  8
DETAIL
  6
Continuous
100
AcDbLine
 10
129.1874954801614
 20
294.2112673124424
 30
0.0
 11
129.1874954801614
 21
291.1786139791097
 31
0.0
  0
ARC
  5
857A6
330
8563C
100
AcDbEntity
  8
DETAIL
  6
Continuous
100
AcDbCircle
 10
137.4952821468605
 20
547.0470006457203
 30
0.0
 40
255.9278533332693
100
AcDbArc
 50
266.7811629999539
 51
268.1397690000078
  0
LINE
  5
857A7
330
8563C
100
AcDbEntity
  8
DETAIL
  6
Continuous
100
AcDbLine
 10
123.1250021468613
 20
294.4801473124457
 30
0.0
 11
123.1250021468613
 21
291.5140406457772
 31
0.0
  0
LINE
  5
857A8
330
8563C
100
AcDbEntity
  8
DETAIL
  6
Continuous
100
AcDbLine
 10
121.6250021468231
 20
294.5689206457823
 30
0.0
 11
121.6250021468231
 21
291.5140406457772
 31
0.0
  0
ARC
  5
857A9
330
8563C
100
AcDbEntity
  8
DETAIL
  6
Continuous
100
AcDbCircle
 10
137.4952821468605
 20
547.0470006457203
 30
0.0
 40
255.9278533332693
100
AcDbArc
 50
265.0837729999266
 51
266.4447629999549
  0
LINE
  5
857AA
330
8563C
100
AcDbEntity
  8
DETAIL
  6
Continuous
100
AcDbLine
 10
115.5624954801851
 20
295.0179206457782
 30
0.0
 11
115.5624954801851
 21
292.0741606457799
 31
0.0
  0
LINE
  5
857AB
330
8563C
100
AcDbEntity
  8
DETAIL
  6
Continuous
100
AcDbLine
 10
114.0624954801942
 20
295.1514006457823
 30
0.0
 11
114.0624954801942
 21
292.0741606457799
 31
0.0
  0
ARC
  5
857AC
330
8563C
100
AcDbEntity
  8
DETAIL
  6
Continuous
100
AcDbCircle
 10
114.8124954801651
 20
292.735600645778
 30
0.0
 40
0.9999999999997497
100
AcDbArc
 50
221.4096219999614
 51
318.5903780000385
  0
ARC
  5
857AD
330
8563C
100
AcDbEntity
  8
DETAIL
  6
Continuous
100
AcDbCircle
 10
122.3750021468413
 20
292.1754806457806
 30
0.0
 40
0.9999999999997497
100
AcDbArc
 50
221.4096219999614
 51
318.5903780000385
  0
ARC
  5
857AE
330
8563C
100
AcDbEntity
  8
DETAIL
  6
Continuous
100
AcDbCircle
 10
129.9374954801814
 20
291.8400539791132
 30
0.0
 40
0.9999999999997497
100
AcDbArc
 50
221.4096219999614
 51
318.5903780000385
  0
LINE
  5
857AF
330
8563C
100
AcDbEntity
  8
DETAIL
  6
Continuous
100
AcDbLine
 10
136.7500021468376
 20
284.2866406457801
 30
0.0
 11
136.7500021468376
 21
281.2761606457811
 31
0.0
  0
ARC
  5
857B0
330
8563C
100
AcDbEntity
  8
DETAIL
  6
Continuous
100
AcDbCircle
 10
137.4952821468605
 20
537.2561739790494
 30
0.0
 40
255.9278533332693
100
AcDbArc
 50
268.4757290000427
 51
269.833148999966
  0
LINE
  5
857B1
330
8563C
100
AcDbEntity
  8
DETAIL
  6
Continuous
100
AcDbLine
 10
130.6874954801996
 20
284.3761206457807
 30
0.0
 11
130.6874954801996
 21
281.3877873124515
 31
0.0
  0
LINE
  5
857B2
330
8563C
100
AcDbEntity
  8
DETAIL
  6
Continuous
100
AcDbLine
 10
129.1874954801614
 20
284.4204273124455
 30
0.0
 11
129.1874954801614
 21
281.3877873124515
 31
0.0
  0
ARC
  5
857B3
330
8563C
100
AcDbEntity
  8
DETAIL
  6
Continuous
100
AcDbCircle
 10
137.4952821468605
 20
537.2561739790494
 30
0.0
 40
255.9278533332693
100
AcDbArc
 50
266.7811629999539
 51
268.1397690000078
  0
LINE
  5
857B4
330
8563C
100
AcDbEntity
  8
DETAIL
  6
Continuous
100
AcDbLine
 10
123.1250021468613
 20
284.689320645781
 30
0.0
 11
123.1250021468613
 21
281.7232139791181
 31
0.0
  0
LINE
  5
857B5
330
8563C
100
AcDbEntity
  8
DETAIL
  6
Continuous
100
AcDbLine
 10
121.6250021468231
 20
284.7780939791114
 30
0.0
 11
121.6250021468231
 21
281.7232139791181
 31
0.0
  0
ARC
  5
857B6
330
8563C
100
AcDbEntity
  8
DETAIL
  6
Continuous
100
AcDbCircle
 10
137.4952821468605
 20
537.2561739790494
 30
0.0
 40
255.9278533332693
100
AcDbArc
 50
265.0837729999266
 51
266.4447629999549
  0
LINE
  5
857B7
330
8563C
100
AcDbEntity
  8
DETAIL
  6
Continuous
100
AcDbLine
 10
115.5624954801851
 20
285.2270939791127
 30
0.0
 11
115.5624954801851
 21
282.2833339791154
 31
0.0
  0
LINE
  5
857B8
330
8563C
100
AcDbEntity
  8
DETAIL
  6
Continuous
100
AcDbLine
 10
114.0624954801942
 20
285.3605606457854
 30
0.0
 11
114.0624954801942
 21
282.2833339791154
 31
0.0
  0
ARC
  5
857B9
330
8563C
100
AcDbEntity
  8
DETAIL
  6
Continuous
100
AcDbCircle
 10
114.8124954801651
 20
282.9447739791189
 30
0.0
 40
0.9999999999997497
100
AcDbArc
 50
221.4096219999614
 51
318.5903780000385
  0
ARC
  5
857BA
330
8563C
100
AcDbEntity
  8
DETAIL
  6
Continuous
100
AcDbCircle
 10
122.3750021468413
 20
282.3846539791161
 30
0.0
 40
0.9999999999997497
100
AcDbArc
 50
221.4096219999614
 51
318.5903780000385
  0
ARC
  5
857BB
330
8563C
100
AcDbEntity
  8
DETAIL
  6
Continuous
100
AcDbCircle
 10
129.9374954801814
 20
282.0492273124486
 30
0.0
 40
0.9999999999997497
100
AcDbArc
 50
221.4096219999614
 51
318.5903780000385
  0
LINE
  5
857BC
330
8563C
100
AcDbEntity
  8
DETAIL
  6
Continuous
100
AcDbLine
 10
136.7500021468376
 20
313.6591339791069
 30
0.0
 11
136.7500021468376
 21
310.648653979108
 31
0.0
  0
LINE
  5
857BD
330
8563C
100
AcDbEntity
  8
DETAIL
  6
Continuous
100
AcDbLine
 10
130.6874954801996
 20
313.7486006457752
 30
0.0
 11
130.6874954801996
 21
310.7602806457774
 31
0.0
  0
ARC
  5
857BE
330
8563C
100
AcDbEntity
  8
DETAIL
  6
Continuous
100
AcDbCircle
 10
129.9374954801814
 20
311.4217073124432
 30
0.0
 40
0.9999999999997497
100
AcDbArc
 50
221.4096219999614
 51
318.5903780000385
  0
LINE
  5
857BF
330
8563C
100
AcDbEntity
  8
DETAIL
  6
Continuous
100
AcDbLine
 10
129.1874954801614
 20
313.7929206457724
 30
0.0
 11
129.1874954801614
 21
310.7602806457774
 31
0.0
  0
LINE
  5
857C0
330
8563C
100
AcDbEntity
  8
DETAIL
  6
Continuous
100
AcDbLine
 10
123.1250021468613
 20
314.0618006457757
 30
0.0
 11
123.1250021468613
 21
311.0957073124449
 31
0.0
  0
ARC
  5
857C1
330
8563C
100
AcDbEntity
  8
DETAIL
  6
Continuous
100
AcDbCircle
 10
122.3750021468413
 20
311.7571339791105
 30
0.0
 40
0.9999999999997497
100
AcDbArc
 50
221.4096219999614
 51
318.5903780000385
  0
LINE
  5
857C2
330
8563C
100
AcDbEntity
  8
DETAIL
  6
Continuous
100
AcDbLine
 10
121.6250021468231
 20
314.1505873124374
 30
0.0
 11
121.6250021468231
 21
311.0957073124449
 31
0.0
  0
LINE
  5
857C3
330
8563C
100
AcDbEntity
  8
DETAIL
  6
Continuous
100
AcDbLine
 10
115.5624954801851
 20
314.5995873124397
 30
0.0
 11
115.5624954801851
 21
311.6558273124414
 31
0.0
  0
ARC
  5
857C4
330
8563C
100
AcDbEntity
  8
DETAIL
  6
Continuous
100
AcDbCircle
 10
114.8124954801651
 20
312.3172539791071
 30
0.0
 40
0.9999999999997497
100
AcDbArc
 50
221.4096219999614
 51
318.5903780000385
  0
LINE
  5
857C5
330
8563C
100
AcDbEntity
  8
DETAIL
  6
Continuous
100
AcDbLine
 10
114.0624954801942
 20
314.7330539791114
 30
0.0
 11
114.0624954801942
 21
311.6558273124414
 31
0.0
  0
ARC
  5
857C6
330
8563C
100
AcDbEntity
  8
DETAIL
  6
Continuous
100
AcDbCircle
 10
137.4952821468605
 20
566.6286673123753
 30
0.0
 40
255.9278533332693
100
AcDbArc
 50
268.4757290000427
 51
269.833148999966
  0
ARC
  5
857C7
330
8563C
100
AcDbEntity
  8
DETAIL
  6
Continuous
100
AcDbCircle
 10
137.4952821468605
 20
566.6286673123753
 30
0.0
 40
255.9278533332693
100
AcDbArc
 50
266.7811629999539
 51
268.1397690000078
  0
ARC
  5
857C8
330
8563C
100
AcDbEntity
  8
DETAIL
  6
Continuous
100
AcDbCircle
 10
137.4952821468605
 20
566.6286673123753
 30
0.0
 40
255.9278533332693
100
AcDbArc
 50
265.0837729999266
 51
266.4447629999549
  0
SPLINE
  5
857C9
330
8563C
100
AcDbEntity
  8
DETAIL
  6
Continuous
100
AcDbSpline
210
0.0
220
0.0
230
1.0
 70
     8
 71
     3
 72
     8
 73
     4
 74
     0
 42
0.0000000001
 43
0.0000000001
 40
0.0
 40
0.0
 40
0.0
 40
0.0
 40
1.0
 40
1.0
 40
1.0
 40
1.0
 10
92.55984782714312
 20
340.8009899399699
 30
0.0
 10
92.5592227846946
 20
340.8172032173465
 30
0.0
 10
92.55865006685873
 20
340.8333910092628
 30
0.0
 10
92.55807734902282
 20
340.8495788011717
 30
0.0
  0
SPLINE
  5
857CA
330
8563C
100
AcDbEntity
  8
DETAIL
  6
Continuous
100
AcDbSpline
210
0.0
220
0.0
230
1.0
 70
     8
 71
     3
 72
     8
 73
     4
 74
     0
 42
0.0000000001
 43
0.0000000001
 40
0.0
 40
0.0
 40
0.0
 40
0.0
 40
1.0
 40
1.0
 40
1.0
 40
1.0
 10
92.56190842068553
 20
340.7524282730451
 30
0.0
 10
92.56115023675464
 20
340.7685378997488
 30
0.0
 10
92.56047286964987
 20
340.7847766625932
 30
0.0
 10
92.55984782714312
 20
340.8009899399699
 30
0.0
  0
SPLINE
  5
857CB
330
8563C
100
AcDbEntity
  8
DETAIL
  6
Continuous
100
AcDbSpline
210
0.0
220
0.0
230
1.0
 70
     8
 71
     3
 72
     8
 73
     4
 74
     0
 42
0.0000000001
 43
0.0000000001
 40
0.0
 40
0.0
 40
0.0
 40
0.0
 40
1.0
 40
1.0
 40
1.0
 40
1.0
 10
92.56454924492665
 20
340.7039209946237
 30
0.0
 10
92.56350560534428
 20
340.7203381557633
 30
0.0
 10
92.56266660457276
 20
340.7363186463339
 30
0.0
 10
92.56190842068553
 20
340.7524282730451
 30
0.0
  0
SPLINE
  5
857CC
330
8563C
100
AcDbEntity
  8
DETAIL
  6
Continuous
100
AcDbSpline
210
0.0
220
0.0
230
1.0
 70
     8
 71
     3
 72
     8
 73
     4
 74
     0
 42
0.0000000001
 43
0.0000000001
 40
0.0
 40
0.0
 40
0.0
 40
0.0
 40
1.0
 40
1.0
 40
1.0
 40
1.0
 10
92.56806041528854
 20
340.6554952989831
 30
0.0
 10
92.5668411629458
 20
340.670650001783
 30
0.0
 10
92.56559288452354
 20
340.6875038334841
 30
0.0
 10
92.56454924492665
 20
340.7039209946237
 30
0.0
  0
SPLINE
  5
857CD
330
8563C
100
AcDbEntity
  8
DETAIL
  6
Continuous
100
AcDbSpline
210
0.0
220
0.0
230
1.0
 70
     8
 71
     3
 72
     8
 73
     4
 74
     0
 42
0.0000000001
 43
0.0000000001
 40
0.0
 40
0.0
 40
0.0
 40
0.0
 40
1.0
 40
1.0
 40
1.0
 40
1.0
 10
92.57273204714964
 20
340.6071783803712
 30
0.0
 10
92.57046989386527
 20
340.6268850222845
 30
0.0
 10
92.56927966764578
 20
340.6403405961832
 30
0.0
 10
92.56806041528854
 20
340.6554952989831
 30
0.0
  0
SPLINE
  5
857CE
330
8563C
100
AcDbEntity
  8
DETAIL
  6
Continuous
100
AcDbSpline
210
0.0
220
0.0
230
1.0
 70
     8
 71
     3
 72
     8
 73
     4
 74
     0
 42
0.0000000001
 43
0.0000000001
 40
0.0
 40
0.0
 40
0.0
 40
0.0
 40
1.0
 40
1.0
 40
1.0
 40
1.0
 10
92.5819953844193
 20
340.5373007326492
 30
0.0
 10
92.57832828082701
 20
340.5615140285303
 30
0.0
 10
92.57499420043403
 20
340.5874717384581
 30
0.0
 10
92.57273204714964
 20
340.6071783803712
 30
0.0
  0
SPLINE
  5
857CF
330
8563C
100
AcDbEntity
  8
DETAIL
  6
Continuous
100
AcDbSpline
210
0.0
220
0.0
230
1.0
 70
     8
 71
     3
 72
     8
 73
     4
 74
     0
 42
0.0000000001
 43
0.0000000001
 40
0.0
 40
0.0
 40
0.0
 40
0.0
 40
1.0
 40
1.0
 40
1.0
 40
1.0
 10
92.59414902232038
 20
340.4678004829187
 30
0.0
 10
92.58966261490515
 20
340.490618554912
 30
0.0
 10
92.58566248805529
 20
340.5130874367609
 30
0.0
 10
92.5819953844193
 20
340.5373007326492
 30
0.0
  0
SPLINE
  5
857D0
330
8563C
100
AcDbEntity
  8
DETAIL
  6
Continuous
100
AcDbSpline
210
0.0
220
0.0
230
1.0
 70
     8
 71
     3
 72
     8
 73
     4
 74
     0
 42
0.0000000001
 43
0.0000000001
 40
0.0
 40
0.0
 40
0.0
 40
0.0
 40
1.0
 40
1.0
 40
1.0
 40
1.0
 10
92.6090274486205
 20
340.3987685894903
 30
0.0
 10
92.60360811757072
 20
340.4218151488244
 30
0.0
 10
92.59863542967741
 20
340.4449824109401
 30
0.0
 10
92.59414902232038
 20
340.4678004829187
 30
0.0
  0
SPLINE
  5
857D1
330
8563C
100
AcDbEntity
  8
DETAIL
  6
Continuous
100
AcDbSpline
210
0.0
220
0.0
230
1.0
 70
     8
 71
     3
 72
     8
 73
     4
 74
     0
 42
0.0000000001
 43
0.0000000001
 40
0.0
 40
0.0
 40
0.0
 40
0.0
 40
1.0
 40
1.0
 40
1.0
 40
1.0
 10
92.62646515129109
 20
340.3302960106524
 30
0.0
 10
92.62031275378921
 20
340.352796173604
 30
0.0
 10
92.61444677965572
 20
340.3757220301562
 30
0.0
 10
92.6090274486205
 20
340.3987685894903
 30
0.0
  0
SPLINE
  5
857D2
330
8563C
100
AcDbEntity
  8
DETAIL
  6
Continuous
100
AcDbSpline
210
0.0
220
0.0
230
1.0
 70
     8
 71
     3
 72
     8
 73
     4
 74
     0
 42
0.0000000001
 43
0.0000000001
 40
0.0
 40
0.0
 40
0.0
 40
0.0
 40
1.0
 40
1.0
 40
1.0
 40
1.0
 10
92.64629661807067
 20
340.2624737046867
 30
0.0
 10
92.63905636954678
 20
340.2857213783577
 30
0.0
 10
92.63261754873473
 20
340.3077958477009
 30
0.0
 10
92.62646515129109
 20
340.3302960106524
 30
0.0
  0
SPLINE
  5
857D3
330
8563C
100
AcDbEntity
  8
DETAIL
  6
Continuous
100
AcDbSpline
210
0.0
220
0.0
230
1.0
 70
     8
 71
     3
 72
     8
 73
     4
 74
     0
 42
0.0000000001
 43
0.0000000001
 40
0.0
 40
0.0
 40
0.0
 40
0.0
 40
1.0
 40
1.0
 40
1.0
 40
1.0
 10
92.66997493374312
 20
340.1908396003714
 30
0.0
 10
92.66157854278661
 20
340.2148051530534
 30
0.0
 10
92.65353686659453
 20
340.2392260310302
 30
0.0
 10
92.64629661807067
 20
340.2624737046867
 30
0.0
  0
SPLINE
  5
857D4
330
8563C
100
AcDbEntity
  8
DETAIL
  6
Continuous
100
AcDbSpline
210
0.0
220
0.0
230
1.0
 70
     8
 71
     3
 72
     8
 73
     4
 74
     0
 42
0.0000000001
 43
0.0000000001
 40
0.0
 40
0.0
 40
0.0
 40
0.0
 40
1.0
 40
1.0
 40
1.0
 40
1.0
 10
92.6962082429245
 20
340.1201430827791
 30
0.0
 10
92.68712243034769
 20
340.1433638203384
 30
0.0
 10
92.67837132465592
 20
340.1668740477039
 30
0.0
 10
92.66997493374312
 20
340.1908396003714
 30
0.0
  0
SPLINE
  5
857D5
330
8563C
100
AcDbEntity
  8
DETAIL
  6
Continuous
100
AcDbSpline
210
0.0
220
0.0
230
1.0
 70
     8
 71
     3
 72
     8
 73
     4
 74
     0
 42
0.0000000001
 43
0.0000000001
 40
0.0
 40
0.0
 40
0.0
 40
0.0
 40
1.0
 40
1.0
 40
1.0
 40
1.0
 10
92.72500869035228
 20
340.0504758563259
 30
0.0
 10
92.7147145751087
 20
340.0739910974666
 30
0.0
 10
92.70529405555953
 20
340.0969223452197
 30
0.0
 10
92.6962082429245
 20
340.1201430827791
 30
0.0
  0
SPLINE
  5
857D6
330
8563C
100
AcDbEntity
  8
DETAIL
  6
Continuous
100
AcDbSpline
210
0.0
220
0.0
230
1.0
 70
     8
 71
     3
 72
     8
 73
     4
 74
     0
 42
0.0000000001
 43
0.0000000001
 40
0.0
 40
0.0
 40
0.0
 40
0.0
 40
1.0
 40
1.0
 40
1.0
 40
1.0
 10
92.75638842060381
 20
339.9819296254431
 30
0.0
 10
92.74647051656303
 20
340.0028613806357
 30
0.0
 10
92.7353028055959
 20
340.0269606151782
 30
0.0
 10
92.72500869035228
 20
340.0504758563259
 30
0.0
  0
SPLINE
  5
857D7
330
8563C
100
AcDbEntity
  8
DETAIL
  6
Continuous
100
AcDbSpline
210
0.0
220
0.0
230
1.0
 70
     8
 71
     3
 72
     8
 73
     4
 74
     0
 42
0.0000000001
 43
0.0000000001
 40
0.0
 40
0.0
 40
0.0
 40
0.0
 40
1.0
 40
1.0
 40
1.0
 40
1.0
 10
92.79035957834366
 20
339.9145960945684
 30
0.0
 10
92.77497442180264
 20
339.9432335944224
 30
0.0
 10
92.76630632465911
 20
339.9609978702577
 30
0.0
 10
92.75638842060381
 20
339.9819296254431
 30
0.0
  0
SPLINE
  5
857D8
330
8563C
100
AcDbEntity
  8
DETAIL
  6
Continuous
100
AcDbSpline
210
0.0
220
0.0
230
1.0
 70
     8
 71
     3
 72
     8
 73
     4
 74
     0
 42
0.0000000001
 43
0.0000000001
 40
0.0
 40
0.0
 40
0.0
 40
0.0
 40
1.0
 40
1.0
 40
1.0
 40
1.0
 10
92.84945702333152
 20
339.8106256177784
 30
0.0
 10
92.82784695075042
 20
339.8464478708632
 30
0.0
 10
92.80574473482648
 20
339.8859585947215
 30
0.0
 10
92.79035957834366
 20
339.9145960945684
 30
0.0
  0
SPLINE
  5
857D9
330
8563C
100
AcDbEntity
  8
DETAIL
  6
Continuous
100
AcDbSpline
210
0.0
220
0.0
230
1.0
 70
     8
 71
     3
 72
     8
 73
     4
 74
     0
 42
0.0000000001
 43
0.0000000001
 40
0.0
 40
0.0
 40
0.0
 40
0.0
 40
1.0
 40
1.0
 40
1.0
 40
1.0
 10
92.91478271428879
 20
339.7103028163696
 30
0.0
 10
92.89218502519451
 20
339.742669582411
 30
0.0
 10
92.87106709591261
 20
339.7748033647079
 30
0.0
 10
92.84945702333152
 20
339.8106256177784
 30
0.0
  0
SPLINE
  5
857DA
330
8563C
100
AcDbEntity
  8
DETAIL
  6
Continuous
100
AcDbSpline
210
0.0
220
0.0
230
1.0
 70
     8
 71
     3
 72
     8
 73
     4
 74
     0
 42
0.0000000001
 43
0.0000000001
 40
0.0
 40
0.0
 40
0.0
 40
0.0
 40
1.0
 40
1.0
 40
1.0
 40
1.0
 10
92.98602961948292
 20
339.6140011544416
 30
0.0
 10
92.96145785224599
 20
339.6453363005352
 30
0.0
 10
92.93738040333936
 20
339.6779360503282
 30
0.0
 10
92.91478271428879
 20
339.7103028163696
 30
0.0
  0
SPLINE
  5
857DB
330
8563C
100
AcDbEntity
  8
DETAIL
  6
Continuous
100
AcDbSpline
210
0.0
220
0.0
230
1.0
 70
     8
 71
     3
 72
     8
 73
     4
 74
     0
 42
0.0000000001
 43
0.0000000001
 40
0.0
 40
0.0
 40
0.0
 40
0.0
 40
1.0
 40
1.0
 40
1.0
 40
1.0
 10
93.06289070725416
 20
339.5220940961084
 30
0.0
 10
93.03566747235981
 20
339.5525954659464
 30
0.0
 10
93.01060138670528
 20
339.5826660083479
 30
0.0
 10
92.98602961948292
 20
339.6140011544416
 30
0.0
  0
SPLINE
  5
857DC
330
8563C
100
AcDbEntity
  8
DETAIL
  6
Continuous
100
AcDbSpline
210
0.0
220
0.0
230
1.0
 70
     8
 71
     3
 72
     8
 73
     4
 74
     0
 42
0.0000000001
 43
0.0000000001
 40
0.0
 40
0.0
 40
0.0
 40
0.0
 40
1.0
 40
1.0
 40
1.0
 40
1.0
 10
93.14505894594278
 20
339.4349551055059
 30
0.0
 10
93.11949432636994
 20
339.4606605290032
 30
0.0
 10
93.09011394219215
 20
339.4915927262776
 30
0.0
 10
93.06289070725416
 20
339.5220940961084
 30
0.0
  0
SPLINE
  5
857DD
330
8563C
100
AcDbEntity
  8
DETAIL
  6
Continuous
100
AcDbSpline
210
0.0
220
0.0
230
1.0
 70
     8
 71
     3
 72
     8
 73
     4
 74
     0
 42
0.0000000001
 43
0.0000000001
 40
0.0
 40
0.0
 40
0.0
 40
0.0
 40
1.0
 40
1.0
 40
1.0
 40
1.0
 10
93.21581958588014
 20
339.3676398897737
 30
0.0
 10
93.19237242048348
 20
339.3887710322892
 30
0.0
 10
93.17062356551559
 20
339.4092496820015
 30
0.0
 10
93.14505894594278
 20
339.4349551055059
 30
0.0
  0
SPLINE
  5
857DE
330
8563C
100
AcDbEntity
  8
DETAIL
  6
Continuous
100
AcDbSpline
210
0.0
220
0.0
230
1.0
 70
     8
 71
     3
 72
     8
 73
     4
 74
     0
 42
0.0000000001
 43
0.0000000001
 40
0.0
 40
0.0
 40
0.0
 40
0.0
 40
1.0
 40
1.0
 40
1.0
 40
1.0
 10
93.28974287901745
 20
339.3038958809197
 30
0.0
 10
93.26441222721859
 20
339.3247251119469
 30
0.0
 10
93.23926675132042
 20
339.3465087472582
 30
0.0
 10
93.21581958588014
 20
339.3676398897737
 30
0.0
  0
SPLINE
  5
857DF
330
8563C
100
AcDbEntity
  8
DETAIL
  6
Continuous
100
AcDbSpline
210
0.0
220
0.0
230
1.0
 70
     8
 71
     3
 72
     8
 73
     4
 74
     0
 42
0.0000000001
 43
0.0000000001
 40
0.0
 40
0.0
 40
0.0
 40
0.0
 40
1.0
 40
1.0
 40
1.0
 40
1.0
 10
93.36666280446026
 20
339.2438714706516
 30
0.0
 10
93.34058935863231
 20
339.2631918231641
 30
0.0
 10
93.31507353085997
 20
339.2830666498998
 30
0.0
 10
93.28974287901745
 20
339.3038958809197
 30
0.0
  0
SPLINE
  5
857E0
330
8563C
100
AcDbEntity
  8
DETAIL
  6
Continuous
100
AcDbSpline
210
0.0
220
0.0
230
1.0
 70
     8
 71
     3
 72
     8
 73
     4
 74
     0
 42
0.0000000001
 43
0.0000000001
 40
0.0
 40
0.0
 40
0.0
 40
0.0
 40
1.0
 40
1.0
 40
1.0
 40
1.0
 10
93.44641334122661
 20
339.1877150506557
 30
0.0
 10
93.41936731418629
 20
339.2057852398433
 30
0.0
 10
93.39273625027361
 20
339.2245511181394
 30
0.0
 10
93.36666280446026
 20
339.2438714706516
 30
0.0
  0
CIRCLE
  5
857E1
330
8563C
100
AcDbEntity
  8
DETAIL
  6
Continuous
100
AcDbCircle
 10
98.80070881352821
 20
330.256813979104
 30
0.0
 40
3.999999999998998
  0
LINE
  5
857E2
330
8563C
100
AcDbEntity
  8
DETAIL
  6
Continuous
100
AcDbLine
 10
97.08261548020074
 20
338.8495739791001
 30
0.0
 11
96.14197548020364
 21
338.8495739791001
 31
0.0
  0
LINE
  5
857E3
330
8563C
100
AcDbEntity
  8
DETAIL
  6
Continuous
100
AcDbLine
 10
94.53313548018469
 20
324.1668273124399
 30
0.0
 11
98.86942881350934
 21
324.1668139791022
 31
0.0
  0
SPLINE
  5
857E4
330
8563C
100
AcDbEntity
  8
DETAIL
  6
Continuous
100
AcDbSpline
210
0.0
220
0.0
230
1.0
 70
     8
 71
     3
 72
     8
 73
     4
 74
     0
 42
0.0000000001
 43
0.0000000001
 40
0.0
 40
0.0
 40
0.0
 40
0.0
 40
1.0
 40
1.0
 40
1.0
 40
1.0
 10
93.61374742699354
 20
339.0875682802874
 30
0.0
 10
93.58509180822967
 20
339.1028634664912
 30
0.0
 10
93.55673657839451
 20
339.118879663882
 30
0.0
 10
93.52882846839293
 20
339.1355750126244
 30
0.0
  0
SPLINE
  5
857E5
330
8563C
100
AcDbEntity
  8
DETAIL
  6
Continuous
100
AcDbSpline
210
0.0
220
0.0
230
1.0
 70
     8
 71
     3
 72
     8
 73
     4
 74
     0
 42
0.0000000001
 43
0.0000000001
 40
0.0
 40
0.0
 40
0.0
 40
0.0
 40
1.0
 40
1.0
 40
1.0
 40
1.0
 10
93.70092340700011
 20
339.0437452598785
 30
0.0
 10
93.67135905343548
 20
339.057698919067
 30
0.0
 10
93.64240304574286
 20
339.0722730940838
 30
0.0
 10
93.61374742699354
 20
339.0875682802874
 30
0.0
  0
SPLINE
  5
857E6
330
8563C
100
AcDbEntity
  8
DETAIL
  6
Continuous
100
AcDbSpline
210
0.0
220
0.0
230
1.0
 70
     8
 71
     3
 72
     8
 73
     4
 74
     0
 42
0.0000000001
 43
0.0000000001
 40
0.0
 40
0.0
 40
0.0
 40
0.0
 40
1.0
 40
1.0
 40
1.0
 40
1.0
 10
93.79011381522376
 20
339.0041231475775
 30
0.0
 10
93.76066045994321
 20
339.0164584573217
 30
0.0
 10
93.7304877605502
 20
339.0297916006824
 30
0.0
 10
93.70092340700011
 20
339.0437452598785
 30
0.0
  0
SPLINE
  5
857E7
330
8563C
100
AcDbEntity
  8
DETAIL
  6
Continuous
100
AcDbSpline
210
0.0
220
0.0
230
1.0
 70
     8
 71
     3
 72
     8
 73
     4
 74
     0
 42
0.0000000001
 43
0.0000000001
 40
0.0
 40
0.0
 40
0.0
 40
0.0
 40
1.0
 40
1.0
 40
1.0
 40
1.0
 10
93.88107605849016
 20
338.9687191396445
 30
0.0
 10
93.84830118170158
 20
338.9804503617419
 30
0.0
 10
93.81956717050433
 20
338.9917878378478
 30
0.0
 10
93.79011381522376
 20
339.0041231475775
 30
0.0
  0
SPLINE
  5
857E8
330
8563C
100
AcDbEntity
  8
DETAIL
  6
Continuous
100
AcDbSpline
210
0.0
220
0.0
230
1.0
 70
     8
 71
     3
 72
     8
 73
     4
 74
     0
 42
0.0000000001
 43
0.0000000001
 40
0.0
 40
0.0
 40
0.0
 40
0.0
 40
1.0
 40
1.0
 40
1.0
 40
1.0
 10
93.97356754361045
 20
338.9375504322747
 30
0.0
 10
93.95066667768787
 20
338.944862949473
 30
0.0
 10
93.91385093527878
 20
338.9569879175546
 30
0.0
 10
93.88107605849016
 20
338.9687191396445
 30
0.0
  0
SPLINE
  5
857E9
330
8563C
100
AcDbEntity
  8
DETAIL
  6
Continuous
100
AcDbSpline
210
0.0
220
0.0
230
1.0
 70
     8
 71
     3
 72
     8
 73
     4
 74
     0
 42
0.0000000001
 43
0.0000000001
 40
0.0
 40
0.0
 40
0.0
 40
0.0
 40
1.0
 40
1.0
 40
1.0
 40
1.0
 10
94.01826384829565
 20
338.9241636408264
 30
0.0
 10
94.00545439904181
 20
338.9277378487607
 30
0.0
 10
93.99646840959123
 20
338.9302379150763
 30
0.0
 10
93.97356754361045
 20
338.9375504322747
 30
0.0
  0
SPLINE
  5
857EA
330
8563C
100
AcDbEntity
  8
DETAIL
  6
Continuous
100
AcDbSpline
210
0.0
220
0.0
230
1.0
 70
     8
 71
     3
 72
     8
 73
     4
 74
     0
 42
0.0000000001
 43
0.0000000001
 40
0.0
 40
0.0
 40
0.0
 40
0.0
 40
1.0
 40
1.0
 40
1.0
 40
1.0
 10
94.06323787623934
 20
338.9118401516975
 30
0.0
 10
94.04770620669387
 20
338.9159410833312
 30
0.0
 10
94.03107329759313
 20
338.9205894328919
 30
0.0
 10
94.01826384829565
 20
338.9241636408264
 30
0.0
  0
SPLINE
  5
857EB
330
8563C
100
AcDbEntity
  8
DETAIL
  6
Continuous
100
AcDbSpline
210
0.0
220
0.0
230
1.0
 70
     8
 71
     3
 72
     8
 73
     4
 74
     0
 42
0.0000000001
 43
0.0000000001
 40
0.0
 40
0.0
 40
0.0
 40
0.0
 40
1.0
 40
1.0
 40
1.0
 40
1.0
 10
94.1084731845922
 20
338.9006710202087
 30
0.0
 10
94.09319997583317
 20
338.9041857063425
 30
0.0
 10
94.07876954581388
 20
338.9077392200565
 30
0.0
 10
94.06323787623934
 20
338.9118401516975
 30
0.0
  0
SPLINE
  5
857EC
330
8563C
100
AcDbEntity
  8
DETAIL
  6
Continuous
100
AcDbSpline
210
0.0
220
0.0
230
1.0
 70
     8
 71
     3
 72
     8
 73
     4
 74
     0
 42
0.0000000001
 43
0.0000000001
 40
0.0
 40
0.0
 40
0.0
 40
0.0
 40
1.0
 40
1.0
 40
1.0
 40
1.0
 10
94.15395333056311
 20
338.8907473017029
 30
0.0
 10
94.13986238086454
 20
338.8936804755579
 30
0.0
 10
94.12374639338031
 20
338.8971563340896
 30
0.0
 10
94.1084731845922
 20
338.9006710202087
 30
0.0
  0
SPLINE
  5
857ED
330
8563C
100
AcDbEntity
  8
DETAIL
  6
Continuous
100
AcDbSpline
210
0.0
220
0.0
230
1.0
 70
     8
 71
     3
 72
     8
 73
     4
 74
     0
 42
0.0000000001
 43
0.0000000001
 40
0.0
 40
0.0
 40
0.0
 40
0.0
 40
1.0
 40
1.0
 40
1.0
 40
1.0
 10
94.1996618712301
 20
338.8821600514787
 30
0.0
 10
94.18011019202912
 20
338.8854236386837
 30
0.0
 10
94.16804428021805
 20
338.8878141278551
 30
0.0
 10
94.15395333056311
 20
338.8907473017029
 30
0.0
  0
SPLINE
  5
857EE
330
8563C
100
AcDbEntity
  8
DETAIL
  6
Continuous
100
AcDbSpline
210
0.0
220
0.0
230
1.0
 70
     8
 71
     3
 72
     8
 73
     4
 74
     0
 42
0.0000000001
 43
0.0000000001
 40
0.0
 40
0.0
 40
0.0
 40
0.0
 40
1.0
 40
1.0
 40
1.0
 40
1.0
 10
94.27137448858504
 20
338.8714753247845
 30
0.0
 10
94.24625099702188
 20
338.8747597790719
 30
0.0
 10
94.21921355046015
 20
338.8788964642884
 30
0.0
 10
94.1996618712301
 20
338.8821600514787
 30
0.0
  0
SPLINE
  5
857EF
330
8563C
100
AcDbEntity
  8
DETAIL
  6
Continuous
100
AcDbSpline
210
0.0
220
0.0
230
1.0
 70
     8
 71
     3
 72
     8
 73
     4
 74
     0
 42
0.0000000001
 43
0.0000000001
 40
0.0
 40
0.0
 40
0.0
 40
0.0
 40
1.0
 40
1.0
 40
1.0
 40
1.0
 10
94.34349971637219
 20
338.8635695825072
 30
0.0
 10
94.31970751682911
 20
338.8657586471531
 30
0.0
 10
94.29649798017726
 20
338.8681908704969
 30
0.0
 10
94.27137448858504
 20
338.8714753247845
 30
0.0
  0
SPLINE
  5
857F0
330
8563C
100
AcDbEntity
  8
DETAIL
  6
Continuous
100
AcDbSpline
210
0.0
220
0.0
230
1.0
 70
     8
 71
     3
 72
     8
 73
     4
 74
     0
 42
0.0000000001
 43
0.0000000001
 40
0.0
 40
0.0
 40
0.0
 40
0.0
 40
1.0
 40
1.0
 40
1.0
 40
1.0
 10
94.41593440189992
 20
338.8577480785538
 30
0.0
 10
94.39166677832053
 20
338.8594346119502
 30
0.0
 10
94.36729191587165
 20
338.8613805178761
 30
0.0
 10
94.34349971637219
 20
338.8635695825072
 30
0.0
  0
SPLINE
  5
857F1
330
8563C
100
AcDbEntity
  8
DETAIL
  6
Continuous
100
AcDbSpline
210
0.0
220
0.0
230
1.0
 70
     8
 71
     3
 72
     8
 73
     4
 74
     0
 42
0.0000000001
 43
0.0000000001
 40
0.0
 40
0.0
 40
0.0
 40
0.0
 40
1.0
 40
1.0
 40
1.0
 40
1.0
 10
94.48857539263643
 20
338.8533160668089
 30
0.0
 10
94.46436241010179
 20
338.854634384283
 30
0.0
 10
94.44020202546472
 20
338.8560615451574
 30
0.0
 10
94.41593440189992
 20
338.8577480785538
 30
0.0
  0
SPLINE
  5
857F2
330
8563C
100
AcDbEntity
  8
DETAIL
  6
Continuous
100
AcDbSpline
210
0.0
220
0.0
230
1.0
 70
     8
 71
     3
 72
     8
 73
     4
 74
     0
 42
0.0000000001
 43
0.0000000001
 40
0.0
 40
0.0
 40
0.0
 40
0.0
 40
1.0
 40
1.0
 40
1.0
 40
1.0
 10
94.56131953599197
 20
338.8495788011646
 30
0.0
 10
94.53705395560337
 20
338.8507882752532
 30
0.0
 10
94.51278837517111
 20
338.8519977493347
 30
0.0
 10
94.48857539263643
 20
338.8533160668089
 30
0.0
  0
SPLINE
  5
857F3
330
8563C
100
AcDbEntity
  8
DETAIL
  6
Continuous
100
AcDbSpline
210
0.0
220
0.0
230
1.0
 70
     8
 71
     3
 72
     8
 73
     4
 74
     0
 42
0.0000000001
 43
0.0000000001
 40
0.0
 40
0.0
 40
0.0
 40
0.0
 40
1.0
 40
1.0
 40
1.0
 40
1.0
 10
94.50155989934955
 20
324.1662094115022
 30
0.0
 10
94.51211011961367
 20
324.1664328372212
 30
0.0
 10
94.52262482278547
 20
324.1666308598291
 30
0.0
 10
94.53313952601547
 20
324.1668288824444
 30
0.0
  0
SPLINE
  5
857F4
330
8563C
100
AcDbEntity
  8
DETAIL
  6
Continuous
100
AcDbSpline
210
0.0
220
0.0
230
1.0
 70
     8
 71
     3
 72
     8
 73
     4
 74
     0
 42
0.0000000001
 43
0.0000000001
 40
0.0
 40
0.0
 40
0.0
 40
0.0
 40
1.0
 40
1.0
 40
1.0
 40
1.0
 10
94.46998858968528
 20
324.1654572169286
 30
0.0
 10
94.4804239416999
 20
324.1657371569313
 30
0.0
 10
94.49100967907089
 20
324.1659859857759
 30
0.0
 10
94.50155989934955
 20
324.1662094115022
 30
0.0
  0
SPLINE
  5
857F5
330
8563C
100
AcDbEntity
  8
DETAIL
  6
Continuous
100
AcDbSpline
210
0.0
220
0.0
230
1.0
 70
     8
 71
     3
 72
     8
 73
     4
 74
     0
 42
0.0000000001
 43
0.0000000001
 40
0.0
 40
0.0
 40
0.0
 40
0.0
 40
1.0
 40
1.0
 40
1.0
 40
1.0
 10
94.43843391402426
 20
324.1644395751067
 30
0.0
 10
94.44926827086693
 20
324.1648662257579
 30
0.0
 10
94.45955323761245
 20
324.1651772769187
 30
0.0
 10
94.46998858968528
 20
324.1654572169286
 30
0.0
  0
SPLINE
  5
857F6
330
8563C
100
AcDbEntity
  8
DETAIL
  6
Continuous
100
AcDbSpline
210
0.0
220
0.0
230
1.0
 70
     8
 71
     3
 72
     8
 73
     4
 74
     0
 42
0.0000000001
 43
0.0000000001
 40
0.0
 40
0.0
 40
0.0
 40
0.0
 40
1.0
 40
1.0
 40
1.0
 40
1.0
 10
94.40690418941175
 20
324.1630237624125
 30
0.0
 10
94.41621581018354
 20
324.163470674321
 30
0.0
 10
94.42759955716701
 20
324.1640129244555
 30
0.0
 10
94.43843391402426
 20
324.1644395751067
 30
0.0
  0
SPLINE
  5
857F7
330
8563C
100
AcDbEntity
  8
DETAIL
  6
Continuous
100
AcDbSpline
210
0.0
220
0.0
230
1.0
 70
     8
 71
     3
 72
     8
 73
     4
 74
     0
 42
0.0000000001
 43
0.0000000001
 40
0.0
 40
0.0
 40
0.0
 40
0.0
 40
1.0
 40
1.0
 40
1.0
 40
1.0
 10
94.37540773280579
 20
324.1610770552147
 30
0.0
 10
94.39035307405083
 20
324.1622252768069
 30
0.0
 10
94.39759256863998
 20
324.1625768504968
 30
0.0
 10
94.40690418941175
 20
324.1630237624125
 30
0.0
  0
SPLINE
  5
857F8
330
8563C
100
AcDbEntity
  8
DETAIL
  6
Continuous
100
AcDbSpline
210
0.0
220
0.0
230
1.0
 70
     8
 71
     3
 72
     8
 73
     4
 74
     0
 42
0.0000000001
 43
0.0000000001
 40
0.0
 40
0.0
 40
0.0
 40
0.0
 40
1.0
 40
1.0
 40
1.0
 40
1.0
 10
94.31723676396449
 20
324.1557860780234
 30
0.0
 10
94.33781120361619
 20
324.1579839641567
 30
0.0
 10
94.36046239156075
 20
324.1599288336297
 30
0.0
 10
94.37540773280579
 20
324.1610770552147
 30
0.0
  0
SPLINE
  5
857F9
330
8563C
100
AcDbEntity
  8
DETAIL
  6
Continuous
100
AcDbSpline
210
0.0
220
0.0
230
1.0
 70
     8
 71
     3
 72
     8
 73
     4
 74
     0
 42
0.0000000001
 43
0.0000000001
 40
0.0
 40
0.0
 40
0.0
 40
0.0
 40
1.0
 40
1.0
 40
1.0
 40
1.0
 10
94.25926268471902
 20
324.1483486638975
 30
0.0
 10
94.27816463292492
 20
324.1511372891113
 30
0.0
 10
94.29666232432738
 20
324.1535881918975
 30
0.0
 10
94.31723676396449
 20
324.1557860780234
 30
0.0
  0
SPLINE
  5
857FA
330
8563C
100
AcDbEntity
  8
DETAIL
  6
Continuous
100
AcDbSpline
210
0.0
220
0.0
230
1.0
 70
     8
 71
     3
 72
     8
 73
     4
 74
     0
 42
0.0000000001
 43
0.0000000001
 40
0.0
 40
0.0
 40
0.0
 40
0.0
 40
1.0
 40
1.0
 40
1.0
 40
1.0
 10
94.20153996847604
 20
324.1388910688623
 30
0.0
 10
94.22105453144558
 20
324.1424336910427
 30
0.0
 10
94.24036073651313
 20
324.1455600386839
 30
0.0
 10
94.25926268471902
 20
324.1483486638975
 30
0.0
  0
SPLINE
  5
857FB
330
8563C
100
AcDbEntity
  8
DETAIL
  6
Continuous
100
AcDbSpline
210
0.0
220
0.0
230
1.0
 70
     8
 71
     3
 72
     8
 73
     4
 74
     0
 42
0.0000000001
 43
0.0000000001
 40
0.0
 40
0.0
 40
0.0
 40
0.0
 40
1.0
 40
1.0
 40
1.0
 40
1.0
 10
94.1441230885548
 20
324.1275395489724
 30
0.0
 10
94.16230248460578
 20
324.1313895499993
 30
0.0
 10
94.18202540549192
 20
324.1353484466894
 30
0.0
 10
94.20153996847604
 20
324.1388910688623
 30
0.0
  0
SPLINE
  5
857FC
330
8563C
100
AcDbEntity
  8
DETAIL
  6
Continuous
100
AcDbSpline
210
0.0
220
0.0
230
1.0
 70
     8
 71
     3
 72
     8
 73
     4
 74
     0
 42
0.0000000001
 43
0.0000000001
 40
0.0
 40
0.0
 40
0.0
 40
0.0
 40
1.0
 40
1.0
 40
1.0
 40
1.0
 10
94.0870665183329
 20
324.1144203602674
 30
0.0
 10
94.10930782141894
 20
324.1199484426183
 30
0.0
 10
94.12594369256202
 20
324.1236895479601
 30
0.0
 10
94.1441230885548
 20
324.1275395489724
 30
0.0
  0
SPLINE
  5
857FD
330
8563C
100
AcDbEntity
  8
DETAIL
  6
Continuous
100
AcDbSpline
210
0.0
220
0.0
230
1.0
 70
     8
 71
     3
 72
     8
 73
     4
 74
     0
 42
0.0000000001
 43
0.0000000001
 40
0.0
 40
0.0
 40
0.0
 40
0.0
 40
1.0
 40
1.0
 40
1.0
 40
1.0
 10
94.0108041442736
 20
324.0941043510251
 30
0.0
 10
94.03697848021783
 20
324.1015772185495
 30
0.0
 10
94.06482521524687
 20
324.1088922779167
 30
0.0
 10
94.0870665183329
 20
324.1144203602674
 30
0.0
  0
SPLINE
  5
857FE
330
8563C
100
AcDbEntity
  8
DETAIL
  6
Continuous
100
AcDbSpline
210
0.0
220
0.0
230
1.0
 70
     8
 71
     3
 72
     8
 73
     4
 74
     0
 42
0.0000000001
 43
0.0000000001
 40
0.0
 40
0.0
 40
0.0
 40
0.0
 40
1.0
 40
1.0
 40
1.0
 40
1.0
 10
93.93542388365403
 20
324.0707993230465
 30
0.0
 10
93.96012787152812
 20
324.0790008078259
 30
0.0
 10
93.98462980832936
 20
324.0866314835079
 30
0.0
 10
94.0108041442736
 20
324.0941043510251
 30
0.0
  0
SPLINE
  5
857FF
330
8563C
100
AcDbEntity
  8
DETAIL
  6
Continuous
100
AcDbSpline
210
0.0
220
0.0
230
1.0
 70
     8
 71
     3
 72
     8
 73
     4
 74
     0
 42
0.0000000001
 43
0.0000000001
 40
0.0
 40
0.0
 40
0.0
 40
0.0
 40
1.0
 40
1.0
 40
1.0
 40
1.0
 10
93.86105383506309
 20
324.0445001050979
 30
0.0
 10
93.885813856833
 20
324.0538255443539
 30
0.0
 10
93.91071989577994
 20
324.0625978382527
 30
0.0
 10
93.93542388365403
 20
324.0707993230465
 30
0.0
  0
SPLINE
  5
85800
330
8563C
100
AcDbEntity
  8
DETAIL
  6
Continuous
100
AcDbSpline
210
0.0
220
0.0
230
1.0
 70
     8
 71
     3
 72
     8
 73
     4
 74
     0
 42
0.0000000001
 43
0.0000000001
 40
0.0
 40
0.0
 40
0.0
 40
0.0
 40
1.0
 40
1.0
 40
1.0
 40
1.0
 10
93.78782209735165
 20
324.0152015260105
 30
0.0
 10
93.81167980864212
 20
324.0252960812507
 30
0.0
 10
93.83629381329319
 20
324.0351746658493
 30
0.0
 10
93.86105383506309
 20
324.0445001050979
 30
0.0
  0
SPLINE
  5
85801
330
8563C
100
AcDbEntity
  8
DETAIL
  6
Continuous
100
AcDbSpline
210
0.0
220
0.0
230
1.0
 70
     8
 71
     3
 72
     8
 73
     4
 74
     0
 42
0.0000000001
 43
0.0000000001
 40
0.0
 40
0.0
 40
0.0
 40
0.0
 40
1.0
 40
1.0
 40
1.0
 40
1.0
 10
93.71585676919584
 20
323.9828984145719
 30
0.0
 10
93.74086296814583
 20
323.9947964448951
 30
0.0
 10
93.76396438609027
 20
324.0051069707701
 30
0.0
 10
93.78782209735165
 20
324.0152015260105
 30
0.0
  0
SPLINE
  5
85802
330
8563C
100
AcDbEntity
  8
DETAIL
  6
Continuous
100
AcDbSpline
210
0.0
220
0.0
230
1.0
 70
     8
 71
     3
 72
     8
 73
     4
 74
     0
 42
0.0000000001
 43
0.0000000001
 40
0.0
 40
0.0
 40
0.0
 40
0.0
 40
1.0
 40
1.0
 40
1.0
 40
1.0
 10
93.63795010831472
 20
323.9437232378482
 30
0.0
 10
93.66393959026117
 20
323.9575148494627
 30
0.0
 10
93.6908505702604
 20
323.9710003842414
 30
0.0
 10
93.71585676919584
 20
323.9828984145719
 30
0.0
  0
SPLINE
  5
85803
330
8563C
100
AcDbEntity
  8
DETAIL
  6
Continuous
100
AcDbSpline
210
0.0
220
0.0
230
1.0
 70
     8
 71
     3
 72
     8
 73
     4
 74
     0
 42
0.0000000001
 43
0.0000000001
 40
0.0
 40
0.0
 40
0.0
 40
0.0
 40
1.0
 40
1.0
 40
1.0
 40
1.0
 10
93.56189314089805
 20
323.9010116362337
 30
0.0
 10
93.58689264237272
 20
323.9158339377686
 30
0.0
 10
93.61196062632462
 20
323.9299316262262
 30
0.0
 10
93.63795010831472
 20
323.9437232378482
 30
0.0
  0
SPLINE
  5
85804
330
8563C
100
AcDbEntity
  8
DETAIL
  6
Continuous
100
AcDbSpline
210
0.0
220
0.0
230
1.0
 70
     8
 71
     3
 72
     8
 73
     4
 74
     0
 42
0.0000000001
 43
0.0000000001
 40
0.0
 40
0.0
 40
0.0
 40
0.0
 40
1.0
 40
1.0
 40
1.0
 40
1.0
 10
93.48783249296047
 20
323.8549028376804
 30
0.0
 10
93.51196262046959
 20
323.8706424200795
 30
0.0
 10
93.5368936394234
 20
323.8861893346987
 30
0.0
 10
93.56189314089805
 20
323.9010116362337
 30
0.0
  0
SPLINE
  5
85805
330
8563C
100
AcDbEntity
  8
DETAIL
  6
Continuous
100
AcDbSpline
210
0.0
220
0.0
230
1.0
 70
     8
 71
     3
 72
     8
 73
     4
 74
     0
 42
0.0000000001
 43
0.0000000001
 40
0.0
 40
0.0
 40
0.0
 40
0.0
 40
1.0
 40
1.0
 40
1.0
 40
1.0
 10
93.41591479037107
 20
323.8055360701478
 30
0.0
 10
93.44037312929959
 20
323.8232310050957
 30
0.0
 10
93.46370236539314
 20
323.8391632552816
 30
0.0
 10
93.48783249296047
 20
323.8549028376804
 30
0.0
  0
SPLINE
  5
85806
330
8563C
100
AcDbEntity
  8
DETAIL
  6
Continuous
100
AcDbSpline
210
0.0
220
0.0
230
1.0
 70
     8
 71
     3
 72
     8
 73
     4
 74
     0
 42
0.0000000001
 43
0.0000000001
 40
0.0
 40
0.0
 40
0.0
 40
0.0
 40
1.0
 40
1.0
 40
1.0
 40
1.0
 10
93.34628665914442
 20
323.7530505615872
 30
0.0
 10
93.36586900975181
 20
323.7683835154898
 30
0.0
 10
93.39145645148619
 20
323.7878411351998
 30
0.0
 10
93.41591479037107
 20
323.8055360701478
 30
0.0
  0
SPLINE
  5
85807
330
8563C
100
AcDbEntity
  8
DETAIL
  6
Continuous
100
AcDbSpline
210
0.0
220
0.0
230
1.0
 70
     8
 71
     3
 72
     8
 73
     4
 74
     0
 42
0.0000000001
 43
0.0000000001
 40
0.0
 40
0.0
 40
0.0
 40
0.0
 40
1.0
 40
1.0
 40
1.0
 40
1.0
 10
93.29817614094737
 20
323.7138485529435
 30
0.0
 10
93.31312704896935
 20
323.726509319575
 30
0.0
 10
93.32670430855159
 20
323.7377176076774
 30
0.0
 10
93.34628665914442
 20
323.7530505615872
 30
0.0
  0
SPLINE
  5
85808
330
8563C
100
AcDbEntity
  8
DETAIL
  6
Continuous
100
AcDbSpline
210
0.0
220
0.0
230
1.0
 70
     8
 71
     3
 72
     8
 73
     4
 74
     0
 42
0.0000000001
 43
0.0000000001
 40
0.0
 40
0.0
 40
0.0
 40
0.0
 40
1.0
 40
1.0
 40
1.0
 40
1.0
 10
93.25133024732441
 20
323.6731744950961
 30
0.0
 10
93.26690067631806
 20
323.6870745411511
 30
0.0
 10
93.28322523291081
 20
323.7011877863119
 30
0.0
 10
93.29817614094737
 20
323.7138485529435
 30
0.0
  0
SPLINE
  5
85809
330
8563C
100
AcDbEntity
  8
DETAIL
  6
Continuous
100
AcDbSpline
210
0.0
220
0.0
230
1.0
 70
     8
 71
     3
 72
     8
 73
     4
 74
     0
 42
0.0000000001
 43
0.0000000001
 40
0.0
 40
0.0
 40
0.0
 40
0.0
 40
1.0
 40
1.0
 40
1.0
 40
1.0
 10
93.20577819456319
 20
323.6310672655749
 30
0.0
 10
93.22094351692157
 20
323.6455876020994
 30
0.0
 10
93.23575981837439
 20
323.6592744490485
 30
0.0
 10
93.25133024732441
 20
323.6731744950961
 30
0.0
  0
SPLINE
  5
8580A
330
8563C
100
AcDbEntity
  8
DETAIL
  6
Continuous
100
AcDbSpline
210
0.0
220
0.0
230
1.0
 70
     8
 71
     3
 72
     8
 73
     4
 74
     0
 42
0.0000000001
 43
0.0000000001
 40
0.0
 40
0.0
 40
0.0
 40
0.0
 40
1.0
 40
1.0
 40
1.0
 40
1.0
 10
93.16154919873314
 20
323.5875657419022
 30
0.0
 10
93.17509852891181
 20
323.6011931029429
 30
0.0
 10
93.19061287220483
 20
323.6165469290431
 30
0.0
 10
93.20577819456319
 20
323.6310672655749
 30
0.0
  0
SPLINE
  5
8580B
330
8563C
100
AcDbEntity
  8
DETAIL
  6
Continuous
100
AcDbSpline
210
0.0
220
0.0
230
1.0
 70
     8
 71
     3
 72
     8
 73
     4
 74
     0
 42
0.0000000001
 43
0.0000000001
 40
0.0
 40
0.0
 40
0.0
 40
0.0
 40
1.0
 40
1.0
 40
1.0
 40
1.0
 10
93.11867247600547
 20
323.5427088016226
 30
0.0
 10
93.13641555140295
 20
323.5620374848807
 30
0.0
 10
93.14799986851086
 20
323.5739383808618
 30
0.0
 10
93.16154919873314
 20
323.5875657419022
 30
0.0
  0
SPLINE
  5
8580C
330
8563C
100
AcDbEntity
  8
DETAIL
  6
Continuous
100
AcDbSpline
210
0.0
220
0.0
230
1.0
 70
     8
 71
     3
 72
     8
 73
     4
 74
     0
 42
0.0000000001
 43
0.0000000001
 40
0.0
 40
0.0
 40
0.0
 40
0.0
 40
1.0
 40
1.0
 40
1.0
 40
1.0
 10
93.05548113056374
 20
323.4712239493459
 30
0.0
 10
93.07702756689197
 20
323.4966236478217
 30
0.0
 10
93.10092940056438
 20
323.5233801183644
 30
0.0
 10
93.11867247600547
 20
323.5427088016226
 30
0.0
  0
SPLINE
  5
8580D
330
8563C
100
AcDbEntity
  8
DETAIL
  6
Continuous
100
AcDbSpline
210
0.0
220
0.0
230
1.0
 70
     8
 71
     3
 72
     8
 73
     4
 74
     0
 42
0.0000000001
 43
0.0000000001
 40
0.0
 40
0.0
 40
0.0
 40
0.0
 40
1.0
 40
1.0
 40
1.0
 40
1.0
 10
92.9956733288718
 20
323.3968223341876
 30
0.0
 10
93.01474365520789
 20
323.4217813244689
 30
0.0
 10
93.03393469417732
 20
323.4458242508775
 30
0.0
 10
93.05548113056374
 20
323.4712239493459
 30
0.0
  0
SPLINE
  5
8580E
330
8563C
100
AcDbEntity
  8
DETAIL
  6
Continuous
100
AcDbSpline
210
0.0
220
0.0
230
1.0
 70
     8
 71
     3
 72
     8
 73
     4
 74
     0
 42
0.0000000001
 43
0.0000000001
 40
0.0
 40
0.0
 40
0.0
 40
0.0
 40
1.0
 40
1.0
 40
1.0
 40
1.0
 10
92.93936946471603
 20
323.3196969274507
 30
0.0
 10
92.95765338886212
 20
323.3459882897444
 30
0.0
 10
92.97660300253573
 20
323.3718633439061
 30
0.0
 10
92.9956733288718
 20
323.3968223341876
 30
0.0
  0
SPLINE
  5
8580F
330
8563C
100
AcDbEntity
  8
DETAIL
  6
Continuous
100
AcDbSpline
210
0.0
220
0.0
230
1.0
 70
     8
 71
     3
 72
     8
 73
     4
 74
     0
 42
0.0000000001
 43
0.0000000001
 40
0.0
 40
0.0
 40
0.0
 40
0.0
 40
1.0
 40
1.0
 40
1.0
 40
1.0
 10
92.88668993183909
 20
323.2400407004537
 30
0.0
 10
92.90346730595137
 20
323.2666978947167
 30
0.0
 10
92.92108554056994
 20
323.2934055651571
 30
0.0
 10
92.93936946471603
 20
323.3196969274507
 30
0.0
  0
SPLINE
  5
85810
330
8563C
100
AcDbEntity
  8
DETAIL
  6
Continuous
100
AcDbSpline
210
0.0
220
0.0
230
1.0
 70
     8
 71
     3
 72
     8
 73
     4
 74
     0
 42
0.0000000001
 43
0.0000000001
 40
0.0
 40
0.0
 40
0.0
 40
0.0
 40
1.0
 40
1.0
 40
1.0
 40
1.0
 10
92.83775512408556
 20
323.1580466245144
 30
0.0
 10
92.85397604412084
 20
323.1867767880834
 30
0.0
 10
92.86991255772681
 20
323.2133835061836
 30
0.0
 10
92.88668993183909
 20
323.2400407004537
 30
0.0
  0
SPLINE
  5
85811
330
8563C
100
AcDbEntity
  8
DETAIL
  6
Continuous
100
AcDbSpline
210
0.0
220
0.0
230
1.0
 70
     8
 71
     3
 72
     8
 73
     4
 74
     0
 42
0.0000000001
 43
0.0000000001
 40
0.0
 40
0.0
 40
0.0
 40
0.0
 40
1.0
 40
1.0
 40
1.0
 40
1.0
 10
92.78954855412393
 20
323.0677344150393
 30
0.0
 10
92.80502887761487
 20
323.0984628519004
 30
0.0
 10
92.82153420400664
 20
323.1293164609382
 30
0.0
 10
92.83775512408556
 20
323.1580466245144
 30
0.0
  0
SPLINE
  5
85812
330
8563C
100
AcDbEntity
  8
DETAIL
  6
Continuous
100
AcDbSpline
210
0.0
220
0.0
230
1.0
 70
     8
 71
     3
 72
     8
 73
     4
 74
     0
 42
0.0000000001
 43
0.0000000001
 40
0.0
 40
0.0
 40
0.0
 40
0.0
 40
1.0
 40
1.0
 40
1.0
 40
1.0
 10
92.74578406963064
 20
322.9751939339625
 30
0.0
 10
92.75961291018848
 20
323.0064027134799
 30
0.0
 10
92.77406823067666
 20
323.0370059781784
 30
0.0
 10
92.78954855412393
 20
323.0677344150393
 30
0.0
  0
SPLINE
  5
85813
330
8563C
100
AcDbEntity
  8
DETAIL
  6
Continuous
100
AcDbSpline
210
0.0
220
0.0
230
1.0
 70
     8
 71
     3
 72
     8
 73
     4
 74
     0
 42
0.0000000001
 43
0.0000000001
 40
0.0
 40
0.0
 40
0.0
 40
0.0
 40
1.0
 40
1.0
 40
1.0
 40
1.0
 10
92.70645835749839
 20
322.8806638029714
 30
0.0
 10
92.71875286837257
 20
322.9121708601019
 30
0.0
 10
92.73195522902915
 20
322.9439851544452
 30
0.0
 10
92.74578406963064
 20
322.9751939339625
 30
0.0
  0
SPLINE
  5
85814
330
8563C
100
AcDbEntity
  8
DETAIL
  6
Continuous
100
AcDbSpline
210
0.0
220
0.0
230
1.0
 70
     8
 71
     3
 72
     8
 73
     4
 74
     0
 42
0.0000000001
 43
0.0000000001
 40
0.0
 40
0.0
 40
0.0
 40
0.0
 40
1.0
 40
1.0
 40
1.0
 40
1.0
 10
92.67156810473627
 20
322.7843826437459
 30
0.0
 10
92.68277718561966
 20
322.8179569259377
 30
0.0
 10
92.69416384663873
 20
322.8491567458481
 30
0.0
 10
92.70645835749839
 20
322.8806638029714
 30
0.0
  0
SPLINE
  5
85815
330
8563C
100
AcDbEntity
  8
DETAIL
  6
Continuous
100
AcDbSpline
210
0.0
220
0.0
230
1.0
 70
     8
 71
     3
 72
     8
 73
     4
 74
     0
 42
0.0000000001
 43
0.0000000001
 40
0.0
 40
0.0
 40
0.0
 40
0.0
 40
1.0
 40
1.0
 40
1.0
 40
1.0
 10
92.64110999825152
 20
322.6865890779886
 30
0.0
 10
92.6493275230905
 20
322.7148596170812
 30
0.0
 10
92.66035902385283
 20
322.7508083615542
 30
0.0
 10
92.67156810473627
 20
322.7843826437459
 30
0.0
  0
SPLINE
  5
85816
330
8563C
100
AcDbEntity
  8
DETAIL
  6
Continuous
100
AcDbSpline
210
0.0
220
0.0
230
1.0
 70
     8
 71
     3
 72
     8
 73
     4
 74
     0
 42
0.0000000001
 43
0.0000000001
 40
0.0
 40
0.0
 40
0.0
 40
0.0
 40
1.0
 40
1.0
 40
1.0
 40
1.0
 10
92.62184711340614
 20
322.6149839454742
 30
0.0
 10
92.62748892451144
 20
322.6377262052051
 30
0.0
 10
92.63289247341253
 20
322.6583185388958
 30
0.0
 10
92.64110999825152
 20
322.6865890779886
 30
0.0
  0
SPLINE
  5
85817
330
8563C
100
AcDbEntity
  8
DETAIL
  6
Continuous
100
AcDbSpline
210
0.0
220
0.0
230
1.0
 70
     8
 71
     3
 72
     8
 73
     4
 74
     0
 42
0.0000000001
 43
0.0000000001
 40
0.0
 40
0.0
 40
0.0
 40
0.0
 40
1.0
 40
1.0
 40
1.0
 40
1.0
 10
92.60504064579526
 20
322.5427944645857
 30
0.0
 10
92.61032522906408
 20
322.5673494999869
 30
0.0
 10
92.61620530231539
 20
322.5922416857432
 30
0.0
 10
92.62184711340614
 20
322.6149839454742
 30
0.0
  0
SPLINE
  5
85818
330
8563C
100
AcDbEntity
  8
DETAIL
  6
Continuous
100
AcDbSpline
210
0.0
220
0.0
230
1.0
 70
     8
 71
     3
 72
     8
 73
     4
 74
     0
 42
0.0000000001
 43
0.0000000001
 40
0.0
 40
0.0
 40
0.0
 40
0.0
 40
1.0
 40
1.0
 40
1.0
 40
1.0
 10
92.59082599492193
 20
322.4701038391434
 30
0.0
 10
92.5950669692984
 20
322.4940215441533
 30
0.0
 10
92.59975606254103
 20
322.5182394291845
 30
0.0
 10
92.60504064579526
 20
322.5427944645857
 30
0.0
  0
SPLINE
  5
85819
330
8563C
100
AcDbEntity
  8
DETAIL
  6
Continuous
100
AcDbSpline
210
0.0
220
0.0
230
1.0
 70
     8
 71
     3
 72
     8
 73
     4
 74
     0
 42
0.0000000001
 43
0.0000000001
 40
0.0
 40
0.0
 40
0.0
 40
0.0
 40
1.0
 40
1.0
 40
1.0
 40
1.0
 10
92.57933856020191
 20
322.3969952729534
 30
0.0
 10
92.5827921650789
 20
322.4225686091453
 30
0.0
 10
92.58658502054551
 20
322.4461861341264
 30
0.0
 10
92.59082599492193
 20
322.4701038391434
 30
0.0
  0
SPLINE
  5
8581A
330
8563C
100
AcDbEntity
  8
DETAIL
  6
Continuous
100
AcDbSpline
210
0.0
220
0.0
230
1.0
 70
     8
 71
     3
 72
     8
 73
     4
 74
     0
 42
0.0000000001
 43
0.0000000001
 40
0.0
 40
0.0
 40
0.0
 40
0.0
 40
1.0
 40
1.0
 40
1.0
 40
1.0
 10
92.57071374103635
 20
322.3235519698359
 30
0.0
 10
92.57277060109572
 20
322.3438927893589
 30
0.0
 10
92.57588495532489
 20
322.3714219367616
 30
0.0
 10
92.57933856020191
 20
322.3969952729534
 30
0.0
  0
SPLINE
  5
8581B
330
8563C
100
AcDbEntity
  8
DETAIL
  6
Continuous
100
AcDbSpline
210
0.0
220
0.0
230
1.0
 70
     8
 71
     3
 72
     8
 73
     4
 74
     0
 42
0.0000000001
 43
0.0000000001
 40
0.0
 40
0.0
 40
0.0
 40
0.0
 40
1.0
 40
1.0
 40
1.0
 40
1.0
 10
92.56660701142481
 20
322.2749606255023
 30
0.0
 10
92.56765751520379
 20
322.2900586586624
 30
0.0
 10
92.56865688103516
 20
322.3032111503129
 30
0.0
 10
92.57071374103635
 20
322.3235519698359
 30
0.0
  0
SPLINE
  5
8581C
330
8563C
100
AcDbEntity
  8
DETAIL
  6
Continuous
100
AcDbSpline
210
0.0
220
0.0
230
1.0
 70
     8
 71
     3
 72
     8
 73
     4
 74
     0
 42
0.0000000001
 43
0.0000000001
 40
0.0
 40
0.0
 40
0.0
 40
0.0
 40
1.0
 40
1.0
 40
1.0
 40
1.0
 10
92.56354397737686
 20
322.2262817152227
 30
0.0
 10
92.56445486596295
 20
322.2428190176509
 30
0.0
 10
92.56555650764584
 20
322.2598625923278
 30
0.0
 10
92.56660701142481
 20
322.2749606255023
 30
0.0
  0
SPLINE
  5
8581D
330
8563C
100
AcDbEntity
  8
DETAIL
  6
Continuous
100
AcDbSpline
210
0.0
220
0.0
230
1.0
 70
     8
 71
     3
 72
     8
 73
     4
 74
     0
 42
0.0000000001
 43
0.0000000001
 40
0.0
 40
0.0
 40
0.0
 40
0.0
 40
1.0
 40
1.0
 40
1.0
 40
1.0
 10
92.56126371496156
 20
322.1775371304979
 30
0.0
 10
92.56191295341794
 20
322.1937133826289
 30
0.0
 10
92.56263308880535
 20
322.2097444127943
 30
0.0
 10
92.56354397737686
 20
322.2262817152227
 30
0.0
  0
SPLINE
  5
8581E
330
8563C
100
AcDbEntity
  8
DETAIL
  6
Continuous
100
AcDbSpline
210
0.0
220
0.0
230
1.0
 70
     8
 71
     3
 72
     8
 73
     4
 74
     0
 42
0.0000000001
 43
0.0000000001
 40
0.0
 40
0.0
 40
0.0
 40
0.0
 40
1.0
 40
1.0
 40
1.0
 40
1.0
 10
92.55950530033532
 20
322.1287487628072
 30
0.0
 10
92.56003613509619
 20
322.1450394042772
 30
0.0
 10
92.56061447651974
 20
322.1613608783741
 30
0.0
 10
92.56126371496156
 20
322.1775371304979
 30
0.0
  0
SPLINE
  5
8581F
330
8563C
100
AcDbEntity
  8
DETAIL
  6
Continuous
100
AcDbSpline
210
0.0
220
0.0
230
1.0
 70
     8
 71
     3
 72
     8
 73
     4
 74
     0
 42
0.0000000001
 43
0.0000000001
 40
0.0
 40
0.0
 40
0.0
 40
0.0
 40
1.0
 40
1.0
 40
1.0
 40
1.0
 10
92.55800780959633
 20
322.0799385036302
 30
0.0
 10
92.55849113759269
 20
322.0961983124874
 30
0.0
 10
92.55897446557447
 20
322.1124581213375
 30
0.0
 10
92.55950530033532
 20
322.1287487628072
 30
0.0
  0
LINE
  5
85820
330
8563C
100
AcDbEntity
  8
DETAIL
  6
Continuous
100
AcDbLine
 10
96.14197548020364
 20
338.8495739791001
 30
0.0
 11
94.56132214683838
 21
338.8495739791001
 31
0.0
  0
LINE
  5
85821
330
8563C
100
AcDbEntity
  8
DETAIL
  6
Continuous
100
AcDbLine
 10
100.9220288135338
 20
328.1354939791049
 30
0.0
 11
96.67938881352439
 21
332.3781339791024
 31
0.0
  0
LINE
  5
85822
330
8563C
100
AcDbEntity
  8
DETAIL
  6
Continuous
100
AcDbLine
 10
100.9220288135338
 20
332.3781339791024
 30
0.0
 11
96.67938881352439
 21
328.1354939791049
 31
0.0
  0
SPLINE
  5
85823
330
8563C
100
AcDbEntity
  8
DETAIL
  6
Continuous
100
AcDbSpline
210
0.0
220
0.0
230
1.0
 70
     8
 71
     3
 72
     8
 73
     4
 74
     0
 42
0.0000000001
 43
0.0000000001
 40
0.0
 40
0.0
 40
0.0
 40
0.0
 40
1.0
 40
1.0
 40
1.0
 40
1.0
 10
99.11591578288152
 20
324.1800394100359
 30
0.0
 10
99.03385506018913
 20
324.1753877793383
 30
0.0
 10
98.95164201733223
 20
324.1711025839325
 30
0.0
 10
98.86942897446079
 20
324.1668173885341
 30
0.0
  0
SPLINE
  5
85824
330
8563C
100
AcDbEntity
  8
DETAIL
  6
Continuous
100
AcDbSpline
210
0.0
220
0.0
230
1.0
 70
     8
 71
     3
 72
     8
 73
     4
 74
     0
 42
0.0000000001
 43
0.0000000001
 40
0.0
 40
0.0
 40
0.0
 40
0.0
 40
1.0
 40
1.0
 40
1.0
 40
1.0
 10
99.36205834808152
 20
324.1955722898278
 30
0.0
 10
99.27988490791269
 20
324.1897091067153
 30
0.0
 10
99.19797650551572
 20
324.1846910407261
 30
0.0
 10
99.11591578288152
 20
324.1800394100359
 30
0.0
  0
SPLINE
  5
85825
330
8563C
100
AcDbEntity
  8
DETAIL
  6
Continuous
100
AcDbSpline
210
0.0
220
0.0
230
1.0
 70
     8
 71
     3
 72
     8
 73
     4
 74
     0
 42
0.0000000001
 43
0.0000000001
 40
0.0
 40
0.0
 40
0.0
 40
0.0
 40
1.0
 40
1.0
 40
1.0
 40
1.0
 10
99.60751242691275
 20
324.2157268862287
 30
0.0
 10
99.52667026619112
 20
324.2081437731907
 30
0.0
 10
99.44423178825037
 20
324.2014354729476
 30
0.0
 10
99.36205834808152
 20
324.1955722898278
 30
0.0
  0
SPLINE
  5
85826
330
8563C
100
AcDbEntity
  8
DETAIL
  6
Continuous
100
AcDbSpline
210
0.0
220
0.0
230
1.0
 70
     8
 71
     3
 72
     8
 73
     4
 74
     0
 42
0.0000000001
 43
0.0000000001
 40
0.0
 40
0.0
 40
0.0
 40
0.0
 40
1.0
 40
1.0
 40
1.0
 40
1.0
 10
99.85193377621273
 20
324.2428140575069
 30
0.0
 10
99.76760043115156
 20
324.2317679250922
 30
0.0
 10
99.68835458763441
 20
324.2233099992594
 30
0.0
 10
99.60751242691275
 20
324.2157268862287
 30
0.0
  0
SPLINE
  5
85827
330
8563C
100
AcDbEntity
  8
DETAIL
  6
Continuous
100
AcDbSpline
210
0.0
220
0.0
230
1.0
 70
     8
 71
     3
 72
     8
 73
     4
 74
     0
 42
0.0000000001
 43
0.0000000001
 40
0.0
 40
0.0
 40
0.0
 40
0.0
 40
1.0
 40
1.0
 40
1.0
 40
1.0
 10
100.0949781527606
 20
324.2791446619889
 30
0.0
 10
100.0256879677481
 20
324.267494528933
 30
0.0
 10
99.93626712121567
 20
324.2538601899291
 30
0.0
 10
99.85193377621273
 20
324.2428140575069
 30
0.0
  0
SPLINE
  5
85828
330
8563C
100
AcDbEntity
  8
DETAIL
  6
Continuous
100
AcDbSpline
210
0.0
220
0.0
230
1.0
 70
     8
 71
     3
 72
     8
 73
     4
 74
     0
 42
0.0000000001
 43
0.0000000001
 40
0.0
 40
0.0
 40
0.0
 40
0.0
 40
1.0
 40
1.0
 40
1.0
 40
1.0
 10
100.2679928059669
 20
324.3119254226917
 30
0.0
 10
100.2134278611492
 20
324.3004607221377
 30
0.0
 10
100.1642683377149
 20
324.2907947950448
 30
0.0
 10
100.0949781527606
 20
324.2791446619889
 30
0.0
  0
SPLINE
  5
85829
330
8563C
100
AcDbEntity
  8
DETAIL
  6
Continuous
100
AcDbSpline
210
0.0
220
0.0
230
1.0
 70
     8
 71
     3
 72
     8
 73
     4
 74
     0
 42
0.0000000001
 43
0.0000000001
 40
0.0
 40
0.0
 40
0.0
 40
0.0
 40
1.0
 40
1.0
 40
1.0
 40
1.0
 10
100.4400339826688
 20
324.3502727125455
 30
0.0
 10
100.3825281171748
 20
324.336653597275
 30
0.0
 10
100.3225577508428
 20
324.3233901232529
 30
0.0
 10
100.2679928059669
 20
324.3119254226917
 30
0.0
  0
SPLINE
  5
8582A
330
8563C
100
AcDbEntity
  8
DETAIL
  6
Continuous
100
AcDbSpline
210
0.0
220
0.0
230
1.0
 70
     8
 71
     3
 72
     8
 73
     4
 74
     0
 42
0.0000000001
 43
0.0000000001
 40
0.0
 40
0.0
 40
0.0
 40
0.0
 40
1.0
 40
1.0
 40
1.0
 40
1.0
 10
100.6110108671719
 20
324.3938278762947
 30
0.0
 10
100.5525812129062
 20
324.3778665843569
 30
0.0
 10
100.4975398481774
 20
324.3638918278306
 30
0.0
 10
100.4400339826688
 20
324.3502727125455
 30
0.0
  0
SPLINE
  5
8582B
330
8563C
100
AcDbEntity
  8
DETAIL
  6
Continuous
100
AcDbSpline
210
0.0
220
0.0
230
1.0
 70
     8
 71
     3
 72
     8
 73
     4
 74
     0
 42
0.0000000001
 43
0.0000000001
 40
0.0
 40
0.0
 40
0.0
 40
0.0
 40
1.0
 40
1.0
 40
1.0
 40
1.0
 10
100.7808326437816
 20
324.4422322586838
 30
0.0
 10
100.7312584651235
 20
324.427736995582
 30
0.0
 10
100.6694405213793
 20
324.4097891682325
 30
0.0
 10
100.6110108671719
 20
324.3938278762947
 30
0.0
  0
SPLINE
  5
8582C
330
8563C
100
AcDbEntity
  8
DETAIL
  6
Continuous
100
AcDbSpline
210
0.0
220
0.0
230
1.0
 70
     8
 71
     3
 72
     8
 73
     4
 74
     0
 42
0.0000000001
 43
0.0000000001
 40
0.0
 40
0.0
 40
0.0
 40
0.0
 40
1.0
 40
1.0
 40
1.0
 40
1.0
 10
100.9494084969492
 20
324.4951272044568
 30
0.0
 10
100.8677372360407
 20
324.4677702206467
 30
0.0
 10
100.8304068224251
 20
324.4567275217854
 30
0.0
 10
100.7808326437816
 20
324.4422322586838
 30
0.0
  0
SPLINE
  5
8582D
330
8563C
100
AcDbEntity
  8
DETAIL
  6
Continuous
100
AcDbSpline
210
0.0
220
0.0
230
1.0
 70
     8
 71
     3
 72
     8
 73
     4
 74
     0
 42
0.0000000001
 43
0.0000000001
 40
0.0
 40
0.0
 40
0.0
 40
0.0
 40
1.0
 40
1.0
 40
1.0
 40
1.0
 10
101.2700533784673
 20
324.6086731894106
 30
0.0
 10
101.1570918659281
 20
324.5661554569892
 30
0.0
 10
101.0310797577994
 20
324.5224841882522
 30
0.0
 10
100.9494084969492
 20
324.4951272044568
 30
0.0
  0
SPLINE
  5
8582E
330
8563C
100
AcDbEntity
  8
DETAIL
  6
Continuous
100
AcDbSpline
210
0.0
220
0.0
230
1.0
 70
     8
 71
     3
 72
     8
 73
     4
 74
     0
 42
0.0000000001
 43
0.0000000001
 40
0.0
 40
0.0
 40
0.0
 40
0.0
 40
1.0
 40
1.0
 40
1.0
 40
1.0
 10
101.5849260408004
 20
324.7373683737901
 30
0.0
 10
101.4829258078252
 20
324.6925551179379
 30
0.0
 10
101.3830148909628
 20
324.651190921832
 30
0.0
 10
101.2700533784673
 20
324.6086731894106
 30
0.0
  0
SPLINE
  5
8582F
330
8563C
100
AcDbEntity
  8
DETAIL
  6
Continuous
100
AcDbSpline
210
0.0
220
0.0
230
1.0
 70
     8
 71
     3
 72
     8
 73
     4
 74
     0
 42
0.0000000001
 43
0.0000000001
 40
0.0
 40
0.0
 40
0.0
 40
0.0
 40
1.0
 40
1.0
 40
1.0
 40
1.0
 10
101.8932079362139
 20
324.8810499824252
 30
0.0
 10
101.791015822805
 20
324.830443945248
 30
0.0
 10
101.6869262737609
 20
324.7821816296494
 30
0.0
 10
101.5849260408004
 20
324.7373683737901
 30
0.0
  0
SPLINE
  5
85830
330
8563C
100
AcDbEntity
  8
DETAIL
  6
Continuous
100
AcDbSpline
210
0.0
220
0.0
230
1.0
 70
     8
 71
     3
 72
     8
 73
     4
 74
     0
 42
0.0000000001
 43
0.0000000001
 40
0.0
 40
0.0
 40
0.0
 40
0.0
 40
1.0
 40
1.0
 40
1.0
 40
1.0
 10
102.1940805170024
 20
325.0395552401026
 30
0.0
 10
102.0956947272507
 20
324.9846057783293
 30
0.0
 10
101.9954000495645
 20
324.9316560195807
 30
0.0
 10
101.8932079362139
 20
324.8810499824252
 30
0.0
  0
SPLINE
  5
85831
330
8563C
100
AcDbEntity
  8
DETAIL
  6
Continuous
100
AcDbSpline
210
0.0
220
0.0
230
1.0
 70
     8
 71
     3
 72
     8
 73
     4
 74
     0
 42
0.0000000001
 43
0.0000000001
 40
0.0
 40
0.0
 40
0.0
 40
0.0
 40
1.0
 40
1.0
 40
1.0
 40
1.0
 10
102.4867252354315
 20
325.2127213716597
 30
0.0
 10
102.3889432084261
 20
325.1514538666965
 30
0.0
 10
102.2924663067106
 20
325.0945047018762
 30
0.0
 10
102.1940805170024
 20
325.0395552401026
 30
0.0
  0
SPLINE
  5
85832
330
8563C
100
AcDbEntity
  8
DETAIL
  6
Continuous
100
AcDbSpline
210
0.0
220
0.0
230
1.0
 70
     8
 71
     3
 72
     8
 73
     4
 74
     0
 42
0.0000000001
 43
0.0000000001
 40
0.0
 40
0.0
 40
0.0
 40
0.0
 40
1.0
 40
1.0
 40
1.0
 40
1.0
 10
102.7801766146885
 20
325.4071610604445
 30
0.0
 10
102.6835944146305
 20
325.3395747217441
 30
0.0
 10
102.5845072623933
 20
325.2739888766304
 30
0.0
 10
102.4867252354315
 20
325.2127213716597
 30
0.0
  0
SPLINE
  5
85833
330
8563C
100
AcDbEntity
  8
DETAIL
  6
Continuous
100
AcDbSpline
210
0.0
220
0.0
230
1.0
 70
     8
 71
     3
 72
     8
 73
     4
 74
     0
 42
0.0000000001
 43
0.0000000001
 40
0.0
 40
0.0
 40
0.0
 40
0.0
 40
1.0
 40
1.0
 40
1.0
 40
1.0
 10
103.0633312695435
 20
325.6164249280558
 30
0.0
 10
102.9708360626691
 20
325.5443342314251
 30
0.0
 10
102.8767588147466
 20
325.4747473991451
 30
0.0
 10
102.7801766146885
 20
325.4071610604445
 30
0.0
  0
SPLINE
  5
85834
330
8563C
100
AcDbEntity
  8
DETAIL
  6
Continuous
100
AcDbSpline
210
0.0
220
0.0
230
1.0
 70
     8
 71
     3
 72
     8
 73
     4
 74
     0
 42
0.0000000001
 43
0.0000000001
 40
0.0
 40
0.0
 40
0.0
 40
0.0
 40
1.0
 40
1.0
 40
1.0
 40
1.0
 10
103.3355865885396
 20
325.8398010231398
 30
0.0
 10
103.2467396423753
 20
325.7631101856682
 30
0.0
 10
103.1558264764617
 20
325.6885156246939
 30
0.0
 10
103.0633312695435
 20
325.6164249280558
 30
0.0
  0
SPLINE
  5
85835
330
8563C
100
AcDbEntity
  8
DETAIL
  6
Continuous
100
AcDbSpline
210
0.0
220
0.0
230
1.0
 70
     8
 71
     3
 72
     8
 73
     4
 74
     0
 42
0.0000000001
 43
0.0000000001
 40
0.0
 40
0.0
 40
0.0
 40
0.0
 40
1.0
 40
1.0
 40
1.0
 40
1.0
 10
103.5963399600305
 20
326.0765773943571
 30
0.0
 10
103.5112142611624
 20
325.9952789745807
 30
0.0
 10
103.4244335347039
 20
325.9164918606188
 30
0.0
 10
103.3355865885396
 20
325.8398010231398
 30
0.0
  0
SPLINE
  5
85836
330
8563C
100
AcDbEntity
  8
DETAIL
  6
Continuous
100
AcDbSpline
210
0.0
220
0.0
230
1.0
 70
     8
 71
     3
 72
     8
 73
     4
 74
     0
 42
0.0000000001
 43
0.0000000001
 40
0.0
 40
0.0
 40
0.0
 40
0.0
 40
1.0
 40
1.0
 40
1.0
 40
1.0
 10
103.8449887725446
 20
326.3260420903392
 30
0.0
 10
103.7649363301907
 20
326.2416855397172
 30
0.0
 10
103.6814656589131
 20
326.1578758141336
 30
0.0
 10
103.5963399600305
 20
326.0765773943571
 30
0.0
  0
SPLINE
  5
85837
330
8563C
100
AcDbEntity
  8
DETAIL
  6
Continuous
100
AcDbSpline
210
0.0
220
0.0
230
1.0
 70
     8
 71
     3
 72
     8
 73
     4
 74
     0
 42
0.0000000001
 43
0.0000000001
 40
0.0
 40
0.0
 40
0.0
 40
0.0
 40
1.0
 40
1.0
 40
1.0
 40
1.0
 10
104.0765635492434
 20
326.582383884663
 30
0.0
 10
104.0016754282705
 20
326.4953020166217
 30
0.0
 10
103.9250412148985
 20
326.4103986409612
 30
0.0
 10
103.8449887725446
 20
326.3260420903392
 30
0.0
  0
SPLINE
  5
85838
330
8563C
100
AcDbEntity
  8
DETAIL
  6
Continuous
100
AcDbSpline
210
0.0
220
0.0
230
1.0
 70
     8
 71
     3
 72
     8
 73
     4
 74
     0
 42
0.0000000001
 43
0.0000000001
 40
0.0
 40
0.0
 40
0.0
 40
0.0
 40
1.0
 40
1.0
 40
1.0
 40
1.0
 10
104.295441590003
 20
326.8495861130581
 30
0.0
 10
104.2245936987756
 20
326.7587261131197
 30
0.0
 10
104.1514516702163
 20
326.6694657527045
 30
0.0
 10
104.0765635492434
 20
326.582383884663
 30
0.0
  0
SPLINE
  5
85839
330
8563C
100
AcDbEntity
  8
DETAIL
  6
Continuous
100
AcDbSpline
210
0.0
220
0.0
230
1.0
 70
     8
 71
     3
 72
     8
 73
     4
 74
     0
 42
0.0000000001
 43
0.0000000001
 40
0.0
 40
0.0
 40
0.0
 40
0.0
 40
1.0
 40
1.0
 40
1.0
 40
1.0
 10
104.5011525999152
 20
327.1269859185563
 30
0.0
 10
104.4348432349952
 20
327.0329057524435
 30
0.0
 10
104.3662894811868
 20
326.9404461129965
 30
0.0
 10
104.295441590003
 20
326.8495861130581
 30
0.0
  0
SPLINE
  5
8583A
330
8563C
100
AcDbEntity
  8
DETAIL
  6
Continuous
100
AcDbSpline
210
0.0
220
0.0
230
1.0
 70
     8
 71
     3
 72
     8
 73
     4
 74
     0
 42
0.0000000001
 43
0.0000000001
 40
0.0
 40
0.0
 40
0.0
 40
0.0
 40
1.0
 40
1.0
 40
1.0
 40
1.0
 10
104.693226284261
 20
327.4139204441967
 30
0.0
 10
104.6315269409106
 20
327.3167667774472
 30
0.0
 10
104.5674619648789
 20
327.2210660846689
 30
0.0
 10
104.5011525999152
 20
327.1269859185563
 30
0.0
  0
SPLINE
  5
8583B
330
8563C
100
AcDbEntity
  8
DETAIL
  6
Continuous
100
AcDbSpline
210
0.0
220
0.0
230
1.0
 70
     8
 71
     3
 72
     8
 73
     4
 74
     0
 42
0.0000000001
 43
0.0000000001
 40
0.0
 40
0.0
 40
0.0
 40
0.0
 40
1.0
 40
1.0
 40
1.0
 40
1.0
 10
104.8711923481032
 20
327.7097268330257
 30
0.0
 10
104.8142593381353
 20
327.6096807516809
 30
0.0
 10
104.7549256275678
 20
327.5110741109533
 30
0.0
 10
104.693226284261
 20
327.4139204441967
 30
0.0
  0
SPLINE
  5
8583C
330
8563C
100
AcDbEntity
  8
DETAIL
  6
Continuous
100
AcDbSpline
210
0.0
220
0.0
230
1.0
 70
     8
 71
     3
 72
     8
 73
     4
 74
     0
 42
0.0000000001
 43
0.0000000001
 40
0.0
 40
0.0
 40
0.0
 40
0.0
 40
1.0
 40
1.0
 40
1.0
 40
1.0
 10
105.0347109158183
 20
328.0138342594223
 30
0.0
 10
104.982657667454
 20
327.9112584363251
 30
0.0
 10
104.9281253580566
 20
327.8097729143704
 30
0.0
 10
104.8711923481032
 20
327.7097268330257
 30
0.0
  0
SPLINE
  5
8583D
330
8563C
100
AcDbEntity
  8
DETAIL
  6
Continuous
100
AcDbSpline
210
0.0
220
0.0
230
1.0
 70
     8
 71
     3
 72
     8
 73
     4
 74
     0
 42
0.0000000001
 43
0.0000000001
 40
0.0
 40
0.0
 40
0.0
 40
0.0
 40
1.0
 40
1.0
 40
1.0
 40
1.0
 10
105.1836174373611
 20
328.3253829710524
 30
0.0
 10
105.1363383514699
 20
328.2200762067444
 30
0.0
 10
105.0867641641825
 20
328.1164100825121
 30
0.0
 10
105.0347109158183
 20
328.0138342594223
 30
0.0
  0
SPLINE
  5
8583E
330
8563C
100
AcDbEntity
  8
DETAIL
  6
Continuous
100
AcDbSpline
210
0.0
220
0.0
230
1.0
 70
     8
 71
     3
 72
     8
 73
     4
 74
     0
 42
0.0000000001
 43
0.0000000001
 40
0.0
 40
0.0
 40
0.0
 40
0.0
 40
1.0
 40
1.0
 40
1.0
 40
1.0
 10
105.3178882351794
 20
328.6435993606358
 30
0.0
 10
105.2758805078056
 20
328.5376371397364
 30
0.0
 10
105.2308965233105
 20
328.430689735353
 30
0.0
 10
105.1836174373611
 20
328.3253829710524
 30
0.0
  0
SPLINE
  5
8583F
330
8563C
100
AcDbEntity
  8
DETAIL
  6
Continuous
100
AcDbSpline
210
0.0
220
0.0
230
1.0
 70
     8
 71
     3
 72
     8
 73
     4
 74
     0
 42
0.0000000001
 43
0.0000000001
 40
0.0
 40
0.0
 40
0.0
 40
0.0
 40
1.0
 40
1.0
 40
1.0
 40
1.0
 10
105.4374996315464
 20
328.9677098208926
 30
0.0
 10
105.3989274328059
 20
328.8545386189294
 30
0.0
 10
105.3598959625387
 20
328.7495615815282
 30
0.0
 10
105.3178882351794
 20
328.6435993606358
 30
0.0
  0
SPLINE
  5
85840
330
8563C
100
AcDbEntity
  8
DETAIL
  6
Continuous
100
AcDbSpline
210
0.0
220
0.0
230
1.0
 70
     8
 71
     3
 72
     8
 73
     4
 74
     0
 42
0.0000000001
 43
0.0000000001
 40
0.0
 40
0.0
 40
0.0
 40
0.0
 40
1.0
 40
1.0
 40
1.0
 40
1.0
 10
105.5424279487497
 20
329.2969407445419
 30
0.0
 10
105.5141847573695
 20
329.2022463893595
 30
0.0
 10
105.4760718302286
 20
329.0808810228485
 30
0.0
 10
105.4374996315464
 20
328.9677098208926
 30
0.0
  0
SPLINE
  5
85841
330
8563C
100
AcDbEntity
  8
DETAIL
  6
Continuous
100
AcDbSpline
210
0.0
220
0.0
230
1.0
 70
     8
 71
     3
 72
     8
 73
     4
 74
     0
 42
0.0000000001
 43
0.0000000001
 40
0.0
 40
0.0
 40
0.0
 40
0.0
 40
1.0
 40
1.0
 40
1.0
 40
1.0
 10
105.608383147949
 20
329.5351559013584
 30
0.0
 10
105.5890445957638
 20
329.4596584435789
 30
0.0
 10
105.5706711401299
 20
329.3916350997246
 30
0.0
 10
105.5424279487497
 20
329.2969407445419
 30
0.0
  0
SPLINE
  5
85842
330
8563C
100
AcDbEntity
  8
DETAIL
  6
Continuous
100
AcDbSpline
210
0.0
220
0.0
230
1.0
 70
     8
 71
     3
 72
     8
 73
     4
 74
     0
 42
0.0000000001
 43
0.0000000001
 40
0.0
 40
0.0
 40
0.0
 40
0.0
 40
1.0
 40
1.0
 40
1.0
 40
1.0
 10
105.6663290709266
 20
329.7753357443802
 30
0.0
 10
105.6480253488562
 20
329.6936249308204
 30
0.0
 10
105.6277217001197
 20
329.6106533591377
 30
0.0
 10
105.608383147949
 20
329.5351559013584
 30
0.0
  0
SPLINE
  5
85843
330
8563C
100
AcDbEntity
  8
DETAIL
  6
Continuous
100
AcDbSpline
210
0.0
220
0.0
230
1.0
 70
     8
 71
     3
 72
     8
 73
     4
 74
     0
 42
0.0000000001
 43
0.0000000001
 40
0.0
 40
0.0
 40
0.0
 40
0.0
 40
1.0
 40
1.0
 40
1.0
 40
1.0
 10
105.7157812508821
 20
330.0172208621738
 30
0.0
 10
105.7009365884305
 20
329.9374966133695
 30
0.0
 10
105.6846327930116
 20
329.8570465579399
 30
0.0
 10
105.6663290709266
 20
329.7753357443802
 30
0.0
  0
SPLINE
  5
85844
330
8563C
100
AcDbEntity
  8
DETAIL
  6
Continuous
100
AcDbSpline
210
0.0
220
0.0
230
1.0
 70
     8
 71
     3
 72
     8
 73
     4
 74
     0
 42
0.0000000001
 43
0.0000000001
 40
0.0
 40
0.0
 40
0.0
 40
0.0
 40
1.0
 40
1.0
 40
1.0
 40
1.0
 10
105.7562552209428
 20
330.2605518432906
 30
0.0
 10
105.7440114429491
 20
330.175943553157
 30
0.0
 10
105.730625913392
 20
330.096945110978
 30
0.0
 10
105.7157812508821
 20
330.0172208621738
 30
0.0
  0
SPLINE
  5
85845
330
8563C
100
AcDbEntity
  8
DETAIL
  6
Continuous
100
AcDbSpline
210
0.0
220
0.0
230
1.0
 70
     8
 71
     3
 72
     8
 73
     4
 74
     0
 42
0.0000000001
 43
0.0000000001
 40
0.0
 40
0.0
 40
0.0
 40
0.0
 40
1.0
 40
1.0
 40
1.0
 40
1.0
 10
105.7872665141194
 20
330.5050692762747
 30
0.0
 10
105.7796010253087
 20
330.4353782714902
 30
0.0
 10
105.7684989988783
 20
330.3451601334168
 30
0.0
 10
105.7562552209428
 20
330.2605518432906
 30
0.0
  0
SPLINE
  5
85846
330
8563C
100
AcDbEntity
  8
DETAIL
  6
Continuous
100
AcDbSpline
210
0.0
220
0.0
230
1.0
 70
     8
 71
     3
 72
     8
 73
     4
 74
     0
 42
0.0000000001
 43
0.0000000001
 40
0.0
 40
0.0
 40
0.0
 40
0.0
 40
1.0
 40
1.0
 40
1.0
 40
1.0
 10
105.8034241578579
 20
330.6786707399446
 30
0.0
 10
105.7991609540195
 20
330.6239241525695
 30
0.0
 10
105.7949320028719
 20
330.5747602810665
 30
0.0
 10
105.7872665141194
 20
330.5050692762747
 30
0.0
  0
SPLINE
  5
85847
330
8563C
100
AcDbEntity
  8
DETAIL
  6
Continuous
100
AcDbSpline
210
0.0
220
0.0
230
1.0
 70
     8
 71
     3
 72
     8
 73
     4
 74
     0
 42
0.0000000001
 43
0.0000000001
 40
0.0
 40
0.0
 40
0.0
 40
0.0
 40
1.0
 40
1.0
 40
1.0
 40
1.0
 10
105.8155971285023
 20
330.85264356179
 30
0.0
 10
105.8119848181677
 20
330.7937466305889
 30
0.0
 10
105.8076873616382
 20
330.7334173273343
 30
0.0
 10
105.8034241578579
 20
330.6786707399446
 30
0.0
  0
SPLINE
  5
85848
330
8563C
100
AcDbEntity
  8
DETAIL
  6
Continuous
100
AcDbSpline
210
0.0
220
0.0
230
1.0
 70
     8
 71
     3
 72
     8
 73
     4
 74
     0
 42
0.0000000001
 43
0.0000000001
 40
0.0
 40
0.0
 40
0.0
 40
0.0
 40
1.0
 40
1.0
 40
1.0
 40
1.0
 10
105.8247815943914
 20
331.0268949022578
 30
0.0
 10
105.8221366030638
 20
330.9690050521171
 30
0.0
 10
105.8192094388514
 20
330.9115404929839
 30
0.0
 10
105.8155971285023
 20
330.85264356179
 30
0.0
  0
SPLINE
  5
85849
330
8563C
100
AcDbEntity
  8
DETAIL
  6
Continuous
100
AcDbSpline
210
0.0
220
0.0
230
1.0
 70
     8
 71
     3
 72
     8
 73
     4
 74
     0
 42
0.0000000001
 43
0.0000000001
 40
0.0
 40
0.0
 40
0.0
 40
0.0
 40
1.0
 40
1.0
 40
1.0
 40
1.0
 10
105.8319737237188
 20
331.2013319218026
 30
0.0
 10
105.8297894041179
 20
331.1430998935252
 30
0.0
 10
105.8274265856753
 20
331.0847847523841
 30
0.0
 10
105.8247815943914
 20
331.0268949022578
 30
0.0
  0
SPLINE
  5
8584A
330
8563C
100
AcDbEntity
  8
DETAIL
  6
Continuous
100
AcDbSpline
210
0.0
220
0.0
230
1.0
 70
     8
 71
     3
 72
     8
 73
     4
 74
     0
 42
0.0000000001
 43
0.0000000001
 40
0.0
 40
0.0
 40
0.0
 40
0.0
 40
1.0
 40
1.0
 40
1.0
 40
1.0
 10
105.8381696847509
 20
331.3758617808929
 30
0.0
 10
105.8361638640353
 20
331.3177128654792
 30
0.0
 10
105.8341580433198
 20
331.2595639500727
 30
0.0
 10
105.8319737237188
 20
331.2013319218026
 30
0.0
  0
LINE
  5
8584B
330
8563C
100
AcDbEntity
  8
DETAIL
  6
Continuous
100
AcDbLine
 10
99.1603221468531
 20
338.8495739791001
 30
0.0
 11
98.83720214684672
 21
338.8495739791001
 31
0.0
  0
LINE
  5
8584C
330
8563C
100
AcDbEntity
  8
DETAIL
  6
Continuous
100
AcDbLine
 10
98.83720214684672
 20
338.8495739791001
 30
0.0
 11
97.08261548020074
 21
338.8495739791001
 31
0.0
  0
LINE
  5
8584D
330
8563C
100
AcDbEntity
  8
DETAIL
  6
Continuous
100
AcDbLine
 10
105.8381754801876
 20
331.375867312436
 30
0.0
 11
105.8381754801876
 21
331.8495739791001
 31
0.0
  0
SPLINE
  5
8584E
330
8563C
100
AcDbEntity
  8
DETAIL
  6
Continuous
100
AcDbSpline
210
0.0
220
0.0
230
1.0
 70
     8
 71
     3
 72
     8
 73
     4
 74
     0
 42
0.0000000001
 43
0.0000000001
 40
0.0
 40
0.0
 40
0.0
 40
0.0
 40
1.0
 40
1.0
 40
1.0
 40
1.0
 10
93.52882846839293
 20
339.1355750126244
 30
0.0
 10
93.50092035842044
 20
339.1522703613594
 30
0.0
 10
93.47345936823787
 20
339.1696448614605
 30
0.0
 10
93.44641334122661
 20
339.1877150506557
 30
0.0
  0
ARC
  5
8584F
330
8563C
100
AcDbEntity
  8
DETAIL
  6
Continuous
100
AcDbCircle
 10
98.83768214686369
 20
331.8490939791012
 30
0.0
 40
7.000479999998247
100
AcDbArc
 50
0.0039729999965806
 51
90.00397300002262
  0
ARC
  5
85850
330
8563C
100
AcDbEntity
  8
DETAIL
  6
Continuous
100
AcDbCircle
 10
137.4952821468605
 20
556.8378406457163
 30
0.0
 40
255.9278533332693
100
AcDbArc
 50
275.2554850000076
 51
276.1563589998989
  0
ARC
  5
85851
330
8563C
100
AcDbEntity
  8
DETAIL
  6
Continuous
100
AcDbCircle
 10
137.4952821468605
 20
547.0470006457203
 30
0.0
 40
255.9278533332693
100
AcDbArc
 50
275.2554850000076
 51
276.1563589998989
  0
ARC
  5
85852
330
8563C
100
AcDbEntity
  8
DETAIL
  6
Continuous
100
AcDbCircle
 10
137.4952821468605
 20
537.2561739790494
 30
0.0
 40
255.9278533332693
100
AcDbArc
 50
275.2554850000076
 51
276.1563589998989
  0
ARC
  5
85853
330
8563C
100
AcDbEntity
  8
DETAIL
  6
Continuous
100
AcDbCircle
 10
137.4952821468605
 20
566.6286673123753
 30
0.0
 40
255.9278533332693
100
AcDbArc
 50
275.2554850000076
 51
276.1563589998989
  0
LINE
  5
85854
330
8563C
100
AcDbEntity
  8
DETAIL
  6
Continuous
100
AcDbLine
 10
159.4374954801924
 20
304.8095739791101
 30
0.0
 11
159.4374954801924
 21
301.8658273124442
 31
0.0
  0
ARC
  5
85855
330
8563C
100
AcDbEntity
  8
DETAIL
  6
Continuous
100
AcDbCircle
 10
137.4952821468605
 20
556.8378406457163
 30
0.0
 40
255.9278533332693
100
AcDbArc
 50
273.557351000086
 51
274.9183449999492
  0
LINE
  5
85856
330
8563C
100
AcDbEntity
  8
DETAIL
  6
Continuous
100
AcDbLine
 10
160.9374954801833
 20
304.9430939791095
 30
0.0
 11
160.9374954801833
 21
301.8658273124442
 31
0.0
  0
LINE
  5
85857
330
8563C
100
AcDbEntity
  8
DETAIL
  6
Continuous
100
AcDbLine
 10
153.3750021468449
 20
304.360333979112
 30
0.0
 11
153.3750021468449
 21
301.3054273124438
 31
0.0
  0
LINE
  5
85858
330
8563C
100
AcDbEntity
  8
DETAIL
  6
Continuous
100
AcDbLine
 10
151.875002146854
 20
304.2715073124422
 30
0.0
 11
151.875002146854
 21
301.3054273124438
 31
0.0
  0
ARC
  5
85859
330
8563C
100
AcDbEntity
  8
DETAIL
  6
Continuous
100
AcDbCircle
 10
137.4952821468605
 20
556.8378406457163
 30
0.0
 40
255.9278533332693
100
AcDbArc
 50
271.8623420000243
 51
273.2209500000499
  0
LINE
  5
8585A
330
8563C
100
AcDbEntity
  8
DETAIL
  6
Continuous
100
AcDbLine
 10
145.8124954801669
 20
304.0024006457747
 30
0.0
 11
145.8124954801669
 21
300.969720645779
 31
0.0
  0
LINE
  5
8585B
330
8563C
100
AcDbEntity
  8
DETAIL
  6
Continuous
100
AcDbLine
 10
144.3124954801778
 20
303.9580273124443
 30
0.0
 11
144.3124954801778
 21
300.969720645779
 31
0.0
  0
ARC
  5
8585C
330
8563C
100
AcDbEntity
  8
DETAIL
  6
Continuous
100
AcDbCircle
 10
137.4952821468605
 20
556.8378406457163
 30
0.0
 40
255.9278533332693
100
AcDbArc
 50
270.1689609999789
 51
271.5263820000378
  0
LINE
  5
8585D
330
8563C
100
AcDbEntity
  8
DETAIL
  6
Continuous
100
AcDbLine
 10
138.2500021468285
 20
303.8683206457739
 30
0.0
 11
138.2500021468285
 21
300.8578273124426
 31
0.0
  0
ARC
  5
8585E
330
8563C
100
AcDbEntity
  8
DETAIL
  6
Continuous
100
AcDbCircle
 10
145.062495480196
 20
301.6311606457761
 30
0.0
 40
0.9999999999997497
100
AcDbArc
 50
221.4096219999614
 51
318.5903780000385
  0
ARC
  5
8585F
330
8563C
100
AcDbEntity
  8
DETAIL
  6
Continuous
100
AcDbCircle
 10
152.6250021468249
 20
301.9668673124474
 30
0.0
 40
0.9999999999997497
100
AcDbArc
 50
221.4096219999614
 51
318.5903780000385
  0
ARC
  5
85860
330
8563C
100
AcDbEntity
  8
DETAIL
  6
Continuous
100
AcDbCircle
 10
160.1874954801633
 20
302.5272673124422
 30
0.0
 40
0.9999999999997497
100
AcDbArc
 50
221.4096219999614
 51
318.5903780000385
  0
LINE
  5
85861
330
8563C
100
AcDbEntity
  8
DETAIL
  6
Continuous
100
AcDbLine
 10
159.4374954801924
 20
295.018733979114
 30
0.0
 11
159.4374954801924
 21
292.0750006457797
 31
0.0
  0
ARC
  5
85862
330
8563C
100
AcDbEntity
  8
DETAIL
  6
Continuous
100
AcDbCircle
 10
137.4952821468605
 20
547.0470006457203
 30
0.0
 40
255.9278533332693
100
AcDbArc
 50
273.557351000086
 51
274.9183449999492
  0
LINE
  5
85863
330
8563C
100
AcDbEntity
  8
DETAIL
  6
Continuous
100
AcDbLine
 10
160.9374954801833
 20
295.1522673124449
 30
0.0
 11
160.9374954801833
 21
292.0750006457797
 31
0.0
  0
LINE
  5
85864
330
8563C
100
AcDbEntity
  8
DETAIL
  6
Continuous
100
AcDbLine
 10
153.3750021468449
 20
294.5695073124411
 30
0.0
 11
153.3750021468449
 21
291.5146006457785
 31
0.0
  0
LINE
  5
85865
330
8563C
100
AcDbEntity
  8
DETAIL
  6
Continuous
100
AcDbLine
 10
151.875002146854
 20
294.4806806457777
 30
0.0
 11
151.875002146854
 21
291.5146006457785
 31
0.0
  0
ARC
  5
85866
330
8563C
100
AcDbEntity
  8
DETAIL
  6
Continuous
100
AcDbCircle
 10
137.4952821468605
 20
547.0470006457203
 30
0.0
 40
255.9278533332693
100
AcDbArc
 50
271.8623420000243
 51
273.2209500000499
  0
LINE
  5
85867
330
8563C
100
AcDbEntity
  8
DETAIL
  6
Continuous
100
AcDbLine
 10
145.8124954801669
 20
294.2115739791156
 30
0.0
 11
145.8124954801669
 21
291.1788939791134
 31
0.0
  0
LINE
  5
85868
330
8563C
100
AcDbEntity
  8
DETAIL
  6
Continuous
100
AcDbLine
 10
144.3124954801778
 20
294.1672006457797
 30
0.0
 11
144.3124954801778
 21
291.1788939791134
 31
0.0
  0
ARC
  5
85869
330
8563C
100
AcDbEntity
  8
DETAIL
  6
Continuous
100
AcDbCircle
 10
137.4952821468605
 20
547.0470006457203
 30
0.0
 40
255.9278533332693
100
AcDbArc
 50
270.1689609999789
 51
271.5263820000378
  0
LINE
  5
8586A
330
8563C
100
AcDbEntity
  8
DETAIL
  6
Continuous
100
AcDbLine
 10
138.2500021468285
 20
294.0774939791149
 30
0.0
 11
138.2500021468285
 21
291.0670006457779
 31
0.0
  0
ARC
  5
8586B
330
8563C
100
AcDbEntity
  8
DETAIL
  6
Continuous
100
AcDbCircle
 10
145.062495480196
 20
291.8403339791116
 30
0.0
 40
0.9999999999997497
100
AcDbArc
 50
221.4096219999614
 51
318.5903780000385
  0
ARC
  5
8586C
330
8563C
100
AcDbEntity
  8
DETAIL
  6
Continuous
100
AcDbCircle
 10
152.6250021468249
 20
292.1760406457764
 30
0.0
 40
0.9999999999997497
100
AcDbArc
 50
221.4096219999614
 51
318.5903780000385
  0
ARC
  5
8586D
330
8563C
100
AcDbEntity
  8
DETAIL
  6
Continuous
100
AcDbCircle
 10
160.1874954801633
 20
292.7364406457832
 30
0.0
 40
0.9999999999997497
100
AcDbArc
 50
221.4096219999614
 51
318.5903780000385
  0
LINE
  5
8586E
330
8563C
100
AcDbEntity
  8
DETAIL
  6
Continuous
100
AcDbLine
 10
159.4374954801924
 20
285.2279073124486
 30
0.0
 11
159.4374954801924
 21
282.2841739791151
 31
0.0
  0
ARC
  5
8586F
330
8563C
100
AcDbEntity
  8
DETAIL
  6
Continuous
100
AcDbCircle
 10
137.4952821468605
 20
537.2561739790494
 30
0.0
 40
255.9278533332693
100
AcDbArc
 50
273.557351000086
 51
274.9183449999492
  0
LINE
  5
85870
330
8563C
100
AcDbEntity
  8
DETAIL
  6
Continuous
100
AcDbLine
 10
160.9374954801833
 20
285.3614273124479
 30
0.0
 11
160.9374954801833
 21
282.2841739791151
 31
0.0
  0
LINE
  5
85871
330
8563C
100
AcDbEntity
  8
DETAIL
  6
Continuous
100
AcDbLine
 10
153.3750021468449
 20
284.7786806457829
 30
0.0
 11
153.3750021468449
 21
281.7237739791139
 31
0.0
  0
LINE
  5
85872
330
8563C
100
AcDbEntity
  8
DETAIL
  6
Continuous
100
AcDbLine
 10
151.875002146854
 20
284.6898406457807
 30
0.0
 11
151.875002146854
 21
281.7237739791139
 31
0.0
  0
ARC
  5
85873
330
8563C
100
AcDbEntity
  8
DETAIL
  6
Continuous
100
AcDbCircle
 10
137.4952821468605
 20
537.2561739790494
 30
0.0
 40
255.9278533332693
100
AcDbArc
 50
271.8623420000243
 51
273.2209500000499
  0
LINE
  5
85874
330
8563C
100
AcDbEntity
  8
DETAIL
  6
Continuous
100
AcDbLine
 10
145.8124954801669
 20
284.4207339791132
 30
0.0
 11
145.8124954801669
 21
281.388067312449
 31
0.0
  0
LINE
  5
85875
330
8563C
100
AcDbEntity
  8
DETAIL
  6
Continuous
100
AcDbLine
 10
144.3124954801778
 20
284.3763606457828
 30
0.0
 11
144.3124954801778
 21
281.388067312449
 31
0.0
  0
ARC
  5
85876
330
8563C
100
AcDbEntity
  8
DETAIL
  6
Continuous
100
AcDbCircle
 10
137.4952821468605
 20
537.2561739790494
 30
0.0
 40
255.9278533332693
100
AcDbArc
 50
270.1689609999789
 51
271.5263820000378
  0
LINE
  5
85877
330
8563C
100
AcDbEntity
  8
DETAIL
  6
Continuous
100
AcDbLine
 10
138.2500021468285
 20
284.2866673124439
 30
0.0
 11
138.2500021468285
 21
281.2761606457811
 31
0.0
  0
ARC
  5
85878
330
8563C
100
AcDbEntity
  8
DETAIL
  6
Continuous
100
AcDbCircle
 10
145.062495480196
 20
282.0495073124524
 30
0.0
 40
0.9999999999997497
100
AcDbArc
 50
221.4096219999614
 51
318.5903780000385
  0
ARC
  5
85879
330
8563C
100
AcDbEntity
  8
DETAIL
  6
Continuous
100
AcDbCircle
 10
152.6250021468249
 20
282.3852139791174
 30
0.0
 40
0.9999999999997497
100
AcDbArc
 50
221.4096219999614
 51
318.5903780000385
  0
ARC
  5
8587A
330
8563C
100
AcDbEntity
  8
DETAIL
  6
Continuous
100
AcDbCircle
 10
160.1874954801633
 20
282.9456139791122
 30
0.0
 40
0.9999999999997497
100
AcDbArc
 50
221.4096219999614
 51
318.5903780000385
  0
LINE
  5
8587B
330
8563C
100
AcDbEntity
  8
DETAIL
  6
Continuous
100
AcDbLine
 10
160.9374954801833
 20
314.7339206457749
 30
0.0
 11
160.9374954801833
 21
311.6566539791097
 31
0.0
  0
LINE
  5
8587C
330
8563C
100
AcDbEntity
  8
DETAIL
  6
Continuous
100
AcDbLine
 10
159.4374954801924
 20
314.6004006457756
 30
0.0
 11
159.4374954801924
 21
311.6566539791097
 31
0.0
  0
ARC
  5
8587D
330
8563C
100
AcDbEntity
  8
DETAIL
  6
Continuous
100
AcDbCircle
 10
160.1874954801633
 20
312.3180939791068
 30
0.0
 40
0.9999999999997497
100
AcDbArc
 50
221.4096219999614
 51
318.5903780000385
  0
LINE
  5
8587E
330
8563C
100
AcDbEntity
  8
DETAIL
  6
Continuous
100
AcDbLine
 10
153.3750021468449
 20
314.1511739791089
 30
0.0
 11
153.3750021468449
 21
311.0962539791084
 31
0.0
  0
ARC
  5
8587F
330
8563C
100
AcDbEntity
  8
DETAIL
  6
Continuous
100
AcDbCircle
 10
152.6250021468249
 20
311.7576939791055
 30
0.0
 40
0.9999999999997497
100
AcDbArc
 50
221.4096219999614
 51
318.5903780000385
  0
LINE
  5
85880
330
8563C
100
AcDbEntity
  8
DETAIL
  6
Continuous
100
AcDbLine
 10
151.875002146854
 20
314.0623339791077
 30
0.0
 11
151.875002146854
 21
311.0962539791084
 31
0.0
  0
LINE
  5
85881
330
8563C
100
AcDbEntity
  8
DETAIL
  6
Continuous
100
AcDbLine
 10
145.8124954801669
 20
313.7932273124392
 30
0.0
 11
145.8124954801669
 21
310.7605473124372
 31
0.0
  0
ARC
  5
85882
330
8563C
100
AcDbEntity
  8
DETAIL
  6
Continuous
100
AcDbCircle
 10
145.062495480196
 20
311.4219873124405
 30
0.0
 40
0.9999999999997497
100
AcDbArc
 50
221.4096219999614
 51
318.5903780000385
  0
LINE
  5
85883
330
8563C
100
AcDbEntity
  8
DETAIL
  6
Continuous
100
AcDbLine
 10
144.3124954801778
 20
313.7488539791033
 30
0.0
 11
144.3124954801778
 21
310.7605473124372
 31
0.0
  0
LINE
  5
85884
330
8563C
100
AcDbEntity
  8
DETAIL
  6
Continuous
100
AcDbLine
 10
138.2500021468285
 20
313.6591606457699
 30
0.0
 11
138.2500021468285
 21
310.648653979108
 31
0.0
  0
ARC
  5
85885
330
8563C
100
AcDbEntity
  8
DETAIL
  6
Continuous
100
AcDbCircle
 10
137.4952821468605
 20
566.6286673123753
 30
0.0
 40
255.9278533332693
100
AcDbArc
 50
273.557351000086
 51
274.9183449999492
  0
ARC
  5
85886
330
8563C
100
AcDbEntity
  8
DETAIL
  6
Continuous
100
AcDbCircle
 10
137.4952821468605
 20
566.6286673123753
 30
0.0
 40
255.9278533332693
100
AcDbArc
 50
271.8623420000243
 51
273.2209500000499
  0
ARC
  5
85887
330
8563C
100
AcDbEntity
  8
DETAIL
  6
Continuous
100
AcDbCircle
 10
137.4952821468605
 20
566.6286673123753
 30
0.0
 40
255.9278533332693
100
AcDbArc
 50
270.1689609999789
 51
271.5263820000378
  0
ARC
  5
85888
330
8563C
100
AcDbEntity
  8
DETAIL
  6
Continuous
100
AcDbCircle
 10
164.6942554801908
 20
304.6783873124463
 30
0.0
 40
2.305746666666089
100
AcDbArc
 50
276.1563589998989
 51
338.6279579999685
  0
ARC
  5
85889
330
8563C
100
AcDbEntity
  8
DETAIL
  6
Continuous
100
AcDbCircle
 10
164.6942554801908
 20
302.9978539791122
 30
0.0
 40
2.305746666666089
100
AcDbArc
 50
276.1563589998989
 51
96.04600600009247
  0
ARC
  5
8588A
330
8563C
100
AcDbEntity
  8
DETAIL
  6
Continuous
100
AcDbCircle
 10
164.6942554801908
 20
294.8875606457754
 30
0.0
 40
2.305746666666089
100
AcDbArc
 50
276.1563589998989
 51
338.6279579999685
  0
ARC
  5
8588B
330
8563C
100
AcDbEntity
  8
DETAIL
  6
Continuous
100
AcDbCircle
 10
164.6942554801908
 20
293.2070273124468
 30
0.0
 40
2.305746666666089
100
AcDbArc
 50
276.1563589998989
 51
96.04600600009247
  0
ARC
  5
8588C
330
8563C
100
AcDbEntity
  8
DETAIL
  6
Continuous
100
AcDbCircle
 10
164.6942554801908
 20
285.0967206457784
 30
0.0
 40
2.305746666666089
100
AcDbArc
 50
276.1563589998989
 51
338.6279579999685
  0
ARC
  5
8588D
330
8563C
100
AcDbEntity
  8
DETAIL
  6
Continuous
100
AcDbCircle
 10
164.6942554801908
 20
283.4162006457813
 30
0.0
 40
2.305746666666089
100
AcDbArc
 50
276.1563589998989
 51
96.04600600009247
  0
ARC
  5
8588E
330
8563C
100
AcDbEntity
  8
DETAIL
  6
Continuous
100
AcDbCircle
 10
164.6942554801908
 20
312.7886806457703
 30
0.0
 40
2.305746666666089
100
AcDbArc
 50
276.1563589998989
 51
96.04600600009247
  0
ARC
  5
8588F
330
8563C
100
AcDbEntity
  8
DETAIL
  6
Continuous
100
AcDbCircle
 10
164.6942554801908
 20
314.4692139791045
 30
0.0
 40
2.305746666666089
100
AcDbArc
 50
276.1563589998989
 51
338.6279579999685
  0
SPLINE
  5
85890
330
8563C
100
AcDbEntity
  8
DETAIL
  6
Continuous
100
AcDbSpline
210
0.0
220
0.0
230
1.0
 70
     8
 71
     3
 72
     8
 73
     4
 74
     0
 42
0.0000000001
 43
0.0000000001
 40
0.0
 40
0.0
 40
0.0
 40
0.0
 40
1.0
 40
1.0
 40
1.0
 40
1.0
 10
180.1865964685139
 20
340.8014380160097
 30
0.0
 10
180.1872105087977
 20
340.8175029310664
 30
0.0
 10
180.1877733135779
 20
340.8335410570366
 30
0.0
 10
180.1883361183145
 20
340.8495791829996
 30
0.0
  0
SPLINE
  5
85891
330
8563C
100
AcDbEntity
  8
DETAIL
  6
Continuous
100
AcDbSpline
210
0.0
220
0.0
230
1.0
 70
     8
 71
     3
 72
     8
 73
     4
 74
     0
 42
0.0000000001
 43
0.0000000001
 40
0.0
 40
0.0
 40
0.0
 40
0.0
 40
1.0
 40
1.0
 40
1.0
 40
1.0
 10
180.1845738963611
 20
340.7533238302207
 30
0.0
 10
180.1853171523116
 20
340.7692813968245
 30
0.0
 10
180.1859824281864
 20
340.7853731009603
 30
0.0
 10
180.1865964685139
 20
340.8014380160097
 30
0.0
  0
SPLINE
  5
85892
330
8563C
100
AcDbEntity
  8
DETAIL
  6
Continuous
100
AcDbSpline
210
0.0
220
0.0
230
1.0
 70
     8
 71
     3
 72
     8
 73
     4
 74
     0
 42
0.0000000001
 43
0.0000000001
 40
0.0
 40
0.0
 40
0.0
 40
0.0
 40
1.0
 40
1.0
 40
1.0
 40
1.0
 10
180.181985479533
 20
340.7052636068332
 30
0.0
 10
180.1830094043843
 20
340.7215428345739
 30
0.0
 10
180.1838306404106
 20
340.7373662636241
 30
0.0
 10
180.1845738963611
 20
340.7533238302207
 30
0.0
  0
SPLINE
  5
85893
330
8563C
100
AcDbEntity
  8
DETAIL
  6
Continuous
100
AcDbSpline
210
0.0
220
0.0
230
1.0
 70
     8
 71
     3
 72
     8
 73
     4
 74
     0
 42
0.0000000001
 43
0.0000000001
 40
0.0
 40
0.0
 40
0.0
 40
0.0
 40
1.0
 40
1.0
 40
1.0
 40
1.0
 10
180.1785482957211
 20
340.6572843270264
 30
0.0
 10
180.1797349411071
 20
340.6722493526398
 30
0.0
 10
180.1809615547399
 20
340.6889843790854
 30
0.0
 10
180.181985479533
 20
340.7052636068332
 30
0.0
  0
SPLINE
  5
85894
330
8563C
100
AcDbEntity
  8
DETAIL
  6
Continuous
100
AcDbSpline
210
0.0
220
0.0
230
1.0
 70
     8
 71
     3
 72
     8
 73
     4
 74
     0
 42
0.0000000001
 43
0.0000000001
 40
0.0
 40
0.0
 40
0.0
 40
0.0
 40
1.0
 40
1.0
 40
1.0
 40
1.0
 10
180.1739794225586
 20
340.6094129720081
 30
0.0
 10
180.1762149732394
 20
340.6291242766168
 30
0.0
 10
180.1773616503351
 20
340.6423193014056
 30
0.0
 10
180.1785482957211
 20
340.6572843270264
 30
0.0
  0
SPLINE
  5
85895
330
8563C
100
AcDbEntity
  8
DETAIL
  6
Continuous
100
AcDbSpline
210
0.0
220
0.0
230
1.0
 70
     8
 71
     3
 72
     8
 73
     4
 74
     0
 42
0.0000000001
 43
0.0000000001
 40
0.0
 40
0.0
 40
0.0
 40
0.0
 40
1.0
 40
1.0
 40
1.0
 40
1.0
 10
180.1647502950954
 20
340.5390344837728
 30
0.0
 10
180.168419447641
 20
340.5634740829559
 30
0.0
 10
180.1717438718633
 20
340.5897016673847
 30
0.0
 10
180.1739794225586
 20
340.6094129720081
 30
0.0
  0
SPLINE
  5
85896
330
8563C
100
AcDbEntity
  8
DETAIL
  6
Continuous
100
AcDbSpline
210
0.0
220
0.0
230
1.0
 70
     8
 71
     3
 72
     8
 73
     4
 74
     0
 42
0.0000000001
 43
0.0000000001
 40
0.0
 40
0.0
 40
0.0
 40
0.0
 40
1.0
 40
1.0
 40
1.0
 40
1.0
 10
180.1525971697565
 20
340.469036076531
 30
0.0
 10
180.1570672616226
 20
340.4919432706669
 30
0.0
 10
180.1610811425353
 20
340.5145948845897
 30
0.0
 10
180.1647502950954
 20
340.5390344837728
 30
0.0
  0
SPLINE
  5
85897
330
8563C
100
AcDbEntity
  8
DETAIL
  6
Continuous
100
AcDbSpline
210
0.0
220
0.0
230
1.0
 70
     8
 71
     3
 72
     8
 73
     4
 74
     0
 42
0.0000000001
 43
0.0000000001
 40
0.0
 40
0.0
 40
0.0
 40
0.0
 40
1.0
 40
1.0
 40
1.0
 40
1.0
 10
180.1376756638792
 20
340.3995041404273
 30
0.0
 10
180.1432007750127
 20
340.4229661080539
 30
0.0
 10
180.1481270778613
 20
340.4461288823954
 30
0.0
 10
180.1525971697565
 20
340.469036076531
 30
0.0
  0
SPLINE
  5
85898
330
8563C
100
AcDbEntity
  8
DETAIL
  6
Continuous
100
AcDbSpline
210
0.0
220
0.0
230
1.0
 70
     8
 71
     3
 72
     8
 73
     4
 74
     0
 42
0.0000000001
 43
0.0000000001
 40
0.0
 40
0.0
 40
0.0
 40
0.0
 40
1.0
 40
1.0
 40
1.0
 40
1.0
 10
180.1201413948301
 20
340.3305250655979
 30
0.0
 10
180.1260266333856
 20
340.3522810118961
 30
0.0
 10
180.1321505527748
 20
340.3760421728006
 30
0.0
 10
180.1376756638792
 20
340.3995041404273
 30
0.0
  0
SPLINE
  5
85899
330
8563C
100
AcDbEntity
  8
DETAIL
  6
Continuous
100
AcDbSpline
210
0.0
220
0.0
230
1.0
 70
     8
 71
     3
 72
     8
 73
     4
 74
     0
 42
0.0000000001
 43
0.0000000001
 40
0.0
 40
0.0
 40
0.0
 40
0.0
 40
1.0
 40
1.0
 40
1.0
 40
1.0
 10
180.1001499799031
 20
340.2621852421802
 30
0.0
 10
180.1086095985528
 20
340.2890183876156
 30
0.0
 10
180.1142561562892
 20
340.3087691192999
 30
0.0
 10
180.1201413948301
 20
340.3305250655979
 30
0.0
  0
SPLINE
  5
8589A
330
8563C
100
AcDbEntity
  8
DETAIL
  6
Continuous
100
AcDbSpline
210
0.0
220
0.0
230
1.0
 70
     8
 71
     3
 72
     8
 73
     4
 74
     0
 42
0.0000000001
 43
0.0000000001
 40
0.0
 40
0.0
 40
0.0
 40
0.0
 40
1.0
 40
1.0
 40
1.0
 40
1.0
 10
180.0689909244401
 20
340.1697438473569
 30
0.0
 10
180.0804176816609
 20
340.2014365375729
 30
0.0
 10
180.0916903612096
 20
340.2353520967521
 30
0.0
 10
180.1001499799031
 20
340.2621852421802
 30
0.0
  0
SPLINE
  5
8589B
330
8563C
100
AcDbEntity
  8
DETAIL
  6
Continuous
100
AcDbSpline
210
0.0
220
0.0
230
1.0
 70
     8
 71
     3
 72
     8
 73
     4
 74
     0
 42
0.0000000001
 43
0.0000000001
 40
0.0
 40
0.0
 40
0.0
 40
0.0
 40
1.0
 40
1.0
 40
1.0
 40
1.0
 10
180.0335427932595
 20
340.0788885509249
 30
0.0
 10
180.0459833323411
 20
340.1085813358735
 30
0.0
 10
180.0575641672339
 20
340.1380511571409
 30
0.0
 10
180.0689909244401
 20
340.1697438473569
 30
0.0
  0
SPLINE
  5
8589C
330
8563C
100
AcDbEntity
  8
DETAIL
  6
Continuous
100
AcDbSpline
210
0.0
220
0.0
230
1.0
 70
     8
 71
     3
 72
     8
 73
     4
 74
     0
 42
0.0000000001
 43
0.0000000001
 40
0.0
 40
0.0
 40
0.0
 40
0.0
 40
1.0
 40
1.0
 40
1.0
 40
1.0
 10
179.9938373278864
 20
339.9898431547121
 30
0.0
 10
180.0078020109076
 20
340.0192800173394
 30
0.0
 10
180.0211022542071
 20
340.0491957659764
 30
0.0
 10
180.0335427932595
 20
340.0788885509249
 30
0.0
  0
SPLINE
  5
8589D
330
8563C
100
AcDbEntity
  8
DETAIL
  6
Continuous
100
AcDbSpline
210
0.0
220
0.0
230
1.0
 70
     8
 71
     3
 72
     8
 73
     4
 74
     0
 42
0.0000000001
 43
0.0000000001
 40
0.0
 40
0.0
 40
0.0
 40
0.0
 40
1.0
 40
1.0
 40
1.0
 40
1.0
 10
179.949906269715
 20
339.9028314605534
 30
0.0
 10
179.9652435220787
 20
339.9314483154744
 30
0.0
 10
179.9798726448652
 20
339.960406292092
 30
0.0
 10
179.9938373278864
 20
339.9898431547121
 30
0.0
  0
SPLINE
  5
8589E
330
8563C
100
AcDbEntity
  8
DETAIL
  6
Continuous
100
AcDbSpline
210
0.0
220
0.0
230
1.0
 70
     8
 71
     3
 72
     8
 73
     4
 74
     0
 42
0.0000000001
 43
0.0000000001
 40
0.0
 40
0.0
 40
0.0
 40
0.0
 40
1.0
 40
1.0
 40
1.0
 40
1.0
 10
179.901781360154
 20
339.8180772702694
 30
0.0
 10
179.9185236352359
 20
339.8459388724081
 30
0.0
 10
179.9345690173076
 20
339.8742146056324
 30
0.0
 10
179.949906269715
 20
339.9028314605534
 30
0.0
  0
SPLINE
  5
8589F
330
8563C
100
AcDbEntity
  8
DETAIL
  6
Continuous
100
AcDbSpline
210
0.0
220
0.0
230
1.0
 70
     8
 71
     3
 72
     8
 73
     4
 74
     0
 42
0.0000000001
 43
0.0000000001
 40
0.0
 40
0.0
 40
0.0
 40
0.0
 40
1.0
 40
1.0
 40
1.0
 40
1.0
 10
179.8494942359257
 20
339.7357637967293
 30
0.0
 10
179.8675999169217
 20
339.7627681970992
 30
0.0
 10
179.885039085072
 20
339.7902156681452
 30
0.0
 10
179.901781360154
 20
339.8180772702694
 30
0.0
  0
SPLINE
  5
858A0
330
8563C
100
AcDbEntity
  8
DETAIL
  6
Continuous
100
AcDbSpline
210
0.0
220
0.0
230
1.0
 70
     8
 71
     3
 72
     8
 73
     4
 74
     0
 42
0.0000000001
 43
0.0000000001
 40
0.0
 40
0.0
 40
0.0
 40
0.0
 40
1.0
 40
1.0
 40
1.0
 40
1.0
 10
179.793203674505
 20
339.6561090544277
 30
0.0
 10
179.8126163611168
 20
339.6821980666794
 30
0.0
 10
179.8313885549441
 20
339.7087593963664
 30
0.0
 10
179.8494942359257
 20
339.7357637967293
 30
0.0
  0
SPLINE
  5
858A1
330
8563C
100
AcDbEntity
  8
DETAIL
  6
Continuous
100
AcDbSpline
210
0.0
220
0.0
230
1.0
 70
     8
 71
     3
 72
     8
 73
     4
 74
     0
 42
0.0000000001
 43
0.0000000001
 40
0.0
 40
0.0
 40
0.0
 40
0.0
 40
1.0
 40
1.0
 40
1.0
 40
1.0
 10
179.7330716891747
 20
339.579288477333
 30
0.0
 10
179.7537378083661
 20
339.604403347374
 30
0.0
 10
179.7737909878351
 20
339.6300200421759
 30
0.0
 10
179.793203674505
 20
339.6561090544277
 30
0.0
  0
SPLINE
  5
858A2
330
8563C
100
AcDbEntity
  8
DETAIL
  6
Continuous
100
AcDbSpline
210
0.0
220
0.0
230
1.0
 70
     8
 71
     3
 72
     8
 73
     4
 74
     0
 42
0.0000000001
 43
0.0000000001
 40
0.0
 40
0.0
 40
0.0
 40
0.0
 40
1.0
 40
1.0
 40
1.0
 40
1.0
 10
179.6692602933626
 20
339.505477499399
 30
0.0
 10
179.6911265111857
 20
339.5295605620126
 30
0.0
 10
179.7124055700414
 20
339.5541736072922
 30
0.0
 10
179.7330716891747
 20
339.579288477333
 30
0.0
  0
SPLINE
  5
858A3
330
8563C
100
AcDbEntity
  8
DETAIL
  6
Continuous
100
AcDbSpline
210
0.0
220
0.0
230
1.0
 70
     8
 71
     3
 72
     8
 73
     4
 74
     0
 42
0.0000000001
 43
0.0000000001
 40
0.0
 40
0.0
 40
0.0
 40
0.0
 40
1.0
 40
1.0
 40
1.0
 40
1.0
 10
179.6019315003222
 20
339.4348515545939
 30
0.0
 10
179.6249406988654
 20
339.4578413568309
 30
0.0
 10
179.6473940755977
 20
339.4813944367782
 30
0.0
 10
179.6692602933626
 20
339.505477499399
 30
0.0
  0
SPLINE
  5
858A4
330
8563C
100
AcDbEntity
  8
DETAIL
  6
Continuous
100
AcDbSpline
210
0.0
220
0.0
230
1.0
 70
     8
 71
     3
 72
     8
 73
     4
 74
     0
 42
0.0000000001
 43
0.0000000001
 40
0.0
 40
0.0
 40
0.0
 40
0.0
 40
1.0
 40
1.0
 40
1.0
 40
1.0
 10
179.5312610397677
 20
339.3675947353699
 30
0.0
 10
179.5553572815997
 20
339.3894352278298
 30
0.0
 10
179.5789223018373
 20
339.4118617523568
 30
0.0
 10
179.6019315003222
 20
339.4348515545939
 30
0.0
  0
SPLINE
  5
858A5
330
8563C
100
AcDbEntity
  8
DETAIL
  6
Continuous
100
AcDbSpline
210
0.0
220
0.0
230
1.0
 70
     8
 71
     3
 72
     8
 73
     4
 74
     0
 42
0.0000000001
 43
0.0000000001
 40
0.0
 40
0.0
 40
0.0
 40
0.0
 40
1.0
 40
1.0
 40
1.0
 40
1.0
 10
179.4574089351817
 20
339.3038596878618
 30
0.0
 10
179.4825373344219
 20
339.3244997824954
 30
0.0
 10
179.507164797892
 20
339.3457542429027
 30
0.0
 10
179.5312610397677
 20
339.3675947353699
 30
0.0
  0
SPLINE
  5
858A6
330
8563C
100
AcDbEntity
  8
DETAIL
  6
Continuous
100
AcDbSpline
210
0.0
220
0.0
230
1.0
 70
     8
 71
     3
 72
     8
 73
     4
 74
     0
 42
0.0000000001
 43
0.0000000001
 40
0.0
 40
0.0
 40
0.0
 40
0.0
 40
1.0
 40
1.0
 40
1.0
 40
1.0
 10
179.3805478190779
 20
339.2438088257772
 30
0.0
 10
179.4066512009458
 20
339.2631938643903
 30
0.0
 10
179.4322805359415
 20
339.2832195932355
 30
0.0
 10
179.4574089351817
 20
339.3038596878618
 30
0.0
  0
SPLINE
  5
858A7
330
8563C
100
AcDbEntity
  8
DETAIL
  6
Continuous
100
AcDbSpline
210
0.0
220
0.0
230
1.0
 70
     8
 71
     3
 72
     8
 73
     4
 74
     0
 42
0.0000000001
 43
0.0000000001
 40
0.0
 40
0.0
 40
0.0
 40
0.0
 40
1.0
 40
1.0
 40
1.0
 40
1.0
 10
179.3008503239843
 20
339.1876045628018
 30
0.0
 10
179.3278670085574
 20
339.205679438783
 30
0.0
 10
179.3544444372537
 20
339.224423787164
 30
0.0
 10
179.3805478190779
 20
339.2438088257772
 30
0.0
  0
LINE
  5
858A8
330
8563C
100
AcDbEntity
  8
DETAIL
  6
Continuous
100
AcDbLine
 10
176.0237754801864
 20
332.5050806457687
 30
0.0
 11
171.7811354801769
 21
328.2624406457712
 31
0.0
  0
LINE
  5
858A9
330
8563C
100
AcDbEntity
  8
DETAIL
  6
Continuous
100
AcDbLine
 10
176.0237754801864
 20
328.2624406457712
 30
0.0
 11
171.7811354801769
 21
332.5050806457687
 31
0.0
  0
CIRCLE
  5
858AA
330
8563C
100
AcDbEntity
  8
DETAIL
  6
Continuous
100
AcDbCircle
 10
173.9024554801826
 20
330.3837606457694
 30
0.0
 40
3.999999999998998
  0
SPLINE
  5
858AB
330
8563C
100
AcDbEntity
  8
DETAIL
  6
Continuous
100
AcDbSpline
210
0.0
220
0.0
230
1.0
 70
     8
 71
     3
 72
     8
 73
     4
 74
     0
 42
0.0000000001
 43
0.0000000001
 40
0.0
 40
0.0
 40
0.0
 40
0.0
 40
1.0
 40
1.0
 40
1.0
 40
1.0
 10
179.1336507346431
 20
339.0873642514347
 30
0.0
 10
179.1622791730487
 20
339.1026698044229
 30
0.0
 10
179.1906004657221
 20
339.1186943420548
 30
0.0
 10
179.2184890823273
 20
339.1354093126577
 30
0.0
  0
SPLINE
  5
858AC
330
8563C
100
AcDbEntity
  8
DETAIL
  6
Continuous
100
AcDbSpline
210
0.0
220
0.0
230
1.0
 70
     8
 71
     3
 72
     8
 73
     4
 74
     0
 42
0.0000000001
 43
0.0000000001
 40
0.0
 40
0.0
 40
0.0
 40
0.0
 40
1.0
 40
1.0
 40
1.0
 40
1.0
 10
179.0465582324695
 20
339.0435146559034
 30
0.0
 10
179.0760867122162
 20
339.0574721301167
 30
0.0
 10
179.1050222962376
 20
339.0720586984465
 30
0.0
 10
179.1336507346431
 20
339.0873642514347
 30
0.0
  0
SPLINE
  5
858AD
330
8563C
100
AcDbEntity
  8
DETAIL
  6
Continuous
100
AcDbSpline
210
0.0
220
0.0
230
1.0
 70
     8
 71
     3
 72
     8
 73
     4
 74
     0
 42
0.0000000001
 43
0.0000000001
 40
0.0
 40
0.0
 40
0.0
 40
0.0
 40
1.0
 40
1.0
 40
1.0
 40
1.0
 10
178.9574483433834
 20
339.0038848866975
 30
0.0
 10
178.9869083772218
 20
339.0162288016294
 30
0.0
 10
179.0170297526792
 20
339.0295571816972
 30
0.0
 10
179.0465582324695
 20
339.0435146559034
 30
0.0
  0
SPLINE
  5
858AE
330
8563C
100
AcDbEntity
  8
DETAIL
  6
Continuous
100
AcDbSpline
210
0.0
220
0.0
230
1.0
 70
     8
 71
     3
 72
     8
 73
     4
 74
     0
 42
0.0000000001
 43
0.0000000001
 40
0.0
 40
0.0
 40
0.0
 40
0.0
 40
1.0
 40
1.0
 40
1.0
 40
1.0
 10
178.8665578350055
 20
338.9684993044578
 30
0.0
 10
178.8991896172819
 20
338.980181521962
 30
0.0
 10
178.927988309545
 20
338.9915409717654
 30
0.0
 10
178.9574483433834
 20
339.0038848866975
 30
0.0
  0
SPLINE
  5
858AF
330
8563C
100
AcDbEntity
  8
DETAIL
  6
Continuous
100
AcDbSpline
210
0.0
220
0.0
230
1.0
 70
     8
 71
     3
 72
     8
 73
     4
 74
     0
 42
0.0000000001
 43
0.0000000001
 40
0.0
 40
0.0
 40
0.0
 40
0.0
 40
1.0
 40
1.0
 40
1.0
 40
1.0
 10
178.7741234748837
 20
338.9373822698257
 30
0.0
 10
178.7974611803228
 20
338.9448121017271
 30
0.0
 10
178.8339260527145
 20
338.9568170869464
 30
0.0
 10
178.8665578350055
 20
338.9684993044578
 30
0.0
  0
SPLINE
  5
858B0
330
8563C
100
AcDbEntity
  8
DETAIL
  6
Continuous
100
AcDbSpline
210
0.0
220
0.0
230
1.0
 70
     8
 71
     3
 72
     8
 73
     4
 74
     0
 42
0.0000000001
 43
0.0000000001
 40
0.0
 40
0.0
 40
0.0
 40
0.0
 40
1.0
 40
1.0
 40
1.0
 40
1.0
 10
178.7267524090866
 20
338.9232622260172
 30
0.0
 10
178.7405752308268
 20
338.9270977593337
 30
0.0
 10
178.7507857694299
 20
338.9299524379243
 30
0.0
 10
178.7741234748837
 20
338.9373822698257
 30
0.0
  0
SPLINE
  5
858B1
330
8563C
100
AcDbEntity
  8
DETAIL
  6
Continuous
100
AcDbSpline
210
0.0
220
0.0
230
1.0
 70
     8
 71
     3
 72
     8
 73
     4
 74
     0
 42
0.0000000001
 43
0.0000000001
 40
0.0
 40
0.0
 40
0.0
 40
0.0
 40
1.0
 40
1.0
 40
1.0
 40
1.0
 10
178.6790677385151
 20
338.9103403224003
 30
0.0
 10
178.6954944825856
 20
338.9146103046444
 30
0.0
 10
178.7129295874047
 20
338.919426692701
 30
0.0
 10
178.7267524090866
 20
338.9232622260172
 30
0.0
  0
SPLINE
  5
858B2
330
8563C
100
AcDbEntity
  8
DETAIL
  6
Continuous
100
AcDbSpline
210
0.0
220
0.0
230
1.0
 70
     8
 71
     3
 72
     8
 73
     4
 74
     0
 42
0.0000000001
 43
0.0000000001
 40
0.0
 40
0.0
 40
0.0
 40
0.0
 40
1.0
 40
1.0
 40
1.0
 40
1.0
 10
178.6310917187229
 20
338.8987116193389
 30
0.0
 10
178.6472226111373
 20
338.9023467636874
 30
0.0
 10
178.6626409944592
 20
338.9060703401414
 30
0.0
 10
178.6790677385151
 20
338.9103403224003
 30
0.0
  0
SPLINE
  5
858B3
330
8563C
100
AcDbEntity
  8
DETAIL
  6
Continuous
100
AcDbSpline
210
0.0
220
0.0
230
1.0
 70
     8
 71
     3
 72
     8
 73
     4
 74
     0
 42
0.0000000001
 43
0.0000000001
 40
0.0
 40
0.0
 40
0.0
 40
0.0
 40
1.0
 40
1.0
 40
1.0
 40
1.0
 10
178.5828466054381
 20
338.8884711772047
 30
0.0
 10
178.5981174247581
 20
338.8915297627539
 30
0.0
 10
178.614960826294
 20
338.8950764749902
 30
0.0
 10
178.6310917187229
 20
338.8987116193389
 30
0.0
  0
SPLINE
  5
858B4
330
8563C
100
AcDbEntity
  8
DETAIL
  6
Continuous
100
AcDbSpline
210
0.0
220
0.0
230
1.0
 70
     8
 71
     3
 72
     8
 73
     4
 74
     0
 42
0.0000000001
 43
0.0000000001
 40
0.0
 40
0.0
 40
0.0
 40
0.0
 40
1.0
 40
1.0
 40
1.0
 40
1.0
 10
178.5343546541707
 20
338.8797140563697
 30
0.0
 10
178.5538775489994
 20
338.8828421327929
 30
0.0
 10
178.5675757860599
 20
338.8854125916627
 30
0.0
 10
178.5828466054381
 20
338.8884711772047
 30
0.0
  0
SPLINE
  5
858B5
330
8563C
100
AcDbEntity
  8
DETAIL
  6
Continuous
100
AcDbSpline
210
0.0
220
0.0
230
1.0
 70
     8
 71
     3
 72
     8
 73
     4
 74
     0
 42
0.0000000001
 43
0.0000000001
 40
0.0
 40
0.0
 40
0.0
 40
0.0
 40
1.0
 40
1.0
 40
1.0
 40
1.0
 10
178.4656178771847
 20
338.8699223894441
 30
0.0
 10
178.4894842068615
 20
338.8729002859475
 30
0.0
 10
178.5148317594003
 20
338.8765859799464
 30
0.0
 10
178.5343546541707
 20
338.8797140563697
 30
0.0
  0
SPLINE
  5
858B6
330
8563C
100
AcDbEntity
  8
DETAIL
  6
Continuous
100
AcDbSpline
210
0.0
220
0.0
230
1.0
 70
     8
 71
     3
 72
     8
 73
     4
 74
     0
 42
0.0000000001
 43
0.0000000001
 40
0.0
 40
0.0
 40
0.0
 40
0.0
 40
1.0
 40
1.0
 40
1.0
 40
1.0
 10
178.3965239977123
 20
338.8626404664396
 30
0.0
 10
178.419366440562
 20
338.8646743939393
 30
0.0
 10
178.4417515474642
 20
338.8669444929477
 30
0.0
 10
178.4656178771847
 20
338.8699223894441
 30
0.0
  0
SPLINE
  5
858B7
330
8563C
100
AcDbEntity
  8
DETAIL
  6
Continuous
100
AcDbSpline
210
0.0
220
0.0
230
1.0
 70
     8
 71
     3
 72
     8
 73
     4
 74
     0
 42
0.0000000001
 43
0.0000000001
 40
0.0
 40
0.0
 40
0.0
 40
0.0
 40
1.0
 40
1.0
 40
1.0
 40
1.0
 10
178.3271622914044
 20
338.8572408513869
 30
0.0
 10
178.3503817759201
 20
338.8588087829779
 30
0.0
 10
178.373681554819
 20
338.8606065389544
 30
0.0
 10
178.3965239977123
 20
338.8626404664396
 30
0.0
  0
SPLINE
  5
858B8
330
8563C
100
AcDbEntity
  8
DETAIL
  6
Continuous
100
AcDbSpline
210
0.0
220
0.0
230
1.0
 70
     8
 71
     3
 72
     8
 73
     4
 74
     0
 42
0.0000000001
 43
0.0000000001
 40
0.0
 40
0.0
 40
0.0
 40
0.0
 40
1.0
 40
1.0
 40
1.0
 40
1.0
 10
178.2576220338096
 20
338.8530961082873
 30
0.0
 10
178.280803616567
 20
338.8543348125899
 30
0.0
 10
178.3039428068304
 20
338.8556729197957
 30
0.0
 10
178.3271622914044
 20
338.8572408513869
 30
0.0
  0
SPLINE
  5
858B9
330
8563C
100
AcDbEntity
  8
DETAIL
  6
Continuous
100
AcDbSpline
210
0.0
220
0.0
230
1.0
 70
     8
 71
     3
 72
     8
 73
     4
 74
     0
 42
0.0000000001
 43
0.0000000001
 40
0.0
 40
0.0
 40
0.0
 40
0.0
 40
1.0
 40
1.0
 40
1.0
 40
1.0
 10
178.187992500666
 20
338.8495788011646
 30
0.0
 10
178.2112164758591
 20
338.8507181025711
 30
0.0
 10
178.2344404511104
 20
338.8518574039776
 30
0.0
 10
178.2576220338096
 20
338.8530961082873
 30
0.0
  0
SPLINE
  5
858BA
330
8563C
100
AcDbEntity
  8
DETAIL
  6
Continuous
100
AcDbSpline
210
0.0
220
0.0
230
1.0
 70
     8
 71
     3
 72
     8
 73
     4
 74
     0
 42
0.0000000001
 43
0.0000000001
 40
0.0
 40
0.0
 40
0.0
 40
0.0
 40
1.0
 40
1.0
 40
1.0
 40
1.0
 10
166.897477599371
 20
331.2013211974704
 30
0.0
 10
166.8952889799702
 20
331.2595564521548
 30
0.0
 10
166.893278193268
 20
331.3177092305562
 30
0.0
 10
166.8912674065222
 20
331.3758620089579
 30
0.0
  0
SPLINE
  5
858BB
330
8563C
100
AcDbEntity
  8
DETAIL
  6
Continuous
100
AcDbSpline
210
0.0
220
0.0
230
1.0
 70
     8
 71
     3
 72
     8
 73
     4
 74
     0
 42
0.0000000001
 43
0.0000000001
 40
0.0
 40
0.0
 40
0.0
 40
0.0
 40
1.0
 40
1.0
 40
1.0
 40
1.0
 10
166.9046803856917
 20
331.0268760888943
 30
0.0
 10
166.9020326708277
 20
331.0847682118404
 30
0.0
 10
166.8996662187282
 20
331.1430859427932
 30
0.0
 10
166.897477599371
 20
331.2013211974704
 30
0.0
  0
SPLINE
  5
858BC
330
8563C
100
AcDbEntity
  8
DETAIL
  6
Continuous
100
AcDbSpline
210
0.0
220
0.0
230
1.0
 70
     8
 71
     3
 72
     8
 73
     4
 74
     0
 42
0.0000000001
 43
0.0000000001
 40
0.0
 40
0.0
 40
0.0
 40
0.0
 40
1.0
 40
1.0
 40
1.0
 40
1.0
 10
166.9138683591745
 20
330.8526223861558
 30
0.0
 10
166.9102570782279
 20
330.9115174510229
 30
0.0
 10
166.9073281005994
 20
330.9689839659554
 30
0.0
 10
166.9046803856917
 20
331.0268760888943
 30
0.0
  0
SPLINE
  5
858BD
330
8563C
100
AcDbEntity
  8
DETAIL
  6
Continuous
100
AcDbSpline
210
0.0
220
0.0
230
1.0
 70
     8
 71
     3
 72
     8
 73
     4
 74
     0
 42
0.0000000001
 43
0.0000000001
 40
0.0
 40
0.0
 40
0.0
 40
0.0
 40
1.0
 40
1.0
 40
1.0
 40
1.0
 10
166.926034113233
 20
330.6786557921808
 30
0.0
 10
166.9217732242695
 20
330.7334037064943
 30
0.0
 10
166.917479640063
 20
330.793727321296
 30
0.0
 10
166.9138683591745
 20
330.8526223861558
 30
0.0
  0
SPLINE
  5
858BE
330
8563C
100
AcDbEntity
  8
DETAIL
  6
Continuous
100
AcDbSpline
210
0.0
220
0.0
230
1.0
 70
     8
 71
     3
 72
     8
 73
     4
 74
     0
 42
0.0000000001
 43
0.0000000001
 40
0.0
 40
0.0
 40
0.0
 40
0.0
 40
1.0
 40
1.0
 40
1.0
 40
1.0
 10
166.9421702415429
 20
330.5050720098738
 30
0.0
 10
166.9345231960624
 20
330.5747356640354
 30
0.0
 10
166.9302950022547
 20
330.6239078778676
 30
0.0
 10
166.926034113233
 20
330.6786557921808
 30
0.0
  0
SPLINE
  5
858BF
330
8563C
100
AcDbEntity
  8
DETAIL
  6
Continuous
100
AcDbSpline
210
0.0
220
0.0
230
1.0
 70
     8
 71
     3
 72
     8
 73
     4
 74
     0
 42
0.0000000001
 43
0.0000000001
 40
0.0
 40
0.0
 40
0.0
 40
0.0
 40
1.0
 40
1.0
 40
1.0
 40
1.0
 10
166.9731269197809
 20
330.2605978663054
 30
0.0
 10
166.9608831842788
 20
330.3452532611848
 30
0.0
 10
166.9498172870525
 20
330.4354083556977
 30
0.0
 10
166.9421702415429
 20
330.5050720098738
 30
0.0
  0
SPLINE
  5
858C0
330
8563C
100
AcDbEntity
  8
DETAIL
  6
Continuous
100
AcDbSpline
210
0.0
220
0.0
230
1.0
 70
     8
 71
     3
 72
     8
 73
     4
 74
     0
 42
0.0000000001
 43
0.0000000001
 40
0.0
 40
0.0
 40
0.0
 40
0.0
 40
1.0
 40
1.0
 40
1.0
 40
1.0
 10
167.013542145346
 20
330.017313521734
 30
0.0
 10
166.9987922290902
 20
330.0967867761505
 30
0.0
 10
166.9853706552685
 20
330.1759424714187
 30
0.0
 10
166.9731269197809
 20
330.2605978663054
 30
0.0
  0
SPLINE
  5
858C1
330
8563C
100
AcDbEntity
  8
DETAIL
  6
Continuous
100
AcDbSpline
210
0.0
220
0.0
230
1.0
 70
     8
 71
     3
 72
     8
 73
     4
 74
     0
 42
0.0000000001
 43
0.0000000001
 40
0.0
 40
0.0
 40
0.0
 40
0.0
 40
1.0
 40
1.0
 40
1.0
 40
1.0
 10
167.0629629173645
 20
329.7754531331378
 30
0.0
 10
167.0443703204227
 20
329.8580494537239
 30
0.0
 10
167.0282920616455
 20
329.9378402673105
 30
0.0
 10
167.013542145346
 20
330.017313521734
 30
0.0
  0
SPLINE
  5
858C2
330
8563C
100
AcDbEntity
  8
DETAIL
  6
Continuous
100
AcDbSpline
210
0.0
220
0.0
230
1.0
 70
     8
 71
     3
 72
     8
 73
     4
 74
     0
 42
0.0000000001
 43
0.0000000001
 40
0.0
 40
0.0
 40
0.0
 40
0.0
 40
1.0
 40
1.0
 40
1.0
 40
1.0
 10
167.120936234919
 20
329.5352508575237
 30
0.0
 10
167.1026624495725
 20
329.6074549849803
 30
0.0
 10
167.0815555143644
 20
329.6928568125589
 30
0.0
 10
167.0629629173645
 20
329.7754531331378
 30
0.0
  0
SPLINE
  5
858C3
330
8563C
100
AcDbEntity
  8
DETAIL
  6
Continuous
100
AcDbSpline
210
0.0
220
0.0
230
1.0
 70
     8
 71
     3
 72
     8
 73
     4
 74
     0
 42
0.0000000001
 43
0.0000000001
 40
0.0
 40
0.0
 40
0.0
 40
0.0
 40
1.0
 40
1.0
 40
1.0
 40
1.0
 10
167.1870090970633
 20
329.296940851855
 30
0.0
 10
167.1546506558233
 20
329.4040403027469
 30
0.0
 10
167.1392100203092
 20
329.4630467300671
 30
0.0
 10
167.120936234919
 20
329.5352508575237
 30
0.0
  0
SPLINE
  5
858C4
330
8563C
100
AcDbEntity
  8
DETAIL
  6
Continuous
100
AcDbSpline
210
0.0
220
0.0
230
1.0
 70
     8
 71
     3
 72
     8
 73
     4
 74
     0
 42
0.0000000001
 43
0.0000000001
 40
0.0
 40
0.0
 40
0.0
 40
0.0
 40
1.0
 40
1.0
 40
1.0
 40
1.0
 10
167.317957904409
 20
328.894095079297
 30
0.0
 10
167.2686437852689
 20
329.0346489265143
 30
0.0
 10
167.2193675383032
 20
329.1898414009633
 30
0.0
 10
167.1870090970633
 20
329.296940851855
 30
0.0
  0
SPLINE
  5
858C5
330
8563C
100
AcDbEntity
  8
DETAIL
  6
Continuous
100
AcDbSpline
210
0.0
220
0.0
230
1.0
 70
     8
 71
     3
 72
     8
 73
     4
 74
     0
 42
0.0000000001
 43
0.0000000001
 40
0.0
 40
0.0
 40
0.0
 40
0.0
 40
1.0
 40
1.0
 40
1.0
 40
1.0
 10
167.4710551450998
 20
328.4990279595444
 30
0.0
 10
167.4166240148924
 20
328.6276260121234
 30
0.0
 10
167.3672720235636
 20
328.7535412320944
 30
0.0
 10
167.317957904409
 20
328.894095079297
 30
0.0
  0
SPLINE
  5
858C6
330
8563C
100
AcDbEntity
  8
DETAIL
  6
Continuous
100
AcDbSpline
210
0.0
220
0.0
230
1.0
 70
     8
 71
     3
 72
     8
 73
     4
 74
     0
 42
0.0000000001
 43
0.0000000001
 40
0.0
 40
0.0
 40
0.0
 40
0.0
 40
1.0
 40
1.0
 40
1.0
 40
1.0
 10
167.6460391802693
 20
328.1132861295704
 30
0.0
 10
167.5849965444222
 20
328.2391490217783
 30
0.0
 10
167.5254862753217
 20
328.3704299069654
 30
0.0
 10
167.4710551450998
 20
328.4990279595444
 30
0.0
  0
SPLINE
  5
858C7
330
8563C
100
AcDbEntity
  8
DETAIL
  6
Continuous
100
AcDbSpline
210
0.0
220
0.0
230
1.0
 70
     8
 71
     3
 72
     8
 73
     4
 74
     0
 42
0.0000000001
 43
0.0000000001
 40
0.0
 40
0.0
 40
0.0
 40
0.0
 40
1.0
 40
1.0
 40
1.0
 40
1.0
 10
167.8426483711091
 20
327.7384162263483
 30
0.0
 10
167.7696568186665
 20
327.8669783381487
 30
0.0
 10
167.7070818161018
 20
327.9874232373699
 30
0.0
 10
167.6460391802693
 20
328.1132861295704
 30
0.0
  0
SPLINE
  5
858C8
330
8563C
100
AcDbEntity
  8
DETAIL
  6
Continuous
100
AcDbSpline
210
0.0
220
0.0
230
1.0
 70
     8
 71
     3
 72
     8
 73
     4
 74
     0
 42
0.0000000001
 43
0.0000000001
 40
0.0
 40
0.0
 40
0.0
 40
0.0
 40
1.0
 40
1.0
 40
1.0
 40
1.0
 10
168.06062107868
 20
327.3759648868584
 30
0.0
 10
167.9990480258284
 20
327.4731747901755
 30
0.0
 10
167.915639923508
 20
327.6098541145478
 30
0.0
 10
167.8426483711091
 20
327.7384162263483
 30
0.0
  0
SPLINE
  5
858C9
330
8563C
100
AcDbEntity
  8
DETAIL
  6
Continuous
100
AcDbSpline
210
0.0
220
0.0
230
1.0
 70
     8
 71
     3
 72
     8
 73
     4
 74
     0
 42
0.0000000001
 43
0.0000000001
 40
0.0
 40
0.0
 40
0.0
 40
0.0
 40
1.0
 40
1.0
 40
1.0
 40
1.0
 10
168.2093516226023
 20
327.1538363740913
 30
0.0
 10
168.1619321350308
 20
327.2210145012944
 30
0.0
 10
168.1221941315316
 20
327.2787549835488
 30
0.0
 10
168.06062107868
 20
327.3759648868584
 30
0.0
  0
SPLINE
  5
858CA
330
8563C
100
AcDbEntity
  8
DETAIL
  6
Continuous
100
AcDbSpline
210
0.0
220
0.0
230
1.0
 70
     8
 71
     3
 72
     8
 73
     4
 74
     0
 42
0.0000000001
 43
0.0000000001
 40
0.0
 40
0.0
 40
0.0
 40
0.0
 40
1.0
 40
1.0
 40
1.0
 40
1.0
 10
168.3663105298774
 20
326.9375364081064
 30
0.0
 10
168.3118720817883
 20
327.0100424747511
 30
0.0
 10
168.2567711101301
 20
327.0866582468957
 30
0.0
 10
168.2093516226023
 20
327.1538363740913
 30
0.0
  0
SPLINE
  5
858CB
330
8563C
100
AcDbEntity
  8
DETAIL
  6
Continuous
100
AcDbSpline
210
0.0
220
0.0
230
1.0
 70
     8
 71
     3
 72
     8
 73
     4
 74
     0
 42
0.0000000001
 43
0.0000000001
 40
0.0
 40
0.0
 40
0.0
 40
0.0
 40
1.0
 40
1.0
 40
1.0
 40
1.0
 10
168.5312868803748
 20
326.727308426642
 30
0.0
 10
168.4745249024281
 20
326.7966339802956
 30
0.0
 10
168.4207489779664
 20
326.8650303414474
 30
0.0
 10
168.3663105298774
 20
326.9375364081064
 30
0.0
  0
SPLINE
  5
858CC
330
8563C
100
AcDbEntity
  8
DETAIL
  6
Continuous
100
AcDbSpline
210
0.0
220
0.0
230
1.0
 70
     8
 71
     3
 72
     8
 73
     4
 74
     0
 42
0.0000000001
 43
0.0000000001
 40
0.0
 40
0.0
 40
0.0
 40
0.0
 40
1.0
 40
1.0
 40
1.0
 40
1.0
 10
168.704069753935
 20
326.5233958674802
 30
0.0
 10
168.6477968898116
 20
326.5877281268625
 30
0.0
 10
168.5880488583798
 20
326.6579828729959
 30
0.0
 10
168.5312868803748
 20
326.727308426642
 30
0.0
  0
SPLINE
  5
858CD
330
8563C
100
AcDbEntity
  8
DETAIL
  6
Continuous
100
AcDbSpline
210
0.0
220
0.0
230
1.0
 70
     8
 71
     3
 72
     8
 73
     4
 74
     0
 42
0.0000000001
 43
0.0000000001
 40
0.0
 40
0.0
 40
0.0
 40
0.0
 40
1.0
 40
1.0
 40
1.0
 40
1.0
 10
168.8844482304421
 20
326.3260421683958
 30
0.0
 10
168.81314031499
 20
326.4006538355101
 30
0.0
 10
168.7603426181022
 20
326.4590636081197
 30
0.0
 10
168.704069753935
 20
326.5233958674802
 30
0.0
  0
SPLINE
  5
858CE
330
8563C
100
AcDbEntity
  8
DETAIL
  6
Continuous
100
AcDbSpline
210
0.0
220
0.0
230
1.0
 70
     8
 71
     3
 72
     8
 73
     4
 74
     0
 42
0.0000000001
 43
0.0000000001
 40
0.0
 40
0.0
 40
0.0
 40
0.0
 40
1.0
 40
1.0
 40
1.0
 40
1.0
 10
169.1330173111209
 20
326.0767693781604
 30
0.0
 10
169.0455742798958
 20
326.1606169396622
 30
0.0
 10
168.9557561458941
 20
326.2514305012814
 30
0.0
 10
168.8844482304421
 20
326.3260421683958
 30
0.0
  0
SPLINE
  5
858CF
330
8563C
100
AcDbEntity
  8
DETAIL
  6
Continuous
100
AcDbSpline
210
0.0
220
0.0
230
1.0
 70
     8
 71
     3
 72
     8
 73
     4
 74
     0
 42
0.0000000001
 43
0.0000000001
 40
0.0
 40
0.0
 40
0.0
 40
0.0
 40
1.0
 40
1.0
 40
1.0
 40
1.0
 10
169.3937516468149
 20
325.8400388143131
 30
0.0
 10
169.3055282707946
 20
325.916040255281
 30
0.0
 10
169.220460342346
 20
325.9929218166657
 30
0.0
 10
169.1330173111209
 20
326.0767693781604
 30
0.0
  0
SPLINE
  5
858D0
330
8563C
100
AcDbEntity
  8
DETAIL
  6
Continuous
100
AcDbSpline
210
0.0
220
0.0
230
1.0
 70
     8
 71
     3
 72
     8
 73
     4
 74
     0
 42
0.0000000001
 43
0.0000000001
 40
0.0
 40
0.0
 40
0.0
 40
0.0
 40
1.0
 40
1.0
 40
1.0
 40
1.0
 10
169.6660277942583
 20
325.6166125715758
 30
0.0
 10
169.5733538464128
 20
325.6889160527794
 30
0.0
 10
169.4819750228498
 20
325.7640373733379
 30
0.0
 10
169.3937516468149
 20
325.8400388143131
 30
0.0
  0
SPLINE
  5
858D1
330
8563C
100
AcDbEntity
  8
DETAIL
  6
Continuous
100
AcDbSpline
210
0.0
220
0.0
230
1.0
 70
     8
 71
     3
 72
     8
 73
     4
 74
     0
 42
0.0000000001
 43
0.0000000001
 40
0.0
 40
0.0
 40
0.0
 40
0.0
 40
1.0
 40
1.0
 40
1.0
 40
1.0
 10
169.949222310156
 20
325.4072527446918
 30
0.0
 10
169.8526708142462
 20
325.4748234485236
 30
0.0
 10
169.7587017421183
 20
325.5443090903722
 30
0.0
 10
169.6660277942583
 20
325.6166125715758
 30
0.0
  0
SPLINE
  5
858D2
330
8563C
100
AcDbEntity
  8
DETAIL
  6
Continuous
100
AcDbSpline
210
0.0
220
0.0
230
1.0
 70
     8
 71
     3
 72
     8
 73
     4
 74
     0
 42
0.0000000001
 43
0.0000000001
 40
0.0
 40
0.0
 40
0.0
 40
0.0
 40
1.0
 40
1.0
 40
1.0
 40
1.0
 10
170.2427117511551
 20
325.2127214283759
 30
0.0
 10
170.1449077257284
 20
325.2740262750453
 30
0.0
 10
170.0457738060658
 20
325.3396820408602
 30
0.0
 10
169.949222310156
 20
325.4072527446918
 30
0.0
  0
SPLINE
  5
858D3
330
8563C
100
AcDbEntity
  8
DETAIL
  6
Continuous
100
AcDbSpline
210
0.0
220
0.0
230
1.0
 70
     8
 71
     3
 72
     8
 73
     4
 74
     0
 42
0.0000000001
 43
0.0000000001
 40
0.0
 40
0.0
 40
0.0
 40
0.0
 40
1.0
 40
1.0
 40
1.0
 40
1.0
 10
170.5353760461302
 20
325.039508166556
 30
0.0
 10
170.4369899078601
 20
325.0944626541827
 30
0.0
 10
170.3405157766401
 20
325.1514165817137
 30
0.0
 10
170.2427117511551
 20
325.2127214283759
 30
0.0
  0
SPLINE
  5
858D4
330
8563C
100
AcDbEntity
  8
DETAIL
  6
Continuous
100
AcDbSpline
210
0.0
220
0.0
230
1.0
 70
     8
 71
     3
 72
     8
 73
     4
 74
     0
 42
0.0000000001
 43
0.0000000001
 40
0.0
 40
0.0
 40
0.0
 40
0.0
 40
1.0
 40
1.0
 40
1.0
 40
1.0
 10
170.8362527494909
 20
324.8809929776694
 30
0.0
 10
170.7340603296624
 20
324.9315986312217
 30
0.0
 10
170.6337621844004
 20
324.9845536789439
 30
0.0
 10
170.5353760461302
 20
325.039508166556
 30
0.0
  0
SPLINE
  5
858D5
330
8563C
100
AcDbEntity
  8
DETAIL
  6
Continuous
100
AcDbSpline
210
0.0
220
0.0
230
1.0
 70
     8
 71
     3
 72
     8
 73
     4
 74
     0
 42
0.0000000001
 43
0.0000000001
 40
0.0
 40
0.0
 40
0.0
 40
0.0
 40
1.0
 40
1.0
 40
1.0
 40
1.0
 10
171.1445289784905
 20
324.7373250004534
 30
0.0
 10
171.0425318638017
 20
324.7821310647127
 30
0.0
 10
170.9384451693631
 20
324.8303873241097
 30
0.0
 10
170.8362527494909
 20
324.8809929776694
 30
0.0
  0
SPLINE
  5
858D6
330
8563C
100
AcDbEntity
  8
DETAIL
  6
Continuous
100
AcDbSpline
210
0.0
220
0.0
230
1.0
 70
     8
 71
     3
 72
     8
 73
     4
 74
     0
 42
0.0000000001
 43
0.0000000001
 40
0.0
 40
0.0
 40
0.0
 40
0.0
 40
1.0
 40
1.0
 40
1.0
 40
1.0
 10
171.4593918503824
 20
324.6086533736602
 30
0.0
 10
171.3464336281622
 20
324.6511630670652
 30
0.0
 10
171.2465260932231
 20
324.6925189361868
 30
0.0
 10
171.1445289784905
 20
324.7373250004534
 30
0.0
  0
SPLINE
  5
858D7
330
8563C
100
AcDbEntity
  8
DETAIL
  6
Continuous
100
AcDbSpline
210
0.0
220
0.0
230
1.0
 70
     8
 71
     3
 72
     8
 73
     4
 74
     0
 42
0.0000000001
 43
0.0000000001
 40
0.0
 40
0.0
 40
0.0
 40
0.0
 40
1.0
 40
1.0
 40
1.0
 40
1.0
 10
171.7800284822742
 20
324.4951272360417
 30
0.0
 10
171.6983589819146
 20
324.5224801625594
 30
0.0
 10
171.5723500725443
 20
324.5661436802552
 30
0.0
 10
171.4593918503824
 20
324.6086533736602
 30
0.0
  0
SPLINE
  5
858D8
330
8563C
100
AcDbEntity
  8
DETAIL
  6
Continuous
100
AcDbSpline
210
0.0
220
0.0
230
1.0
 70
     8
 71
     3
 72
     8
 73
     4
 74
     0
 42
0.0000000001
 43
0.0000000001
 40
0.0
 40
0.0
 40
0.0
 40
0.0
 40
1.0
 40
1.0
 40
1.0
 40
1.0
 10
171.9486018779143
 20
324.4422372577832
 30
0.0
 10
171.8990280739826
 20
324.4567319741985
 30
0.0
 10
171.8616979826338
 20
324.4677743095312
 30
0.0
 10
171.7800284822742
 20
324.4951272360417
 30
0.0
  0
SPLINE
  5
858D9
330
8563C
100
AcDbEntity
  8
DETAIL
  6
Continuous
100
AcDbSpline
210
0.0
220
0.0
230
1.0
 70
     8
 71
     3
 72
     8
 73
     4
 74
     0
 42
0.0000000001
 43
0.0000000001
 40
0.0
 40
0.0
 40
0.0
 40
0.0
 40
1.0
 40
1.0
 40
1.0
 40
1.0
 10
172.1184226652412
 20
324.3938342701079
 30
0.0
 10
172.0599931983024
 20
324.4097954438552
 30
0.0
 10
171.9981756818169
 20
324.4277425413679
 30
0.0
 10
171.9486018779143
 20
324.4422372577832
 30
0.0
  0
SPLINE
  5
858DA
330
8563C
100
AcDbEntity
  8
DETAIL
  6
Continuous
100
AcDbSpline
210
0.0
220
0.0
230
1.0
 70
     8
 71
     3
 72
     8
 73
     4
 74
     0
 42
0.0000000001
 43
0.0000000001
 40
0.0
 40
0.0
 40
0.0
 40
0.0
 40
1.0
 40
1.0
 40
1.0
 40
1.0
 10
172.2893995594795
 20
324.3502780582716
 30
0.0
 10
172.2318935496305
 20
324.3638978463573
 30
0.0
 10
172.1768521321655
 20
324.3778730963534
 30
0.0
 10
172.1184226652412
 20
324.3938342701079
 30
0.0
  0
SPLINE
  5
858DB
330
8563C
100
AcDbEntity
  8
DETAIL
  6
Continuous
100
AcDbSpline
210
0.0
220
0.0
230
1.0
 70
     8
 71
     3
 72
     8
 73
     4
 74
     0
 42
0.0000000001
 43
0.0000000001
 40
0.0
 40
0.0
 40
0.0
 40
0.0
 40
1.0
 40
1.0
 40
1.0
 40
1.0
 10
172.4614412759119
 20
324.3119284075296
 30
0.0
 10
172.4068761717508
 20
324.3233939440328
 30
0.0
 10
172.3469055693867
 20
324.3366582701932
 30
0.0
 10
172.2893995594795
 20
324.3502780582716
 30
0.0
  0
SPLINE
  5
858DC
330
8563C
100
AcDbEntity
  8
DETAIL
  6
Continuous
100
AcDbSpline
210
0.0
220
0.0
230
1.0
 70
     8
 71
     3
 72
     8
 73
     4
 74
     0
 42
0.0000000001
 43
0.0000000001
 40
0.0
 40
0.0
 40
0.0
 40
0.0
 40
1.0
 40
1.0
 40
1.0
 40
1.0
 10
172.6344565296904
 20
324.2791451031156
 30
0.0
 10
172.5651659860313
 20
324.290796124173
 30
0.0
 10
172.5160063800876
 20
324.3004628710262
 30
0.0
 10
172.4614412759119
 20
324.3119284075296
 30
0.0
  0
SPLINE
  5
858DD
330
8563C
100
AcDbEntity
  8
DETAIL
  6
Continuous
100
AcDbSpline
210
0.0
220
0.0
230
1.0
 70
     8
 71
     3
 72
     8
 73
     4
 74
     0
 42
0.0000000001
 43
0.0000000001
 40
0.0
 40
0.0
 40
0.0
 40
0.0
 40
1.0
 40
1.0
 40
1.0
 40
1.0
 10
172.8775023216012
 20
324.2428120641493
 30
0.0
 10
172.7931685546946
 20
324.2538587868116
 30
0.0
 10
172.7037470733057
 20
324.2674940820656
 30
0.0
 10
172.6344565296904
 20
324.2791451031156
 30
0.0
  0
SPLINE
  5
858DE
330
8563C
100
AcDbEntity
  8
DETAIL
  6
Continuous
100
AcDbSpline
210
0.0
220
0.0
230
1.0
 70
     8
 71
     3
 72
     8
 73
     4
 74
     0
 42
0.0000000001
 43
0.0000000001
 40
0.0
 40
0.0
 40
0.0
 40
0.0
 40
1.0
 40
1.0
 40
1.0
 40
1.0
 10
173.1219244618996
 20
324.2157240212622
 30
0.0
 10
173.0410821410487
 20
324.2233071914382
 30
0.0
 10
172.9618360885224
 20
324.2317653414942
 30
0.0
 10
172.8775023216012
 20
324.2428120641493
 30
0.0
  0
SPLINE
  5
858DF
330
8563C
100
AcDbEntity
  8
DETAIL
  6
Continuous
100
AcDbSpline
210
0.0
220
0.0
230
1.0
 70
     8
 71
     3
 72
     8
 73
     4
 74
     0
 42
0.0000000001
 43
0.0000000001
 40
0.0
 40
0.0
 40
0.0
 40
0.0
 40
1.0
 40
1.0
 40
1.0
 40
1.0
 10
173.3673788634341
 20
324.1955697254311
 30
0.0
 10
173.2852053718534
 20
324.2014326608118
 30
0.0
 10
173.202766782736
 20
324.2081408510934
 30
0.0
 10
173.1219244618996
 20
324.2157240212622
 30
0.0
  0
SPLINE
  5
858E0
330
8563C
100
AcDbEntity
  8
DETAIL
  6
Continuous
100
AcDbSpline
210
0.0
220
0.0
230
1.0
 70
     8
 71
     3
 72
     8
 73
     4
 74
     0
 42
0.0000000001
 43
0.0000000001
 40
0.0
 40
0.0
 40
0.0
 40
0.0
 40
1.0
 40
1.0
 40
1.0
 40
1.0
 10
173.613521439126
 20
324.1800379276396
 30
0.0
 10
173.5314607489863
 20
324.1846891095851
 30
0.0
 10
173.4495523549712
 20
324.1897067900577
 30
0.0
 10
173.3673788634341
 20
324.1955697254311
 30
0.0
  0
SPLINE
  5
858E1
330
8563C
100
AcDbEntity
  8
DETAIL
  6
Continuous
100
AcDbSpline
210
0.0
220
0.0
230
1.0
 70
     8
 71
     3
 72
     8
 73
     4
 74
     0
 42
0.0000000001
 43
0.0000000001
 40
0.0
 40
0.0
 40
0.0
 40
0.0
 40
1.0
 40
1.0
 40
1.0
 40
1.0
 10
173.8600081019694
 20
324.1668173788643
 30
0.0
 10
173.7777951156176
 20
324.1711020622756
 30
0.0
 10
173.6955821293095
 20
324.1753867456941
 30
0.0
 10
173.613521439126
 20
324.1800379276396
 30
0.0
  0
SPLINE
  5
858E2
330
8563C
100
AcDbEntity
  8
DETAIL
  6
Continuous
100
AcDbSpline
210
0.0
220
0.0
230
1.0
 70
     8
 71
     3
 72
     8
 73
     4
 74
     0
 42
0.0000000001
 43
0.0000000001
 40
0.0
 40
0.0
 40
0.0
 40
0.0
 40
1.0
 40
1.0
 40
1.0
 40
1.0
 10
178.2306289154957
 20
324.1662635111574
 30
0.0
 10
178.2204888388086
 20
324.1664654800264
 30
0.0
 10
178.2103873434398
 20
324.1666433246722
 30
0.0
 10
178.2002858480127
 20
324.1668211693254
 30
0.0
  0
SPLINE
  5
858E3
330
8563C
100
AcDbEntity
  8
DETAIL
  6
Continuous
100
AcDbSpline
210
0.0
220
0.0
230
1.0
 70
     8
 71
     3
 72
     8
 73
     4
 74
     0
 42
0.0000000001
 43
0.0000000001
 40
0.0
 40
0.0
 40
0.0
 40
0.0
 40
1.0
 40
1.0
 40
1.0
 40
1.0
 10
178.2609643878395
 20
324.1655817731374
 30
0.0
 10
178.250947649999
 20
324.1658354491959
 30
0.0
 10
178.2407689921246
 20
324.1660615422883
 30
0.0
 10
178.2306289154957
 20
324.1662635111574
 30
0.0
  0
SPLINE
  5
858E4
330
8563C
100
AcDbEntity
  8
DETAIL
  6
Continuous
100
AcDbSpline
210
0.0
220
0.0
230
1.0
 70
     8
 71
     3
 72
     8
 73
     4
 74
     0
 42
0.0000000001
 43
0.0000000001
 40
0.0
 40
0.0
 40
0.0
 40
0.0
 40
1.0
 40
1.0
 40
1.0
 40
1.0
 10
178.2912846699919
 20
324.16465187545
 30
0.0
 10
178.2808359435011
 20
324.1650468380398
 30
0.0
 10
178.2709811256945
 20
324.165328097079
 30
0.0
 10
178.2609643878395
 20
324.1655817731374
 30
0.0
  0
SPLINE
  5
858E5
330
8563C
100
AcDbEntity
  8
DETAIL
  6
Continuous
100
AcDbSpline
210
0.0
220
0.0
230
1.0
 70
     8
 71
     3
 72
     8
 73
     4
 74
     0
 42
0.0000000001
 43
0.0000000001
 40
0.0
 40
0.0
 40
0.0
 40
0.0
 40
1.0
 40
1.0
 40
1.0
 40
1.0
 10
178.3215821668427
 20
324.1633497382431
 30
0.0
 10
178.3127760316283
 20
324.163748246698
 30
0.0
 10
178.301733396468
 20
324.1642569128529
 30
0.0
 10
178.2912846699919
 20
324.16465187545
 30
0.0
  0
SPLINE
  5
858E6
330
8563C
100
AcDbEntity
  8
DETAIL
  6
Continuous
100
AcDbSpline
210
0.0
220
0.0
230
1.0
 70
     8
 71
     3
 72
     8
 73
     4
 74
     0
 42
0.0000000001
 43
0.0000000001
 40
0.0
 40
0.0
 40
0.0
 40
0.0
 40
1.0
 40
1.0
 40
1.0
 40
1.0
 10
178.3518492832236
 20
324.1615512816792
 30
0.0
 10
178.3369579372383
 20
324.1626628790186
 30
0.0
 10
178.3303883019989
 20
324.1629512297807
 30
0.0
 10
178.3215821668427
 20
324.1633497382431
 30
0.0
  0
SPLINE
  5
858E7
330
8563C
100
AcDbEntity
  8
DETAIL
  6
Continuous
100
AcDbSpline
210
0.0
220
0.0
230
1.0
 70
     8
 71
     3
 72
     8
 73
     4
 74
     0
 42
0.0000000001
 43
0.0000000001
 40
0.0
 40
0.0
 40
0.0
 40
0.0
 40
1.0
 40
1.0
 40
1.0
 40
1.0
 10
178.4109258927792
 20
324.156304630997
 30
0.0
 10
178.389953685998
 20
324.1585048404453
 30
0.0
 10
178.3667406291942
 20
324.1604396843472
 30
0.0
 10
178.3518492832236
 20
324.1615512816792
 30
0.0
  0
SPLINE
  5
858E8
330
8563C
100
AcDbEntity
  8
DETAIL
  6
Continuous
100
AcDbSpline
210
0.0
220
0.0
230
1.0
 70
     8
 71
     3
 72
     8
 73
     4
 74
     0
 42
0.0000000001
 43
0.0000000001
 40
0.0
 40
0.0
 40
0.0
 40
0.0
 40
1.0
 40
1.0
 40
1.0
 40
1.0
 10
178.4698014678297
 20
324.1488244448559
 30
0.0
 10
178.4506294565517
 20
324.1516388465684
 30
0.0
 10
178.4318980996185
 20
324.1541044215559
 30
0.0
 10
178.4109258927792
 20
324.156304630997
 30
0.0
  0
SPLINE
  5
858E9
330
8563C
100
AcDbEntity
  8
DETAIL
  6
Continuous
100
AcDbSpline
210
0.0
220
0.0
230
1.0
 70
     8
 71
     3
 72
     8
 73
     4
 74
     0
 42
0.0000000001
 43
0.0000000001
 40
0.0
 40
0.0
 40
0.0
 40
0.0
 40
1.0
 40
1.0
 40
1.0
 40
1.0
 10
178.5284202200573
 20
324.1392500504957
 30
0.0
 10
178.5085861447014
 20
324.1428468147137
 30
0.0
 10
178.488973479064
 20
324.1460100431435
 30
0.0
 10
178.4698014678297
 20
324.1488244448559
 30
0.0
  0
SPLINE
  5
858EA
330
8563C
100
AcDbEntity
  8
DETAIL
  6
Continuous
100
AcDbSpline
210
0.0
220
0.0
230
1.0
 70
     8
 71
     3
 72
     8
 73
     4
 74
     0
 42
0.0000000001
 43
0.0000000001
 40
0.0
 40
0.0
 40
0.0
 40
0.0
 40
1.0
 40
1.0
 40
1.0
 40
1.0
 10
178.5867263613044
 20
324.1277207751412
 30
0.0
 10
178.5683097805458
 20
324.1316229862427
 30
0.0
 10
178.5482542954132
 20
324.1356532862632
 30
0.0
 10
178.5284202200573
 20
324.1392500504957
 30
0.0
  0
SPLINE
  5
858EB
330
8563C
100
AcDbEntity
  8
DETAIL
  6
Continuous
100
AcDbSpline
210
0.0
220
0.0
230
1.0
 70
     8
 71
     3
 72
     8
 73
     4
 74
     0
 42
0.0000000001
 43
0.0000000001
 40
0.0
 40
0.0
 40
0.0
 40
0.0
 40
1.0
 40
1.0
 40
1.0
 40
1.0
 10
178.644664103399
 20
324.114375946076
 30
0.0
 10
178.6219206184768
 20
324.1200444418722
 30
0.0
 10
178.6051429420631
 20
324.12381856404
 30
0.0
 10
178.5867263613044
 20
324.1277207751412
 30
0.0
  0
SPLINE
  5
858EC
330
8563C
100
AcDbEntity
  8
DETAIL
  6
Continuous
100
AcDbSpline
210
0.0
220
0.0
230
1.0
 70
     8
 71
     3
 72
     8
 73
     4
 74
     0
 42
0.0000000001
 43
0.0000000001
 40
0.0
 40
0.0
 40
0.0
 40
0.0
 40
1.0
 40
1.0
 40
1.0
 40
1.0
 10
178.7230453398815
 20
324.0934243308879
 30
0.0
 10
178.6961168816787
 20
324.1011445808839
 30
0.0
 10
178.6674075882774
 20
324.1087074502797
 30
0.0
 10
178.644664103399
 20
324.114375946076
 30
0.0
  0
SPLINE
  5
858ED
330
8563C
100
AcDbEntity
  8
DETAIL
  6
Continuous
100
AcDbSpline
210
0.0
220
0.0
230
1.0
 70
     8
 71
     3
 72
     8
 73
     4
 74
     0
 42
0.0000000001
 43
0.0000000001
 40
0.0
 40
0.0
 40
0.0
 40
0.0
 40
1.0
 40
1.0
 40
1.0
 40
1.0
 10
178.800497686564
 20
324.069343561889
 30
0.0
 10
178.7751214210739
 20
324.0778264502954
 30
0.0
 10
178.7499737980697
 20
324.0857040808919
 30
0.0
 10
178.7230453398815
 20
324.0934243308879
 30
0.0
  0
SPLINE
  5
858EE
330
8563C
100
AcDbEntity
  8
DETAIL
  6
Continuous
100
AcDbSpline
210
0.0
220
0.0
230
1.0
 70
     8
 71
     3
 72
     8
 73
     4
 74
     0
 42
0.0000000001
 43
0.0000000001
 40
0.0
 40
0.0
 40
0.0
 40
0.0
 40
1.0
 40
1.0
 40
1.0
 40
1.0
 10
178.8768824344306
 20
324.0421269783404
 30
0.0
 10
178.8514788599723
 20
324.0517725272734
 30
0.0
 10
178.8258739520251
 20
324.0608606734899
 30
0.0
 10
178.800497686564
 20
324.069343561889
 30
0.0
  0
SPLINE
  5
858EF
330
8563C
100
AcDbEntity
  8
DETAIL
  6
Continuous
100
AcDbSpline
210
0.0
220
0.0
230
1.0
 70
     8
 71
     3
 72
     8
 73
     4
 74
     0
 42
0.0000000001
 43
0.0000000001
 40
0.0
 40
0.0
 40
0.0
 40
0.0
 40
1.0
 40
1.0
 40
1.0
 40
1.0
 10
178.9520608745378
 20
324.0117679194886
 30
0.0
 10
178.9274882498148
 20
324.0222784777292
 30
0.0
 10
178.9022860088307
 20
324.0324814294002
 30
0.0
 10
178.8768824344306
 20
324.0421269783404
 30
0.0
  0
SPLINE
  5
858F0
330
8563C
100
AcDbEntity
  8
DETAIL
  6
Continuous
100
AcDbSpline
210
0.0
220
0.0
230
1.0
 70
     8
 71
     3
 72
     8
 73
     4
 74
     0
 42
0.0000000001
 43
0.0000000001
 40
0.0
 40
0.0
 40
0.0
 40
0.0
 40
1.0
 40
1.0
 40
1.0
 40
1.0
 10
179.0258942979717
 20
323.9782597245871
 30
0.0
 10
179.0005765077376
 20
323.9904391964232
 30
0.0
 10
178.9766334992173
 20
324.0012573612478
 30
0.0
 10
178.9520608745378
 20
324.0117679194886
 30
0.0
  0
SPLINE
  5
858F1
330
8563C
100
AcDbEntity
  8
DETAIL
  6
Continuous
100
AcDbSpline
210
0.0
220
0.0
230
1.0
 70
     8
 71
     3
 72
     8
 73
     4
 74
     0
 42
0.0000000001
 43
0.0000000001
 40
0.0
 40
0.0
 40
0.0
 40
0.0
 40
1.0
 40
1.0
 40
1.0
 40
1.0
 10
179.1038144226631
 20
323.9386343891969
 30
0.0
 10
179.0779046601828
 20
323.9525394738962
 30
0.0
 10
179.0512120881912
 20
323.9660802527509
 30
0.0
 10
179.0258942979717
 20
323.9782597245871
 30
0.0
  0
SPLINE
  5
858F2
330
8563C
100
AcDbEntity
  8
DETAIL
  6
Continuous
100
AcDbSpline
210
0.0
220
0.0
230
1.0
 70
     8
 71
     3
 72
     8
 73
     4
 74
     0
 42
0.0000000001
 43
0.0000000001
 40
0.0
 40
0.0
 40
0.0
 40
0.0
 40
1.0
 40
1.0
 40
1.0
 40
1.0
 10
179.1798696035557
 20
323.8954841825766
 30
0.0
 10
179.1548511380251
 20
323.9104599139977
 30
0.0
 10
179.1297241851434
 20
323.9247293045195
 30
0.0
 10
179.1038144226631
 20
323.9386343891969
 30
0.0
  0
SPLINE
  5
858F3
330
8563C
100
AcDbEntity
  8
DETAIL
  6
Continuous
100
AcDbSpline
210
0.0
220
0.0
230
1.0
 70
     8
 71
     3
 72
     8
 73
     4
 74
     0
 42
0.0000000001
 43
0.0000000001
 40
0.0
 40
0.0
 40
0.0
 40
0.0
 40
1.0
 40
1.0
 40
1.0
 40
1.0
 10
179.2539185805662
 20
323.8489504072572
 30
0.0
 10
179.2297980471203
 20
323.8648263788641
 30
0.0
 10
179.2048880690281
 20
323.88050845117
 30
0.0
 10
179.1798696035557
 20
323.8954841825766
 30
0.0
  0
SPLINE
  5
858F4
330
8563C
100
AcDbEntity
  8
DETAIL
  6
Continuous
100
AcDbSpline
210
0.0
220
0.0
230
1.0
 70
     8
 71
     3
 72
     8
 73
     4
 74
     0
 42
0.0000000001
 43
0.0000000001
 40
0.0
 40
0.0
 40
0.0
 40
0.0
 40
1.0
 40
1.0
 40
1.0
 40
1.0
 10
179.3258200938153
 20
323.799174365777
 30
0.0
 10
179.301370202841
 20
323.8170045647497
 30
0.0
 10
179.2780391140559
 20
323.8330744356575
 30
0.0
 10
179.2539185805662
 20
323.8489504072572
 30
0.0
  0
SPLINE
  5
858F5
330
8563C
100
AcDbEntity
  8
DETAIL
  6
Continuous
100
AcDbSpline
210
0.0
220
0.0
230
1.0
 70
     8
 71
     3
 72
     8
 73
     4
 74
     0
 42
0.0000000001
 43
0.0000000001
 40
0.0
 40
0.0
 40
0.0
 40
0.0
 40
1.0
 40
1.0
 40
1.0
 40
1.0
 10
179.3954328832778
 20
323.7462973606602
 30
0.0
 10
179.3758386779672
 20
323.761753639767
 30
0.0
 10
179.3502699848186
 20
323.7813441668043
 30
0.0
 10
179.3258200938153
 20
323.799174365777
 30
0.0
  0
SPLINE
  5
858F6
330
8563C
100
AcDbEntity
  8
DETAIL
  6
Continuous
100
AcDbSpline
210
0.0
220
0.0
230
1.0
 70
     8
 71
     3
 72
     8
 73
     4
 74
     0
 42
0.0000000001
 43
0.0000000001
 40
0.0
 40
0.0
 40
0.0
 40
0.0
 40
1.0
 40
1.0
 40
1.0
 40
1.0
 10
179.4436175849268
 20
323.7067595870907
 30
0.0
 10
179.4286468061482
 20
323.7195190503702
 30
0.0
 10
179.415027088603
 20
323.7308410815534
 30
0.0
 10
179.3954328832778
 20
323.7462973606602
 30
0.0
  0
SPLINE
  5
858F7
330
8563C
100
AcDbEntity
  8
DETAIL
  6
Continuous
100
AcDbSpline
210
0.0
220
0.0
230
1.0
 70
     8
 71
     3
 72
     8
 73
     4
 74
     0
 42
0.0000000001
 43
0.0000000001
 40
0.0
 40
0.0
 40
0.0
 40
0.0
 40
1.0
 40
1.0
 40
1.0
 40
1.0
 10
179.4905362381114
 20
323.6657584623903
 30
0.0
 10
179.4749102038194
 20
323.6798032284354
 30
0.0
 10
179.4585883637346
 20
323.6940001238112
 30
0.0
 10
179.4436175849268
 20
323.7067595870907
 30
0.0
  0
SPLINE
  5
858F8
330
8563C
100
AcDbEntity
  8
DETAIL
  6
Continuous
100
AcDbSpline
210
0.0
220
0.0
230
1.0
 70
     8
 71
     3
 72
     8
 73
     4
 74
     0
 42
0.0000000001
 43
0.0000000001
 40
0.0
 40
0.0
 40
0.0
 40
0.0
 40
1.0
 40
1.0
 40
1.0
 40
1.0
 10
179.536159311553
 20
323.6233366831734
 30
0.0
 10
179.5210925010042
 20
323.6378210596308
 30
0.0
 10
179.5061622724615
 20
323.6517136963379
 30
0.0
 10
179.4905362381114
 20
323.6657584623903
 30
0.0
  0
SPLINE
  5
858F9
330
8563C
100
AcDbEntity
  8
DETAIL
  6
Continuous
100
AcDbSpline
210
0.0
220
0.0
230
1.0
 70
     8
 71
     3
 72
     8
 73
     4
 74
     0
 42
0.0000000001
 43
0.0000000001
 40
0.0
 40
0.0
 40
0.0
 40
0.0
 40
1.0
 40
1.0
 40
1.0
 40
1.0
 10
179.5804572739007
 20
323.5795369460834
 30
0.0
 10
179.5664295147298
 20
323.5937761905374
 30
0.0
 10
179.5512261221456
 20
323.6088523067232
 30
0.0
 10
179.536159311553
 20
323.6233366831734
 30
0.0
  0
SPLINE
  5
858FA
330
8563C
100
AcDbEntity
  8
DETAIL
  6
Continuous
100
AcDbSpline
210
0.0
220
0.0
230
1.0
 70
     8
 71
     3
 72
     8
 73
     4
 74
     0
 42
0.0000000001
 43
0.0000000001
 40
0.0
 40
0.0
 40
0.0
 40
0.0
 40
1.0
 40
1.0
 40
1.0
 40
1.0
 10
179.6234005938613
 20
323.5344019477492
 30
0.0
 10
179.607337158829
 20
323.5518953289069
 30
0.0
 10
179.5944850330715
 20
323.5652977016366
 30
0.0
 10
179.5804572739007
 20
323.5795369460834
 30
0.0
  0
SPLINE
  5
858FB
330
8563C
100
AcDbEntity
  8
DETAIL
  6
Continuous
100
AcDbSpline
210
0.0
220
0.0
230
1.0
 70
     8
 71
     3
 72
     8
 73
     4
 74
     0
 42
0.0000000001
 43
0.0000000001
 40
0.0
 40
0.0
 40
0.0
 40
0.0
 40
1.0
 40
1.0
 40
1.0
 40
1.0
 10
179.6766834306045
 20
323.4743517179089
 30
0.0
 10
179.6587387730551
 20
323.4953241769767
 30
0.0
 10
179.6394640288353
 20
323.5169085665916
 30
0.0
 10
179.6234005938613
 20
323.5344019477492
 30
0.0
  0
SPLINE
  5
858FC
330
8563C
100
AcDbEntity
  8
DETAIL
  6
Continuous
100
AcDbSpline
210
0.0
220
0.0
230
1.0
 70
     8
 71
     3
 72
     8
 73
     4
 74
     0
 42
0.0000000001
 43
0.0000000001
 40
0.0
 40
0.0
 40
0.0
 40
0.0
 40
1.0
 40
1.0
 40
1.0
 40
1.0
 10
179.727599751889
 20
323.4122561976623
 30
0.0
 10
179.7112426589746
 20
323.4330187302989
 30
0.0
 10
179.6946280880956
 20
323.4533792588413
 30
0.0
 10
179.6766834306045
 20
323.4743517179089
 30
0.0
  0
SPLINE
  5
858FD
330
8563C
100
AcDbEntity
  8
DETAIL
  6
Continuous
100
AcDbSpline
210
0.0
220
0.0
230
1.0
 70
     8
 71
     3
 72
     8
 73
     4
 74
     0
 42
0.0000000001
 43
0.0000000001
 40
0.0
 40
0.0
 40
0.0
 40
0.0
 40
1.0
 40
1.0
 40
1.0
 40
1.0
 10
179.7760807635067
 20
323.3482157472467
 30
0.0
 10
179.760056459695
 20
323.3703291282949
 30
0.0
 10
179.7439568447743
 20
323.3914936650329
 30
0.0
 10
179.727599751889
 20
323.4122561976623
 30
0.0
  0
SPLINE
  5
858FE
330
8563C
100
AcDbEntity
  8
DETAIL
  6
Continuous
100
AcDbSpline
210
0.0
220
0.0
230
1.0
 70
     8
 71
     3
 72
     8
 73
     4
 74
     0
 42
0.0000000001
 43
0.0000000001
 40
0.0
 40
0.0
 40
0.0
 40
0.0
 40
1.0
 40
1.0
 40
1.0
 40
1.0
 10
179.8220576713656
 20
323.2823307268704
 30
0.0
 10
179.8080540599921
 20
323.3030401408473
 30
0.0
 10
179.792105067333
 20
323.3261023661984
 30
0.0
 10
179.7760807635067
 20
323.3482157472467
 30
0.0
  0
SPLINE
  5
858FF
330
8563C
100
AcDbEntity
  8
DETAIL
  6
Continuous
100
AcDbSpline
210
0.0
220
0.0
230
1.0
 70
     8
 71
     3
 72
     8
 73
     4
 74
     0
 42
0.0000000001
 43
0.0000000001
 40
0.0
 40
0.0
 40
0.0
 40
0.0
 40
1.0
 40
1.0
 40
1.0
 40
1.0
 10
179.8654616811991
 20
323.2147014967781
 30
0.0
 10
179.8481195127688
 20
323.2432647103273
 30
0.0
 10
179.83606128271
 20
323.2616213129081
 30
0.0
 10
179.8220576713656
 20
323.2823307268704
 30
0.0
  0
SPLINE
  5
85900
330
8563C
100
AcDbEntity
  8
DETAIL
  6
Continuous
100
AcDbSpline
210
0.0
220
0.0
230
1.0
 70
     8
 71
     3
 72
     8
 73
     4
 74
     0
 42
0.0000000001
 43
0.0000000001
 40
0.0
 40
0.0
 40
0.0
 40
0.0
 40
1.0
 40
1.0
 40
1.0
 40
1.0
 10
179.9253734132953
 20
323.1106863779282
 30
0.0
 10
179.905429956475
 20
323.1473684586967
 30
0.0
 10
179.8828038496294
 20
323.1861382832289
 30
0.0
 10
179.8654616811991
 20
323.2147014967781
 30
0.0
  0
SPLINE
  5
85901
330
8563C
100
AcDbEntity
  8
DETAIL
  6
Continuous
100
AcDbSpline
210
0.0
220
0.0
230
1.0
 70
     8
 71
     3
 72
     8
 73
     4
 74
     0
 42
0.0000000001
 43
0.0000000001
 40
0.0
 40
0.0
 40
0.0
 40
0.0
 40
1.0
 40
1.0
 40
1.0
 40
1.0
 10
179.9793569889307
 20
323.0034073088394
 30
0.0
 10
179.9625776769835
 20
323.0394099601476
 30
0.0
 10
179.9453168701593
 20
323.0740042971597
 30
0.0
 10
179.9253734132953
 20
323.1106863779282
 30
0.0
  0
SPLINE
  5
85902
330
8563C
100
AcDbEntity
  8
DETAIL
  6
Continuous
100
AcDbSpline
210
0.0
220
0.0
230
1.0
 70
     8
 71
     3
 72
     8
 73
     4
 74
     0
 42
0.0000000001
 43
0.0000000001
 40
0.0
 40
0.0
 40
0.0
 40
0.0
 40
1.0
 40
1.0
 40
1.0
 40
1.0
 10
180.0273757707482
 20
322.8932664632088
 30
0.0
 10
180.0124341178316
 20
322.9299936919274
 30
0.0
 10
179.9961363008196
 20
322.9674046575313
 30
0.0
 10
179.9793569889307
 20
323.0034073088394
 30
0.0
  0
SPLINE
  5
85903
330
8563C
100
AcDbEntity
  8
DETAIL
  6
Continuous
100
AcDbSpline
210
0.0
220
0.0
230
1.0
 70
     8
 71
     3
 72
     8
 73
     4
 74
     0
 42
0.0000000001
 43
0.0000000001
 40
0.0
 40
0.0
 40
0.0
 40
0.0
 40
1.0
 40
1.0
 40
1.0
 40
1.0
 10
180.0693931214782
 20
322.7806660146892
 30
0.0
 10
180.055902912486
 20
322.8204957426282
 30
0.0
 10
180.0423174236648
 20
322.8565392344758
 30
0.0
 10
180.0273757707482
 20
322.8932664632088
 30
0.0
  0
SPLINE
  5
85904
330
8563C
100
AcDbEntity
  8
DETAIL
  6
Continuous
100
AcDbSpline
210
0.0
220
0.0
230
1.0
 70
     8
 71
     3
 72
     8
 73
     4
 74
     0
 42
0.0000000001
 43
0.0000000001
 40
0.0
 40
0.0
 40
0.0
 40
0.0
 40
1.0
 40
1.0
 40
1.0
 40
1.0
 10
180.1053724038365
 20
322.6660081369995
 30
0.0
 10
180.0962782596916
 20
322.6972203227272
 30
0.0
 10
180.0828833304849
 20
322.7408362867504
 30
0.0
 10
180.0693931214782
 20
322.7806660146892
 30
0.0
  0
SPLINE
  5
85905
330
8563C
100
AcDbEntity
  8
DETAIL
  6
Continuous
100
AcDbSpline
210
0.0
220
0.0
230
1.0
 70
     8
 71
     3
 72
     8
 73
     4
 74
     0
 42
0.0000000001
 43
0.0000000001
 40
0.0
 40
0.0
 40
0.0
 40
0.0
 40
1.0
 40
1.0
 40
1.0
 40
1.0
 10
180.1246836087966
 20
322.5937693412202
 30
0.0
 10
180.1192599070937
 20
322.6159875438684
 30
0.0
 10
180.1144665479814
 20
322.6347959512863
 30
0.0
 10
180.1053724038365
 20
322.6660081369995
 30
0.0
  0
SPLINE
  5
85906
330
8563C
100
AcDbEntity
  8
DETAIL
  6
Continuous
100
AcDbSpline
210
0.0
220
0.0
230
1.0
 70
     8
 71
     3
 72
     8
 73
     4
 74
     0
 42
0.0000000001
 43
0.0000000001
 40
0.0
 40
0.0
 40
0.0
 40
0.0
 40
1.0
 40
1.0
 40
1.0
 40
1.0
 10
180.1415100102467
 20
322.5209658644602
 30
0.0
 10
180.1361613548515
 20
322.5459231406789
 30
0.0
 10
180.1301073104996
 20
322.5715511385719
 30
0.0
 10
180.1246836087966
 20
322.5937693412202
 30
0.0
  0
SPLINE
  5
85907
330
8563C
100
AcDbEntity
  8
DETAIL
  6
Continuous
100
AcDbSpline
210
0.0
220
0.0
230
1.0
 70
     8
 71
     3
 72
     8
 73
     4
 74
     0
 42
0.0000000001
 43
0.0000000001
 40
0.0
 40
0.0
 40
0.0
 40
0.0
 40
1.0
 40
1.0
 40
1.0
 40
1.0
 10
180.1557207535524
 20
322.4476744373172
 30
0.0
 10
180.1515019320804
 20
322.47172203369
 30
0.0
 10
180.1468586656419
 20
322.4960085882344
 30
0.0
 10
180.1415100102467
 20
322.5209658644602
 30
0.0
  0
SPLINE
  5
85908
330
8563C
100
AcDbEntity
  8
DETAIL
  6
Continuous
100
AcDbSpline
210
0.0
220
0.0
230
1.0
 70
     8
 71
     3
 72
     8
 73
     4
 74
     0
 42
0.0000000001
 43
0.0000000001
 40
0.0
 40
0.0
 40
0.0
 40
0.0
 40
1.0
 40
1.0
 40
1.0
 40
1.0
 10
180.1671849839776
 20
322.3739717904322
 30
0.0
 10
180.1637339515446
 20
322.3998182027502
 30
0.0
 10
180.1599395750099
 20
322.4236268409444
 30
0.0
 10
180.1557207535524
 20
322.4476744373172
 30
0.0
  0
SPLINE
  5
85909
330
8563C
100
AcDbEntity
  8
DETAIL
  6
Continuous
100
AcDbSpline
210
0.0
220
0.0
230
1.0
 70
     8
 71
     3
 72
     8
 73
     4
 74
     0
 42
0.0000000001
 43
0.0000000001
 40
0.0
 40
0.0
 40
0.0
 40
0.0
 40
1.0
 40
1.0
 40
1.0
 40
1.0
 10
180.1757718469461
 20
322.2999346544024
 30
0.0
 10
180.1737437049605
 20
322.3202411916722
 30
0.0
 10
180.1706360164689
 20
322.3481253781142
 30
0.0
 10
180.1671849839776
 20
322.3739717904322
 30
0.0
  0
SPLINE
  5
8590A
330
8563C
100
AcDbEntity
  8
DETAIL
  6
Continuous
100
AcDbSpline
210
0.0
220
0.0
230
1.0
 70
     8
 71
     3
 72
     8
 73
     4
 74
     0
 42
0.0000000001
 43
0.0000000001
 40
0.0
 40
0.0
 40
0.0
 40
0.0
 40
1.0
 40
1.0
 40
1.0
 40
1.0
 10
180.1797644403568
 20
322.2521209443734
 30
0.0
 10
180.1787485844552
 20
322.2668992290349
 30
0.0
 10
180.1777999889027
 20
322.2796281171399
 30
0.0
 10
180.1757718469461
 20
322.2999346544024
 30
0.0
  0
SPLINE
  5
8590B
330
8563C
100
AcDbEntity
  8
DETAIL
  6
Continuous
100
AcDbSpline
210
0.0
220
0.0
230
1.0
 70
     8
 71
     3
 72
     8
 73
     4
 74
     0
 42
0.0000000001
 43
0.0000000001
 40
0.0
 40
0.0
 40
0.0
 40
0.0
 40
1.0
 40
1.0
 40
1.0
 40
1.0
 10
180.1827592448398
 20
322.2042217391357
 30
0.0
 10
180.1818634124947
 20
322.2205149785008
 30
0.0
 10
180.1807802962293
 20
322.2373426597191
 30
0.0
 10
180.1797644403568
 20
322.2521209443734
 30
0.0
  0
SPLINE
  5
8590C
330
8563C
100
AcDbEntity
  8
DETAIL
  6
Continuous
100
AcDbSpline
210
0.0
220
0.0
230
1.0
 70
     8
 71
     3
 72
     8
 73
     4
 74
     0
 42
0.0000000001
 43
0.0000000001
 40
0.0
 40
0.0
 40
0.0
 40
0.0
 40
1.0
 40
1.0
 40
1.0
 40
1.0
 10
180.1850057076235
 20
322.1562584124917
 30
0.0
 10
180.1843636255516
 20
322.1721697022662
 30
0.0
 10
180.1836550771849
 20
322.1879284997708
 30
0.0
 10
180.1827592448398
 20
322.2042217391357
 30
0.0
  0
SPLINE
  5
8590D
330
8563C
100
AcDbEntity
  8
DETAIL
  6
Continuous
100
AcDbSpline
210
0.0
220
0.0
230
1.0
 70
     8
 71
     3
 72
     8
 73
     4
 74
     0
 42
0.0000000001
 43
0.0000000001
 40
0.0
 40
0.0
 40
0.0
 40
0.0
 40
1.0
 40
1.0
 40
1.0
 40
1.0
 10
180.1867532759797
 20
322.108252338236
 30
0.0
 10
180.1862234054287
 20
322.1242833406654
 30
0.0
 10
180.1856477897245
 20
322.1403471227099
 30
0.0
 10
180.1850057076235
 20
322.1562584124917
 30
0.0
  0
SPLINE
  5
8590E
330
8563C
100
AcDbEntity
  8
DETAIL
  6
Continuous
100
AcDbSpline
210
0.0
220
0.0
230
1.0
 70
     8
 71
     3
 72
     8
 73
     4
 74
     0
 42
0.0000000001
 43
0.0000000001
 40
0.0
 40
0.0
 40
0.0
 40
0.0
 40
1.0
 40
1.0
 40
1.0
 40
1.0
 10
180.188251397064
 20
322.0602248901855
 30
0.0
 10
180.1877672717682
 20
322.0762231129997
 30
0.0
 10
180.1872831464725
 20
322.0922213358067
 30
0.0
 10
180.1867532759797
 20
322.108252338236
 30
0.0
  0
LINE
  5
8590F
330
8563C
100
AcDbEntity
  8
DETAIL
  6
Continuous
100
AcDbLine
 10
173.892242146835
 20
338.8495739791001
 30
0.0
 11
173.5412821468153
 21
338.8495739791001
 31
0.0
  0
LINE
  5
85910
330
8563C
100
AcDbEntity
  8
DETAIL
  6
Continuous
100
AcDbLine
 10
178.0092154801759
 20
338.8495739791001
 30
0.0
 11
173.892242146835
 21
338.8495739791001
 31
0.0
  0
LINE
  5
85911
330
8563C
100
AcDbEntity
  8
DETAIL
  6
Continuous
100
AcDbLine
 10
178.0092154801759
 20
338.8495739791001
 30
0.0
 11
178.1879888134944
 21
338.8495739791001
 31
0.0
  0
LINE
  5
85912
330
8563C
100
AcDbEntity
  8
DETAIL
  6
Continuous
100
AcDbLine
 10
178.2002821468186
 20
324.1668273124399
 30
0.0
 11
173.8600021468346
 21
324.1668139791022
 31
0.0
  0
SPLINE
  5
85913
330
8563C
100
AcDbEntity
  8
DETAIL
  6
Continuous
100
AcDbSpline
210
0.0
220
0.0
230
1.0
 70
     8
 71
     3
 72
     8
 73
     4
 74
     0
 42
0.0000000001
 43
0.0000000001
 40
0.0
 40
0.0
 40
0.0
 40
0.0
 40
1.0
 40
1.0
 40
1.0
 40
1.0
 10
179.2184890823273
 20
339.1354093126577
 30
0.0
 10
179.2463776989325
 20
339.1521242832536
 30
0.0
 10
179.2738336394113
 20
339.1695296868277
 30
0.0
 10
179.3008503239843
 20
339.1876045628018
 30
0.0
  0
ARC
  5
85914
330
8563C
100
AcDbEntity
  8
DETAIL
  6
Continuous
100
AcDbCircle
 10
173.8917488134802
 20
331.8490939791012
 30
0.0
 40
7.000479999998247
100
AcDbArc
 50
89.99602699997737
 51
179.9960270000034
  0
LINE
  5
85915
330
8563C
100
AcDbEntity
  8
DETAIL
100
AcDbLine
 10
31.50000214689106
 20
416.2500076108479
 30
0.0
 11
32.50000214689106
 21
416.2500076108479
 31
0.0
  0
LINE
  5
85916
330
8563C
100
AcDbEntity
  8
DETAIL
100
AcDbLine
 10
24.15000214689212
 20
416.2500076108478
 30
0.0
 11
29.05000214689107
 21
416.2500076108478
 31
0.0
  0
LINE
  5
85917
330
8563C
100
AcDbEntity
  8
DETAIL
100
AcDbLine
 10
31.50000214689106
 20
413.7500076108487
 30
0.0
 11
32.50000214688387
 21
413.7500076108487
 31
0.0
  0
LINE
  5
85918
330
8563C
100
AcDbEntity
  8
DETAIL
100
AcDbLine
 10
24.15000214689212
 20
413.7500076108487
 30
0.0
 11
29.05000214689107
 21
413.7500076108487
 31
0.0
  0
LINE
  5
85919
330
8563C
100
AcDbEntity
  8
DETAIL
100
AcDbLine
 10
20.70000214686339
 20
413.7500076108487
 30
0.0
 11
21.70000214689102
 21
413.7500076108487
 31
0.0
  0
LINE
  5
8591A
330
8563C
100
AcDbEntity
  8
DETAIL
100
AcDbLine
 10
20.70000214686342
 20
416.2500076108479
 30
0.0
 11
21.70000214689102
 21
416.2500076108479
 31
0.0
  0
LINE
  5
8591B
330
8563C
100
AcDbEntity
  8
DETAIL
  6
Continuous
100
AcDbLine
 10
68.50000214683589
 20
359.5000006457653
 30
0.0
 11
67.5000021468759
 21
359.5000006457653
 31
0.0
  0
LINE
  5
8591C
330
8563C
100
AcDbEntity
  8
DETAIL
  6
Continuous
100
AcDbLine
 10
67.5000021468759
 20
359.0000006457607
 30
0.0
 11
68.50000214683589
 21
358.7320539790912
 31
0.0
  0
LINE
  5
8591D
330
8563C
100
AcDbEntity
  8
DETAIL
100
AcDbLine
 10
20.70000214686453
 20
498.7500076108489
 30
0.0
 11
21.70000214689216
 21
498.7500076108489
 31
0.0
  0
LINE
  5
8591E
330
8563C
100
AcDbEntity
  8
DETAIL
100
AcDbLine
 10
20.70000214686456
 20
501.2500076108479
 30
0.0
 11
21.70000214689216
 21
501.2500076108479
 31
0.0
  0
LINE
  5
8591F
330
8563C
100
AcDbEntity
  8
DETAIL
100
AcDbLine
 10
24.15000214689209
 20
501.2500076108479
 30
0.0
 11
29.05000214689221
 21
501.2500076108479
 31
0.0
  0
LINE
  5
85920
330
8563C
100
AcDbEntity
  8
DETAIL
100
AcDbLine
 10
24.15000214689209
 20
498.7500076108488
 30
0.0
 11
29.05000214689221
 21
498.7500076108488
 31
0.0
  0
LINE
  5
85921
330
8563C
100
AcDbEntity
  8
DETAIL
100
AcDbLine
 10
31.5000021468922
 20
501.2500076108479
 30
0.0
 11
32.5000021468922
 21
501.2500076108479
 31
0.0
  0
LINE
  5
85922
330
8563C
100
AcDbEntity
  8
DETAIL
100
AcDbLine
 10
31.5000021468922
 20
498.7500076108489
 30
0.0
 11
32.50000214688501
 21
498.7500076108489
 31
0.0
  0
LINE
  5
85923
330
8563C
100
AcDbEntity
  8
DETAIL
  6
Continuous
100
AcDbLine
 10
72.73585548021152
 20
628.5000006458517
 30
0.0
 11
175.0000021468488
 21
628.5000006458517
 31
0.0
  0
LINE
  5
85924
330
8563C
100
AcDbEntity
  8
DETAIL
  6
Continuous
100
AcDbLine
 10
70.00000214687432
 20
630.0000006458481
 30
0.0
 11
132.0000021468306
 21
630.0000006458481
 31
0.0
  0
ARC
  5
85925
330
8563C
100
AcDbEntity
  8
DETAIL
  6
Continuous
100
AcDbCircle
 10
92.50000214686862
 20
558.8570205145379
 30
0.0
 40
6.499999999998373
100
AcDbArc
 50
90.0
 51
180.0
  0
ARC
  5
85926
330
8563C
100
AcDbEntity
  8
DETAIL
  6
Continuous
100
AcDbCircle
 10
92.50000214686862
 20
558.8570205145379
 30
0.0
 40
10.49999999999736
100
AcDbArc
 50
90.0
 51
180.0
  0
ARC
  5
85927
330
8563C
100
AcDbEntity
  8
DETAIL
  6
Continuous
100
AcDbCircle
 10
92.50000214686862
 20
558.8570205145379
 30
0.0
 40
4.999999999998748
100
AcDbArc
 50
90.0
 51
180.0
  0
LINE
  5
85928
330
8563C
100
AcDbEntity
  8
DETAIL
  6
Continuous
100
AcDbLine
 10
35.5000021468634
 20
603.500000645859
 30
0.0
 11
175.0000021468488
 21
603.500000645859
 31
0.0
  0
ARC
  5
85929
330
8563C
100
AcDbEntity
  8
DETAIL
  6
Continuous
100
AcDbCircle
 10
22.45000214687934
 20
577.4399591703644
 30
0.0
 40
4.249999999998935
100
AcDbArc
 50
100.0000000000547
 51
180.0
  0
LINE
  5
8592A
330
8563C
100
AcDbEntity
  8
DETAIL
  6
Continuous
100
AcDbLine
 10
31.50000214689299
 20
556.7688330052381
 30
0.0
 11
32.50000214689299
 21
556.7688330052381
 31
0.0
  0
LINE
  5
8592B
330
8563C
100
AcDbEntity
  8
DETAIL
  6
Continuous
100
AcDbLine
 10
24.15000214689209
 20
556.7688330052381
 30
0.0
 11
29.050002146893
 21
556.7688330052381
 31
0.0
  0
LINE
  5
8592C
330
8563C
100
AcDbEntity
  8
DETAIL
  6
Continuous
100
AcDbLine
 10
31.50000214689299
 20
554.2688330052389
 30
0.0
 11
32.5000021468858
 21
554.2688330052389
 31
0.0
  0
LINE
  5
8592D
330
8563C
100
AcDbEntity
  8
DETAIL
  6
Continuous
100
AcDbLine
 10
24.15000214689209
 20
554.2688330052389
 30
0.0
 11
29.050002146893
 21
554.2688330052389
 31
0.0
  0
LINE
  5
8592E
330
8563C
100
AcDbEntity
  8
DETAIL
  6
Continuous
100
AcDbLine
 10
20.70000214686533
 20
554.2688330052389
 30
0.0
 11
21.70000214689295
 21
554.2688330052389
 31
0.0
  0
LINE
  5
8592F
330
8563C
100
AcDbEntity
  8
DETAIL
  6
Continuous
100
AcDbLine
 10
20.70000214686535
 20
556.7688330052381
 30
0.0
 11
21.70000214689295
 21
556.7688330052381
 31
0.0
  0
ARC
  5
85930
330
8563C
100
AcDbEntity
  8
DETAIL
  6
Continuous
100
AcDbCircle
 10
28.36994008585318
 20
571.815906361374
 30
0.0
 40
3.190286689178646
100
AcDbArc
 50
11.15052752542002
 51
77.69202134342751
  0
ARC
  5
85931
330
8563C
100
AcDbEntity
  8
DETAIL
  6
Continuous
100
AcDbCircle
 10
24.78403489074966
 20
571.861015092212
 30
0.0
 40
3.1366021068762
100
AcDbArc
 50
101.6621282651391
 51
169.4953228660148
  0
ARC
  5
85932
330
8563C
100
AcDbEntity
  8
DETAIL
  6
Continuous
100
AcDbCircle
 10
28.55000214689226
 20
571.9328671811958
 30
0.0
 40
0.499999999999875
100
AcDbArc
 50
0.0
 51
90.0
  0
ARC
  5
85933
330
8563C
100
AcDbEntity
  8
DETAIL
  6
Continuous
100
AcDbCircle
 10
24.66383871650276
 20
571.918872762403
 30
0.0
 40
0.5140271043696191
100
AcDbArc
 50
90.64613757742087
 51
178.4399261985182
  0
LINE
  5
85934
330
8563C
100
AcDbEntity
  8
DETAIL
  6
Continuous
100
AcDbLine
 10
29.05000214689201
 20
574.9328671811929
 30
0.0
 11
24.15000214689212
 21
574.9328671811929
 31
0.0
  0
LINE
  5
85935
330
8563C
100
AcDbEntity
  8
DETAIL
  6
Continuous
100
AcDbLine
 10
28.52779676492252
 20
572.4328671811957
 30
0.0
 11
24.65804203844121
 21
572.4328671811957
 31
0.0
  0
ARC
  5
85936
330
8563C
100
AcDbEntity
  8
DETAIL
  6
Continuous
100
AcDbCircle
 10
22.80000214686512
 20
577.1462791703693
 30
0.0
 40
2.099999999999475
100
AcDbArc
 50
100.0000000000547
 51
180.0
  0
LINE
  5
85937
330
8563C
100
AcDbEntity
  8
DETAIL
  6
Continuous
100
AcDbLine
 10
32.50000214689032
 20
579.96143391958
 30
0.0
 11
22.43534097376266
 21
579.214375451694
 31
0.0
  0
LINE
  5
85938
330
8563C
100
AcDbEntity
  8
DETAIL
  6
Continuous
100
AcDbLine
 10
59.02132214685676
 20
556.3901530052437
 30
0.0
 11
54.77868214684727
 21
552.147513005246
 31
0.0
  0
LINE
  5
85939
330
8563C
100
AcDbEntity
  8
DETAIL
  6
Continuous
100
AcDbLine
 10
59.02132214685676
 20
552.147513005246
 30
0.0
 11
54.77868214684727
 21
556.3901530052437
 31
0.0
  0
CIRCLE
  5
8593A
330
8563C
100
AcDbEntity
  8
DETAIL
  6
Continuous
100
AcDbCircle
 10
56.90000214685285
 20
554.2688330052389
 30
0.0
 40
3.999999999998998
  0
LINE
  5
8593B
330
8563C
100
AcDbEntity
  8
DETAIL
  6
Continuous
100
AcDbLine
 10
45.77286881354782
 20
624.7964006458509
 30
0.0
 11
37.6518554802071
 21
622.5225206458587
 31
0.0
  0
LINE
  5
8593C
330
8563C
100
AcDbEntity
  8
DETAIL
  6
Continuous
100
AcDbLine
 10
66.00000214683792
 20
602.5000006458554
 30
0.0
 11
34.00000214687432
 21
602.5000006458554
 31
0.0
  0
ARC
  5
8593D
330
8563C
100
AcDbEntity
  8
DETAIL
  6
Continuous
100
AcDbCircle
 10
39.00000214687253
 20
617.7077073125242
 30
0.0
 40
4.999999999998748
100
AcDbArc
 50
105.642245999968
 51
180.0
  0
LINE
  5
8593E
330
8563C
100
AcDbEntity
  8
DETAIL
  6
Continuous
100
AcDbLine
 10
34.00000214687432
 20
605.0000006458546
 30
0.0
 11
34.00000214687432
 21
617.7077073125242
 31
0.0
  0
ARC
  5
8593F
330
8563C
100
AcDbEntity
  8
DETAIL
  6
Continuous
100
AcDbCircle
 10
35.5000021468634
 20
605.0000006458546
 30
0.0
 40
1.499999999999625
100
AcDbArc
 50
180.0
 51
270.0
  0
ARC
  5
85940
330
8563C
100
AcDbEntity
  8
DETAIL
  6
Continuous
100
AcDbCircle
 10
34.00000214687432
 20
601.0000006458592
 30
0.0
 40
1.499999999999625
100
AcDbArc
 50
90.0
 51
180.0
  0
ARC
  5
85941
330
8563C
100
AcDbEntity
  8
DETAIL
  6
Continuous
100
AcDbCircle
 10
34.80000214689181
 20
605.0000006458546
 30
0.0
 40
2.499999999999374
100
AcDbArc
 50
270.0
 51
323.1301020000252
  0
LINE
  5
85942
330
8563C
100
AcDbEntity
  8
DETAIL
  6
Continuous
100
AcDbLine
 10
32.50000214689214
 20
582.5000071811864
 30
0.0
 11
21.71199739179104
 21
581.6253921206644
 31
0.0
  0
ARC
  5
85943
330
8563C
100
AcDbEntity
  8
DETAIL
  6
Continuous
100
AcDbCircle
 10
70.00000214687432
 20
601.0000006458592
 30
0.0
 40
1.499999999999625
100
AcDbArc
 50
90.0
 51
180.0
  0
ARC
  5
85944
330
8563C
100
AcDbEntity
  8
DETAIL
  6
Continuous
100
AcDbCircle
 10
67.50000214687613
 20
602.5000006458554
 30
0.0
 40
0.9999999999997497
100
AcDbArc
 50
270.0
 51
0.0
  0
LINE
  5
85945
330
8563C
100
AcDbEntity
  8
DETAIL
  6
Continuous
100
AcDbLine
 10
68.50000214683612
 20
602.5000006458554
 30
0.0
 11
68.50000214683612
 21
603.500000645859
 31
0.0
  0
LINE
  5
85946
330
8563C
100
AcDbEntity
  8
DETAIL
  6
Continuous
100
AcDbLine
 10
66.00000214683792
 20
601.5000006458572
 30
0.0
 11
66.00000214683792
 21
603.500000645859
 31
0.0
  0
LINE
  5
85947
330
8563C
100
AcDbEntity
  8
DETAIL
  6
Continuous
100
AcDbLine
 10
66.00000214683792
 20
601.5000006458572
 30
0.0
 11
67.50000214687613
 21
601.5000006458572
 31
0.0
  0
ARC
  5
85948
330
8563C
100
AcDbEntity
  8
DETAIL
  6
Continuous
100
AcDbCircle
 10
72.73585548021152
 20
528.5000006458772
 30
0.0
 40
99.99999999997498
100
AcDbArc
 50
90.0
 51
105.642245999968
  0
LINE
  5
85949
330
8563C
100
AcDbEntity
  8
DETAIL
  6
Continuous
100
AcDbLine
 10
69.00000214686523
 20
629.0000006458509
 30
0.0
 11
69.00000214686523
 21
628.4302006458507
 31
0.0
  0
ARC
  5
8594A
330
8563C
100
AcDbEntity
  8
DETAIL
  6
Continuous
100
AcDbCircle
 10
70.00000214687432
 20
629.0000006458509
 30
0.0
 40
0.9999999999997497
100
AcDbArc
 50
90.0
 51
180.0
  0
LINE
  5
8594B
330
8563C
100
AcDbEntity
  8
DETAIL
  6
Continuous
100
AcDbLine
 10
92.50000214686862
 20
565.3570205145324
 30
0.0
 11
180.5000021468267
 21
565.3570205145324
 31
0.0
  0
LINE
  5
8594C
330
8563C
100
AcDbEntity
  8
DETAIL
  6
Continuous
100
AcDbLine
 10
92.50000214686862
 20
569.3570205145333
 30
0.0
 11
180.5000021468267
 21
569.3570205145333
 31
0.0
  0
LINE
  5
8594D
330
8563C
100
AcDbEntity
  8
DETAIL
  6
Continuous
100
AcDbLine
 10
92.50000214686862
 20
563.857020514536
 30
0.0
 11
180.5000021468267
 21
563.857020514536
 31
0.0
  0
ARC
  5
8594E
330
8563C
100
AcDbEntity
  8
DETAIL
  6
Continuous
100
AcDbCircle
 10
136.5000021468486
 20
660.5514338478468
 30
0.0
 40
117.3189599999705
100
AcDbArc
 50
250.585288999965
 51
289.4147110000348
  0
LINE
  5
8594F
330
8563C
100
AcDbEntity
  8
DETAIL
  6
Continuous
100
AcDbLine
 10
175.5000021468285
 20
564.4981805145317
 30
0.0
 11
136.5000021468486
 21
564.4981805145317
 31
0.0
  0
LINE
  5
85950
330
8563C
100
AcDbEntity
  8
DETAIL
  6
Continuous
100
AcDbLine
 10
97.50000214686862
 20
556.5893271812019
 30
0.0
 11
175.5000021468285
 21
556.5893271812019
 31
0.0
  0
ARC
  5
85951
330
8563C
100
AcDbEntity
  8
DETAIL
  6
Continuous
100
AcDbCircle
 10
136.5000021468486
 20
352.5729271812523
 30
0.0
 40
162.0053599999595
100
AcDbArc
 50
75.23663800003054
 51
90.0
  0
ARC
  5
85952
330
8563C
100
AcDbEntity
  8
DETAIL
  6
Continuous
100
AcDbCircle
 10
136.5000021468486
 20
662.3721271811781
 30
0.0
 40
136.996053333299
100
AcDbArc
 50
253.3611169999911
 51
286.6388830000089
  0
ARC
  5
85953
330
8563C
100
AcDbEntity
  8
DETAIL
  6
Continuous
100
AcDbCircle
 10
136.5000021468486
 20
352.5729271812523
 30
0.0
 40
162.0053599999595
100
AcDbArc
 50
90.0
 51
104.7633619999694
  0
ARC
  5
85954
330
8563C
100
AcDbEntity
  8
DETAIL
  6
Continuous
100
AcDbCircle
 10
96.76473548017291
 20
509.2276071812175
 30
0.0
 40
1.999999999999499
100
AcDbArc
 50
180.0
 51
262.9670879999221
  0
LINE
  5
85955
330
8563C
100
AcDbEntity
  8
DETAIL
  6
Continuous
100
AcDbLine
 10
94.76473548020384
 20
529.1779005145444
 30
0.0
 11
94.76473548020384
 21
509.2276071812175
 31
0.0
  0
ARC
  5
85956
330
8563C
100
AcDbEntity
  8
DETAIL
  6
Continuous
100
AcDbCircle
 10
95.34400214686046
 20
508.7464471812118
 30
0.0
 40
0.499999999999875
100
AcDbArc
 50
104.7633619999694
 51
198.7096719999916
  0
ARC
  5
85957
330
8563C
100
AcDbEntity
  8
DETAIL
  6
Continuous
100
AcDbCircle
 10
96.76473548017291
 20
529.1767405145455
 30
0.0
 40
1.999999999999499
100
AcDbArc
 50
73.38894000004322
 51
180.0
  0
LINE
  5
85958
330
8563C
100
AcDbEntity
  8
DETAIL
  6
Continuous
100
AcDbLine
 10
97.50000214686862
 20
564.4981805145317
 30
0.0
 11
136.5000021468486
 21
564.4981805145317
 31
0.0
  0
ARC
  5
85959
330
8563C
100
AcDbEntity
  8
DETAIL
  6
Continuous
100
AcDbCircle
 10
97.50000214686862
 20
551.5893271812029
 30
0.0
 40
4.999999999998748
100
AcDbArc
 50
90.0
 51
180.0
  0
ARC
  5
8595A
330
8563C
100
AcDbEntity
  8
DETAIL
  6
Continuous
100
AcDbCircle
 10
97.50000214686862
 20
559.4981805145335
 30
0.0
 40
4.999999999998748
100
AcDbArc
 50
90.0
 51
119.3350529999856
  0
ARC
  5
8595B
330
8563C
100
AcDbEntity
  8
DETAIL
  6
Continuous
100
AcDbCircle
 10
98.50000214682857
 20
552.7329538478743
 30
0.0
 40
2.99999999999925
100
AcDbArc
 50
180.0
 51
250.585288999965
  0
LINE
  5
8595C
330
8563C
100
AcDbEntity
  8
DETAIL
  6
Continuous
100
AcDbLine
 10
178.2352688134933
 20
529.1779005145444
 30
0.0
 11
178.2352688134933
 21
509.2276071812175
 31
0.0
  0
ARC
  5
8595D
330
8563C
100
AcDbEntity
  8
DETAIL
  6
Continuous
100
AcDbCircle
 10
176.2352688135224
 20
509.2276071812175
 30
0.0
 40
1.999999999999499
100
AcDbArc
 50
277.0329120000762
 51
0.0
  0
ARC
  5
8595E
330
8563C
100
AcDbEntity
  8
DETAIL
  6
Continuous
100
AcDbCircle
 10
177.6560021468367
 20
508.7464471812118
 30
0.0
 40
0.499999999999875
100
AcDbArc
 50
341.2903280000082
 51
75.23663800003054
  0
ARC
  5
8595F
330
8563C
100
AcDbEntity
  8
DETAIL
  6
Continuous
100
AcDbCircle
 10
176.2352688135224
 20
529.1779005145444
 30
0.0
 40
1.999999999999499
100
AcDbArc
 50
0.0
 51
108.5079829999805
  0
ARC
  5
85960
330
8563C
100
AcDbEntity
  8
DETAIL
  6
Continuous
100
AcDbCircle
 10
175.5000021468285
 20
551.5893271812029
 30
0.0
 40
4.999999999998748
100
AcDbArc
 50
0.0
 51
90.0
  0
ARC
  5
85961
330
8563C
100
AcDbEntity
  8
DETAIL
  6
Continuous
100
AcDbCircle
 10
175.5000021468285
 20
559.4981805145335
 30
0.0
 40
4.999999999998748
100
AcDbArc
 50
60.66494700001432
 51
90.0
  0
ARC
  5
85962
330
8563C
100
AcDbEntity
  8
DETAIL
  6
Continuous
100
AcDbCircle
 10
180.5000021468267
 20
558.8570205145379
 30
0.0
 40
4.999999999998748
100
AcDbArc
 50
0.0
 51
90.0
  0
ARC
  5
85963
330
8563C
100
AcDbEntity
  8
DETAIL
  6
Continuous
100
AcDbCircle
 10
174.5000021468195
 20
552.7329538478743
 30
0.0
 40
2.99999999999925
100
AcDbArc
 50
289.4147110000348
 51
0.0
  0
LINE
  5
85964
330
8563C
100
AcDbEntity
  8
DETAIL
  6
Continuous
100
AcDbLine
 10
133.0000021468397
 20
629.0000006458509
 30
0.0
 11
133.0000021468397
 21
628.5000006458517
 31
0.0
  0
ARC
  5
85965
330
8563C
100
AcDbEntity
  8
DETAIL
  6
Continuous
100
AcDbCircle
 10
132.0000021468306
 20
629.0000006458509
 30
0.0
 40
0.9999999999997497
100
AcDbArc
 50
0.0
 51
90.0
  0
LINE
  5
85966
330
8563C
100
AcDbEntity
  8
DETAIL
  6
Continuous
100
AcDbLine
 10
177.1213221468544
 20
615.6213206458557
 30
0.0
 11
172.8786821468431
 21
611.3786806458571
 31
0.0
  0
LINE
  5
85967
330
8563C
100
AcDbEntity
  8
DETAIL
  6
Continuous
100
AcDbLine
 10
177.1213221468544
 20
611.3786806458571
 30
0.0
 11
172.8786821468431
 21
615.6213206458557
 31
0.0
  0
CIRCLE
  5
85968
330
8563C
100
AcDbEntity
  8
DETAIL
  6
Continuous
100
AcDbCircle
 10
175.0000021468488
 20
613.5000006458554
 30
0.0
 40
3.999999999998998
  0
LINE
  5
85969
330
8563C
100
AcDbEntity
  8
DETAIL
  6
Continuous
100
AcDbLine
 10
144.000002146847
 20
630.0000006458481
 30
0.0
 11
175.0000021468488
 21
630.0000006458481
 31
0.0
  0
LINE
  5
8596A
330
8563C
100
AcDbEntity
  8
DETAIL
  6
Continuous
100
AcDbLine
 10
143.0000021468379
 20
629.0000006458509
 30
0.0
 11
143.0000021468379
 21
628.5000006458517
 31
0.0
  0
ARC
  5
8596B
330
8563C
100
AcDbEntity
  8
DETAIL
  6
Continuous
100
AcDbCircle
 10
144.000002146847
 20
629.0000006458509
 30
0.0
 40
0.9999999999997497
100
AcDbArc
 50
90.0
 51
180.0
  0
LINE
  5
8596C
330
8563C
100
AcDbEntity
  8
DETAIL
  6
Continuous
100
AcDbLine
 10
317.5000021468922
 20
601.0000006458592
 30
0.0
 11
317.5000021468122
 21
30.20000064584519
 31
0.0
  0
LINE
  5
8596D
330
8563C
100
AcDbEntity
  8
DETAIL
  6
Continuous
100
AcDbLine
 10
197.5916821468354
 20
33.92945397917583
 30
0.0
 11
197.5916821468354
 21
232.7839606457931
 31
0.0
  0
LINE
  5
8596E
330
8563C
100
AcDbEntity
  8
DETAIL
  6
Continuous
100
AcDbLine
 10
200.0000021468413
 20
33.92945397917583
 30
0.0
 11
200.0000021468413
 21
237.7839606457914
 31
0.0
  0
CIRCLE
  5
8596F
330
8563C
100
AcDbEntity
  8
DETAIL
  6
Continuous
100
AcDbCircle
 10
242.5000021468322
 20
49.0000006458381
 30
0.0
 40
7.999999999997998
  0
LINE
  5
85970
330
8563C
100
AcDbEntity
  8
DETAIL
  6
Continuous
100
AcDbLine
 10
205.0000021468413
 20
103.4294539791603
 30
0.0
 11
205.0000021468413
 21
33.92945397917583
 31
0.0
  0
LINE
  5
85971
330
8563C
100
AcDbEntity
  8
DETAIL
  6
Continuous
100
AcDbLine
 10
315.000002146814
 20
27.70000064584611
 30
0.0
 11
189.0000021468358
 21
27.70000064584611
 31
0.0
  0
LINE
  5
85972
330
8563C
100
AcDbEntity
  8
DETAIL
  6
Continuous
100
AcDbLine
 10
309.0000021468049
 20
19.50000064585082
 30
0.0
 11
264.9727754801578
 21
19.50000064585082
 31
0.0
  0
ARC
  5
85973
330
8563C
100
AcDbEntity
  8
DETAIL
  6
Continuous
100
AcDbCircle
 10
200.416535480178
 20
31.02949397917518
 30
0.0
 40
7.999999999997998
100
AcDbArc
 50
220.4385570000078
 51
266.8810849999419
  0
ARC
  5
85974
330
8563C
100
AcDbEntity
  8
DETAIL
  6
Continuous
100
AcDbCircle
 10
198.0000021468231
 20
33.92945397917583
 30
0.0
 40
1.999999999999499
100
AcDbArc
 50
270.0
 51
0.0
  0
LINE
  5
85975
330
8563C
100
AcDbEntity
  8
DETAIL
  6
Continuous
100
AcDbLine
 10
188.5000021468067
 20
31.92945397917582
 30
0.0
 11
203.0000021468213
 21
31.92945397917582
 31
0.0
  0
LINE
  5
85976
330
8563C
100
AcDbEntity
  8
DETAIL
  6
Continuous
100
AcDbLine
 10
189.0000021468358
 20
31.92945397917582
 30
0.0
 11
189.0000021468358
 21
27.70000064584611
 31
0.0
  0
ARC
  5
85977
330
8563C
100
AcDbEntity
  8
DETAIL
  6
Continuous
100
AcDbCircle
 10
189.0000021468358
 20
21.30000064584646
 30
0.0
 40
6.99999999999825
100
AcDbArc
 50
40.4385570000079
 51
66.10449200001638
  0
ARC
  5
85978
330
8563C
100
AcDbEntity
  8
DETAIL
  6
Continuous
100
AcDbCircle
 10
195.5916821468172
 20
33.92945397917583
 30
0.0
 40
1.999999999999499
100
AcDbArc
 50
270.0
 51
0.0
  0
LINE
  5
85979
330
8563C
100
AcDbEntity
  8
DETAIL
  6
Continuous
100
AcDbLine
 10
188.0000021468267
 20
30.68778731251085
 30
0.0
 11
188.0000021468267
 21
31.42945397917765
 31
0.0
  0
ARC
  5
8597A
330
8563C
100
AcDbEntity
  8
DETAIL
  6
Continuous
100
AcDbCircle
 10
188.5000021468067
 20
31.42945397917765
 30
0.0
 40
0.499999999999875
100
AcDbArc
 50
90.0
 51
180.0
  0
ARC
  5
8597B
330
8563C
100
AcDbEntity
  8
DETAIL
  6
Continuous
100
AcDbCircle
 10
187.5000021468449
 20
30.68778731251085
 30
0.0
 40
0.499999999999875
100
AcDbArc
 50
270.0
 51
0.0
  0
ARC
  5
8597C
330
8563C
100
AcDbEntity
  8
DETAIL
  6
Continuous
100
AcDbCircle
 10
203.0000021468213
 20
33.92945397917583
 30
0.0
 40
1.999999999999499
100
AcDbArc
 50
270.0
 51
0.0
  0
ARC
  5
8597D
330
8563C
100
AcDbEntity
  8
DETAIL
  6
Continuous
100
AcDbCircle
 10
218.7606554801395
 20
27.50000064584173
 30
0.0
 40
7.999999999997998
100
AcDbArc
 50
270.0
 51
313.7062010000653
  0
LINE
  5
8597E
330
8563C
100
AcDbEntity
  8
DETAIL
  6
Continuous
100
AcDbLine
 10
224.0238021468312
 20
41.52868064584207
 30
0.0
 11
219.7811621468217
 21
45.77132064583974
 31
0.0
  0
LINE
  5
8597F
330
8563C
100
AcDbEntity
  8
DETAIL
  6
Continuous
100
AcDbLine
 10
224.0238021468312
 20
45.77132064583974
 30
0.0
 11
219.7811621468217
 21
41.52868064584207
 31
0.0
  0
CIRCLE
  5
85980
330
8563C
100
AcDbEntity
  8
DETAIL
  6
Continuous
100
AcDbCircle
 10
221.9024821468274
 20
43.65000064584136
 30
0.0
 40
3.999999999998998
  0
LINE
  5
85981
330
8563C
100
AcDbEntity
  8
DETAIL
  6
Continuous
100
AcDbLine
 10
244.621322146836
 20
51.12132064584375
 30
0.0
 11
240.3786821468265
 21
46.87868064583972
 31
0.0
  0
LINE
  5
85982
330
8563C
100
AcDbEntity
  8
DETAIL
  6
Continuous
100
AcDbLine
 10
244.621322146836
 20
46.87868064583972
 30
0.0
 11
240.3786821468265
 21
51.12132064584375
 31
0.0
  0
CIRCLE
  5
85983
330
8563C
100
AcDbEntity
  8
DETAIL
  6
Continuous
100
AcDbCircle
 10
242.5000021468322
 20
49.0000006458381
 30
0.0
 40
3.999999999998998
  0
LINE
  5
85984
330
8563C
100
AcDbEntity
  8
DETAIL
  6
Continuous
100
AcDbLine
 10
321.0710688134395
 20
8.00000064585083
 30
0.0
 11
341.5000021467976
 21
8.00000064585083
 31
0.0
  0
LINE
  5
85985
330
8563C
100
AcDbEntity
  8
DETAIL
  6
Continuous
100
AcDbLine
 10
317.5355354801457
 20
9.46446731252081
 30
0.0
 11
308.9644688134731
 21
18.03553397918176
 31
0.0
  0
ARC
  5
85986
330
8563C
100
AcDbEntity
  8
DETAIL
  6
Continuous
100
AcDbCircle
 10
321.0710688134395
 20
13.00000064584991
 30
0.0
 40
4.999999999998748
100
AcDbArc
 50
225.0000000000642
 51
270.0
  0
LINE
  5
85987
330
8563C
100
AcDbEntity
  8
DETAIL
  6
Continuous
100
AcDbLine
 10
310.6838821468107
 20
26.5696806458477
 30
0.0
 11
305.957362146796
 21
21.84314731251242
 31
0.0
  0
ARC
  5
85988
330
8563C
100
AcDbEntity
  8
DETAIL
  6
Continuous
100
AcDbCircle
 10
306.5000021468049
 20
23.50000064584628
 30
0.0
 40
3.999999999998998
100
AcDbArc
 50
270.0
 51
0.0
  0
ARC
  5
85989
330
8563C
100
AcDbEntity
  8
DETAIL
  6
Continuous
100
AcDbCircle
 10
309.0000021468049
 20
23.50000064584628
 30
0.0
 40
3.999999999998998
100
AcDbArc
 50
270.0
 51
0.0
  0
ARC
  5
8598A
330
8563C
100
AcDbEntity
  8
DETAIL
  6
Continuous
100
AcDbCircle
 10
300.3005088134494
 20
27.50000064584173
 30
0.0
 40
7.999999999997998
100
AcDbArc
 50
270.0
 51
314.9999999999357
  0
CIRCLE
  5
8598B
330
8563C
100
AcDbEntity
  8
DETAIL
  6
Continuous
100
AcDbCircle
 10
307.5000021468158
 20
19.50000064585082
 30
0.0
 40
0.499999999999875
  0
LINE
  5
8598C
330
8563C
100
AcDbEntity
  8
DETAIL
  6
DASHDOT
100
AcDbLine
 10
305.4289354801303
 20
19.50000064585082
 30
0.0
 11
307.5000021468158
 21
19.50000064585082
 31
0.0
  0
LINE
  5
8598D
330
8563C
100
AcDbEntity
  8
DETAIL
  6
DASHDOT
100
AcDbLine
 10
308.9644688134731
 20
18.03553397918176
 30
0.0
 11
307.5000021468158
 21
19.50000064585082
 31
0.0
  0
ARC
  5
8598E
330
8563C
100
AcDbEntity
  8
DETAIL
  6
Continuous
100
AcDbCircle
 10
305.4289354801303
 20
14.50000064585264
 30
0.0
 40
4.999999999998748
100
AcDbArc
 50
45.00000000006425
 51
90.0
  0
ARC
  5
8598F
330
8563C
100
AcDbEntity
  8
DETAIL
  6
Continuous
100
AcDbCircle
 10
315.000002146814
 20
30.20000064584519
 30
0.0
 40
2.499999999999374
100
AcDbArc
 50
270.0
 51
0.0
  0
LINE
  5
85990
330
8563C
100
AcDbEntity
  8
DETAIL
  6
Continuous
100
AcDbLine
 10
313.000002146794
 20
25.97545397918156
 30
0.0
 11
313.000002146794
 21
23.50000064584628
 31
0.0
  0
ARC
  5
85991
330
8563C
100
AcDbEntity
  8
DETAIL
  6
Continuous
100
AcDbCircle
 10
316.000002146774
 20
25.97545397918156
 30
0.0
 40
2.99999999999925
100
AcDbArc
 50
144.9107480000406
 51
180.0
  0
ARC
  5
85992
330
8563C
100
AcDbEntity
  8
DETAIL
  6
Continuous
100
AcDbCircle
 10
315.6336288134415
 20
21.61993397918058
 30
0.0
 40
6.99999999999825
100
AcDbArc
 50
119.7057369999593
 51
134.9999999999357
  0
ARC
  5
85993
330
8563C
100
AcDbEntity
  8
DETAIL
  6
Continuous
100
AcDbCircle
 10
313.5000021467758
 20
25.97545397918156
 30
0.0
 40
2.99999999999925
100
AcDbArc
 50
171.6119859999816
 51
180.0
  0
LINE
  5
85994
330
8563C
100
AcDbEntity
  8
DETAIL
  6
Continuous
100
AcDbLine
 10
310.5000021467958
 20
25.97545397918156
 30
0.0
 11
310.5000021467958
 21
23.50000064584628
 31
0.0
  0
LINE
  5
85995
330
8563C
100
AcDbEntity
  8
DETAIL
  6
Continuous
100
AcDbLine
 10
317.5000021468122
 20
52.32540064583782
 30
0.0
 11
317.674495480137
 21
52.33149397917304
 31
0.0
  0
ARC
  5
85996
330
8563C
100
AcDbEntity
  8
DETAIL
  6
Continuous
100
AcDbCircle
 10
341.5000021467976
 20
5.000000645847193
 30
0.0
 40
2.99999999999925
100
AcDbArc
 50
0.0
 51
90.0
  0
LINE
  5
85997
330
8563C
100
AcDbEntity
  8
DETAIL
  6
Continuous
100
AcDbLine
 10
344.5000021467776
 20
0.0000006458481039
 30
0.0
 11
344.5000021467776
 21
5.000000645847193
 31
0.0
  0
ARC
  5
85998
330
8563C
100
AcDbEntity
  8
DETAIL
  6
Continuous
100
AcDbCircle
 10
204.5000021468122
 20
103.4294539791603
 30
0.0
 40
0.499999999999875
100
AcDbArc
 50
0.0
 51
90.0
  0
LINE
  5
85999
330
8563C
100
AcDbEntity
  8
DETAIL
  6
Continuous
100
AcDbLine
 10
200.0000021468413
 20
103.9294539791594
 30
0.0
 11
204.5000021468122
 21
103.9294539791594
 31
0.0
  0
LINE
  5
8599A
330
8563C
100
AcDbEntity
  8
DETAIL
  6
DASHDOT
100
AcDbLine
 10
246.5000021468213
 20
91.000000645829
 30
0.0
 11
238.500002146794
 21
91.000000645829
 31
0.0
  0
HATCH
  5
8599B
330
8563C
100
AcDbEntity
  8
DETAIL
  6
Continuous
100
AcDbHatch
 10
0.0
 20
0.0
 30
0.0
210
0.0
220
0.0
230
1.0
  2
ANSI37
 70
     0
 71
     0
 91
        1
 92
        1
 93
        7
 72
     1
 10
242.4999996993001
 20
59.00000445737578
 11
245.8563982240075
 21
63.00000445737488
 72
     1
 10
245.8563982240312
 20
63.00000445737577
 11
243.9999996993219
 21
63.00000445737577
 72
     1
 10
243.9999996993437
 20
63.00000445737577
 11
243.9999996993437
 21
67.00000445737441
 72
     1
 10
243.9999996993437
 20
67.00000445737578
 11
240.9999996993438
 21
67.00000445737578
 72
     1
 10
240.9999996993146
 20
67.00000445737578
 11
240.9999996993146
 21
63.00000445737714
 72
     1
 10
240.9999996993146
 20
63.00000445737577
 11
239.1436011746054
 21
63.00000445737577
 72
     1
 10
239.1436011746272
 20
63.00000445737577
 11
242.4999996993347
 21
59.00000445737668
 97
        0
 75
     0
 76
     1
 52
0.0
 41
5.879266666665196
 77
     0
 78
     2
 53
45.00000100000001
 43
242.5029888134895
 44
63.57650731250807
 45
-13.19932687062604
 46
13.19932629366511
 79
     0
 53
135.0
 43
242.5029888134895
 44
63.57650731250807
 45
-13.19932650344539
 46
-13.19932666084578
 79
     0
 98
        1
 10
787.2233221467039
 20
1498.741173978815
  0
LINE
  5
8599C
330
8563C
100
AcDbEntity
  8
DETAIL
  6
Continuous
100
AcDbLine
 10
245.8564021468309
 20
63.0000006458381
 30
0.0
 11
242.5000021468322
 21
59.00000064583629
 31
0.0
  0
LINE
  5
8599D
330
8563C
100
AcDbEntity
  8
DETAIL
  6
Continuous
100
AcDbLine
 10
239.1436021468334
 20
63.0000006458381
 30
0.0
 11
242.5000021468322
 21
59.00000064583629
 31
0.0
  0
LINE
  5
8599E
330
8563C
100
AcDbEntity
  8
DETAIL
  6
DASHDOT
100
AcDbLine
 10
238.500002146794
 20
67.00000064583901
 30
0.0
 11
238.500002146794
 21
59.00000064583629
 31
0.0
  0
LINE
  5
8599F
330
8563C
100
AcDbEntity
  8
DETAIL
  6
DASHDOT
100
AcDbLine
 10
246.5000021468213
 20
59.00000064583629
 30
0.0
 11
246.5000021468213
 21
67.00000064583901
 31
0.0
  0
LINE
  5
859A0
330
8563C
100
AcDbEntity
  8
DETAIL
  6
DASHDOT
100
AcDbLine
 10
238.500002146794
 20
59.00000064583629
 30
0.0
 11
246.5000021468213
 21
59.00000064583629
 31
0.0
  0
LINE
  5
859A1
330
8563C
100
AcDbEntity
  8
DETAIL
  6
Continuous
100
AcDbLine
 10
244.0000021468213
 20
67.00000064583901
 30
0.0
 11
244.0000021468213
 21
63.0000006458381
 31
0.0
  0
LINE
  5
859A2
330
8563C
100
AcDbEntity
  8
DETAIL
  6
Continuous
100
AcDbLine
 10
241.000002146794
 20
67.00000064583901
 30
0.0
 11
241.000002146794
 21
63.0000006458381
 31
0.0
  0
LINE
  5
859A3
330
8563C
100
AcDbEntity
  8
DETAIL
  6
Continuous
100
AcDbLine
 10
244.0000021468213
 20
67.00000064583901
 30
0.0
 11
241.000002146794
 21
67.00000064583901
 31
0.0
  0
LINE
  5
859A4
330
8563C
100
AcDbEntity
  8
DETAIL
  6
Continuous
100
AcDbLine
 10
245.8564021468309
 20
63.0000006458381
 30
0.0
 11
244.0000021468213
 21
63.0000006458381
 31
0.0
  0
LINE
  5
859A5
330
8563C
100
AcDbEntity
  8
DETAIL
  6
Continuous
100
AcDbLine
 10
241.000002146794
 20
63.0000006458381
 30
0.0
 11
239.1436021468334
 21
63.0000006458381
 31
0.0
  0
LINE
  5
859A6
330
8563C
100
AcDbEntity
  8
DETAIL
  6
DASHDOT
100
AcDbLine
 10
238.500002146794
 20
79.00000064583081
 30
0.0
 11
238.500002146794
 21
71.00000064583446
 31
0.0
  0
LINE
  5
859A7
330
8563C
100
AcDbEntity
  8
DETAIL
  6
DASHDOT
100
AcDbLine
 10
246.5000021468213
 20
67.00000064583901
 30
0.0
 11
238.500002146794
 21
67.00000064583901
 31
0.0
  0
LINE
  5
859A8
330
8563C
100
AcDbEntity
  8
DETAIL
  6
DASHDOT
100
AcDbLine
 10
238.500002146794
 20
71.00000064583446
 30
0.0
 11
246.5000021468213
 21
71.00000064583446
 31
0.0
  0
LINE
  5
859A9
330
8563C
100
AcDbEntity
  8
DETAIL
  6
DASHDOT
100
AcDbLine
 10
246.5000021468213
 20
71.00000064583446
 30
0.0
 11
246.5000021468213
 21
79.00000064583081
 31
0.0
  0
LINE
  5
859AA
330
8563C
100
AcDbEntity
  8
DETAIL
  6
DASHDOT
100
AcDbLine
 10
246.5000021468213
 20
79.00000064583081
 30
0.0
 11
238.500002146794
 21
79.00000064583081
 31
0.0
  0
LINE
  5
859AB
330
8563C
100
AcDbEntity
  8
DETAIL
  6
DASHDOT
100
AcDbLine
 10
238.500002146794
 20
83.00000064583263
 30
0.0
 11
246.5000021468213
 21
83.00000064583263
 31
0.0
  0
LINE
  5
859AC
330
8563C
100
AcDbEntity
  8
DETAIL
  6
DASHDOT
100
AcDbLine
 10
238.500002146794
 20
91.000000645829
 30
0.0
 11
238.500002146794
 21
83.00000064583263
 31
0.0
  0
LINE
  5
859AD
330
8563C
100
AcDbEntity
  8
DETAIL
  6
DASHDOT
100
AcDbLine
 10
246.5000021468213
 20
83.00000064583263
 30
0.0
 11
246.5000021468213
 21
91.000000645829
 31
0.0
  0
LINE
  5
859AE
330
8563C
100
AcDbEntity
  8
DETAIL
  6
DASHDOT
100
AcDbLine
 10
238.500002146794
 20
103.0000006458271
 30
0.0
 11
238.500002146794
 21
95.00000064582447
 31
0.0
  0
LINE
  5
859AF
330
8563C
100
AcDbEntity
  8
DETAIL
  6
DASHDOT
100
AcDbLine
 10
246.5000021468213
 20
103.0000006458271
 30
0.0
 11
238.500002146794
 21
103.0000006458271
 31
0.0
  0
LINE
  5
859B0
330
8563C
100
AcDbEntity
  8
DETAIL
  6
DASHDOT
100
AcDbLine
 10
246.5000021468213
 20
95.00000064582447
 30
0.0
 11
246.5000021468213
 21
103.0000006458271
 31
0.0
  0
LINE
  5
859B1
330
8563C
100
AcDbEntity
  8
DETAIL
  6
DASHDOT
100
AcDbLine
 10
238.500002146794
 20
95.00000064582447
 30
0.0
 11
246.5000021468213
 21
95.00000064582447
 31
0.0
  0
LINE
  5
859B2
330
8563C
100
AcDbEntity
  8
DETAIL
  6
Continuous
100
AcDbLine
 10
317.5000021468122
 20
54.32661397917081
 30
0.0
 11
317.6046954801304
 21
54.33028064584186
 31
0.0
  0
LINE
  5
859B3
330
8563C
100
AcDbEntity
  8
DETAIL
  6
Continuous
100
AcDbLine
 10
294.5000021467902
 20
544.1279971268873
 30
0.0
 11
294.5000021467902
 21
490.1279971268983
 31
0.0
  0
LINE
  5
859B4
330
8563C
100
AcDbEntity
  8
DETAIL
  6
Continuous
100
AcDbLine
 10
191.0000021468049
 20
558.8570205145379
 30
0.0
 11
191.0000021468049
 21
352.7000006457642
 31
0.0
  0
LINE
  5
859B5
330
8563C
100
AcDbEntity
  8
DETAIL
  6
Continuous
100
AcDbLine
 10
235.500002146814
 20
544.1279971268873
 30
0.0
 11
235.500002146814
 21
490.1279971268983
 31
0.0
  0
LINE
  5
859B6
330
8563C
100
AcDbEntity
  8
DETAIL
  6
Continuous
100
AcDbLine
 10
191.0000021468049
 20
336.7000006457714
 30
0.0
 11
191.0000021468049
 21
249.870827312457
 31
0.0
  0
ARC
  5
859B7
330
8563C
100
AcDbEntity
  8
DETAIL
  6
Continuous
100
AcDbCircle
 10
198.0000021468231
 20
237.7839606457914
 30
0.0
 40
1.999999999999499
100
AcDbArc
 50
0.0
 51
90.0
  0
ARC
  5
859B8
330
8563C
100
AcDbEntity
  8
DETAIL
  6
Continuous
100
AcDbCircle
 10
198.0000021468231
 20
232.7839606457931
 30
0.0
 40
1.999999999999499
100
AcDbArc
 50
0.0
 51
90.0
  0
LINE
  5
859B9
330
8563C
100
AcDbEntity
  8
DETAIL
  6
Continuous
100
AcDbLine
 10
188.5000021468067
 20
239.7839606457932
 30
0.0
 11
198.0000021468231
 21
239.7839606457932
 31
0.0
  0
ARC
  5
859BA
330
8563C
100
AcDbEntity
  8
DETAIL
  6
Continuous
100
AcDbCircle
 10
195.5916821468172
 20
232.7839606457931
 30
0.0
 40
1.999999999999499
100
AcDbArc
 50
0.0
 51
90.0
  0
ARC
  5
859BB
330
8563C
100
AcDbEntity
  8
DETAIL
  6
Continuous
100
AcDbCircle
 10
211.5000021468304
 20
350.2000006457651
 30
0.0
 40
1.499999999999625
100
AcDbArc
 50
0.0
 51
90.0
  0
ARC
  5
859BC
330
8563C
100
AcDbEntity
  8
DETAIL
  6
Continuous
100
AcDbCircle
 10
211.5000021468304
 20
339.2000006457696
 30
0.0
 40
1.499999999999625
100
AcDbArc
 50
270.0
 51
0.0
  0
LINE
  5
859BD
330
8563C
100
AcDbEntity
  8
DETAIL
  6
Continuous
100
AcDbLine
 10
188.5000021468067
 20
351.7000006457669
 30
0.0
 11
211.5000021468304
 21
351.7000006457669
 31
0.0
  0
ARC
  5
859BE
330
8563C
100
AcDbEntity
  8
DETAIL
  6
Continuous
100
AcDbCircle
 10
192.0000021468158
 20
352.7000006457642
 30
0.0
 40
0.9999999999997497
100
AcDbArc
 50
180.0
 51
270.0
  0
LINE
  5
859BF
330
8563C
100
AcDbEntity
  8
DETAIL
  6
Continuous
100
AcDbLine
 10
188.5000021468067
 20
337.7000006457678
 30
0.0
 11
211.5000021468304
 21
337.7000006457678
 31
0.0
  0
ARC
  5
859C0
330
8563C
100
AcDbEntity
  8
DETAIL
  6
Continuous
100
AcDbCircle
 10
192.0000021468158
 20
336.7000006457714
 30
0.0
 40
0.9999999999997497
100
AcDbArc
 50
90.0
 51
180.0
  0
LINE
  5
859C1
330
8563C
100
AcDbEntity
  8
DETAIL
  6
Continuous
100
AcDbLine
 10
213.0000021468195
 20
350.2000006457651
 30
0.0
 11
213.0000021468195
 21
339.2000006457696
 31
0.0
  0
LINE
  5
859C2
330
8563C
100
AcDbEntity
  8
DETAIL
  6
Continuous
100
AcDbLine
 10
238.500002146794
 20
487.1279971268946
 30
0.0
 11
291.5000021468085
 21
487.1279971268946
 31
0.0
  0
ARC
  5
859C3
330
8563C
100
AcDbEntity
  8
DETAIL
  6
Continuous
100
AcDbCircle
 10
238.500002146794
 20
490.1279971268983
 30
0.0
 40
2.99999999999925
100
AcDbArc
 50
180.0
 51
270.0
  0
ARC
  5
859C4
330
8563C
100
AcDbEntity
  8
DETAIL
  6
Continuous
100
AcDbCircle
 10
291.5000021468085
 20
490.1279971268983
 30
0.0
 40
2.99999999999925
100
AcDbArc
 50
270.0
 51
0.0
  0
ARC
  5
859C5
330
8563C
100
AcDbEntity
  8
DETAIL
  6
Continuous
100
AcDbCircle
 10
277.2641488134861
 20
528.5000006458772
 30
0.0
 40
99.99999999997498
100
AcDbArc
 50
74.35775400003194
 51
90.0
  0
LINE
  5
859C6
330
8563C
100
AcDbEntity
  8
DETAIL
  6
Continuous
100
AcDbLine
 10
238.500002146794
 20
547.1279971268791
 30
0.0
 11
291.5000021468085
 21
547.1279971268791
 31
0.0
  0
ARC
  5
859C7
330
8563C
100
AcDbEntity
  8
DETAIL
  6
Continuous
100
AcDbCircle
 10
238.500002146794
 20
544.1279971268873
 30
0.0
 40
2.99999999999925
100
AcDbArc
 50
90.0
 51
180.0
  0
CIRCLE
  5
859C8
330
8563C
100
AcDbEntity
  8
DETAIL
  6
Continuous
100
AcDbCircle
 10
240.5000021468122
 20
547.1279971268791
 30
0.0
 40
0.7499999999998125
  0
LINE
  5
859C9
330
8563C
100
AcDbEntity
  8
DETAIL
  6
Continuous
100
AcDbLine
 10
280.0000021468233
 20
630.0000006458481
 30
0.0
 11
218.0000021468178
 21
630.0000006458481
 31
0.0
  0
ARC
  5
859CA
330
8563C
100
AcDbEntity
  8
DETAIL
  6
Continuous
100
AcDbCircle
 10
206.0000021468015
 20
629.0000006458509
 30
0.0
 40
0.9999999999997497
100
AcDbArc
 50
0.0
 51
90.0
  0
LINE
  5
859CB
330
8563C
100
AcDbEntity
  8
DETAIL
  6
Continuous
100
AcDbLine
 10
207.0000021468124
 20
629.0000006458509
 30
0.0
 11
207.0000021468124
 21
628.5000006458517
 31
0.0
  0
ARC
  5
859CC
330
8563C
100
AcDbEntity
  8
DETAIL
  6
Continuous
100
AcDbCircle
 10
218.0000021468178
 20
629.0000006458509
 30
0.0
 40
0.9999999999997497
100
AcDbArc
 50
90.0
 51
180.0
  0
LINE
  5
859CD
330
8563C
100
AcDbEntity
  8
DETAIL
  6
Continuous
100
AcDbLine
 10
217.0000021468088
 20
629.0000006458509
 30
0.0
 11
217.0000021468088
 21
628.5000006458517
 31
0.0
  0
ARC
  5
859CE
330
8563C
100
AcDbEntity
  8
DETAIL
  6
Continuous
100
AcDbCircle
 10
280.0000021468233
 20
629.0000006458509
 30
0.0
 40
0.9999999999997497
100
AcDbArc
 50
0.0
 51
90.0
  0
LINE
  5
859CF
330
8563C
100
AcDbEntity
  8
DETAIL
  6
Continuous
100
AcDbLine
 10
281.0000021467833
 20
629.0000006458509
 30
0.0
 11
281.0000021467833
 21
628.4302006458507
 31
0.0
  0
CIRCLE
  5
859D0
330
8563C
100
AcDbEntity
  8
DETAIL
  6
Continuous
100
AcDbCircle
 10
294.5000021467902
 20
547.1279971268791
 30
0.0
 40
0.7499999999998125
  0
ARC
  5
859D1
330
8563C
100
AcDbEntity
  8
DETAIL
  6
Continuous
100
AcDbCircle
 10
291.5000021468085
 20
544.1279971268873
 30
0.0
 40
2.99999999999925
100
AcDbArc
 50
0.0
 51
90.0
  0
ARC
  5
859D2
330
8563C
100
AcDbEntity
  8
DETAIL
  6
Continuous
100
AcDbCircle
 10
311.000002146776
 20
617.7077073125242
 30
0.0
 40
4.999999999998748
100
AcDbArc
 50
0.0
 51
74.35775400003194
  0
ARC
  5
859D3
330
8563C
100
AcDbEntity
  8
DETAIL
  6
Continuous
100
AcDbCircle
 10
314.5000021467851
 20
616.7277073125184
 30
0.0
 40
4.999999999998748
100
AcDbArc
 50
0.0
 51
74.35775400003194
  0
ARC
  5
859D4
330
8563C
100
AcDbEntity
  8
DETAIL
  6
Continuous
100
AcDbCircle
 10
315.2000021468058
 20
605.0000006458546
 30
0.0
 40
2.499999999999374
100
AcDbArc
 50
216.8698979999641
 51
270.0
  0
ARC
  5
859D5
330
8563C
100
AcDbEntity
  8
DETAIL
  6
Continuous
100
AcDbCircle
 10
316.0000021467742
 20
601.0000006458592
 30
0.0
 40
1.499999999999625
100
AcDbArc
 50
0.0
 51
90.0
  0
ARC
  5
859D6
330
8563C
100
AcDbEntity
  8
DETAIL
  6
Continuous
100
AcDbCircle
 10
318.0000021467942
 20
605.0000006458546
 30
0.0
 40
1.499999999999625
100
AcDbArc
 50
270.0
 51
0.0
  0
LINE
  5
859D7
330
8563C
100
AcDbEntity
  8
DETAIL
  6
Continuous
100
AcDbLine
 10
316.0000021467742
 20
605.0000006458546
 30
0.0
 11
316.0000021467742
 21
617.7077073125242
 31
0.0
  0
LINE
  5
859D8
330
8563C
100
AcDbEntity
  8
DETAIL
  6
Continuous
100
AcDbLine
 10
319.5000021467833
 20
605.0000006458546
 30
0.0
 11
319.5000021467833
 21
616.7277073125184
 31
0.0
  0
ARC
  5
859D9
330
8563C
100
AcDbEntity
  8
DETAIL
  6
Continuous
100
AcDbCircle
 10
314.5000021467851
 20
605.0000006458546
 30
0.0
 40
1.499999999999625
100
AcDbArc
 50
270.0
 51
0.0
  0
LINE
  5
859DA
330
8563C
100
AcDbEntity
  8
DETAIL
  6
Continuous
100
AcDbLine
 10
304.2271354801498
 20
624.7964006458509
 30
0.0
 11
315.8481488134504
 21
621.5425206458526
 31
0.0
  0
ENDBLK
  5
859DC
330
8563C
100
AcDbEntity
  8
0
100
AcDbBlockEnd
  0
ENDSEC
  0
SECTION
  2
ENTITIES
  0
MTEXT
  5
38341
330
1E
100
AcDbEntity
  8
0
  6
Continuous
100
AcDbMText
 10
383.9605305094082
 20
4023.282340837186
 30
0.0
 40
64.0
 41
187.9848
 71
     1
 72
     5
  1

 73
     1
 44
1.0
1001
ACAD
1000
MTEXTBEGIN
1070
    73
1070
     1
1070
    44
1040
1.0
1070
    74
1070
     0
1000
MTEXTEND
1000
MTEXTBEGIN
1070
    73
1070
     1
1070
    44
1040
1.0
1070
    74
1070
     0
1000
MTEXTEND
1000
MTEXTBEGIN
1070
    73
1070
     1
1070
    44
1040
1.0
1070
    74
1070
     0
1000
MTEXTEND
1000
MTEXTBEGIN
1070
    73
1070
     1
1070
    44
1040
1.0
1070
    74
1070
     0
1000
MTEXTEND
  0
LINE
  5
84968
330
1E
100
AcDbEntity
  8
NOTE
100
AcDbLine
 10
-776.5912826896074
 20
-74.25634751494676
 30
0.0
 11
-284.4435131336704
 21
-74.25634751494676
 31
0.0
  0
TEXT
  5
8496A
330
1E
100
AcDbEntity
  8
SIZE
100
AcDbText
 10
-246.7319234683427
 20
64.67196267275129
 30
0.0
 40
64.0
  1
44
 41
0.9
100
AcDbText
  0
TEXT
  5
84971
330
1E
100
AcDbEntity
  8
SIZE
100
AcDbText
 10
300.1409941931185
 20
98.79566657870141
 30
0.0
 40
60.0
  1
320
 50
90.00000358098617
 41
0.9
100
AcDbText
  0
LINE
  5
84972
330
1E
100
AcDbEntity
  8
SIZE
  6
Continuous
100
AcDbLine
 10
316.782140220238
 20
-105.5689603390369
 30
0.0
 11
316.782140220238
 21
320.0
 31
0.0
  0
LINE
  5
84973
330
1E
100
AcDbEntity
  8
SIZE
  6
Continuous
100
AcDbLine
 10
493.5970785922672
 20
0.0
 30
0.0
 11
493.5970785922672
 21
630.0
 31
0.0
  0
LINE
  5
84978
330
1E
100
AcDbEntity
  8
BASIS
  6
DASHDOT
100
AcDbLine
 10
-0.0000000000436557
 20
-20.0
 30
0.0
 11
-0.0000000000436557
 21
651.344180189596
 31
0.0
  0
LINE
  5
84990
330
1E
100
AcDbEntity
  8
SIZE
  6
Continuous
100
AcDbLine
 10
179.9999999999563
 20
0.0
 30
0.0
 11
520.2268950541811
 21
0.0
 31
0.0
  0
LINE
  5
84991
330
1E
100
AcDbEntity
  8
NOTE
100
AcDbLine
 10
242.1181555713951
 20
-239.883496934422
 30
0.0
 11
848.0078844415952
 21
-239.883496934422
 31
0.0
  0
TEXT
  5
84992
330
1E
100
AcDbEntity
  8
NOTE
100
AcDbText
 10
253.532123060439
 20
-221.7062457219649
 30
0.0
 40
64.0
  1
AH 2-%%C10×21
 41
0.9
100
AcDbText
  0
CIRCLE
  5
84993
330
1E
100
AcDbEntity
  8
SIZE
  6
Continuous
100
AcDbCircle
 10
493.5970785922672
 20
0.0
 30
0.0
 40
6.0
  0
LINE
  5
84994
330
1E
100
AcDbEntity
  8
NOTE
100
AcDbLine
 10
-157.5000000000436
 20
0.0
 30
0.0
 11
-185.6230083041081
 21
-28.44461746089018
 31
0.0
  0
LINE
  5
84995
330
1E
100
AcDbEntity
  8
NOTE
100
AcDbLine
 10
-196.0775497189806
 20
-10.57225594935015
 30
0.0
 11
-157.5000000000436
 21
0.0
 31
0.0
  0
LINE
  5
84996
330
1E
100
AcDbEntity
  8
SIZE
  6
Continuous
100
AcDbLine
 10
-98.49999999996365
 20
57.66093131809611
 30
0.0
 11
-238.1706304503095
 21
57.66093131809611
 31
0.0
  0
LINE
  5
84997
330
1E
100
AcDbEntity
  8
NOTE
100
AcDbLine
 10
-157.5000000000436
 20
0.0
 30
0.0
 11
-284.4435131336704
 21
-74.25634751494676
 31
0.0
  0
LINE
  5
84998
330
1E
100
AcDbEntity
  8
NOTE
  6
Continuous
 62
     4
100
AcDbLine
 10
-98.49999999996365
 20
10.0
 30
0.0
 11
-284.4435131336704
 21
-206.4590727837678
 31
0.0
  0
LINE
  5
84999
330
1E
100
AcDbEntity
  8
SIZE
  6
Continuous
100
AcDbLine
 10
-169.5000000000435
 20
-5.171611523303909
 30
0.0
 11
-169.5000000000435
 21
-298.077260337844
 31
0.0
  0
LINE
  5
8499A
330
1E
100
AcDbEntity
  8
SIZE
  6
Continuous
100
AcDbLine
 10
-157.5000000000436
 20
-23.32551955073448
 30
0.0
 11
-157.5000000000436
 21
-178.7488277294537
 31
0.0
  0
LINE
  5
8499B
330
1E
100
AcDbEntity
  8
NOTE
100
AcDbLine
 10
157.4999999999563
 20
0.0
 30
0.0
 11
242.1181555713951
 21
-239.883496934422
 31
0.0
  0
LINE
  5
8499C
330
1E
100
AcDbEntity
  8
SIZE
  6
Continuous
100
AcDbLine
 10
157.4999999999563
 20
-28.70558891269046
 30
0.0
 11
157.4999999999563
 21
-178.7488277294537
 31
0.0
  0
LINE
  5
8499D
330
1E
100
AcDbEntity
  8
SIZE
  6
Continuous
100
AcDbLine
 10
174.9999999999563
 20
-8.689952232813991
 30
0.0
 11
174.9999999999563
 21
-298.077260337844
 31
0.0
  0
TEXT
  5
8499E
330
1E
100
AcDbEntity
  8
SIZE
100
AcDbText
 10
-93.66464768455989
 20
-263.3262292659915
 30
0.0
 40
60.0
  1
344.5
 41
0.8
100
AcDbText
  0
LINE
  5
8499F
330
1E
100
AcDbEntity
  8
SIZE
  6
Continuous
100
AcDbLine
 10
-169.5000000000435
 20
-274.5774409413292
 30
0.0
 11
174.9999999999563
 21
-274.5774409413292
 31
0.0
  0
CIRCLE
  5
849A0
330
1E
100
AcDbEntity
  8
SIZE
  6
Continuous
100
AcDbCircle
 10
174.9999999999563
 20
-274.5774409413292
 30
0.0
 40
6.0
  0
CIRCLE
  5
849A1
330
1E
100
AcDbEntity
  8
SIZE
  6
Continuous
100
AcDbCircle
 10
-169.5000000000435
 20
-274.5774409413292
 30
0.0
 40
6.0
  0
TEXT
  5
849A2
330
1E
100
AcDbEntity
  8
SIZE
100
AcDbText
 10
-147.9324708525018
 20
-126.9961576185018
 30
0.0
 40
64.0
  1
304～325
 41
0.672052376803162
 72
     5
 11
137.1713488838794
 21
-126.9961576185018
 31
0.0
100
AcDbText
  0
LINE
  5
849A3
330
1E
100
AcDbEntity
  8
SIZE
  6
Continuous
100
AcDbLine
 10
-157.5000000000436
 20
-158.9961776185013
 30
0.0
 11
157.4999999999563
 21
-158.9961776185013
 31
0.0
  0
CIRCLE
  5
849A4
330
1E
100
AcDbEntity
  8
SIZE
  6
Continuous
100
AcDbCircle
 10
157.4999999999563
 20
-158.9961776185013
 30
0.0
 40
6.0
  0
CIRCLE
  5
849A5
330
1E
100
AcDbEntity
  8
SIZE
  6
Continuous
100
AcDbCircle
 10
-157.5000000000436
 20
-158.9961776185013
 30
0.0
 40
6.0
  0
LINE
  5
849A6
330
1E
100
AcDbEntity
  8
NOTE
100
AcDbLine
 10
157.4999999999563
 20
0.0
 30
0.0
 11
176.6947449491899
 21
-27.70238834904375
 31
0.0
  0
LINE
  5
849A7
330
1E
100
AcDbEntity
  8
SIZE
  6
Continuous
100
AcDbLine
 10
179.9999999999563
 20
0.0
 30
0.0
 11
242.1965299999573
 21
0.0
 31
0.0
  0
TEXT
  5
849AA
330
1E
100
AcDbEntity
  8
SIZE
100
AcDbText
 10
303.2844484442017
 20
-93.19577055217804
 30
0.0
 40
60.0
  1
10
 50
90.00000537147911
 41
0.9
100
AcDbText
  0
CIRCLE
  5
849AC
330
1E
100
AcDbEntity
  8
SIZE
  6
Continuous
100
AcDbCircle
 10
316.782140220238
 20
10.0
 30
0.0
 40
6.0
  0
CIRCLE
  5
849AD
330
1E
100
AcDbEntity
  8
SIZE
  6
Continuous
100
AcDbCircle
 10
316.782140220238
 20
0.0
 30
0.0
 40
6.0
  0
CIRCLE
  5
849AE
330
1E
100
AcDbEntity
  8
SIZE
  6
Continuous
100
AcDbCircle
 10
316.782140220238
 20
10.0
 30
0.0
 40
6.0
  0
LINE
  5
849B2
330
1E
100
AcDbEntity
  8
SIZE
  6
Continuous
100
AcDbLine
 10
199.9999999999563
 20
0.0
 30
0.0
 11
358.4310899999564
 21
0.0
 31
0.0
  0
LINE
  5
849B3
330
1E
100
AcDbEntity
  8
SIZE
  6
Continuous
100
AcDbLine
 10
-72.30485054964901
 20
10.0
 30
0.0
 11
332.8234603092151
 21
10.0
 31
0.0
  0
CIRCLE
  5
849BA
330
1E
100
AcDbEntity
  8
ARRANGE
  6
Continuous
 62
     1
100
AcDbCircle
 10
-0.0000000000436557
 20
0.0
 30
0.0
 40
40.0
  0
POINT
  5
849BB
330
1E
100
AcDbEntity
  8
ARRANGE
 62
     1
100
AcDbPoint
 10
-0.0000000000436557
 20
0.0
 30
0.0
  0
ARC
  5
849BF
330
1E
100
AcDbEntity
  8
DETAIL
100
AcDbCircle
 10
20.10050666668394
 20
27.49999999999363
 30
0.0
 40
7.999999999997998
100
AcDbArc
 50
270.0
 51
314.9999999999355
  0
LINE
  5
849C4
330
1E
100
AcDbEntity
  8
DETAIL
100
AcDbLine
 10
30.16483779712457
 20
26.26942254162303
 30
0.0
 11
25.75736000003053
 21
21.84314666666431
 31
0.0
  0
LINE
  5
849C9
330
1E
100
AcDbEntity
  8
NOTE
100
AcDbLine
 10
162.1241858923167
 20
-34.22069701028067
 30
0.0
 11
157.4999999999563
 21
0.0
 31
0.0
  0
LINE
  5
849CA
330
1E
100
AcDbEntity
  8
NOTE
  6
DASHDOT
 62
     4
100
AcDbLine
 10
157.4999999999563
 20
20.0
 30
0.0
 11
157.4999999999563
 21
-20.0
 31
0.0
  0
CIRCLE
  5
849CD
330
1E
100
AcDbEntity
  8
FIX
  6
Continuous
 62
   253
100
AcDbCircle
 10
157.4999999999563
 20
0.0
 30
0.0
 40
5.0
  0
LINE
  5
849CE
330
1E
100
AcDbEntity
  8
NOTE
  6
DASHDOT
 62
     4
100
AcDbLine
 10
177.4999999999563
 20
0.0
 30
0.0
 11
137.4999999999563
 21
0.0
 31
0.0
  0
LINE
  5
849D4
330
1E
100
AcDbEntity
  8
BASIS
  6
DASHDOT
100
AcDbLine
 10
157.4999999999563
 20
17.18702739697255
 30
0.0
 11
157.4999999999563
 21
-17.18702739697255
 31
0.0
  0
CIRCLE
  5
849E8
330
1E
100
AcDbEntity
  8
DETAIL
100
AcDbCircle
 10
132.4999999999671
 20
19.50000000000271
 30
0.0
 40
0.499999999999875
  0
ARC
  5
849ED
330
1E
100
AcDbEntity
  8
DETAIL
100
AcDbCircle
 10
95.49949333331278
 20
27.49999999999363
 30
0.0
 40
7.999999999997998
100
AcDbArc
 50
225.0000000000643
 51
270.0
  0
ARC
  5
849EE
330
1E
100
AcDbEntity
  8
DETAIL
100
AcDbCircle
 10
80.43270666664467
 20
21.35358666666524
 30
0.0
 40
6.99999999999825
100
AcDbArc
 50
45.00000000006447
 51
65.04376399991753
  0
LINE
  5
849EF
330
1E
100
AcDbEntity
  8
DETAIL
100
AcDbLine
 10
85.3824533333227
 20
26.30333333333237
 30
0.0
 11
89.84264000001349
 21
21.84314666666431
 31
0.0
  0
LINE
  5
84A06
330
1E
100
AcDbEntity
  8
NOTE
  6
DASHDOT
 62
     4
100
AcDbLine
 10
-157.5000000000436
 20
20.0
 30
0.0
 11
-157.5000000000436
 21
-20.0
 31
0.0
  0
LINE
  5
84A07
330
1E
100
AcDbEntity
  8
BASIS
  6
DASHDOT
100
AcDbLine
 10
-157.5000000000436
 20
17.18702739697255
 30
0.0
 11
-157.5000000000436
 21
-17.18702739697255
 31
0.0
  0
CIRCLE
  5
84A08
330
1E
100
AcDbEntity
  8
FIX
  6
Continuous
 62
   253
100
AcDbCircle
 10
-157.5000000000436
 20
0.0
 30
0.0
 40
5.0
  0
LINE
  5
84A0A
330
1E
100
AcDbEntity
  8
SIZE
  6
Continuous
100
AcDbLine
 10
-98.49999999996365
 20
32.04304340264707
 30
0.0
 11
-98.49999999996365
 21
81.53327701400392
 31
0.0
  0
CIRCLE
  5
84A0B
330
1E
100
AcDbEntity
  8
SIZE
  6
Continuous
100
AcDbCircle
 10
-98.49999999996365
 20
57.66093131809611
 30
0.0
 40
6.0
  0
LINE
  5
84A0C
330
1E
100
AcDbEntity
  8
NOTE
  6
Continuous
 62
     4
100
AcDbLine
 10
-98.49999999996365
 20
10.0
 30
0.0
 11
-115.165523076972
 21
-23.73441133308233
 31
0.0
  0
LINE
  5
84A0D
330
1E
100
AcDbEntity
  8
NOTE
  6
Continuous
 62
     4
100
AcDbLine
 10
-130.1146890472009
 20
-10.92730527565618
 30
0.0
 11
-98.49999999996365
 21
10.0
 31
0.0
  0
LINE
  5
84A0E
330
1E
100
AcDbEntity
  8
NOTE
  6
DASHDOT
 62
     4
100
AcDbLine
 10
-98.49999999996365
 20
30.0
 30
0.0
 11
-98.49999999996365
 21
-10.0
 31
0.0
  0
LINE
  5
84A0F
330
1E
100
AcDbEntity
  8
NOTE
  6
DASHDOT
 62
     4
100
AcDbLine
 10
-78.49999999996362
 20
10.0
 30
0.0
 11
-118.4999999999635
 21
10.0
 31
0.0
  0
LINE
  5
84A49
330
1E
100
AcDbEntity
  8
NOTE
  6
DASHDOT
 62
     4
100
AcDbLine
 10
-137.5000000000436
 20
0.0
 30
0.0
 11
-177.5000000000436
 21
0.0
 31
0.0
  0
CIRCLE
  5
84A4A
330
1E
100
AcDbEntity
  8
SIZE
  6
Continuous
100
AcDbCircle
 10
-142.5000000000435
 20
57.66093131809611
 30
0.0
 40
6.0
  0
LINE
  5
84A4C
330
1E
100
AcDbEntity
  8
NOTE
  6
Continuous
 62
     4
100
AcDbLine
 10
-543.129416583185
 20
-206.4590727837678
 30
0.0
 11
-284.4435131336703
 21
-206.4590727837678
 31
0.0
  0
TEXT
  5
84A4D
330
1E
100
AcDbEntity
  8
NOTE
 62
     4
100
AcDbText
 10
-524.0566400154115
 20
-190.6069127837676
 30
0.0
 40
64.0
  1
Dφ42
 41
0.9
100
AcDbText
  0
TEXT
  5
84A4E
330
1E
100
AcDbEntity
  8
NOTE
100
AcDbText
 10
-767.3088967268141
 20
-59.09745526079264
 30
0.0
 40
64.0
  1
AH 2-Ucut
 41
0.9
100
AcDbText
  0
LINE
  5
84A4F
330
1E
100
AcDbEntity
  8
SIZE
  6
Continuous
100
AcDbLine
 10
110.2339412740211
 20
630.0
 30
0.0
 11
520.2268950541811
 21
630.0
 31
0.0
  0
CIRCLE
  5
84A51
330
1E
100
AcDbEntity
  8
SIZE
  6
Continuous
100
AcDbCircle
 10
493.5970785922672
 20
630.0
 30
0.0
 40
6.0
  0
LINE
  5
84A6E
330
1E
100
AcDbEntity
  8
SIZE
  6
Continuous
100
AcDbLine
 10
194.3512085753736
 20
320.0
 30
0.0
 11
332.8234603092151
 21
320.0
 31
0.0
  0
CIRCLE
  5
84A6F
330
1E
100
AcDbEntity
  8
SIZE
  6
Continuous
100
AcDbCircle
 10
316.782140220238
 20
320.0
 30
0.0
 40
6.0
  0
LINE
  5
84BCE
330
1E
100
AcDbEntity
  8
BASIS
  6
DASHDOT
100
AcDbLine
 10
180.6897184989501
 20
320.0000066666693
 30
0.0
 11
96.63952971002437
 21
320.0000066666693
 31
0.0
  0
TEXT
  5
84D15
330
1E
100
AcDbEntity
  8
SIZE
100
AcDbText
 10
172.9883690566829
 20
700.2567553161716
 30
0.0
 40
64.0
  1
14.3
 41
0.9
100
AcDbText
  0
LINE
  5
84D17
330
1E
100
AcDbEntity
  8
SIZE
  6
Continuous
100
AcDbLine
 10
-142.5000000000438
 20
622.0101071272566
 30
0.0
 11
-142.5000000000435
 21
714.2986299999992
 31
0.0
  0
LINE
  5
84D18
330
1E
100
AcDbEntity
  8
SIZE
  6
Continuous
100
AcDbLine
 10
156.7999999999739
 20
580.5912306459986
 30
0.0
 11
156.7999999999739
 21
714.2986299999992
 31
0.0
  0
LINE
  5
84D1A
330
1E
100
AcDbEntity
  8
SIZE
  6
Continuous
100
AcDbLine
 10
142.4999999999738
 20
603.6206490382182
 30
0.0
 11
142.4999999999739
 21
714.2986299999992
 31
0.0
  0
TEXT
  5
84D7C
330
1E
100
AcDbEntity
  8
SIZE
100
AcDbText
 10
-72.99112793235781
 20
697.4282263283694
 30
0.0
 40
60.0
  1
285
 41
0.9
100
AcDbText
  0
CIRCLE
  5
84D7E
330
1E
100
AcDbEntity
  8
SIZE
  6
Continuous
100
AcDbCircle
 10
156.7999999999739
 20
684.2986299999992
 30
0.0
 40
6.0
  0
LINE
  5
84D7F
330
1E
100
AcDbEntity
  8
SIZE
  6
Continuous
100
AcDbLine
 10
145.4999799999568
 20
684.2986299999992
 30
0.0
 11
137.4999799999568
 21
684.2986299999992
 31
0.0
  0
LINE
  5
84D80
330
1E
100
AcDbEntity
  8
SIZE
  6
Continuous
100
AcDbLine
 10
129.4999799999567
 20
684.2986299999992
 30
0.0
 11
137.4999799999568
 21
684.2986299999992
 31
0.0
  0
CIRCLE
  5
84D81
330
1E
100
AcDbEntity
  8
SIZE
  6
Continuous
100
AcDbCircle
 10
142.4999999999739
 20
684.2986299999992
 30
0.0
 40
6.0
  0
CIRCLE
  5
84D82
330
1E
100
AcDbEntity
  8
SIZE
  6
Continuous
100
AcDbCircle
 10
142.4999999999739
 20
684.2986299999992
 30
0.0
 40
6.0
  0
LINE
  5
84D83
330
1E
100
AcDbEntity
  8
SIZE
  6
Continuous
100
AcDbLine
 10
-142.5000000000435
 20
684.2986299999992
 30
0.0
 11
373.7496685473534
 21
684.2986299999992
 31
0.0
  0
CIRCLE
  5
84D84
330
1E
100
AcDbEntity
  8
SIZE
  6
Continuous
100
AcDbCircle
 10
-142.5000000000435
 20
684.2986299999992
 30
0.0
 40
6.0
  0
TEXT
  5
84D89
330
1E
100
AcDbEntity
  8
ETC
100
AcDbText
 10
405.4986851462654
 20
793.386569086333
 30
0.0
 40
64.0
  1
SMUZ6305
 41
0.8750000068359385
 72
     5
 11
832.1653551462658
 21
793.386569086333
 31
0.0
100
AcDbText
  0
TEXT
  5
84D8A
330
1E
100
AcDbEntity
  8
ETC
100
AcDbText
 10
406.6349719875087
 20
888.178195497624
 30
0.0
 40
64.0
  1
室外機
100
AcDbText
  0
LINE
  5
85285
330
1E
100
AcDbEntity
  8
DETAIL
100
AcDbLine
 10
-102.2641466666375
 20
628.5000000000036
 30
0.0
 11
-0.0000000000002274
 21
628.5000000000036
 31
0.0
  0
LINE
  5
85286
330
1E
100
AcDbEntity
  8
DETAIL
100
AcDbLine
 10
-30.99999999995293
 20
630.0
 30
0.0
 11
-0.0000000000002274
 21
630.0
 31
0.0
  0
LINE
  5
8528F
330
1E
100
AcDbEntity
  8
DETAIL
100
AcDbLine
 10
-140.9999999999256
 20
602.5000000000073
 30
0.0
 11
104.9999999999743
 21
602.5000000000073
 31
0.0
  0
LINE
  5
85290
330
1E
100
AcDbEntity
  8
DETAIL
100
AcDbLine
 10
-142.9999999999456
 20
603.5000000000109
 30
0.0
 11
-0.0000000000002274
 21
603.5000000000109
 31
0.0
  0
LINE
  5
85291
330
1E
100
AcDbEntity
  8
DETAIL
100
AcDbLine
 10
-43.76065333329097
 20
19.50000000000271
 30
0.0
 11
20.10050666668394
 21
19.50000000000271
 31
0.0
  0
LINE
  5
85295
330
1E
100
AcDbEntity
  8
DETAIL
100
AcDbLine
 10
-130.4289333332817
 20
19.50000000000271
 30
0.0
 11
0.0
 21
19.50000000000271
 31
0.0
  0
LINE
  5
85296
330
1E
100
AcDbEntity
  8
DETAIL
100
AcDbLine
 10
-169.499999999929
 20
0.0
 30
0.0
 11
174.9999999999563
 21
0.0
 31
0.0
  0
LINE
  5
85297
330
1E
100
AcDbEntity
  8
DETAIL
100
AcDbLine
 10
145.9499999999563
 20
571.9328665353477
 30
0.0
 11
145.9499999999563
 21
77.56716666672542
 31
0.0
  0
LINE
  5
85298
330
1E
100
AcDbEntity
  8
DETAIL
100
AcDbLine
 10
153.2999999999565
 20
572.4328665353475
 30
0.0
 11
153.2999999999565
 21
77.56716666672537
 31
0.0
  0
LINE
  5
85299
330
1E
100
AcDbEntity
  8
DETAIL
100
AcDbLine
 10
150.8499999999564
 20
571.9328665353478
 30
0.0
 11
150.8499999999564
 21
77.56716666672537
 31
0.0
  0
LINE
  5
8529A
330
1E
100
AcDbEntity
  8
DETAIL
100
AcDbLine
 10
143.4999999999563
 20
572.4328665353473
 30
0.0
 11
143.4999999999563
 21
77.56716666672542
 31
0.0
  0
LINE
  5
8529B
330
1E
100
AcDbEntity
  8
DETAIL
100
AcDbLine
 10
154.2999999999901
 20
75.35374801087164
 30
0.0
 11
154.2999999999828
 21
577.1462785245212
 31
0.0
  0
LINE
  5
8529C
330
1E
100
AcDbEntity
  8
DETAIL
100
AcDbLine
 10
156.7999999999754
 20
75.06006801087654
 30
0.0
 11
156.7999999999829
 21
577.4399585245163
 31
0.0
  0
LINE
  5
8529D
330
1E
100
AcDbEntity
  8
DETAIL
100
AcDbLine
 10
106.5000000000127
 20
53.49999999998999
 30
0.0
 11
106.4999999999738
 21
601.0000000000111
 31
0.0
  0
LINE
  5
852A0
330
1E
100
AcDbEntity
  8
DETAIL
100
AcDbLine
 10
142.4999999999738
 20
601.0000000000111
 30
0.0
 11
142.4999999999636
 21
30.19999999999709
 31
0.0
  0
LINE
  5
852A1
330
1E
100
AcDbEntity
  8
DETAIL
100
AcDbLine
 10
112.9814933333255
 20
27.699999999998
 30
0.0
 11
112.9814933333255
 21
602.5000000000073
 31
0.0
  0
LINE
  5
852A2
330
1E
100
AcDbEntity
  8
DETAIL
100
AcDbLine
 10
123.213546666635
 20
27.699999999998
 30
0.0
 11
123.213546666635
 21
602.5000000000073
 31
0.0
  0
LINE
  5
852A3
330
1E
100
AcDbEntity
  8
DETAIL
100
AcDbLine
 10
124.7564133332998
 20
27.699999999998
 30
0.0
 11
124.7564133332998
 21
602.5000000000073
 31
0.0
  0
LINE
  5
852A4
330
1E
100
AcDbEntity
  8
DETAIL
100
AcDbLine
 10
107.4999999999727
 20
53.49999999998999
 30
0.0
 11
107.4999999999724
 21
601.5000000000091
 31
0.0
  0
LINE
  5
852A5
330
1E
100
AcDbEntity
  8
DETAIL
100
AcDbLine
 10
111.3649199999745
 20
27.699999999998
 30
0.0
 11
111.3649199999745
 21
602.5000000000073
 31
0.0
  0
LINE
  5
852AB
330
1E
100
AcDbEntity
  8
DETAIL
100
AcDbLine
 10
33.89289333333909
 20
19.50000000000271
 30
0.0
 11
124.300506666641
 21
19.50000000000271
 31
0.0
  0
LINE
  5
852AC
330
1E
100
AcDbEntity
  8
DETAIL
100
AcDbLine
 10
0.0
 20
19.50000000000271
 30
0.0
 11
130.4289333333308
 21
19.50000000000271
 31
0.0
  0
ARC
  5
852B0
330
1E
100
AcDbEntity
  8
DETAIL
100
AcDbCircle
 10
139.4036266666698
 20
21.38991999999689
 30
0.0
 40
6.99999999999825
100
AcDbArc
 50
115.6520189999476
 51
134.9999999999357
  0
LINE
  5
852B1
330
1E
100
AcDbEntity
  8
DETAIL
100
AcDbLine
 10
142.5355333332972
 20
9.464466666672706
 30
0.0
 11
133.9644666666717
 21
18.03553333333366
 31
0.0
  0
LINE
  5
852B2
330
1E
100
AcDbEntity
  8
DETAIL
100
AcDbLine
 10
139.9999999999654
 20
27.699999999998
 30
0.0
 11
-139.9999999999654
 21
27.69999999999771
 31
0.0
  0
LINE
  5
852B3
330
1E
100
AcDbEntity
  8
DETAIL
100
AcDbLine
 10
171.9999999999763
 20
8.000000000002728
 30
0.0
 11
146.07106666664
 21
8.000000000002728
 31
0.0
  0
ARC
  5
852B4
330
1E
100
AcDbEntity
  8
DETAIL
100
AcDbCircle
 10
171.9999999999763
 20
4.99999999999909
 30
0.0
 40
2.99999999999925
100
AcDbArc
 50
0.000000000000007
 51
90.0
  0
LINE
  5
852B5
330
1E
100
AcDbEntity
  8
DETAIL
100
AcDbLine
 10
174.9999999999563
 20
0.0
 30
0.0
 11
174.9999999999563
 21
4.99999999999909
 31
0.0
  0
ARC
  5
852B6
330
1E
100
AcDbEntity
  8
DETAIL
100
AcDbCircle
 10
146.07106666664
 20
13.00000000000181
 30
0.0
 40
4.999999999998748
100
AcDbArc
 50
225.0000000000642
 51
270.0
  0
ARC
  5
852B7
330
1E
100
AcDbEntity
  8
DETAIL
100
AcDbCircle
 10
139.9999999999654
 20
30.19999999999709
 30
0.0
 40
2.499999999999374
100
AcDbArc
 50
270.0
 51
0.000000000000007
  0
ARC
  5
852B8
330
1E
100
AcDbEntity
  8
DETAIL
100
AcDbCircle
 10
124.300506666641
 20
27.49999999999363
 30
0.0
 40
7.999999999997998
100
AcDbArc
 50
270.0
 51
314.9999999999358
  0
LINE
  5
852BA
330
1E
100
AcDbEntity
  8
DETAIL
100
AcDbLine
 10
130.4289333333308
 20
19.50000000000271
 30
0.0
 11
132.4999999999672
 21
19.50000000000271
 31
0.0
  0
CIRCLE
  5
852BB
330
1E
100
AcDbEntity
  8
DETAIL
100
AcDbCircle
 10
118.0975199999811
 20
39.64999999999145
 30
0.0
 40
3.999999999998998
  0
LINE
  5
852BC
330
1E
100
AcDbEntity
  8
DETAIL
100
AcDbLine
 10
115.9761999999755
 20
41.7713199999971
 30
0.0
 11
120.2188399999868
 21
37.52867999999853
 31
0.0
  0
LINE
  5
852BD
330
1E
100
AcDbEntity
  8
DETAIL
100
AcDbLine
 10
115.9761999999755
 20
37.52867999999853
 30
0.0
 11
120.2188399999868
 21
41.7713199999971
 31
0.0
  0
LINE
  5
852BE
330
1E
100
AcDbEntity
  8
DETAIL
100
AcDbLine
 10
134.4538799999918
 20
26.3396666666622
 30
0.0
 11
129.9573599999876
 21
21.84314666666431
 31
0.0
  0
LINE
  5
852BF
330
1E
100
AcDbEntity
  8
DETAIL
100
AcDbLine
 10
133.9644666666717
 20
18.03553333333366
 30
0.0
 11
132.4999999999672
 21
19.50000000000271
 31
0.0
  0
ARC
  5
852C0
330
1E
100
AcDbEntity
  8
DETAIL
100
AcDbCircle
 10
130.4289333333308
 20
14.50000000000454
 30
0.0
 40
4.999999999998748
100
AcDbArc
 50
45.00000000006419
 51
90.0
  0
LINE
  5
852C4
330
1E
100
AcDbEntity
  8
DETAIL
100
AcDbLine
 10
105.5000000000036
 20
28.29999999999836
 30
0.0
 11
105.5000000000036
 21
53.49999999998999
 31
0.0
  0
LINE
  5
852C5
330
1E
100
AcDbEntity
  8
DETAIL
100
AcDbLine
 10
105.5000000000036
 20
53.49999999998999
 30
0.0
 11
107.4999999999727
 21
53.49999999998999
 31
0.0
  0
LINE
  5
852C7
330
1E
100
AcDbEntity
  8
DETAIL
100
AcDbLine
 10
108.913799999982
 20
28.29999999999836
 30
0.0
 11
108.913799999982
 21
51.49999999999
 31
0.0
  0
LINE
  5
852C8
330
1E
100
AcDbEntity
  8
DETAIL
100
AcDbLine
 10
106.9289333333272
 20
52.37867999998889
 30
0.0
 11
105.8076133333306
 21
53.49999999998999
 31
0.0
  0
ARC
  5
852C9
330
1E
100
AcDbEntity
  8
DETAIL
100
AcDbCircle
 10
109.050253333331
 20
54.49999999999363
 30
0.0
 40
2.99999999999925
100
AcDbArc
 50
225.0000000000642
 51
269.040201999988
  0
LINE
  5
852CA
330
1E
100
AcDbEntity
  8
DETAIL
100
AcDbLine
 10
105.5000000000036
 20
28.29999999999836
 30
0.0
 11
109.0000000000109
 21
28.29999999999836
 31
0.0
  0
LINE
  5
852CB
330
1E
100
AcDbEntity
  8
DETAIL
100
AcDbLine
 10
109.0000000000109
 20
53.49999999998999
 30
0.0
 11
107.4999999999727
 21
53.49999999998999
 31
0.0
  0
LINE
  5
852CC
330
1E
100
AcDbEntity
  8
DETAIL
100
AcDbLine
 10
109.0000000000109
 20
27.699999999998
 30
0.0
 11
109.0000000000109
 21
53.49999999998999
 31
0.0
  0
LINE
  5
852DF
330
1E
100
AcDbEntity
  8
DETAIL
100
AcDbLine
 10
107.4999999999727
 20
128.9999999999698
 30
0.0
 11
106.5000000000127
 21
128.7320533333013
 31
0.0
  0
ARC
  5
852E0
330
1E
100
AcDbEntity
  8
DETAIL
100
AcDbCircle
 10
152.1999999999907
 20
75.35374801087164
 30
0.0
 40
2.099999999999475
100
AcDbArc
 50
280.0000000000515
 51
0.000000000000007
  0
ARC
  5
852E1
330
1E
100
AcDbEntity
  8
DETAIL
100
AcDbCircle
 10
152.5499999999765
 20
75.06006801087654
 30
0.0
 40
4.249999999998935
100
AcDbArc
 50
280.0000000000515
 51
0.000000000000007
  0
LINE
  5
852E2
330
1E
100
AcDbEntity
  8
DETAIL
100
AcDbLine
 10
142.4999999999636
 20
70.00002000005451
 30
0.0
 11
153.2880047550647
 21
70.87463506057645
 31
0.0
  0
LINE
  5
852E3
330
1E
100
AcDbEntity
  8
DETAIL
100
AcDbLine
 10
142.4999999999654
 20
72.53859326166093
 30
0.0
 11
152.5646611730931
 21
73.28565172954689
 31
0.0
  0
LINE
  5
852E4
330
1E
100
AcDbEntity
  8
DETAIL
100
AcDbLine
 10
145.9499999999563
 20
77.56716666672549
 30
0.0
 11
143.4999999999563
 21
77.56716666672542
 31
0.0
  0
LINE
  5
852E5
330
1E
100
AcDbEntity
  8
DETAIL
100
AcDbLine
 10
153.2999999999565
 20
77.56716666672537
 30
0.0
 11
150.8499999999564
 21
77.56716666672537
 31
0.0
  0
LINE
  5
852E6
330
1E
100
AcDbEntity
  8
DETAIL
100
AcDbLine
 10
154.2999999999897
 20
98.27249040864899
 30
0.0
 11
153.2999999999619
 21
98.27249040864899
 31
0.0
  0
LINE
  5
852E7
330
1E
100
AcDbEntity
  8
DETAIL
100
AcDbLine
 10
143.499999999962
 20
98.27249040864899
 30
0.0
 11
142.499999999962
 21
98.27249040864899
 31
0.0
  0
LINE
  5
852E8
330
1E
100
AcDbEntity
  8
DETAIL
100
AcDbLine
 10
150.8499999999564
 20
98.27249040864893
 30
0.0
 11
145.949999999962
 21
98.27249040864893
 31
0.0
  0
LINE
  5
852E9
330
1E
100
AcDbEntity
  8
DETAIL
100
AcDbLine
 10
143.499999999962
 20
95.77249040864989
 30
0.0
 11
142.4999999999693
 21
95.77249040864989
 31
0.0
  0
LINE
  5
852EA
330
1E
100
AcDbEntity
  8
DETAIL
100
AcDbLine
 10
150.8499999999564
 20
95.77249040864984
 30
0.0
 11
145.949999999962
 21
95.77249040864984
 31
0.0
  0
LINE
  5
852EB
330
1E
100
AcDbEntity
  8
DETAIL
100
AcDbLine
 10
154.2999999999897
 20
95.77249040864989
 30
0.0
 11
153.2999999999619
 21
95.77249040864989
 31
0.0
  0
LINE
  5
852F6
330
1E
100
AcDbEntity
  8
DETAIL
100
AcDbLine
 10
106.5000000000127
 20
128.4999999999717
 30
0.0
 11
107.4999999999727
 21
128.4999999999717
 31
0.0
  0
LINE
  5
852F7
330
1E
100
AcDbEntity
  8
DETAIL
100
AcDbLine
 10
154.2999999999888
 20
168.7500069650006
 30
0.0
 11
153.299999999961
 21
168.7500069650006
 31
0.0
  0
LINE
  5
852F8
330
1E
100
AcDbEntity
  8
DETAIL
100
AcDbLine
 10
150.8499999999564
 20
168.7500069650006
 30
0.0
 11
145.9499999999611
 21
168.7500069650006
 31
0.0
  0
LINE
  5
852F9
330
1E
100
AcDbEntity
  8
DETAIL
100
AcDbLine
 10
143.4999999999611
 20
168.7500069650006
 30
0.0
 11
142.4999999999681
 21
168.7500069650006
 31
0.0
  0
LINE
  5
852FA
330
1E
100
AcDbEntity
  8
DETAIL
100
AcDbLine
 10
150.8499999999564
 20
171.2500069649997
 30
0.0
 11
145.9499999999611
 21
171.2500069649997
 31
0.0
  0
LINE
  5
852FB
330
1E
100
AcDbEntity
  8
DETAIL
100
AcDbLine
 10
143.4999999999611
 20
171.2500069649997
 30
0.0
 11
142.4999999999611
 21
171.2500069649997
 31
0.0
  0
LINE
  5
852FC
330
1E
100
AcDbEntity
  8
DETAIL
100
AcDbLine
 10
154.2999999999888
 20
171.2500069649997
 30
0.0
 11
153.299999999961
 21
171.2500069649997
 31
0.0
  0
LINE
  5
852FD
330
1E
100
AcDbEntity
  8
DETAIL
100
AcDbLine
 10
106.5000000000127
 20
149.4999999999699
 30
0.0
 11
107.4999999999727
 21
149.4999999999699
 31
0.0
  0
LINE
  5
852FE
330
1E
100
AcDbEntity
  8
DETAIL
100
AcDbLine
 10
107.4999999999727
 20
148.9999999999654
 30
0.0
 11
106.5000000000127
 21
148.7320533332957
 31
0.0
  0
LINE
  5
8536D
330
1E
100
AcDbEntity
  8
DETAIL
100
AcDbLine
 10
143.4999999999599
 20
251.2500069649997
 30
0.0
 11
142.4999999999599
 21
251.2500069649997
 31
0.0
  0
LINE
  5
8536E
330
1E
100
AcDbEntity
  8
DETAIL
100
AcDbLine
 10
150.8499999999564
 20
251.2500069649997
 30
0.0
 11
145.9499999999598
 21
251.2500069649997
 31
0.0
  0
LINE
  5
8536F
330
1E
100
AcDbEntity
  8
DETAIL
100
AcDbLine
 10
143.4999999999599
 20
248.7500069650006
 30
0.0
 11
142.4999999999672
 21
248.7500069650006
 31
0.0
  0
LINE
  5
85370
330
1E
100
AcDbEntity
  8
DETAIL
100
AcDbLine
 10
150.8499999999564
 20
248.7500069650006
 30
0.0
 11
145.9499999999598
 21
248.7500069650006
 31
0.0
  0
LINE
  5
85371
330
1E
100
AcDbEntity
  8
DETAIL
100
AcDbLine
 10
154.2999999999874
 20
248.7500069650006
 30
0.0
 11
153.2999999999599
 21
248.7500069650006
 31
0.0
  0
LINE
  5
85372
330
1E
100
AcDbEntity
  8
DETAIL
100
AcDbLine
 10
154.2999999999874
 20
251.2500069649997
 30
0.0
 11
153.2999999999599
 21
251.2500069649997
 31
0.0
  0
LINE
  5
85373
330
1E
100
AcDbEntity
  8
DETAIL
100
AcDbLine
 10
154.2999999999865
 20
331.2500069649997
 30
0.0
 11
153.2999999999588
 21
331.2500069649997
 31
0.0
  0
LINE
  5
85374
330
1E
100
AcDbEntity
  8
DETAIL
100
AcDbLine
 10
154.2999999999865
 20
328.7500069650007
 30
0.0
 11
153.2999999999588
 21
328.7500069650007
 31
0.0
  0
LINE
  5
85375
330
1E
100
AcDbEntity
  8
DETAIL
100
AcDbLine
 10
150.8499999999564
 20
328.7500069650005
 30
0.0
 11
145.9499999999589
 21
328.7500069650006
 31
0.0
  0
LINE
  5
85376
330
1E
100
AcDbEntity
  8
DETAIL
100
AcDbLine
 10
143.4999999999588
 20
328.7500069650007
 30
0.0
 11
142.4999999999658
 21
328.7500069650007
 31
0.0
  0
LINE
  5
85377
330
1E
100
AcDbEntity
  8
DETAIL
100
AcDbLine
 10
150.8499999999564
 20
331.2500069649997
 30
0.0
 11
145.9499999999589
 21
331.2500069649997
 31
0.0
  0
LINE
  5
85378
330
1E
100
AcDbEntity
  8
DETAIL
100
AcDbLine
 10
143.4999999999588
 20
331.2500069649997
 30
0.0
 11
142.4999999999588
 21
331.2500069649997
 31
0.0
  0
LINE
  5
85379
330
1E
100
AcDbEntity
  8
DETAIL
100
AcDbLine
 10
106.5000000000127
 20
338.499999999919
 30
0.0
 11
107.4999999999727
 21
338.499999999919
 31
0.0
  0
LINE
  5
8537A
330
1E
100
AcDbEntity
  8
DETAIL
100
AcDbLine
 10
107.4999999999727
 20
338.9999999999181
 30
0.0
 11
106.5000000000127
 21
338.7320533332486
 31
0.0
  0
LINE
  5
8555D
330
1E
100
AcDbEntity
  8
DETAIL
100
AcDbLine
 10
143.4999999999574
 20
416.2500069649998
 30
0.0
 11
142.4999999999574
 21
416.2500069649998
 31
0.0
  0
LINE
  5
8555E
330
1E
100
AcDbEntity
  8
DETAIL
100
AcDbLine
 10
150.8499999999564
 20
416.2500069649997
 30
0.0
 11
145.9499999999575
 21
416.2500069649997
 31
0.0
  0
LINE
  5
8555F
330
1E
100
AcDbEntity
  8
DETAIL
100
AcDbLine
 10
143.4999999999574
 20
413.7500069650006
 30
0.0
 11
142.4999999999647
 21
413.7500069650006
 31
0.0
  0
LINE
  5
85560
330
1E
100
AcDbEntity
  8
DETAIL
100
AcDbLine
 10
150.8499999999564
 20
413.7500069650006
 30
0.0
 11
145.9499999999575
 21
413.7500069650006
 31
0.0
  0
LINE
  5
85561
330
1E
100
AcDbEntity
  8
DETAIL
100
AcDbLine
 10
154.2999999999851
 20
413.7500069650006
 30
0.0
 11
153.2999999999574
 21
413.7500069650006
 31
0.0
  0
LINE
  5
85562
330
1E
100
AcDbEntity
  8
DETAIL
100
AcDbLine
 10
154.2999999999851
 20
416.2500069649998
 30
0.0
 11
153.2999999999574
 21
416.2500069649998
 31
0.0
  0
LINE
  5
85563
330
1E
100
AcDbEntity
  8
DETAIL
100
AcDbLine
 10
106.5000000000127
 20
359.4999999999172
 30
0.0
 11
107.4999999999727
 21
359.4999999999172
 31
0.0
  0
LINE
  5
85564
330
1E
100
AcDbEntity
  8
DETAIL
100
AcDbLine
 10
107.4999999999727
 20
358.9999999999126
 30
0.0
 11
106.5000000000127
 21
358.7320533332431
 31
0.0
  0
LINE
  5
85565
330
1E
100
AcDbEntity
  8
DETAIL
100
AcDbLine
 10
154.299999999984
 20
498.7500069650008
 30
0.0
 11
153.2999999999565
 21
498.7500069650008
 31
0.0
  0
LINE
  5
85566
330
1E
100
AcDbEntity
  8
DETAIL
100
AcDbLine
 10
154.299999999984
 20
501.2500069649998
 30
0.0
 11
153.2999999999565
 21
501.2500069649998
 31
0.0
  0
LINE
  5
85567
330
1E
100
AcDbEntity
  8
DETAIL
100
AcDbLine
 10
150.8499999999564
 20
501.2500069649997
 30
0.0
 11
145.9499999999563
 21
501.2500069649997
 31
0.0
  0
LINE
  5
85568
330
1E
100
AcDbEntity
  8
DETAIL
100
AcDbLine
 10
150.8499999999564
 20
498.7500069650007
 30
0.0
 11
145.9499999999563
 21
498.7500069650007
 31
0.0
  0
LINE
  5
85569
330
1E
100
AcDbEntity
  8
DETAIL
100
AcDbLine
 10
143.4999999999563
 20
501.2500069649998
 30
0.0
 11
142.4999999999563
 21
501.2500069649998
 31
0.0
  0
LINE
  5
8556A
330
1E
100
AcDbEntity
  8
DETAIL
100
AcDbLine
 10
143.4999999999563
 20
498.7500069650008
 30
0.0
 11
142.4999999999636
 21
498.7500069650008
 31
0.0
  0
LINE
  5
8556B
330
1E
100
AcDbEntity
  8
DETAIL
100
AcDbLine
 10
102.2641466666371
 20
628.5000000000036
 30
0.0
 11
-0.0000000000002274
 21
628.5000000000036
 31
0.0
  0
LINE
  5
8556C
330
1E
100
AcDbEntity
  8
DETAIL
100
AcDbLine
 10
104.9999999999743
 20
630.0
 30
0.0
 11
43.00000000001796
 21
630.0
 31
0.0
  0
LINE
  5
85570
330
1E
100
AcDbEntity
  8
DETAIL
100
AcDbLine
 10
139.4999999999852
 20
603.5000000000109
 30
0.0
 11
-0.0000000000002274
 21
603.5000000000109
 31
0.0
  0
ARC
  5
85571
330
1E
100
AcDbEntity
  8
DETAIL
100
AcDbCircle
 10
152.5499999999692
 20
577.4399585245163
 30
0.0
 40
4.249999999998935
100
AcDbArc
 50
0.000000000000007
 51
79.99999999994847
  0
LINE
  5
85572
330
1E
100
AcDbEntity
  8
DETAIL
100
AcDbLine
 10
143.4999999999556
 20
556.7688323593899
 30
0.0
 11
142.4999999999556
 21
556.7688323593899
 31
0.0
  0
LINE
  5
85573
330
1E
100
AcDbEntity
  8
DETAIL
100
AcDbLine
 10
150.8499999999564
 20
556.7688323593899
 30
0.0
 11
145.9499999999557
 21
556.7688323593899
 31
0.0
  0
LINE
  5
85574
330
1E
100
AcDbEntity
  8
DETAIL
100
AcDbLine
 10
143.4999999999556
 20
554.2688323593909
 30
0.0
 11
142.4999999999627
 21
554.2688323593909
 31
0.0
  0
LINE
  5
85575
330
1E
100
AcDbEntity
  8
DETAIL
100
AcDbLine
 10
150.8499999999564
 20
554.2688323593909
 30
0.0
 11
145.9499999999557
 21
554.2688323593909
 31
0.0
  0
LINE
  5
85576
330
1E
100
AcDbEntity
  8
DETAIL
100
AcDbLine
 10
154.2999999999833
 20
554.2688323593909
 30
0.0
 11
153.2999999999556
 21
554.2688323593909
 31
0.0
  0
LINE
  5
85577
330
1E
100
AcDbEntity
  8
DETAIL
100
AcDbLine
 10
154.2999999999833
 20
556.7688323593899
 30
0.0
 11
153.2999999999556
 21
556.7688323593899
 31
0.0
  0
ARC
  5
85578
330
1E
100
AcDbEntity
  8
DETAIL
100
AcDbCircle
 10
146.6300620609954
 20
571.8159057155259
 30
0.0
 40
3.190286689178646
100
AcDbArc
 50
102.3079786565692
 51
168.8494724745795
  0
ARC
  5
85579
330
1E
100
AcDbEntity
  8
DETAIL
100
AcDbCircle
 10
150.2159672560988
 20
571.8610144463639
 30
0.0
 40
3.1366021068762
100
AcDbArc
 50
10.50467713398492
 51
78.33787173486084
  0
ARC
  5
8557A
330
1E
100
AcDbEntity
  8
DETAIL
100
AcDbCircle
 10
146.4499999999563
 20
571.9328665353477
 30
0.0
 40
0.499999999999875
100
AcDbArc
 50
90.0
 51
180.0
  0
ARC
  5
8557B
330
1E
100
AcDbEntity
  8
DETAIL
100
AcDbCircle
 10
150.3361634303457
 20
571.9188721165549
 30
0.0
 40
0.5140271043696191
100
AcDbArc
 50
1.56007380148176
 51
89.35386242257914
  0
LINE
  5
8557C
330
1E
100
AcDbEntity
  8
DETAIL
100
AcDbLine
 10
145.9499999999566
 20
574.9328665353448
 30
0.0
 11
150.8499999999564
 21
574.9328665353448
 31
0.0
  0
LINE
  5
8557D
330
1E
100
AcDbEntity
  8
DETAIL
100
AcDbLine
 10
146.4722053819259
 20
572.4328665353475
 30
0.0
 11
150.3419601084074
 21
572.4328665353475
 31
0.0
  0
ARC
  5
8557E
330
1E
100
AcDbEntity
  8
DETAIL
100
AcDbCircle
 10
152.1999999999834
 20
577.1462785245212
 30
0.0
 40
2.099999999999475
100
AcDbArc
 50
0.000000000000007
 51
79.99999999994847
  0
LINE
  5
8557F
330
1E
100
AcDbEntity
  8
DETAIL
100
AcDbLine
 10
142.4999999999581
 20
579.9614332737319
 30
0.0
 11
152.5646611730858
 21
579.2143748058459
 31
0.0
  0
LINE
  5
85580
330
1E
100
AcDbEntity
  8
DETAIL
100
AcDbLine
 10
115.9786799999919
 20
556.3901523593956
 30
0.0
 11
120.2213200000014
 21
552.147512359398
 31
0.0
  0
LINE
  5
85581
330
1E
100
AcDbEntity
  8
DETAIL
100
AcDbLine
 10
115.9786799999919
 20
552.147512359398
 30
0.0
 11
120.2213200000014
 21
556.3901523593956
 31
0.0
  0
CIRCLE
  5
85582
330
1E
100
AcDbEntity
  8
DETAIL
100
AcDbCircle
 10
118.0999999999958
 20
554.2688323593909
 30
0.0
 40
3.999999999998998
  0
LINE
  5
85583
330
1E
100
AcDbEntity
  8
DETAIL
100
AcDbLine
 10
129.2271333333008
 20
624.7964000000028
 30
0.0
 11
137.3481466666414
 21
622.5225200000105
 31
0.0
  0
LINE
  5
85584
330
1E
100
AcDbEntity
  8
DETAIL
100
AcDbLine
 10
109.0000000000106
 20
602.5000000000073
 30
0.0
 11
140.9999999999743
 21
602.5000000000073
 31
0.0
  0
ARC
  5
85585
330
1E
100
AcDbEntity
  8
DETAIL
100
AcDbCircle
 10
135.9999999999761
 20
617.7077066666761
 30
0.0
 40
4.999999999998748
100
AcDbArc
 50
0.000000000000007
 51
74.35775400002885
  0
LINE
  5
85586
330
1E
100
AcDbEntity
  8
DETAIL
100
AcDbLine
 10
140.9999999999743
 20
605.0000000000064
 30
0.0
 11
140.9999999999743
 21
617.7077066666761
 31
0.0
  0
ARC
  5
85587
330
1E
100
AcDbEntity
  8
DETAIL
100
AcDbCircle
 10
139.4999999999852
 20
605.0000000000064
 30
0.0
 40
1.499999999999625
100
AcDbArc
 50
270.0
 51
0.000000000000007
  0
ARC
  5
85588
330
1E
100
AcDbEntity
  8
DETAIL
100
AcDbCircle
 10
140.9999999999743
 20
601.0000000000111
 30
0.0
 40
1.499999999999625
100
AcDbArc
 50
0.000000000000007
 51
90.0
  0
ARC
  5
85589
330
1E
100
AcDbEntity
  8
DETAIL
100
AcDbCircle
 10
140.1999999999568
 20
605.0000000000064
 30
0.0
 40
2.499999999999374
100
AcDbArc
 50
216.8698979999729
 51
270.0
  0
LINE
  5
8558A
330
1E
100
AcDbEntity
  8
DETAIL
100
AcDbLine
 10
142.4999999999563
 20
582.5000065353383
 30
0.0
 11
153.2880047550575
 21
581.6253914748164
 31
0.0
  0
ARC
  5
8558B
330
1E
100
AcDbEntity
  8
DETAIL
100
AcDbCircle
 10
104.9999999999743
 20
601.0000000000111
 30
0.0
 40
1.499999999999625
100
AcDbArc
 50
0.000000000000007
 51
90.0
  0
ARC
  5
8558C
330
1E
100
AcDbEntity
  8
DETAIL
100
AcDbCircle
 10
107.4999999999724
 20
602.5000000000073
 30
0.0
 40
0.9999999999997497
100
AcDbArc
 50
180.0
 51
270.0
  0
LINE
  5
8558D
330
1E
100
AcDbEntity
  8
DETAIL
100
AcDbLine
 10
106.5000000000125
 20
602.5000000000073
 30
0.0
 11
106.5000000000125
 21
603.5000000000109
 31
0.0
  0
LINE
  5
8558E
330
1E
100
AcDbEntity
  8
DETAIL
100
AcDbLine
 10
109.0000000000106
 20
601.5000000000091
 30
0.0
 11
109.0000000000106
 21
603.5000000000109
 31
0.0
  0
LINE
  5
8558F
330
1E
100
AcDbEntity
  8
DETAIL
100
AcDbLine
 10
109.0000000000106
 20
601.5000000000091
 30
0.0
 11
107.4999999999724
 21
601.5000000000091
 31
0.0
  0
ARC
  5
85590
330
1E
100
AcDbEntity
  8
DETAIL
100
AcDbCircle
 10
102.2641466666371
 20
528.5000000000291
 30
0.0
 40
99.99999999997498
100
AcDbArc
 50
74.35775400002885
 51
90.0
  0
LINE
  5
85591
330
1E
100
AcDbEntity
  8
DETAIL
100
AcDbLine
 10
105.9999999999833
 20
629.0000000000028
 30
0.0
 11
105.9999999999833
 21
628.4302000000026
 31
0.0
  0
ARC
  5
85592
330
1E
100
AcDbEntity
  8
DETAIL
100
AcDbCircle
 10
104.9999999999743
 20
629.0000000000028
 30
0.0
 40
0.9999999999997497
100
AcDbArc
 50
0.000000000000007
 51
90.0
  0
LINE
  5
855AC
330
1E
100
AcDbEntity
  8
DETAIL
100
AcDbLine
 10
42.00000000000886
 20
629.0000000000028
 30
0.0
 11
42.00000000000886
 21
628.5000000000036
 31
0.0
  0
ARC
  5
855AD
330
1E
100
AcDbEntity
  8
DETAIL
100
AcDbCircle
 10
43.00000000001796
 20
629.0000000000028
 30
0.0
 40
0.9999999999997497
100
AcDbArc
 50
90.0
 51
180.0
  0
LINE
  5
855AE
330
1E
100
AcDbEntity
  8
DETAIL
100
AcDbLine
 10
-2.12132000000588
 20
615.6213200000076
 30
0.0
 11
2.121320000005425
 21
611.378680000009
 31
0.0
  0
LINE
  5
855AF
330
1E
100
AcDbEntity
  8
DETAIL
100
AcDbLine
 10
-2.12132000000588
 20
611.378680000009
 30
0.0
 11
2.121320000005425
 21
615.6213200000076
 31
0.0
  0
CIRCLE
  5
855B0
330
1E
100
AcDbEntity
  8
DETAIL
100
AcDbCircle
 10
-0.0000000000002274
 20
613.5000000000072
 30
0.0
 40
3.999999999998998
  0
LINE
  5
855B1
330
1E
100
AcDbEntity
  8
DETAIL
100
AcDbLine
 10
31.00000000000159
 20
630.0
 30
0.0
 11
-0.0000000000002274
 21
630.0
 31
0.0
  0
LINE
  5
855B2
330
1E
100
AcDbEntity
  8
DETAIL
100
AcDbLine
 10
32.00000000001068
 20
629.0000000000028
 30
0.0
 11
32.00000000001068
 21
628.5000000000036
 31
0.0
  0
ARC
  5
855B3
330
1E
100
AcDbEntity
  8
DETAIL
100
AcDbCircle
 10
31.00000000000159
 20
629.0000000000028
 30
0.0
 40
0.9999999999997497
100
AcDbArc
 50
0.000000000000007
 51
90.0
  0
LINE
  5
855B4
330
1E
100
AcDbEntity
  8
DETAIL
100
AcDbLine
 10
-142.5000000000436
 20
601.0000000000111
 30
0.0
 11
-142.4999999999636
 21
30.19999999999709
 31
0.0
  0
LINE
  5
855BA
330
1E
100
AcDbEntity
  8
DETAIL
100
AcDbLine
 10
-133.9999999999563
 20
19.50000000000271
 30
0.0
 11
-89.97277333330931
 21
19.50000000000271
 31
0.0
  0
LINE
  5
855CC
330
1E
100
AcDbEntity
  8
DETAIL
100
AcDbLine
 10
-146.0710666665909
 20
8.000000000002728
 30
0.0
 11
-166.499999999949
 21
8.000000000002728
 31
0.0
  0
LINE
  5
855CD
330
1E
100
AcDbEntity
  8
DETAIL
100
AcDbLine
 10
-142.5355333332972
 20
9.464466666672706
 30
0.0
 11
-133.9644666666245
 21
18.03553333333366
 31
0.0
  0
ARC
  5
855CE
330
1E
100
AcDbEntity
  8
DETAIL
100
AcDbCircle
 10
-146.0710666665909
 20
13.00000000000181
 30
0.0
 40
4.999999999998748
100
AcDbArc
 50
270.0
 51
314.9999999999358
  0
LINE
  5
855CF
330
1E
100
AcDbEntity
  8
DETAIL
100
AcDbLine
 10
-135.6838799999622
 20
26.5696799999996
 30
0.0
 11
-130.9573599999475
 21
21.84314666666431
 31
0.0
  0
ARC
  5
855D0
330
1E
100
AcDbEntity
  8
DETAIL
100
AcDbCircle
 10
-131.4999999999563
 20
23.49999999999818
 30
0.0
 40
3.999999999998998
100
AcDbArc
 50
180.0
 51
270.0
  0
ARC
  5
855D1
330
1E
100
AcDbEntity
  8
DETAIL
100
AcDbCircle
 10
-133.9999999999563
 20
23.49999999999818
 30
0.0
 40
3.999999999998998
100
AcDbArc
 50
180.0
 51
270.0
  0
ARC
  5
855D2
330
1E
100
AcDbEntity
  8
DETAIL
100
AcDbCircle
 10
-125.3005066666009
 20
27.49999999999363
 30
0.0
 40
7.999999999997998
100
AcDbArc
 50
225.0000000000642
 51
270.0
  0
LINE
  5
855D4
330
1E
100
AcDbEntity
  8
DETAIL
100
AcDbLine
 10
-130.4289333332817
 20
19.50000000000271
 30
0.0
 11
-132.4999999999672
 21
19.50000000000271
 31
0.0
  0
LINE
  5
855D5
330
1E
100
AcDbEntity
  8
DETAIL
100
AcDbLine
 10
-133.9644666666245
 20
18.03553333333366
 30
0.0
 11
-132.4999999999672
 21
19.50000000000271
 31
0.0
  0
ARC
  5
855D6
330
1E
100
AcDbEntity
  8
DETAIL
100
AcDbCircle
 10
-130.4289333332817
 20
14.50000000000454
 30
0.0
 40
4.999999999998748
100
AcDbArc
 50
90.0
 51
134.9999999999357
  0
ARC
  5
855D7
330
1E
100
AcDbEntity
  8
DETAIL
100
AcDbCircle
 10
-139.9999999999654
 20
30.19999999999709
 30
0.0
 40
2.499999999999374
100
AcDbArc
 50
180.0
 51
270.0
  0
LINE
  5
855D8
330
1E
100
AcDbEntity
  8
DETAIL
100
AcDbLine
 10
-137.9999999999454
 20
25.97545333333346
 30
0.0
 11
-137.9999999999454
 21
23.49999999999818
 31
0.0
  0
ARC
  5
855D9
330
1E
100
AcDbEntity
  8
DETAIL
100
AcDbCircle
 10
-140.9999999999254
 20
25.97545333333346
 30
0.0
 40
2.99999999999925
100
AcDbArc
 50
0.000000000000007
 51
35.08925199996056
  0
ARC
  5
855DA
330
1E
100
AcDbEntity
  8
DETAIL
100
AcDbCircle
 10
-140.633626666593
 20
21.61993333333248
 30
0.0
 40
6.99999999999825
100
AcDbArc
 50
45.00000000006419
 51
60.29426300003945
  0
ARC
  5
855DB
330
1E
100
AcDbEntity
  8
DETAIL
100
AcDbCircle
 10
-138.4999999999272
 20
25.97545333333346
 30
0.0
 40
2.99999999999925
100
AcDbArc
 50
0.000000000000007
 51
8.388014000018705
  0
LINE
  5
855DC
330
1E
100
AcDbEntity
  8
DETAIL
100
AcDbLine
 10
-135.4999999999472
 20
25.97545333333346
 30
0.0
 11
-135.4999999999472
 21
23.49999999999818
 31
0.0
  0
ARC
  5
855DE
330
1E
100
AcDbEntity
  8
DETAIL
100
AcDbCircle
 10
-166.499999999949
 20
4.99999999999909
 30
0.0
 40
2.99999999999925
100
AcDbArc
 50
90.0
 51
180.0
  0
LINE
  5
855DF
330
1E
100
AcDbEntity
  8
DETAIL
100
AcDbLine
 10
-169.499999999929
 20
0.0
 30
0.0
 11
-169.499999999929
 21
4.99999999999909
 31
0.0
  0
ARC
  5
8560D
330
1E
100
AcDbEntity
  8
DETAIL
100
AcDbCircle
 10
-102.2641466666375
 20
528.5000000000291
 30
0.0
 40
99.99999999997498
100
AcDbArc
 50
90.0
 51
105.6422459999711
  0
LINE
  5
85611
330
1E
100
AcDbEntity
  8
DETAIL
100
AcDbLine
 10
-104.9999999999747
 20
630.0
 30
0.0
 11
-42.9999999999693
 21
630.0
 31
0.0
  0
ARC
  5
85612
330
1E
100
AcDbEntity
  8
DETAIL
100
AcDbCircle
 10
-30.99999999995293
 20
629.0000000000028
 30
0.0
 40
0.9999999999997497
100
AcDbArc
 50
90.0
 51
180.0
  0
LINE
  5
85613
330
1E
100
AcDbEntity
  8
DETAIL
100
AcDbLine
 10
-31.99999999996384
 20
629.0000000000028
 30
0.0
 11
-31.99999999996384
 21
628.5000000000036
 31
0.0
  0
ARC
  5
85614
330
1E
100
AcDbEntity
  8
DETAIL
100
AcDbCircle
 10
-42.9999999999693
 20
629.0000000000028
 30
0.0
 40
0.9999999999997497
100
AcDbArc
 50
0.000000000000007
 51
90.0
  0
LINE
  5
85615
330
1E
100
AcDbEntity
  8
DETAIL
100
AcDbLine
 10
-41.99999999996021
 20
629.0000000000028
 30
0.0
 11
-41.99999999996021
 21
628.5000000000036
 31
0.0
  0
ARC
  5
85616
330
1E
100
AcDbEntity
  8
DETAIL
100
AcDbCircle
 10
-104.9999999999747
 20
629.0000000000028
 30
0.0
 40
0.9999999999997497
100
AcDbArc
 50
90.0
 51
180.0
  0
LINE
  5
85617
330
1E
100
AcDbEntity
  8
DETAIL
100
AcDbLine
 10
-105.9999999999347
 20
629.0000000000028
 30
0.0
 11
-105.9999999999347
 21
628.4302000000026
 31
0.0
  0
ARC
  5
8561A
330
1E
100
AcDbEntity
  8
DETAIL
100
AcDbCircle
 10
-135.9999999999274
 20
617.7077066666761
 30
0.0
 40
4.999999999998748
100
AcDbArc
 50
105.6422459999711
 51
180.0
  0
ARC
  5
8561B
330
1E
100
AcDbEntity
  8
DETAIL
100
AcDbCircle
 10
-139.4999999999365
 20
616.7277066666703
 30
0.0
 40
4.999999999998748
100
AcDbArc
 50
105.6422459999711
 51
180.0
  0
ARC
  5
8561C
330
1E
100
AcDbEntity
  8
DETAIL
100
AcDbCircle
 10
-140.1999999999572
 20
605.0000000000064
 30
0.0
 40
2.499999999999374
100
AcDbArc
 50
270.0
 51
323.1301020000378
  0
ARC
  5
8561D
330
1E
100
AcDbEntity
  8
DETAIL
100
AcDbCircle
 10
-140.9999999999256
 20
601.0000000000111
 30
0.0
 40
1.499999999999625
100
AcDbArc
 50
90.0
 51
180.0
  0
ARC
  5
8561E
330
1E
100
AcDbEntity
  8
DETAIL
100
AcDbCircle
 10
-142.9999999999456
 20
605.0000000000064
 30
0.0
 40
1.499999999999625
100
AcDbArc
 50
180.0
 51
270.0
  0
LINE
  5
8561F
330
1E
100
AcDbEntity
  8
DETAIL
100
AcDbLine
 10
-140.9999999999256
 20
605.0000000000064
 30
0.0
 11
-140.9999999999256
 21
617.7077066666761
 31
0.0
  0
LINE
  5
85620
330
1E
100
AcDbEntity
  8
DETAIL
100
AcDbLine
 10
-144.4999999999347
 20
605.0000000000064
 30
0.0
 11
-144.4999999999347
 21
616.7277066666703
 31
0.0
  0
ARC
  5
85621
330
1E
100
AcDbEntity
  8
DETAIL
100
AcDbCircle
 10
-139.4999999999365
 20
605.0000000000064
 30
0.0
 40
1.499999999999625
100
AcDbArc
 50
180.0
 51
270.0
  0
LINE
  5
85622
330
1E
100
AcDbEntity
  8
DETAIL
100
AcDbLine
 10
-129.2271333333012
 20
624.7964000000028
 30
0.0
 11
-140.8481466666016
 21
621.5425200000045
 31
0.0
  0
TEXT
  5
85635
330
1E
100
AcDbEntity
  8
SIZE
100
AcDbText
 10
471.8218333972131
 20
238.1963137068044
 30
0.0
 40
64.0
  1
630
 50
90.00000716197225
 41
0.9
100
AcDbText
  0
ARC
  5
859E3
330
1E
100
AcDbEntity
  8
DETAIL
100
AcDbCircle
 10
35.1145852654254
 20
21.31967507331467
 30
0.0
 40
6.99999999999825
100
AcDbArc
 50
114.9562360000826
 51
134.9999999999359
  0
LINE
  5
85A84
330
1E
100
AcDbEntity
  8
OUTLINE
100
AcDbLine
 10
139.4999999999852
 20
603.5000000000109
 30
0.0
 11
-0.0000000000002274
 21
603.5000000000109
 31
0.0
  0
LINE
  5
85A85
330
1E
100
AcDbEntity
  8
OUTLINE
100
AcDbLine
 10
102.2641466666371
 20
628.5000000000036
 30
0.0
 11
-0.0000000000002274
 21
628.5000000000036
 31
0.0
  0
LINE
  5
85A86
330
1E
100
AcDbEntity
  8
OUTLINE
100
AcDbLine
 10
139.9999999999654
 20
27.699999999998
 30
0.0
 11
-139.9999999999654
 21
27.69999999999771
 31
0.0
  0
LINE
  5
85A87
330
1E
100
AcDbEntity
  8
OUTLINE
100
AcDbLine
 10
0.0
 20
19.50000000000271
 30
0.0
 11
130.4289333333308
 21
19.50000000000271
 31
0.0
  0
LINE
  5
85A88
330
1E
100
AcDbEntity
  8
OUTLINE
100
AcDbLine
 10
33.89289333333909
 20
19.50000000000271
 30
0.0
 11
124.300506666641
 21
19.50000000000271
 31
0.0
  0
LINE
  5
85A89
330
1E
100
AcDbEntity
  8
OUTLINE
100
AcDbLine
 10
-169.499999999929
 20
0.0
 30
0.0
 11
174.9999999999563
 21
0.0
 31
0.0
  0
LINE
  5
85A8A
330
1E
100
AcDbEntity
  8
OUTLINE
100
AcDbLine
 10
-140.9999999999256
 20
602.5000000000073
 30
0.0
 11
-140.1999999999572
 21
602.5000000000073
 31
0.0
  0
LINE
  5
85A8B
330
1E
100
AcDbEntity
  8
OUTLINE
100
AcDbLine
 10
-142.5000000000436
 20
601.0000000000111
 30
0.0
 11
-142.4999999999636
 21
30.19999999999709
 31
0.0
  0
ARC
  5
85A8C
330
1E
100
AcDbEntity
  8
OUTLINE
100
AcDbCircle
 10
-146.0710666665909
 20
13.00000000000181
 30
0.0
 40
4.999999999998748
100
AcDbArc
 50
270.0
 51
314.9999999999358
  0
ARC
  5
85A8D
330
1E
100
AcDbEntity
  8
OUTLINE
100
AcDbCircle
 10
-166.499999999949
 20
4.99999999999909
 30
0.0
 40
2.99999999999925
100
AcDbArc
 50
90.0
 51
180.0
  0
LINE
  5
85A8E
330
1E
100
AcDbEntity
  8
OUTLINE
100
AcDbLine
 10
-169.499999999929
 20
0.0
 30
0.0
 11
-169.499999999929
 21
4.99999999999909
 31
0.0
  0
LINE
  5
85A8F
330
1E
100
AcDbEntity
  8
OUTLINE
100
AcDbLine
 10
-146.0710666665909
 20
8.000000000002728
 30
0.0
 11
-166.499999999949
 21
8.000000000002728
 31
0.0
  0
LINE
  5
85A90
330
1E
100
AcDbEntity
  8
OUTLINE
100
AcDbLine
 10
-130.4289333332817
 20
19.50000000000271
 30
0.0
 11
0.0
 21
19.50000000000271
 31
0.0
  0
LINE
  5
85A91
330
1E
100
AcDbEntity
  8
OUTLINE
100
AcDbLine
 10
-133.9999999999563
 20
19.50000000000271
 30
0.0
 11
-89.97277333330931
 21
19.50000000000271
 31
0.0
  0
LINE
  5
85A92
330
1E
100
AcDbEntity
  8
OUTLINE
100
AcDbLine
 10
-135.4999999999472
 20
25.97545333333346
 30
0.0
 11
-135.4999999999472
 21
23.49999999999818
 31
0.0
  0
ARC
  5
85A93
330
1E
100
AcDbEntity
  8
OUTLINE
100
AcDbCircle
 10
-138.4999999999272
 20
25.97545333333346
 30
0.0
 40
2.99999999999925
100
AcDbArc
 50
0.000000000000007
 51
8.388014000018705
  0
ARC
  5
85A94
330
1E
100
AcDbEntity
  8
OUTLINE
100
AcDbCircle
 10
-140.633626666593
 20
21.61993333333248
 30
0.0
 40
6.99999999999825
100
AcDbArc
 50
45.00000000006419
 51
60.29426300003945
  0
ARC
  5
85A95
330
1E
100
AcDbEntity
  8
OUTLINE
100
AcDbCircle
 10
-140.9999999999254
 20
25.97545333333346
 30
0.0
 40
2.99999999999925
100
AcDbArc
 50
0.000000000000007
 51
35.08925199996056
  0
LINE
  5
85A96
330
1E
100
AcDbEntity
  8
OUTLINE
100
AcDbLine
 10
-137.9999999999454
 20
25.97545333333346
 30
0.0
 11
-137.9999999999454
 21
23.49999999999818
 31
0.0
  0
ARC
  5
85A97
330
1E
100
AcDbEntity
  8
OUTLINE
100
AcDbCircle
 10
-139.9999999999654
 20
30.19999999999709
 30
0.0
 40
2.499999999999374
100
AcDbArc
 50
180.0
 51
270.0
  0
ARC
  5
85A98
330
1E
100
AcDbEntity
  8
OUTLINE
100
AcDbCircle
 10
-130.4289333332817
 20
14.50000000000454
 30
0.0
 40
4.999999999998748
100
AcDbArc
 50
90.0
 51
134.9999999999357
  0
LINE
  5
85A99
330
1E
100
AcDbEntity
  8
OUTLINE
100
AcDbLine
 10
-133.9644666666245
 20
18.03553333333366
 30
0.0
 11
-132.4999999999672
 21
19.50000000000271
 31
0.0
  0
LINE
  5
85A9A
330
1E
100
AcDbEntity
  8
OUTLINE
100
AcDbLine
 10
-130.4289333332817
 20
19.50000000000271
 30
0.0
 11
-132.4999999999672
 21
19.50000000000271
 31
0.0
  0
ARC
  5
85A9B
330
1E
100
AcDbEntity
  8
OUTLINE
100
AcDbCircle
 10
-125.3005066666009
 20
27.49999999999363
 30
0.0
 40
7.999999999997998
100
AcDbArc
 50
225.0000000000642
 51
270.0
  0
ARC
  5
85A9C
330
1E
100
AcDbEntity
  8
OUTLINE
100
AcDbCircle
 10
-133.9999999999563
 20
23.49999999999818
 30
0.0
 40
3.999999999998998
100
AcDbArc
 50
180.0
 51
270.0
  0
ARC
  5
85A9D
330
1E
100
AcDbEntity
  8
OUTLINE
100
AcDbCircle
 10
-131.4999999999563
 20
23.49999999999818
 30
0.0
 40
3.999999999998998
100
AcDbArc
 50
180.0
 51
270.0
  0
LINE
  5
85A9E
330
1E
100
AcDbEntity
  8
OUTLINE
100
AcDbLine
 10
-135.6838799999622
 20
26.5696799999996
 30
0.0
 11
-130.9573599999475
 21
21.84314666666431
 31
0.0
  0
LINE
  5
85A9F
330
1E
100
AcDbEntity
  8
OUTLINE
100
AcDbLine
 10
-142.5355333332972
 20
9.464466666672706
 30
0.0
 11
-133.9644666666245
 21
18.03553333333366
 31
0.0
  0
LINE
  5
85AA0
330
1E
100
AcDbEntity
  8
OUTLINE
100
AcDbLine
 10
-43.76065333329097
 20
19.50000000000271
 30
0.0
 11
20.10050666668394
 21
19.50000000000271
 31
0.0
  0
LINE
  5
85AA1
330
1E
100
AcDbEntity
  8
OUTLINE
100
AcDbLine
 10
30.16483779712456
 20
26.26942254162303
 30
0.0
 11
25.75736000003053
 21
21.84314666666431
 31
0.0
  0
ARC
  5
85AA2
330
1E
100
AcDbEntity
  8
OUTLINE
100
AcDbCircle
 10
20.10050666668394
 20
27.49999999999363
 30
0.0
 40
7.999999999997998
100
AcDbArc
 50
270.0
 51
314.9999999999355
  0
ARC
  5
85AA3
330
1E
100
AcDbEntity
  8
OUTLINE
100
AcDbCircle
 10
35.11458526542537
 20
21.31967507331467
 30
0.0
 40
6.99999999999825
100
AcDbArc
 50
114.9562360000826
 51
134.9999999999359
  0
ARC
  5
85AA4
330
1E
100
AcDbEntity
  8
OUTLINE
100
AcDbCircle
 10
-139.4999999999365
 20
616.7277066666703
 30
0.0
 40
4.999999999998748
100
AcDbArc
 50
105.6422459999711
 51
180.0
  0
LINE
  5
85AA6
330
1E
100
AcDbEntity
  8
OUTLINE
100
AcDbLine
 10
-142.9999999999456
 20
603.5000000000109
 30
0.0
 11
-0.0000000000002274
 21
603.5000000000109
 31
0.0
  0
LINE
  5
85AA8
330
1E
100
AcDbEntity
  8
OUTLINE
100
AcDbLine
 10
-144.4999999999347
 20
605.0000000000064
 30
0.0
 11
-144.4999999999347
 21
616.7277066666703
 31
0.0
  0
ARC
  5
85AAA
330
1E
100
AcDbEntity
  8
OUTLINE
100
AcDbCircle
 10
-142.9999999999456
 20
605.0000000000064
 30
0.0
 40
1.499999999999625
100
AcDbArc
 50
180.0
 51
270.0
  0
ARC
  5
85AAB
330
1E
100
AcDbEntity
  8
OUTLINE
100
AcDbCircle
 10
-140.9999999999256
 20
601.0000000000111
 30
0.0
 40
1.499999999999625
100
AcDbArc
 50
90.0
 51
180.0
  0
ARC
  5
85AAC
330
1E
100
AcDbEntity
  8
OUTLINE
100
AcDbCircle
 10
-140.1999999999572
 20
605.0000000000064
 30
0.0
 40
2.499999999999374
100
AcDbArc
 50
270.0
 51
323.1301020000378
  0
LINE
  5
85AB0
330
1E
100
AcDbEntity
  8
OUTLINE
100
AcDbLine
 10
-104.9999999999747
 20
630.0
 30
0.0
 11
-42.9999999999693
 21
630.0
 31
0.0
  0
LINE
  5
85AB1
330
1E
100
AcDbEntity
  8
OUTLINE
100
AcDbLine
 10
-102.2641466666375
 20
628.5000000000036
 30
0.0
 11
-0.0000000000002274
 21
628.5000000000036
 31
0.0
  0
ARC
  5
85AB2
330
1E
100
AcDbEntity
  8
OUTLINE
100
AcDbCircle
 10
-102.2641466666375
 20
528.5000000000291
 30
0.0
 40
99.99999999997498
100
AcDbArc
 50
90.0
 51
105.6422459999711
  0
LINE
  5
85AB3
330
1E
100
AcDbEntity
  8
OUTLINE
100
AcDbLine
 10
-129.2271333333012
 20
624.7964000000028
 30
0.0
 11
-140.8481466666016
 21
621.5425200000045
 31
0.0
  0
LINE
  5
85AB4
330
1E
100
AcDbEntity
  8
OUTLINE
100
AcDbLine
 10
-105.9999999999347
 20
629.0000000000028
 30
0.0
 11
-105.9999999999347
 21
628.4302000000026
 31
0.0
  0
ARC
  5
85AB5
330
1E
100
AcDbEntity
  8
OUTLINE
100
AcDbCircle
 10
-104.9999999999747
 20
629.0000000000028
 30
0.0
 40
0.9999999999997497
100
AcDbArc
 50
90.0
 51
180.0
  0
LINE
  5
85AB6
330
1E
100
AcDbEntity
  8
OUTLINE
100
AcDbLine
 10
-30.99999999995293
 20
630.0
 30
0.0
 11
-0.0000000000002274
 21
630.0
 31
0.0
  0
LINE
  5
85AB7
330
1E
100
AcDbEntity
  8
OUTLINE
100
AcDbLine
 10
-41.99999999996021
 20
629.0000000000028
 30
0.0
 11
-41.99999999996021
 21
628.5000000000036
 31
0.0
  0
ARC
  5
85AB8
330
1E
100
AcDbEntity
  8
OUTLINE
100
AcDbCircle
 10
-42.9999999999693
 20
629.0000000000028
 30
0.0
 40
0.9999999999997497
100
AcDbArc
 50
0.000000000000007
 51
90.0
  0
LINE
  5
85AB9
330
1E
100
AcDbEntity
  8
OUTLINE
100
AcDbLine
 10
-31.99999999996384
 20
629.0000000000028
 30
0.0
 11
-31.99999999996384
 21
628.5000000000036
 31
0.0
  0
ARC
  5
85ABA
330
1E
100
AcDbEntity
  8
OUTLINE
100
AcDbCircle
 10
-30.99999999995293
 20
629.0000000000028
 30
0.0
 40
0.9999999999997497
100
AcDbArc
 50
90.0
 51
180.0
  0
LINE
  5
85ABB
330
1E
100
AcDbEntity
  8
OUTLINE
100
AcDbLine
 10
31.00000000000159
 20
630.0
 30
0.0
 11
-0.0000000000002274
 21
630.0
 31
0.0
  0
ARC
  5
85ABC
330
1E
100
AcDbEntity
  8
OUTLINE
100
AcDbCircle
 10
31.00000000000159
 20
629.0000000000028
 30
0.0
 40
0.9999999999997497
100
AcDbArc
 50
0.000000000000007
 51
90.0
  0
LINE
  5
85ABD
330
1E
100
AcDbEntity
  8
OUTLINE
100
AcDbLine
 10
32.00000000001068
 20
629.0000000000028
 30
0.0
 11
32.00000000001068
 21
628.5000000000036
 31
0.0
  0
LINE
  5
85AC3
330
1E
100
AcDbEntity
  8
OUTLINE
100
AcDbLine
 10
142.4999999999738
 20
601.0000000000111
 30
0.0
 11
142.4999999999636
 21
30.19999999999709
 31
0.0
  0
LINE
  5
85AC5
330
1E
100
AcDbEntity
  8
OUTLINE
100
AcDbLine
 10
156.7999999999754
 20
75.06006801087654
 30
0.0
 11
156.7999999999829
 21
577.4399585245163
 31
0.0
  0
LINE
  5
85AC6
330
1E
100
AcDbEntity
  8
OUTLINE
100
AcDbLine
 10
154.2999999999901
 20
75.35374801087164
 30
0.0
 11
154.2999999999828
 21
577.1462785245212
 31
0.0
  0
LINE
  5
85AC7
330
1E
100
AcDbEntity
  8
OUTLINE
100
AcDbLine
 10
143.4999999999563
 20
572.4328665353473
 30
0.0
 11
143.4999999999563
 21
77.56716666672542
 31
0.0
  0
LINE
  5
85AC8
330
1E
100
AcDbEntity
  8
OUTLINE
100
AcDbLine
 10
150.8499999999564
 20
571.9328665353478
 30
0.0
 11
150.8499999999564
 21
77.56716666672537
 31
0.0
  0
LINE
  5
85AC9
330
1E
100
AcDbEntity
  8
OUTLINE
100
AcDbLine
 10
153.2999999999565
 20
572.4328665353475
 30
0.0
 11
153.2999999999565
 21
77.56716666672537
 31
0.0
  0
LINE
  5
85ACA
330
1E
100
AcDbEntity
  8
OUTLINE
100
AcDbLine
 10
145.9499999999563
 20
571.9328665353477
 30
0.0
 11
145.9499999999563
 21
77.56716666672542
 31
0.0
  0
ARC
  5
85ACE
330
1E
100
AcDbEntity
  8
OUTLINE
100
AcDbCircle
 10
124.300506666641
 20
27.49999999999363
 30
0.0
 40
7.999999999997998
100
AcDbArc
 50
270.0
 51
314.9999999999358
  0
LINE
  5
85ACF
330
1E
100
AcDbEntity
  8
OUTLINE
100
AcDbLine
 10
85.3824533333227
 20
26.30333333333237
 30
0.0
 11
89.84264000001349
 21
21.84314666666431
 31
0.0
  0
ARC
  5
85AD0
330
1E
100
AcDbEntity
  8
OUTLINE
100
AcDbCircle
 10
80.43270666664467
 20
21.35358666666524
 30
0.0
 40
6.99999999999825
100
AcDbArc
 50
45.00000000006447
 51
65.04376399991753
  0
ARC
  5
85AD1
330
1E
100
AcDbEntity
  8
OUTLINE
100
AcDbCircle
 10
95.49949333331278
 20
27.49999999999363
 30
0.0
 40
7.999999999997998
100
AcDbArc
 50
225.0000000000643
 51
270.0
  0
LINE
  5
85AD3
330
1E
100
AcDbEntity
  8
OUTLINE
100
AcDbLine
 10
171.9999999999763
 20
8.000000000002728
 30
0.0
 11
146.07106666664
 21
8.000000000002728
 31
0.0
  0
LINE
  5
85AD6
330
1E
100
AcDbEntity
  8
OUTLINE
100
AcDbLine
 10
133.9644666666717
 20
18.03553333333366
 30
0.0
 11
132.4999999999672
 21
19.50000000000271
 31
0.0
  0
LINE
  5
85AD7
330
1E
100
AcDbEntity
  8
OUTLINE
100
AcDbLine
 10
134.4538799999918
 20
26.3396666666622
 30
0.0
 11
129.9573599999876
 21
21.84314666666431
 31
0.0
  0
LINE
  5
85AD8
330
1E
100
AcDbEntity
  8
OUTLINE
100
AcDbLine
 10
130.4289333333308
 20
19.50000000000271
 30
0.0
 11
132.4999999999672
 21
19.50000000000271
 31
0.0
  0
ARC
  5
85AD9
330
1E
100
AcDbEntity
  8
OUTLINE
100
AcDbCircle
 10
139.9999999999654
 20
30.19999999999709
 30
0.0
 40
2.499999999999374
100
AcDbArc
 50
270.0
 51
0.000000000000007
  0
ARC
  5
85ADA
330
1E
100
AcDbEntity
  8
OUTLINE
100
AcDbCircle
 10
146.07106666664
 20
13.00000000000181
 30
0.0
 40
4.999999999998748
100
AcDbArc
 50
225.0000000000642
 51
270.0
  0
LINE
  5
85ADB
330
1E
100
AcDbEntity
  8
OUTLINE
100
AcDbLine
 10
142.5355333332972
 20
9.464466666672706
 30
0.0
 11
133.9644666666717
 21
18.03553333333366
 31
0.0
  0
ARC
  5
85ADC
330
1E
100
AcDbEntity
  8
OUTLINE
100
AcDbCircle
 10
139.4036266666698
 20
21.38991999999689
 30
0.0
 40
6.99999999999825
100
AcDbArc
 50
115.6520189999476
 51
134.9999999999357
  0
LINE
  5
85ADD
330
1E
100
AcDbEntity
  8
OUTLINE
100
AcDbLine
 10
174.9999999999563
 20
0.0
 30
0.0
 11
174.9999999999563
 21
4.99999999999909
 31
0.0
  0
ARC
  5
85ADE
330
1E
100
AcDbEntity
  8
OUTLINE
100
AcDbCircle
 10
171.9999999999763
 20
4.99999999999909
 30
0.0
 40
2.99999999999925
100
AcDbArc
 50
0.000000000000007
 51
90.0
  0
ARC
  5
85AEA
330
1E
100
AcDbEntity
  8
OUTLINE
100
AcDbCircle
 10
152.5499999999765
 20
75.06006801087654
 30
0.0
 40
4.249999999998935
100
AcDbArc
 50
280.0000000000515
 51
0.000000000000007
  0
LINE
  5
85AEB
330
1E
100
AcDbEntity
  8
OUTLINE
100
AcDbLine
 10
142.4999999999636
 20
70.00002000005451
 30
0.0
 11
153.2880047550647
 21
70.87463506057645
 31
0.0
  0
LINE
  5
85AEC
330
1E
100
AcDbEntity
  8
OUTLINE
100
AcDbLine
 10
150.8499999999564
 20
95.77249040864984
 30
0.0
 11
145.949999999962
 21
95.77249040864984
 31
0.0
  0
LINE
  5
85AED
330
1E
100
AcDbEntity
  8
OUTLINE
100
AcDbLine
 10
150.8499999999564
 20
98.27249040864893
 30
0.0
 11
145.949999999962
 21
98.27249040864893
 31
0.0
  0
LINE
  5
85AEE
330
1E
100
AcDbEntity
  8
OUTLINE
100
AcDbLine
 10
142.4999999999654
 20
72.53859326166093
 30
0.0
 11
152.5646611730931
 21
73.28565172954689
 31
0.0
  0
LINE
  5
85AEF
330
1E
100
AcDbEntity
  8
OUTLINE
100
AcDbLine
 10
143.499999999962
 20
95.77249040864989
 30
0.0
 11
142.4999999999693
 21
95.77249040864989
 31
0.0
  0
LINE
  5
85AF0
330
1E
100
AcDbEntity
  8
OUTLINE
100
AcDbLine
 10
143.499999999962
 20
98.27249040864899
 30
0.0
 11
142.499999999962
 21
98.27249040864899
 31
0.0
  0
LINE
  5
85AF1
330
1E
100
AcDbEntity
  8
OUTLINE
100
AcDbLine
 10
145.9499999999563
 20
77.56716666672549
 30
0.0
 11
143.4999999999563
 21
77.56716666672542
 31
0.0
  0
LINE
  5
85AF2
330
1E
100
AcDbEntity
  8
OUTLINE
100
AcDbLine
 10
154.2999999999897
 20
95.77249040864989
 30
0.0
 11
153.2999999999619
 21
95.77249040864989
 31
0.0
  0
LINE
  5
85AF3
330
1E
100
AcDbEntity
  8
OUTLINE
100
AcDbLine
 10
154.2999999999897
 20
98.27249040864899
 30
0.0
 11
153.2999999999619
 21
98.27249040864899
 31
0.0
  0
LINE
  5
85AF4
330
1E
100
AcDbEntity
  8
OUTLINE
100
AcDbLine
 10
153.2999999999565
 20
77.56716666672537
 30
0.0
 11
150.8499999999564
 21
77.56716666672537
 31
0.0
  0
ARC
  5
85AF5
330
1E
100
AcDbEntity
  8
OUTLINE
100
AcDbCircle
 10
152.1999999999907
 20
75.35374801087164
 30
0.0
 40
2.099999999999475
100
AcDbArc
 50
280.0000000000515
 51
0.000000000000007
  0
LINE
  5
85AF6
330
1E
100
AcDbEntity
  8
OUTLINE
100
AcDbLine
 10
150.8499999999564
 20
171.2500069649997
 30
0.0
 11
145.9499999999611
 21
171.2500069649997
 31
0.0
  0
LINE
  5
85AF7
330
1E
100
AcDbEntity
  8
OUTLINE
100
AcDbLine
 10
150.8499999999564
 20
168.7500069650006
 30
0.0
 11
145.9499999999611
 21
168.7500069650006
 31
0.0
  0
LINE
  5
85AF8
330
1E
100
AcDbEntity
  8
OUTLINE
100
AcDbLine
 10
143.4999999999611
 20
171.2500069649997
 30
0.0
 11
142.4999999999611
 21
171.2500069649997
 31
0.0
  0
LINE
  5
85AF9
330
1E
100
AcDbEntity
  8
OUTLINE
100
AcDbLine
 10
143.4999999999611
 20
168.7500069650006
 30
0.0
 11
142.4999999999681
 21
168.7500069650006
 31
0.0
  0
LINE
  5
85AFA
330
1E
100
AcDbEntity
  8
OUTLINE
100
AcDbLine
 10
154.2999999999888
 20
171.2500069649997
 30
0.0
 11
153.299999999961
 21
171.2500069649997
 31
0.0
  0
LINE
  5
85AFB
330
1E
100
AcDbEntity
  8
OUTLINE
100
AcDbLine
 10
154.2999999999888
 20
168.7500069650006
 30
0.0
 11
153.299999999961
 21
168.7500069650006
 31
0.0
  0
LINE
  5
85AFC
330
1E
100
AcDbEntity
  8
OUTLINE
100
AcDbLine
 10
150.8499999999564
 20
248.7500069650006
 30
0.0
 11
145.9499999999598
 21
248.7500069650006
 31
0.0
  0
LINE
  5
85AFD
330
1E
100
AcDbEntity
  8
OUTLINE
100
AcDbLine
 10
150.8499999999564
 20
251.2500069649997
 30
0.0
 11
145.9499999999598
 21
251.2500069649997
 31
0.0
  0
LINE
  5
85AFE
330
1E
100
AcDbEntity
  8
OUTLINE
100
AcDbLine
 10
143.4999999999599
 20
248.7500069650006
 30
0.0
 11
142.4999999999672
 21
248.7500069650006
 31
0.0
  0
LINE
  5
85AFF
330
1E
100
AcDbEntity
  8
OUTLINE
100
AcDbLine
 10
143.4999999999599
 20
251.2500069649997
 30
0.0
 11
142.4999999999599
 21
251.2500069649997
 31
0.0
  0
LINE
  5
85B00
330
1E
100
AcDbEntity
  8
OUTLINE
100
AcDbLine
 10
154.2999999999874
 20
251.2500069649997
 30
0.0
 11
153.2999999999599
 21
251.2500069649997
 31
0.0
  0
LINE
  5
85B01
330
1E
100
AcDbEntity
  8
OUTLINE
100
AcDbLine
 10
154.2999999999874
 20
248.7500069650006
 30
0.0
 11
153.2999999999599
 21
248.7500069650006
 31
0.0
  0
LINE
  5
85B06
330
1E
100
AcDbEntity
  8
OUTLINE
100
AcDbLine
 10
150.8499999999564
 20
331.2500069649997
 30
0.0
 11
145.9499999999589
 21
331.2500069649997
 31
0.0
  0
LINE
  5
85B07
330
1E
100
AcDbEntity
  8
OUTLINE
100
AcDbLine
 10
150.8499999999564
 20
328.7500069650005
 30
0.0
 11
145.9499999999589
 21
328.7500069650006
 31
0.0
  0
LINE
  5
85B08
330
1E
100
AcDbEntity
  8
OUTLINE
100
AcDbLine
 10
143.4999999999588
 20
331.2500069649997
 30
0.0
 11
142.4999999999588
 21
331.2500069649997
 31
0.0
  0
LINE
  5
85B09
330
1E
100
AcDbEntity
  8
OUTLINE
100
AcDbLine
 10
143.4999999999588
 20
328.7500069650007
 30
0.0
 11
142.4999999999658
 21
328.7500069650007
 31
0.0
  0
LINE
  5
85B0A
330
1E
100
AcDbEntity
  8
OUTLINE
100
AcDbLine
 10
154.2999999999865
 20
328.7500069650007
 30
0.0
 11
153.2999999999588
 21
328.7500069650007
 31
0.0
  0
LINE
  5
85B0B
330
1E
100
AcDbEntity
  8
OUTLINE
100
AcDbLine
 10
154.2999999999865
 20
331.2500069649997
 30
0.0
 11
153.2999999999588
 21
331.2500069649997
 31
0.0
  0
LINE
  5
85B0C
330
1E
100
AcDbEntity
  8
OUTLINE
100
AcDbLine
 10
150.8499999999564
 20
413.7500069650006
 30
0.0
 11
145.9499999999575
 21
413.7500069650006
 31
0.0
  0
LINE
  5
85B0D
330
1E
100
AcDbEntity
  8
OUTLINE
100
AcDbLine
 10
150.8499999999564
 20
416.2500069649997
 30
0.0
 11
145.9499999999575
 21
416.2500069649997
 31
0.0
  0
LINE
  5
85B0E
330
1E
100
AcDbEntity
  8
OUTLINE
100
AcDbLine
 10
143.4999999999574
 20
413.7500069650006
 30
0.0
 11
142.4999999999647
 21
413.7500069650006
 31
0.0
  0
LINE
  5
85B0F
330
1E
100
AcDbEntity
  8
OUTLINE
100
AcDbLine
 10
143.4999999999574
 20
416.2500069649998
 30
0.0
 11
142.4999999999574
 21
416.2500069649998
 31
0.0
  0
LINE
  5
85B10
330
1E
100
AcDbEntity
  8
OUTLINE
100
AcDbLine
 10
154.2999999999851
 20
416.2500069649998
 30
0.0
 11
153.2999999999574
 21
416.2500069649998
 31
0.0
  0
LINE
  5
85B11
330
1E
100
AcDbEntity
  8
OUTLINE
100
AcDbLine
 10
154.2999999999851
 20
413.7500069650006
 30
0.0
 11
153.2999999999574
 21
413.7500069650006
 31
0.0
  0
ARC
  5
85B12
330
1E
100
AcDbEntity
  8
OUTLINE
100
AcDbCircle
 10
135.9999999999761
 20
617.7077066666761
 30
0.0
 40
4.999999999998748
100
AcDbArc
 50
0.000000000000007
 51
74.35775400002885
  0
LINE
  5
85B13
330
1E
100
AcDbEntity
  8
OUTLINE
100
AcDbLine
 10
140.1999999999568
 20
602.5000000000071
 30
0.0
 11
140.9999999999743
 21
602.5000000000073
 31
0.0
  0
LINE
  5
85B1C
330
1E
100
AcDbEntity
  8
OUTLINE
100
AcDbLine
 10
150.8499999999564
 20
498.7500069650007
 30
0.0
 11
145.9499999999563
 21
498.7500069650007
 31
0.0
  0
LINE
  5
85B1D
330
1E
100
AcDbEntity
  8
OUTLINE
100
AcDbLine
 10
150.8499999999564
 20
501.2500069649997
 30
0.0
 11
145.9499999999563
 21
501.2500069649997
 31
0.0
  0
LINE
  5
85B1E
330
1E
100
AcDbEntity
  8
OUTLINE
100
AcDbLine
 10
143.4999999999563
 20
498.7500069650008
 30
0.0
 11
142.4999999999636
 21
498.7500069650008
 31
0.0
  0
LINE
  5
85B1F
330
1E
100
AcDbEntity
  8
OUTLINE
100
AcDbLine
 10
143.4999999999563
 20
501.2500069649998
 30
0.0
 11
142.4999999999563
 21
501.2500069649998
 31
0.0
  0
LINE
  5
85B20
330
1E
100
AcDbEntity
  8
OUTLINE
100
AcDbLine
 10
154.299999999984
 20
501.2500069649998
 30
0.0
 11
153.2999999999565
 21
501.2500069649998
 31
0.0
  0
LINE
  5
85B21
330
1E
100
AcDbEntity
  8
OUTLINE
100
AcDbLine
 10
154.299999999984
 20
498.7500069650008
 30
0.0
 11
153.2999999999565
 21
498.7500069650008
 31
0.0
  0
LINE
  5
85B22
330
1E
100
AcDbEntity
  8
OUTLINE
100
AcDbLine
 10
142.4999999999563
 20
582.5000065353383
 30
0.0
 11
153.2880047550575
 21
581.6253914748164
 31
0.0
  0
LINE
  5
85B23
330
1E
100
AcDbEntity
  8
OUTLINE
100
AcDbLine
 10
142.4999999999581
 20
579.9614332737319
 30
0.0
 11
152.5646611730858
 21
579.2143748058459
 31
0.0
  0
LINE
  5
85B24
330
1E
100
AcDbEntity
  8
OUTLINE
100
AcDbLine
 10
146.4722053819259
 20
572.4328665353475
 30
0.0
 11
150.3419601084074
 21
572.4328665353475
 31
0.0
  0
LINE
  5
85B25
330
1E
100
AcDbEntity
  8
OUTLINE
100
AcDbLine
 10
145.9499999999566
 20
574.9328665353448
 30
0.0
 11
150.8499999999564
 21
574.9328665353448
 31
0.0
  0
LINE
  5
85B26
330
1E
100
AcDbEntity
  8
OUTLINE
100
AcDbLine
 10
150.8499999999564
 20
554.2688323593909
 30
0.0
 11
145.9499999999557
 21
554.2688323593909
 31
0.0
  0
LINE
  5
85B27
330
1E
100
AcDbEntity
  8
OUTLINE
100
AcDbLine
 10
150.8499999999564
 20
556.7688323593899
 30
0.0
 11
145.9499999999557
 21
556.7688323593899
 31
0.0
  0
ARC
  5
85B28
330
1E
100
AcDbEntity
  8
OUTLINE
100
AcDbCircle
 10
146.4499999999563
 20
571.9328665353477
 30
0.0
 40
0.499999999999875
100
AcDbArc
 50
90.0
 51
180.0
  0
ARC
  5
85B29
330
1E
100
AcDbEntity
  8
OUTLINE
100
AcDbCircle
 10
146.6300620609954
 20
571.8159057155259
 30
0.0
 40
3.190286689178646
100
AcDbArc
 50
102.3079786565692
 51
168.8494724745795
  0
LINE
  5
85B2A
330
1E
100
AcDbEntity
  8
OUTLINE
100
AcDbLine
 10
143.4999999999556
 20
554.2688323593909
 30
0.0
 11
142.4999999999627
 21
554.2688323593909
 31
0.0
  0
LINE
  5
85B2B
330
1E
100
AcDbEntity
  8
OUTLINE
100
AcDbLine
 10
143.4999999999556
 20
556.7688323593899
 30
0.0
 11
142.4999999999556
 21
556.7688323593899
 31
0.0
  0
ARC
  5
85B2C
330
1E
100
AcDbEntity
  8
OUTLINE
100
AcDbCircle
 10
152.1999999999834
 20
577.1462785245212
 30
0.0
 40
2.099999999999475
100
AcDbArc
 50
0.000000000000007
 51
79.99999999994847
  0
ARC
  5
85B2D
330
1E
100
AcDbEntity
  8
OUTLINE
100
AcDbCircle
 10
150.3361634303457
 20
571.9188721165549
 30
0.0
 40
0.5140271043696191
100
AcDbArc
 50
1.56007380148176
 51
89.35386242257914
  0
ARC
  5
85B2E
330
1E
100
AcDbEntity
  8
OUTLINE
100
AcDbCircle
 10
150.2159672560988
 20
571.8610144463639
 30
0.0
 40
3.1366021068762
100
AcDbArc
 50
10.50467713398492
 51
78.33787173486084
  0
LINE
  5
85B2F
330
1E
100
AcDbEntity
  8
OUTLINE
100
AcDbLine
 10
154.2999999999833
 20
556.7688323593899
 30
0.0
 11
153.2999999999556
 21
556.7688323593899
 31
0.0
  0
LINE
  5
85B30
330
1E
100
AcDbEntity
  8
OUTLINE
100
AcDbLine
 10
154.2999999999833
 20
554.2688323593909
 30
0.0
 11
153.2999999999556
 21
554.2688323593909
 31
0.0
  0
ARC
  5
85B31
330
1E
100
AcDbEntity
  8
OUTLINE
100
AcDbCircle
 10
152.5499999999692
 20
577.4399585245163
 30
0.0
 40
4.249999999998935
100
AcDbArc
 50
0.000000000000007
 51
79.99999999994847
  0
ARC
  5
85B32
330
1E
100
AcDbEntity
  8
OUTLINE
100
AcDbCircle
 10
140.1999999999568
 20
605.0000000000064
 30
0.0
 40
2.499999999999374
100
AcDbArc
 50
216.8698979999729
 51
270.0
  0
ARC
  5
85B33
330
1E
100
AcDbEntity
  8
OUTLINE
100
AcDbCircle
 10
140.9999999999743
 20
601.0000000000111
 30
0.0
 40
1.499999999999625
100
AcDbArc
 50
0.000000000000007
 51
90.0
  0
ARC
  5
85B34
330
1E
100
AcDbEntity
  8
OUTLINE
100
AcDbCircle
 10
139.4999999999852
 20
605.0000000000064
 30
0.0
 40
1.499999999999625
100
AcDbArc
 50
270.0
 51
0.000000000000007
  0
LINE
  5
85B35
330
1E
100
AcDbEntity
  8
OUTLINE
100
AcDbLine
 10
140.9999999999743
 20
605.0000000000064
 30
0.0
 11
140.9999999999743
 21
617.7077066666761
 31
0.0
  0
ARC
  5
85B36
330
1E
100
AcDbEntity
  8
OUTLINE
100
AcDbCircle
 10
102.2641466666371
 20
528.5000000000291
 30
0.0
 40
99.99999999997498
100
AcDbArc
 50
74.35775400002885
 51
90.0
  0
LINE
  5
85B37
330
1E
100
AcDbEntity
  8
OUTLINE
100
AcDbLine
 10
104.9999999999743
 20
630.0
 30
0.0
 11
43.00000000001796
 21
630.0
 31
0.0
  0
ARC
  5
85B38
330
1E
100
AcDbEntity
  8
OUTLINE
100
AcDbCircle
 10
43.00000000001796
 20
629.0000000000028
 30
0.0
 40
0.9999999999997497
100
AcDbArc
 50
90.0
 51
180.0
  0
LINE
  5
85B39
330
1E
100
AcDbEntity
  8
OUTLINE
100
AcDbLine
 10
42.00000000000886
 20
629.0000000000028
 30
0.0
 11
42.00000000000886
 21
628.5000000000036
 31
0.0
  0
ARC
  5
85B3A
330
1E
100
AcDbEntity
  8
OUTLINE
100
AcDbCircle
 10
104.9999999999743
 20
629.0000000000028
 30
0.0
 40
0.9999999999997497
100
AcDbArc
 50
0.000000000000007
 51
90.0
  0
LINE
  5
85B3B
330
1E
100
AcDbEntity
  8
OUTLINE
100
AcDbLine
 10
105.9999999999833
 20
629.0000000000028
 30
0.0
 11
105.9999999999833
 21
628.4302000000026
 31
0.0
  0
LINE
  5
85B3C
330
1E
100
AcDbEntity
  8
OUTLINE
100
AcDbLine
 10
129.2271333333008
 20
624.7964000000028
 30
0.0
 11
137.3481466666414
 21
622.5225200000105
 31
0.0
  0
ENDSEC
  0
SECTION
  2
OBJECTS
  0
DICTIONARY
  5
C
330
0
100
AcDbDictionary
281
     1
  3
ACAD_GROUP
350
D
  3
ACAD_LAYOUT
350
19
  3
ACAD_MLINESTYLE
350
16
  3
ACAD_PLOTSETTINGS
350
18
  3
ACAD_PLOTSTYLENAME
350
E
  0
DICTIONARY
  5
66E76
330
1E
100
AcDbDictionary
280
     1
281
     1
  3
ACAD_LAYOUTSELFREF
360
84EC2
  0
DICTIONARY
  5
66E74
330
1A
100
AcDbDictionary
280
     1
281
     1
  3
ACAD_LAYOUTSELFREF
360
84EC1
  0
DICTIONARY
  5
D
102
{ACAD_REACTORS
330
C
102
}
330
C
100
AcDbDictionary
281
     1
  3
*A1
350
677EB
  0
DICTIONARY
  5
19
102
{ACAD_REACTORS
330
C
102
}
330
C
100
AcDbDictionary
281
     1
  3
Model
350
84EC7
  3
ﾚｲｱｳﾄ1
350
84EC8
  0
DICTIONARY
  5
16
102
{ACAD_REACTORS
330
C
102
}
330
C
100
AcDbDictionary
281
     1
  3
STANDARD
350
17
  0
DICTIONARY
  5
18
102
{ACAD_REACTORS
330
C
102
}
330
C
100
AcDbDictionary
281
     1
  0
ACDBDICTIONARYWDFLT
  5
E
102
{ACAD_REACTORS
330
C
102
}
330
C
100
AcDbDictionary
281
     1
  3
Normal
350
F
100
AcDbDictionaryWithDefault
340
F
  0
XRECORD
  5
84EC2
102
{ACAD_REACTORS
330
66E76
102
}
330
66E76
100
AcDbXrecord
280
     1
340
1E
  0
XRECORD
  5
84EC1
102
{ACAD_REACTORS
330
66E74
102
}
330
66E74
100
AcDbXrecord
280
     1
340
1A
  0
GROUP
  5
677EB
102
{ACAD_REACTORS
330
D
102
}
330
D
100
AcDbGroup
300

 70
     1
 71
     1
  0
LAYOUT
  5
84EC7
102
{ACAD_REACTORS
330
19
102
}
330
19
100
AcDbPlotSettings
  1

  2
\\PC07\EPSON LP-8900
  4
A4
  6
ALL
 40
5.873749732971191
 41
5.873747825622558
 42
5.873748779296875
 43
5.873748779296875
 44
209.9733276367187
 45
297.0106506347656
 46
0.0
 47
0.0
 48
0.0
 49
0.0
140
0.0
141
0.0
142
1.0
143
224.2834001092201
 70
 11952
 72
     0
 73
     1
 74
     0
  7
monochrome.ctb
 75
     0
147
0.0044586447303413
148
31469.81190003503
149
14442.84727410339
100
AcDbLayout
  1
Model
 70
     1
 71
     0
 10
0.0
 20
0.0
 11
12.0
 21
9.0
 12
0.0
 22
0.0
 32
0.0
 14
0.0
 24
0.0
 34
0.0
 15
0.0
 25
0.0
 35
0.0
146
0.0
 13
0.0
 23
0.0
 33
0.0
 16
1.0
 26
0.0
 36
0.0
 17
0.0
 27
1.0
 37
0.0
 76
     0
330
1E
  0
LAYOUT
  5
84EC8
102
{ACAD_REACTORS
330
19
102
}
330
19
100
AcDbPlotSettings
  1

  2
\\PC07\EPSON LP-8900
  4

  6

 40
0.0
 41
0.0
 42
0.0
 43
0.0
 44
0.0
 45
0.0
 46
0.0
 47
0.0
 48
0.0
 49
0.0
140
0.0
141
0.0
142
1.0
143
1.0
 70
   688
 72
     0
 73
     0
 74
     5
  7
monochrome.ctb
 75
    16
147
1.0
148
0.0
149
0.0
100
AcDbLayout
  1
ﾚｲｱｳﾄ1
 70
     1
 71
     1
 10
0.0
 20
0.0
 11
12.0
 21
9.0
 12
0.0
 22
0.0
 32
0.0
 14
1.000000000000000E+20
 24
1.000000000000000E+20
 34
1.000000000000000E+20
 15
-1.000000000000000E+20
 25
-1.000000000000000E+20
 35
-1.000000000000000E+20
146
0.0
 13
0.0
 23
0.0
 33
0.0
 16
1.0
 26
0.0
 36
0.0
 17
0.0
 27
1.0
 37
0.0
 76
     0
330
1A
  0
MLINESTYLE
  5
17
102
{ACAD_REACTORS
330
16
102
}
330
16
100
AcDbMlineStyle
  2
STANDARD
 70
     0
  3

 62
   256
 51
90.0
 52
90.0
 71
     2
 49
0.5
 62
   256
  6
BYLAYER
 49
-0.5
 62
   256
  6
BYLAYER
  0
ACDBPLACEHOLDER
  5
F
102
{ACAD_REACTORS
330
E
102
}
330
E
  0
ENDSEC
  0
EOF
