  0
SECTION
  2
HEADER
  9
$ACADVER
  1
AC1014
  9
$ACADMAINTVER
 70
     9
  9
$DWGCODEPAGE
  3
ANSI_932
  9
$INSBASE
 10
0.0
 20
0.0
 30
0.0
  9
$EXTMIN
 10
-685.8439713344851
 20
-703.5520532175716
 30
0.0
  9
$EXTMAX
 10
941.4779885098871
 20
589.4632773780991
 30
0.0
  9
$LIMMIN
 10
-812.8684705637134
 20
-929.7884983161965
  9
$LIMMAX
 10
1222.710769381581
 20
686.9113372425636
  9
$ORTHOMODE
 70
     1
  9
$REGENMODE
 70
     0
  9
$FILLMODE
 70
     1
  9
$QTEXTMODE
 70
     0
  9
$MIRRTEXT
 70
     0
  9
$DRAGMODE
 70
     2
  9
$LTSCALE
 40
20.0
  9
$OSMODE
 70
    37
  9
$ATTMODE
 70
     1
  9
$TEXTSIZE
 40
64.0
  9
$TRACEWID
 40
0.05
  9
$TEXTSTYLE
  7
STANDARD
  9
$CLAYER
  8
DETAIL
  9
$CELTYPE
  6
CONTINUOUS
  9
$CECOLOR
 62
   256
  9
$CELTSCALE
 40
1.0
  9
$DELOBJ
 70
     1
  9
$DISPSILH
 70
     0
  9
$DIMSCALE
 40
1.0
  9
$DIMASZ
 40
10.0
  9
$DIMEXO
 40
20.0
  9
$DIMDLI
 40
200.0
  9
$DIMRND
 40
0.0
  9
$DIMDLE
 40
0.0
  9
$DIMEXE
 40
30.0
  9
$DIMTP
 40
0.0
  9
$DIMTM
 40
0.0
  9
$DIMTXT
 40
64.0
  9
$DIMCEN
 40
0.09
  9
$DIMTSZ
 40
0.0
  9
$DIMTOL
 70
     0
  9
$DIMLIM
 70
     0
  9
$DIMTIH
 70
     0
  9
$DIMTOH
 70
     0
  9
$DIMSE1
 70
     0
  9
$DIMSE2
 70
     0
  9
$DIMTAD
 70
     1
  9
$DIMZIN
 70
     8
  9
$DIMBLK
  1
ORIGIN
  9
$DIMASO
 70
     1
  9
$DIMSHO
 70
     0
  9
$DIMPOST
  1

  9
$DIMAPOST
  1

  9
$DIMALT
 70
     0
  9
$DIMALTD
 70
     2
  9
$DIMALTF
 40
25.4
  9
$DIMLFAC
 40
1.0
  9
$DIMTOFL
 70
     1
  9
$DIMTVP
 40
0.0
  9
$DIMTIX
 70
     1
  9
$DIMSOXD
 70
     0
  9
$DIMSAH
 70
     0
  9
$DIMBLK1
  1

  9
$DIMBLK2
  1

  9
$DIMSTYLE
  2
STANDARD
  9
$DIMCLRD
 70
     0
  9
$DIMCLRE
 70
     0
  9
$DIMCLRT
 70
     0
  9
$DIMTFAC
 40
1.0
  9
$DIMGAP
 40
10.0
  9
$DIMJUST
 70
     0
  9
$DIMSD1
 70
     0
  9
$DIMSD2
 70
     0
  9
$DIMTOLJ
 70
     1
  9
$DIMTZIN
 70
     0
  9
$DIMALTZ
 70
     0
  9
$DIMALTTZ
 70
     0
  9
$DIMFIT
 70
     3
  9
$DIMUPT
 70
     0
  9
$DIMUNIT
 70
     2
  9
$DIMDEC
 70
     1
  9
$DIMTDEC
 70
     1
  9
$DIMALTU
 70
     2
  9
$DIMALTTD
 70
     2
  9
$DIMTXSTY
  7
STANDARD
  9
$DIMAUNIT
 70
     0
  9
$LUNITS
 70
     2
  9
$LUPREC
 70
     4
  9
$SKETCHINC
 40
0.1
  9
$FILLETRAD
 40
20.0
  9
$AUNITS
 70
     1
  9
$AUPREC
 70
     3
  9
$MENU
  1
ACAD
  9
$ELEVATION
 40
0.0
  9
$PELEVATION
 40
0.0
  9
$THICKNESS
 40
0.0
  9
$LIMCHECK
 70
     1
  9
$BLIPMODE
 70
     0
  9
$CHAMFERA
 40
0.0
  9
$CHAMFERB
 40
0.0
  9
$CHAMFERC
 40
0.0
  9
$CHAMFERD
 40
0.0
  9
$SKPOLY
 70
     0
  9
$TDCREATE
 40
2450332.775890995
  9
$TDUPDATE
 40
2454937.788020833
  9
$TDINDWG
 40
0.8708187500
  9
$TDUSRTIMER
 40
0.8707965046
  9
$USRTIMER
 70
     1
  9
$ANGBASE
 50
0.0
  9
$ANGDIR
 70
     0
  9
$PDMODE
 70
     3
  9
$PDSIZE
 40
-2.0
  9
$PLINEWID
 40
0.0
  9
$COORDS
 70
     1
  9
$SPLFRAME
 70
     0
  9
$SPLINETYPE
 70
     6
  9
$SPLINESEGS
 70
     8
  9
$ATTDIA
 70
     0
  9
$ATTREQ
 70
     1
  9
$HANDLING
 70
-16383
  9
$HANDSEED
  5
31F9
  9
$SURFTAB1
 70
     6
  9
$SURFTAB2
 70
     6
  9
$SURFTYPE
 70
     6
  9
$SURFU
 70
     6
  9
$SURFV
 70
     6
  9
$UCSNAME
  2

  9
$UCSORG
 10
0.0
 20
0.0
 30
0.0
  9
$UCSXDIR
 10
1.0
 20
0.0
 30
0.0
  9
$UCSYDIR
 10
0.0
 20
1.0
 30
0.0
  9
$PUCSNAME
  2

  9
$PUCSORG
 10
0.0
 20
0.0
 30
0.0
  9
$PUCSXDIR
 10
1.0
 20
0.0
 30
0.0
  9
$PUCSYDIR
 10
0.0
 20
1.0
 30
0.0
  9
$USERI1
 70
     0
  9
$USERI2
 70
     0
  9
$USERI3
 70
     0
  9
$USERI4
 70
     0
  9
$USERI5
 70
     0
  9
$USERR1
 40
20.0
  9
$USERR2
 40
0.0
  9
$USERR3
 40
0.0
  9
$USERR4
 40
0.0
  9
$USERR5
 40
0.0
  9
$WORLDVIEW
 70
     1
  9
$SHADEDGE
 70
     3
  9
$SHADEDIF
 70
    70
  9
$TILEMODE
 70
     1
  9
$MAXACTVP
 70
    64
  9
$PINSBASE
 10
0.0
 20
0.0
 30
0.0
  9
$PLIMCHECK
 70
     0
  9
$PEXTMIN
 10
1.000000000000000E+20
 20
1.000000000000000E+20
 30
1.000000000000000E+20
  9
$PEXTMAX
 10
-1.000000000000000E+20
 20
-1.000000000000000E+20
 30
-1.000000000000000E+20
  9
$PLIMMIN
 10
0.0
 20
0.0
  9
$PLIMMAX
 10
12.0
 20
9.0
  9
$UNITMODE
 70
     0
  9
$VISRETAIN
 70
     1
  9
$PLINEGEN
 70
     0
  9
$PSLTSCALE
 70
     1
  9
$TREEDEPTH
 70
  3020
  9
$PICKSTYLE
 70
     1
  9
$CMLSTYLE
  2
STANDARD
  9
$CMLJUST
 70
     0
  9
$CMLSCALE
 40
1.0
  9
$PROXYGRAPHICS
 70
     1
  9
$MEASUREMENT
 70
     0
  0
ENDSEC
  0
SECTION
  2
CLASSES
  0
CLASS
  1
ACDBDICTIONARYWDFLT
  2
AcDbDictionaryWithDefault
  3
AutoCAD 2000
 90
        0
280
     0
281
     0
  0
CLASS
  1
ACDBPLACEHOLDER
  2
AcDbPlaceHolder
  3
AutoCAD 2000
 90
        0
280
     0
281
     0
  0
CLASS
  1
LAYOUT
  2
AcDbLayout
  3
AutoCAD 2000
 90
        0
280
     0
281
     0
  0
CLASS
  1
TABLESTYLE
  2
AcDbTableStyle
  3
ObjectDBX Classes
 90
     2047
280
     0
281
     0
  0
CLASS
  1
SORTENTSTABLE
  2
AcDbSortentsTable
  3
AutoCAD 2000
 90
        0
280
     0
281
     0
  0
CLASS
  1
DICTIONARYVAR
  2
AcDbDictionaryVar
  3
AutoCAD 2000
 90
        0
280
     0
281
     0
  0
CLASS
  1
ACAD_PROXY_OBJECT_WRAPPER
  2
AcDbProxyObjectWrapper
  3
AutoCAD 2000
 90
        0
280
     0
281
     0
  0
CLASS
  1
LONG_TRANSACTION
  2
AcDbLongTransaction
  3
AutoCAD 2000
 90
        0
280
     0
281
     0
  0
CLASS
  1
LWPOLYLINE
  2
AcDbPolyline
  3
AutoCAD 2000
 90
        0
280
     0
281
     1
  0
CLASS
  1
HATCH
  2
AcDbHatch
  3
AutoCAD 2000
 90
        0
280
     0
281
     1
  0
CLASS
  1
XRECORD
  2
AcDbXrecord
  3
AutoCAD 2000
 90
        0
280
     0
281
     0
  0
ENDSEC
  0
SECTION
  2
TABLES
  0
TABLE
  2
VPORT
  5
8
330
0
100
AcDbSymbolTable
 70
     2
  0
VPORT
  5
31D4
330
8
100
AcDbSymbolTableRecord
100
AcDbViewportTableRecord
  2
*ACTIVE
 70
     0
 10
0.0
 20
0.0
 11
1.0
 21
1.0
 12
299.160927438168
 22
-242.6890756714947
 13
0.0
 23
0.0
 14
400.0
 24
400.0
 15
400.0
 25
400.0
 16
0.0
 26
0.0
 36
1.0
 17
0.0
 27
0.0
 37
0.0
 40
3126.565795036662
 41
1.226161369193154
 42
50.0
 43
0.0
 44
0.0
 50
0.0
 51
0.0
 71
     0
 72
   500
 73
     1
 74
     0
 75
     0
 76
     0
 77
     0
 78
     1
  0
ENDTAB
  0
TABLE
  2
LTYPE
  5
5
330
0
100
AcDbSymbolTable
 70
     7
  0
LTYPE
  5
13
330
5
100
AcDbSymbolTableRecord
100
AcDbLinetypeTableRecord
  2
BYBLOCK
 70
     0
  3

 72
    65
 73
     0
 40
0.0
  0
LTYPE
  5
14
330
5
100
AcDbSymbolTableRecord
100
AcDbLinetypeTableRecord
  2
BYLAYER
 70
     0
  3

 72
    65
 73
     0
 40
0.0
  0
LTYPE
  5
15
330
5
100
AcDbSymbolTableRecord
100
AcDbLinetypeTableRecord
  2
CONTINUOUS
 70
     0
  3
実線
 72
    65
 73
     0
 40
0.0
  0
LTYPE
  5
23
330
5
100
AcDbSymbolTableRecord
100
AcDbLinetypeTableRecord
  2
DOT
 70
     0
  3
...............................................
 72
    65
 73
     2
 40
0.8
 49
0.5
 74
     0
 49
-0.3
 74
     0
  0
LTYPE
  5
24
330
5
100
AcDbSymbolTableRecord
100
AcDbLinetypeTableRecord
  2
DASHED
 70
     0
  3
_ _ _ _ _ _ _ _ _ _ _ _ _ _ _ _ _ _ _ _ _ _ _
 72
    65
 73
     2
 40
2.0
 49
1.199999999999999
 74
     0
 49
-0.8
 74
     0
  0
LTYPE
  5
25
330
5
100
AcDbSymbolTableRecord
100
AcDbLinetypeTableRecord
  2
DASHDOT
 70
     0
  3
____ _ ____ _ ____ _ ____ _ ____ _ ____ _ ____
 72
    65
 73
     4
 40
5.5
 49
4.0
 74
     0
 49
-0.6
 74
     0
 49
0.3
 74
     0
 49
-0.6
 74
     0
  0
LTYPE
  5
26
330
5
100
AcDbSymbolTableRecord
100
AcDbLinetypeTableRecord
  2
DASHDOT1
 70
     0
  3
____ _ ____ _ ____ _ ____ _ ____ _ ____ _ ____
 72
    65
 73
     4
 40
2.0
 49
1.5
 74
     0
 49
-0.2
 74
     0
 49
0.1
 74
     0
 49
-0.2
 74
     0
  0
LTYPE
  5
27
330
5
100
AcDbSymbolTableRecord
100
AcDbLinetypeTableRecord
  2
DIVIDE
 70
     0
  3
_____ _ _ _____ _ _ _____ _ _ _____ _ _ ____
 72
    65
 73
     6
 40
6.4
 49
4.0
 74
     0
 49
-0.6
 74
     0
 49
0.3
 74
     0
 49
-0.6
 74
     0
 49
0.3
 74
     0
 49
-0.6
 74
     0
  0
LTYPE
  5
28
330
5
100
AcDbSymbolTableRecord
100
AcDbLinetypeTableRecord
  2
DIVIDE1
 70
     0
  3
_____ _ _ _____ _ _ _____ _ _ _____ _ _ ____
 72
    65
 73
     6
 40
3.2
 49
2.0
 74
     0
 49
-0.3
 74
     0
 49
0.15
 74
     0
 49
-0.3
 74
     0
 49
0.15
 74
     0
 49
-0.3
 74
     0
  0
ENDTAB
  0
TABLE
  2
LAYER
  5
2
102
{ACAD_XDICTIONARY
360
30EA
102
}
330
0
100
AcDbSymbolTable
 70
    14
  0
LAYER
  5
10
330
2
100
AcDbSymbolTableRecord
100
AcDbLayerTableRecord
  2
0
 70
     0
 62
     7
  6
CONTINUOUS
  0
LAYER
  5
22
330
2
100
AcDbSymbolTableRecord
100
AcDbLayerTableRecord
  2
BASIS
 70
     0
 62
     6
  6
CONTINUOUS
  0
LAYER
  5
29
330
2
100
AcDbSymbolTableRecord
100
AcDbLayerTableRecord
  2
OUTLINE
 70
     0
 62
     3
  6
CONTINUOUS
  0
LAYER
  5
2A
330
2
100
AcDbSymbolTableRecord
100
AcDbLayerTableRecord
  2
DETAIL
 70
     0
 62
     5
  6
CONTINUOUS
  0
LAYER
  5
2B
330
2
100
AcDbSymbolTableRecord
100
AcDbLayerTableRecord
  2
SIZE
 70
     0
 62
    32
  6
CONTINUOUS
  0
LAYER
  5
2C
330
2
100
AcDbSymbolTableRecord
100
AcDbLayerTableRecord
  2
NOTE
 70
     0
 62
     4
  6
CONTINUOUS
  0
LAYER
  5
2D
330
2
100
AcDbSymbolTableRecord
100
AcDbLayerTableRecord
  2
ARRANGE
 70
     0
 62
     1
  6
CONTINUOUS
  0
LAYER
  5
2E
330
2
100
AcDbSymbolTableRecord
100
AcDbLayerTableRecord
  2
DEFPOINTS
 70
     0
 62
     7
  6
CONTINUOUS
  0
LAYER
  5
2F
330
2
100
AcDbSymbolTableRecord
100
AcDbLayerTableRecord
  2
FIX
 70
     0
 62
   241
  6
CONTINUOUS
  0
LAYER
  5
30
330
2
100
AcDbSymbolTableRecord
100
AcDbLayerTableRecord
  2
SERVICESPACE
 70
     0
 62
     2
  6
CONTINUOUS
  0
LAYER
  5
31
330
2
100
AcDbSymbolTableRecord
100
AcDbLayerTableRecord
  2
ETC
 70
     0
 62
    83
  6
CONTINUOUS
  0
LAYER
  5
32
330
2
100
AcDbSymbolTableRecord
100
AcDbLayerTableRecord
  2
SYMBOLLINE
 70
     0
 62
    38
  6
CONTINUOUS
  0
LAYER
  5
33
330
2
100
AcDbSymbolTableRecord
100
AcDbLayerTableRecord
  2
SERVICE_SPACE
 70
     0
 62
     2
  6
CONTINUOUS
  0
LAYER
  5
34
330
2
100
AcDbSymbolTableRecord
100
AcDbLayerTableRecord
  2
SYMBOL_LINE
 70
     0
 62
    38
  6
CONTINUOUS
  0
ENDTAB
  0
TABLE
  2
STYLE
  5
3
330
0
100
AcDbSymbolTable
 70
     2
  0
STYLE
  5
11
330
3
100
AcDbSymbolTableRecord
100
AcDbTextStyleTableRecord
  2
STANDARD
 70
     0
 40
0.0
 41
0.9
 50
0.0
 71
     0
 42
64.0
  3
SIMPLEX
  4
BIGFONT
  0
STYLE
  5
16AD
330
3
100
AcDbSymbolTableRecord
100
AcDbTextStyleTableRecord
  2
ZU_SHPTB00001
 70
     0
 40
0.0
 41
1.0
 50
0.0
 71
     0
 42
0.0
  3
monotxt
  4
bigfont
  0
ENDTAB
  0
TABLE
  2
VIEW
  5
6
330
0
100
AcDbSymbolTable
 70
     1
  0
VIEW
  5
35
330
6
100
AcDbSymbolTableRecord
100
AcDbViewTableRecord
  2
ALL
 70
     0
 40
4508.021
 10
0.0
 20
41.30990399999999
 41
6252.632
 11
0.0
 21
0.0
 31
1.0
 12
0.0
 22
0.0
 32
0.0
 42
50.0
 43
0.0
 44
0.0
 50
0.0
 71
     0
  0
ENDTAB
  0
TABLE
  2
UCS
  5
7
330
0
100
AcDbSymbolTable
 70
     0
  0
ENDTAB
  0
TABLE
  2
APPID
  5
9
330
0
100
AcDbSymbolTable
 70
     3
  0
APPID
  5
12
330
9
100
AcDbSymbolTableRecord
100
AcDbRegAppTableRecord
  2
ACAD
 70
     0
  0
APPID
  5
2736
330
9
100
AcDbSymbolTableRecord
100
AcDbRegAppTableRecord
  2
ACAD_DSTYLE_DIMTEXT_FILL
 70
     0
  0
APPID
  5
2EAA
330
9
100
AcDbSymbolTableRecord
100
AcDbRegAppTableRecord
  2
ACAD_PSEXT
 70
     0
  0
ENDTAB
  0
TABLE
  2
DIMSTYLE
  5
A
330
0
100
AcDbSymbolTable
 70
     1
  0
DIMSTYLE
105
18F
330
A
100
AcDbSymbolTableRecord
100
AcDbDimStyleTableRecord
  2
STANDARD
 70
     0
  3

  4

  5

  6

  7

 40
1.0
 41
0.18
 42
0.0625
 43
0.38
 44
0.18
 45
0.0
 46
0.0
 47
0.0
 48
0.0
140
0.18
141
0.09
142
0.0
143
25.4
144
1.0
145
0.0
146
1.0
147
0.09
 71
     0
 72
     0
 73
     1
 74
     1
 75
     0
 76
     0
 77
     0
 78
     0
170
     0
171
     2
172
     0
173
     0
174
     0
175
     0
176
     0
177
     0
178
     0
270
     2
271
     4
272
     4
273
     2
274
     2
340
11
275
     0
280
     0
281
     0
282
     0
283
     1
284
     0
285
     0
286
     0
287
     3
288
     0
  0
ENDTAB
  0
TABLE
  2
BLOCK_RECORD
  5
1
330
0
100
AcDbSymbolTable
 70
    38
  0
BLOCK_RECORD
  5
1E
102
{ACAD_XDICTIONARY
360
2783
102
}
330
1
100
AcDbSymbolTableRecord
100
AcDbBlockTableRecord
  2
*MODEL_SPACE
  0
BLOCK_RECORD
  5
1A
102
{ACAD_XDICTIONARY
360
31F6
102
}
330
1
100
AcDbSymbolTableRecord
100
AcDbBlockTableRecord
  2
*PAPER_SPACE
  0
BLOCK_RECORD
  5
13CC
330
1
100
AcDbSymbolTableRecord
100
AcDbBlockTableRecord
  2
_ORIGIN
  0
ENDTAB
  0
ENDSEC
  0
SECTION
  2
BLOCKS
  0
BLOCK
  5
1F
330
1E
100
AcDbEntity
  8
0
100
AcDbBlockBegin
  2
*MODEL_SPACE
 70
     0
 10
0.0
 20
0.0
 30
0.0
  3
*MODEL_SPACE
  1

  0
ENDBLK
  5
20
330
1E
100
AcDbEntity
  8
0
100
AcDbBlockEnd
  0
BLOCK
  5
1B
330
1A
100
AcDbEntity
 67
     1
  8
0
100
AcDbBlockBegin
  2
*PAPER_SPACE
 70
     0
 10
0.0
 20
0.0
 30
0.0
  3
*PAPER_SPACE
  1

  0
ENDBLK
  5
1C
330
1A
100
AcDbEntity
 67
     1
  8
0
100
AcDbBlockEnd
  0
BLOCK
  5
13CF
330
13CC
100
AcDbEntity
  8
0
100
AcDbBlockBegin
  2
_ORIGIN
 70
     0
 10
0.0
 20
0.0
 30
0.0
  3
_ORIGIN
  1

  0
CIRCLE
  5
13CD
330
13CC
100
AcDbEntity
  8
0
  6
BYBLOCK
 62
     0
100
AcDbCircle
 10
0.0
 20
0.0
 30
0.0
 40
0.5
  0
LINE
  5
13CE
330
13CC
100
AcDbEntity
  8
0
  6
BYBLOCK
 62
     0
100
AcDbLine
 10
0.0
 20
0.0
 30
0.0
 11
-1.0
 21
0.0
 31
0.0
  0
ENDBLK
  5
13D0
330
13CC
100
AcDbEntity
  8
0
100
AcDbBlockEnd
  0
ENDSEC
  0
SECTION
  2
ENTITIES
  0
LINE
  5
1F6A
330
1E
100
AcDbEntity
  8
DETAIL
  6
CONTINUOUS
100
AcDbLine
 10
150.0
 20
-19.99999999999994
 30
0.0
 11
160.0
 21
-19.99999999999994
 31
0.0
  0
LINE
  5
1F6B
330
1E
100
AcDbEntity
  8
DETAIL
  6
CONTINUOUS
100
AcDbLine
 10
150.0
 20
-59.99999999999994
 30
0.0
 11
160.0
 21
-59.99999999999994
 31
0.0
  0
LINE
  5
1F6C
330
1E
100
AcDbEntity
  8
DETAIL
  6
CONTINUOUS
100
AcDbLine
 10
163.0
 20
-56.99999999999994
 30
0.0
 11
163.0
 21
-22.99999999999994
 31
0.0
  0
LINE
  5
1F6D
330
1E
100
AcDbEntity
  8
DETAIL
  6
CONTINUOUS
100
AcDbLine
 10
160.0
 20
-19.99999999999994
 30
0.0
 11
163.0
 21
-22.99999999999994
 31
0.0
  0
LINE
  5
1F6E
330
1E
100
AcDbEntity
  8
DETAIL
  6
CONTINUOUS
100
AcDbLine
 10
160.0
 20
-59.99999999999994
 30
0.0
 11
163.0
 21
-56.99999999999994
 31
0.0
  0
ARC
  5
1F6F
330
1E
100
AcDbEntity
  8
DETAIL
  6
CONTINUOUS
100
AcDbCircle
 10
-131.2141439999995
 20
-14.99999999999994
 30
0.0
 40
15.0
100
AcDbArc
 50
90.0
 51
122.8067669999767
  0
ARC
  5
1F70
330
1E
100
AcDbEntity
  8
DETAIL
  6
CONTINUOUS
100
AcDbCircle
 10
-135.0
 20
-18.12269599999984
 30
0.0
 40
15.0
100
AcDbArc
 50
136.2270069999647
 51
180.0
  0
ARC
  5
1F71
330
1E
100
AcDbEntity
  8
DETAIL
  6
CONTINUOUS
100
AcDbCircle
 10
-135.0
 20
-277.5177040000002
 30
0.0
 40
15.0
100
AcDbArc
 50
180.0
 51
201.7268220000146
  0
ARC
  5
1F72
330
1E
100
AcDbEntity
  8
DETAIL
  6
CONTINUOUS
100
AcDbCircle
 10
-129.922763999999
 20
-284.9999999999999
 30
0.0
 40
15.0
100
AcDbArc
 50
226.592225999994
 51
270.0
  0
ARC
  5
1F73
330
1E
100
AcDbEntity
  8
DETAIL
  6
CONTINUOUS
100
AcDbCircle
 10
131.21414
 20
-14.99999999999994
 30
0.0
 40
15.0
100
AcDbArc
 50
57.19323300002325
 51
90.0
  0
ARC
  5
1F74
330
1E
100
AcDbEntity
  8
DETAIL
  6
CONTINUOUS
100
AcDbCircle
 10
135.0
 20
-18.12269599999984
 30
0.0
 40
15.0
100
AcDbArc
 50
0.0
 51
43.77299300003525
  0
LINE
  5
1F75
330
1E
100
AcDbEntity
  8
DETAIL
  6
CONTINUOUS
100
AcDbLine
 10
0.0
 20
-249.7797559999998
 30
0.0
 11
-118.1977559999995
 21
-249.7797559999998
 31
0.0
  0
LINE
  5
1F76
330
1E
100
AcDbEntity
  8
DETAIL
  6
CONTINUOUS
100
AcDbLine
 10
0.0
 20
-297.3842760000001
 30
0.0
 11
-130.9452999999993
 21
-297.3842760000001
 31
0.0
  0
LINE
  5
1F77
330
1E
100
AcDbEntity
  8
DETAIL
  6
CONTINUOUS
100
AcDbLine
 10
-134.024707999999
 20
-299.4282360000001
 30
0.0
 11
-133.2849639999985
 21
-298.5065199999998
 31
0.0
  0
ARC
  5
1F78
330
1E
100
AcDbEntity
  8
DETAIL
  6
CONTINUOUS
100
AcDbCircle
 10
-130.9452999999993
 20
-300.3842760000001
 30
0.0
 40
3.0
100
AcDbArc
 50
90.0
 51
141.2503559999957
  0
LINE
  5
1F7A
330
1E
100
AcDbEntity
  8
DETAIL
  6
CONTINUOUS
100
AcDbLine
 10
-134.3360679999987
 20
-299.336064
 30
0.0
 11
-133.0687359999992
 21
-298.0687359999996
 31
0.0
  0
LINE
  5
1F7B
330
1E
100
AcDbEntity
  8
DETAIL
  6
CONTINUOUS
100
AcDbLine
 10
-130.7683039999992
 20
-270.2974199999998
 30
0.0
 11
-131.2920199999989
 21
-282.8741960000001
 31
0.0
  0
LINE
  5
1F7C
330
1E
100
AcDbEntity
  8
DETAIL
  6
CONTINUOUS
100
AcDbLine
 10
-131.2920199999989
 20
-282.8741960000001
 30
0.0
 11
-132.1970039999996
 21
-296.1514240000001
 31
0.0
  0
ARC
  5
1F7D
330
1E
100
AcDbEntity
  8
DETAIL
  6
CONTINUOUS
100
AcDbCircle
 10
-135.190059999999
 20
-295.9474159999999
 30
0.0
 40
3.0
100
AcDbArc
 50
315.0
 51
356.1007250000075
  0
ARC
  5
1F7E
330
1E
100
AcDbEntity
  8
DETAIL
  6
CONTINUOUS
100
AcDbCircle
 10
-109.3784679999989
 20
-271.1881280000001
 30
0.0
 40
21.40837199999999
100
AcDbArc
 50
90.0
 51
177.6154840000024
  0
LINE
  5
1F7F
330
1E
100
AcDbEntity
  8
DETAIL
  6
CONTINUOUS
100
AcDbLine
 10
-150.0
 20
-279.9999999999999
 30
0.0
 11
-147.1294239999988
 21
-278.202576
 31
0.0
  0
ARC
  5
1F80
330
1E
100
AcDbEntity
  8
DETAIL
  6
CONTINUOUS
100
AcDbCircle
 10
-118.1977559999995
 20
-277.350304
 30
0.0
 40
27.570548
100
AcDbArc
 50
90.0
 51
176.8302039999848
  0
ARC
  5
1F81
330
1E
100
AcDbEntity
  8
DETAIL
  6
CONTINUOUS
100
AcDbCircle
 10
-148.7215319999995
 20
-275.6599
 30
0.0
 40
3.0
100
AcDbArc
 50
302.0529050000291
 51
356.8302039999848
  0
ARC
  5
1F82
330
1E
100
AcDbEntity
  8
DETAIL
  6
CONTINUOUS
100
AcDbCircle
 10
130.9452959999998
 20
-300.3842760000001
 30
0.0
 40
3.0
100
AcDbArc
 50
38.74964400000423
 51
90.0
  0
ARC
  5
1F83
330
1E
100
AcDbEntity
  8
DETAIL
  6
CONTINUOUS
100
AcDbCircle
 10
135.1900560000012
 20
-295.9474159999999
 30
0.0
 40
3.0
100
AcDbArc
 50
183.8992749999924
 51
225.0
  0
LINE
  5
1F84
330
1E
100
AcDbEntity
  8
DETAIL
  6
CONTINUOUS
100
AcDbLine
 10
134.3360640000009
 20
-299.336064
 30
0.0
 11
133.068736000001
 21
-298.0687359999996
 31
0.0
  0
LINE
  5
1F85
330
1E
100
AcDbEntity
  8
DETAIL
  6
CONTINUOUS
100
AcDbLine
 10
131.2920160000012
 20
-282.8741960000001
 30
0.0
 11
132.1970000000001
 21
-296.1514240000001
 31
0.0
  0
ARC
  5
1F86
330
1E
100
AcDbEntity
  8
DETAIL
  6
CONTINUOUS
100
AcDbCircle
 10
109.3784640000012
 20
-271.1881280000001
 30
0.0
 40
21.40837199999999
100
AcDbArc
 50
2.38451599999755
 51
90.0
  0
LINE
  5
1F87
330
1E
100
AcDbEntity
  8
DETAIL
  6
CONTINUOUS
100
AcDbLine
 10
130.7682999999997
 20
-270.2974199999998
 30
0.0
 11
131.2920160000012
 21
-282.8741960000001
 31
0.0
  0
ARC
  5
1F88
330
1E
100
AcDbEntity
  8
DETAIL
  6
CONTINUOUS
100
AcDbCircle
 10
148.721528
 20
-275.6599
 30
0.0
 40
3.0
100
AcDbArc
 50
183.1697960000151
 51
237.9470949999708
  0
ARC
  5
1F89
330
1E
100
AcDbEntity
  8
DETAIL
  6
CONTINUOUS
100
AcDbCircle
 10
118.197752
 20
-277.350304
 30
0.0
 40
27.570548
100
AcDbArc
 50
3.169796000015137
 51
90.0
  0
LINE
  5
1F8A
330
1E
100
AcDbEntity
  8
DETAIL
  6
CONTINUOUS
100
AcDbLine
 10
0.0
 20
-249.7797559999998
 30
0.0
 11
118.197752
 21
-249.7797559999998
 31
0.0
  0
LINE
  5
1F8B
330
1E
100
AcDbEntity
  8
DETAIL
  6
CONTINUOUS
100
AcDbLine
 10
134.0247080000008
 20
-299.4282360000001
 30
0.0
 11
133.2849600000008
 21
-298.5065199999998
 31
0.0
  0
LINE
  5
1F8C
330
1E
100
AcDbEntity
  8
DETAIL
  6
CONTINUOUS
100
AcDbLine
 10
0.0
 20
-297.3842760000001
 30
0.0
 11
130.9452959999998
 21
-297.3842760000001
 31
0.0
  0
LINE
  5
1F8D
330
1E
100
AcDbEntity
  8
DETAIL
  6
CONTINUOUS
100
AcDbLine
 10
-145.3422799999989
 20
-17.66262399999999
 30
0.0
 11
-149.325499999999
 21
-13.67521200000004
 31
0.0
  0
ELLIPSE
  5
1F8E
330
1E
100
AcDbEntity
  8
DETAIL
  6
CONTINUOUS
100
AcDbEllipse
 10
-122.7761839999984
 20
-17.23615599999988
 30
0.0
 11
23.25610630623111
 21
0.0
 31
0.0
210
0.0
220
0.0
230
1.0
 40
0.075844
 41
3.385797191268923
 42
4.712388980384689
  0
LINE
  5
1F8F
330
1E
100
AcDbEntity
  8
DETAIL
  6
CONTINUOUS
100
AcDbLine
 10
0.0
 20
-18.99999999999994
 30
0.0
 11
-122.7761840000002
 21
-18.99999999999994
 31
0.0
  0
ELLIPSE
  5
1F90
330
1E
100
AcDbEntity
  8
DETAIL
  6
CONTINUOUS
100
AcDbEllipse
 10
-122.7761839999984
 20
-3.914839999999855
 30
0.0
 11
0.0000000000000008
 21
15.08515957413695
 31
0.0
210
0.0
220
0.0
230
1.0
 40
0.4845140000000001
 41
1.711563719042174
 42
3.141592653589792
  0
ARC
  5
1F91
330
1E
100
AcDbEntity
  8
DETAIL
  6
CONTINUOUS
100
AcDbCircle
 10
-133.0058200000003
 20
-6.236824000000012
 30
0.0
 40
3.0
100
AcDbArc
 50
3.927646000008188
 51
45.0
  0
ELLIPSE
  5
1F92
330
1E
100
AcDbEntity
  8
DETAIL
  6
CONTINUOUS
100
AcDbEllipse
 10
122.7761800000007
 20
-17.23615599999988
 30
0.0
 11
23.25610630623111
 21
0.0
 31
0.0
210
0.0
220
0.0
230
1.0
 40
0.075844
 41
4.712388980384689
 42
6.038980769500453
  0
ARC
  5
1F93
330
1E
100
AcDbEntity
  8
DETAIL
  6
CONTINUOUS
100
AcDbCircle
 10
133.0058160000007
 20
-6.236824000000012
 30
0.0
 40
3.0
100
AcDbArc
 50
135.0
 51
176.0723539999918
  0
LINE
  5
1F94
330
1E
100
AcDbEntity
  8
DETAIL
  6
CONTINUOUS
100
AcDbLine
 10
0.0
 20
-18.99999999999994
 30
0.0
 11
122.7761800000007
 21
-18.99999999999994
 31
0.0
  0
ELLIPSE
  5
1F95
330
1E
100
AcDbEntity
  8
DETAIL
  6
CONTINUOUS
100
AcDbEllipse
 10
122.7761800000007
 20
-3.914839999999855
 30
0.0
 11
0.0000000000000008
 21
15.08515957413695
 31
0.0
210
0.0
220
0.0
230
1.0
 40
0.4845140000000001
 41
3.141592653589792
 42
4.571621588137411
  0
LINE
  5
1F96
330
1E
100
AcDbEntity
  8
DETAIL
  6
CONTINUOUS
100
AcDbLine
 10
134.6104439999999
 20
-0.3895560000000273
 30
0.0
 11
130.8844960000005
 21
-4.115503999999816
 31
0.0
  0
LINE
  5
1F97
330
1E
100
AcDbEntity
  8
DETAIL
  6
CONTINUOUS
100
AcDbLine
 10
145.3422760000012
 20
-17.66262399999999
 30
0.0
 11
149.3254960000012
 21
-13.67521200000004
 31
0.0
  0
LINE
  5
1F98
330
1E
100
AcDbEntity
  8
DETAIL
  6
CONTINUOUS
100
AcDbLine
 10
152.0
 20
-283.9999999999999
 30
0.0
 11
152.0
 21
-192.4574959999999
 31
0.0
  0
LINE
  5
1F99
330
1E
100
AcDbEntity
  8
DETAIL
  6
CONTINUOUS
100
AcDbLine
 10
150.0
 20
-192.4574959999999
 30
0.0
 11
152.0
 21
-192.4574959999999
 31
0.0
  0
LINE
  5
1F9A
330
1E
100
AcDbEntity
  8
DETAIL
  6
CONTINUOUS
100
AcDbLine
 10
147.9574960000008
 20
-267.8092479999999
 30
0.0
 11
147.9574960000008
 21
-194.914212
 31
0.0
  0
LINE
  5
1F9B
330
1E
100
AcDbEntity
  8
DETAIL
  6
CONTINUOUS
100
AcDbLine
 10
148.2503880000003
 20
-194.207108
 30
0.0
 11
150.0
 21
-192.4574959999999
 31
0.0
  0
ARC
  5
1F9C
330
1E
100
AcDbEntity
  8
DETAIL
  6
CONTINUOUS
100
AcDbCircle
 10
148.9574960000008
 20
-194.914212
 30
0.0
 40
1.0
100
AcDbArc
 50
135.0
 51
180.0
  0
LINE
  5
1F9D
330
1E
100
AcDbEntity
  8
DETAIL
  6
CONTINUOUS
100
AcDbLine
 10
150.0
 20
-192.4574959999999
 30
0.0
 11
150.0
 21
-18.12269599999984
 31
0.0
  0
LINE
  5
1F9E
330
1E
100
AcDbEntity
  8
DETAIL
  6
CONTINUOUS
100
AcDbLine
 10
147.9574960000008
 20
-267.8092479999999
 30
0.0
 11
148.4920560000009
 21
-278.800552
 31
0.0
  0
ARC
  5
1F9F
330
1E
100
AcDbEntity
  8
DETAIL
  6
CONTINUOUS
100
AcDbCircle
 10
113.7695800000001
 20
-269.8655519999996
 30
0.0
 40
36.0
100
AcDbArc
 50
303.1682150000071
 51
344.0276360000138
  0
ARC
  5
1FA0
330
1E
100
AcDbEntity
  8
DETAIL
  6
CONTINUOUS
100
AcDbCircle
 10
145.4955960000006
 20
-278.946284
 30
0.0
 40
3.0
100
AcDbArc
 50
344.0276360000138
 51
2.784373000009105
  0
LINE
  5
1FA1
330
1E
100
AcDbEntity
  8
DETAIL
  6
CONTINUOUS
100
AcDbLine
 10
131.21414
 20
0.0000000000000568
 30
0.0
 11
0.0
 21
0.0000000000000568
 31
0.0
  0
LINE
  5
1FA2
330
1E
100
AcDbEntity
  8
DETAIL
  6
CONTINUOUS
100
AcDbLine
 10
169.5
 20
-299.9999999999999
 30
0.0
 11
0.0
 21
-299.9999999999999
 31
0.0
  0
LINE
  5
1FA3
330
1E
100
AcDbEntity
  8
DETAIL
  6
CONTINUOUS
100
AcDbLine
 10
-131.2141439999995
 20
0.0000000000000568
 30
0.0
 11
0.0
 21
0.0000000000000568
 31
0.0
  0
ARC
  5
1FA4
330
1E
100
AcDbEntity
  8
DETAIL
  6
CONTINUOUS
100
AcDbCircle
 10
-119.8361879999993
 20
-32.65055599999999
 30
0.0
 40
36.0
100
AcDbArc
 50
122.8067669999767
 51
136.2270069999647
  0
ARC
  5
1FA5
330
1E
100
AcDbEntity
  8
DETAIL
  6
CONTINUOUS
100
AcDbCircle
 10
119.8361839999997
 20
-32.65055599999999
 30
0.0
 40
36.0
100
AcDbArc
 50
43.77299300003525
 51
57.19323300002325
  0
LINE
  5
1FA6
330
1E
100
AcDbEntity
  8
DETAIL
  6
CONTINUOUS
100
AcDbLine
 10
-150.0
 20
-277.5177040000002
 30
0.0
 11
-150.0
 21
-18.12269599999984
 31
0.0
  0
ARC
  5
1FA7
330
1E
100
AcDbEntity
  8
DETAIL
  6
CONTINUOUS
100
AcDbCircle
 10
-115.4918559999987
 20
-269.7438879999999
 30
0.0
 40
36.0
100
AcDbArc
 50
201.7268220000146
 51
226.592225999994
  0
LINE
  5
1FA8
330
1E
100
AcDbEntity
  8
DETAIL
  6
CONTINUOUS
100
AcDbLine
 10
-129.922763999999
 20
-299.9999999999999
 30
0.0
 11
0.0
 21
-299.9999999999999
 31
0.0
  0
LINE
  5
1FA9
330
1E
100
AcDbEntity
  8
DETAIL
  6
CONTINUOUS
100
AcDbLine
 10
148.4935640000003
 20
-279.0567399999999
 30
0.0
 11
147.1294200000011
 21
-278.202576
 31
0.0
  0
LINE
  5
1FAA
330
1E
100
AcDbEntity
  8
DETAIL
  6
CONTINUOUS
100
AcDbLine
 10
-134.6104479999994
 20
-0.3895560000000273
 30
0.0
 11
-130.8845000000001
 21
-4.115503999999816
 31
0.0
  0
LINE
  5
1FAB
330
1E
100
AcDbEntity
  8
DETAIL
  6
CONTINUOUS
100
AcDbLine
 10
173.0
 20
-296.4999999999999
 30
0.0
 11
173.0
 21
-287.9999999999999
 31
0.0
  0
LINE
  5
1FAC
330
1E
100
AcDbEntity
  8
DETAIL
  6
CONTINUOUS
100
AcDbLine
 10
173.0
 20
-287.9999999999999
 30
0.0
 11
156.0
 21
-287.9999999999999
 31
0.0
  0
ARC
  5
1FAD
330
1E
100
AcDbEntity
  8
DETAIL
  6
CONTINUOUS
100
AcDbCircle
 10
156.0
 20
-283.9999999999999
 30
0.0
 40
4.0
100
AcDbArc
 50
180.0
 51
270.0
  0
ARC
  5
1FAE
330
1E
100
AcDbEntity
  8
DETAIL
  6
CONTINUOUS
100
AcDbCircle
 10
169.5
 20
-296.4999999999999
 30
0.0
 40
3.5
100
AcDbArc
 50
270.0
 51
0.0
  0
ARC
  5
1FCD
330
1E
100
AcDbEntity
  8
DETAIL
  6
CONTINUOUS
100
AcDbCircle
 10
88.19741200000136
 20
69.95013999999997
 30
0.0
 40
1.309531999999999
100
AcDbArc
 50
270.0
 51
96.91713099999747
  0
LINE
  5
1FCE
330
1E
100
AcDbEntity
  8
DETAIL
  6
CONTINUOUS
100
AcDbLine
 10
87.99741200000061
 20
68.64060800000022
 30
0.0
 11
87.99741200000061
 21
66.25014000000016
 31
0.0
  0
LINE
  5
1FCF
330
1E
100
AcDbEntity
  8
DETAIL
  6
CONTINUOUS
100
AcDbLine
 10
88.0
 20
72.00000000000006
 30
0.0
 11
88.0
 21
71.25014000000016
 31
0.0
  0
ARC
  5
1FD0
330
1E
100
AcDbEntity
  8
DETAIL
  6
CONTINUOUS
100
AcDbCircle
 10
88.19741200000136
 20
64.95013999999997
 30
0.0
 40
1.309531999999999
100
AcDbArc
 50
270.0
 51
96.91713099999747
  0
ARC
  5
1FD1
330
1E
100
AcDbEntity
  8
DETAIL
  6
CONTINUOUS
100
AcDbCircle
 10
88.19741200000136
 20
59.95013999999997
 30
0.0
 40
1.309531999999999
100
AcDbArc
 50
270.0
 51
96.91713099999747
  0
LINE
  5
1FD2
330
1E
100
AcDbEntity
  8
DETAIL
  6
CONTINUOUS
100
AcDbLine
 10
87.99741200000061
 20
63.64060800000022
 30
0.0
 11
87.99741200000061
 21
61.25014000000016
 31
0.0
  0
LINE
  5
1FD3
330
1E
100
AcDbEntity
  8
DETAIL
  6
DIVIDE
100
AcDbLine
 10
89.50694400000065
 20
59.95013999999997
 30
0.0
 11
89.50694400000065
 21
36.5683880000002
 31
0.0
  0
ARC
  5
1FD4
330
1E
100
AcDbEntity
  8
DETAIL
  6
DIVIDE
100
AcDbCircle
 10
46.50694400000065
 20
36.5683880000002
 30
0.0
 40
43.0
100
AcDbArc
 50
326.4834439999904
 51
0.0
  0
LINE
  5
1FD5
330
1E
100
AcDbEntity
  8
DETAIL
  6
CONTINUOUS
100
AcDbLine
 10
88.0
 20
120.0
 30
0.0
 11
88.0
 21
92.00000000000006
 31
0.0
  0
LINE
  5
1FD6
330
1E
100
AcDbEntity
  8
DETAIL
  6
CONTINUOUS
100
AcDbLine
 10
91.0
 20
90.00000000000005
 30
0.0
 11
91.0
 21
72.00000000000006
 31
0.0
  0
ARC
  5
1FD7
330
1E
100
AcDbEntity
  8
DETAIL
  6
CONTINUOUS
100
AcDbCircle
 10
89.0
 20
90.00000000000005
 30
0.0
 40
2.0
100
AcDbArc
 50
0.0
 51
90.0
  0
LINE
  5
1FD8
330
1E
100
AcDbEntity
  8
DETAIL
  6
CONTINUOUS
100
AcDbLine
 10
88.0
 20
92.00000000000006
 30
0.0
 11
89.0
 21
92.00000000000006
 31
0.0
  0
LINE
  5
1FD9
330
1E
100
AcDbEntity
  8
BASIS
  6
DASHDOT
100
AcDbLine
 10
73.0
 20
36.55790400000006
 30
0.0
 11
73.0
 21
134.2979800000001
 31
0.0
  0
ARC
  5
1FDA
330
1E
100
AcDbEntity
  8
BASIS
  6
DASHDOT
100
AcDbCircle
 10
46.5
 20
36.55790400000006
 30
0.0
 40
26.5
100
AcDbArc
 50
326.4834439999904
 51
0.0
  0
LINE
  5
1FDB
330
1E
100
AcDbEntity
  8
DETAIL
  6
CONTINUOUS
100
AcDbLine
 10
57.99740800000108
 20
72.00000000000006
 30
0.0
 11
57.99740800000108
 21
71.25014000000016
 31
0.0
  0
LINE
  5
1FDC
330
1E
100
AcDbEntity
  8
DETAIL
  6
DIVIDE
100
AcDbLine
 10
56.48787600000105
 20
59.95013999999997
 30
0.0
 11
56.48787600000105
 21
36.53960000000012
 31
0.0
  0
LINE
  5
1FDD
330
1E
100
AcDbEntity
  8
DETAIL
  6
CONTINUOUS
100
AcDbLine
 10
58.0
 20
120.0
 30
0.0
 11
58.0
 21
92.00000000000006
 31
0.0
  0
LINE
  5
1FDE
330
1E
100
AcDbEntity
  8
DETAIL
  6
CONTINUOUS
100
AcDbLine
 10
55.0
 20
90.00000000000005
 30
0.0
 11
55.0
 21
72.00000000000006
 31
0.0
  0
LINE
  5
1FDF
330
1E
100
AcDbEntity
  8
DETAIL
  6
CONTINUOUS
100
AcDbLine
 10
57.0
 20
92.00000000000006
 30
0.0
 11
88.0
 21
92.00000000000006
 31
0.0
  0
LINE
  5
1FE0
330
1E
100
AcDbEntity
  8
DETAIL
  6
CONTINUOUS
100
AcDbLine
 10
55.0
 20
72.00000000000006
 30
0.0
 11
91.0
 21
72.00000000000006
 31
0.0
  0
ARC
  5
1FE1
330
1E
100
AcDbEntity
  8
DETAIL
  6
CONTINUOUS
100
AcDbCircle
 10
57.0
 20
90.00000000000005
 30
0.0
 40
2.0
100
AcDbArc
 50
90.0
 51
180.0
  0
LINE
  5
1FE2
330
1E
100
AcDbEntity
  8
DETAIL
  6
CONTINUOUS
100
AcDbLine
 10
58.0
 20
72.00000000000006
 30
0.0
 11
58.0
 21
71.25014000000016
 31
0.0
  0
LINE
  5
1FE3
330
1E
100
AcDbEntity
  8
DETAIL
  6
CONTINUOUS
100
AcDbLine
 10
57.95771200000126
 20
71.25014000000016
 30
0.0
 11
88.04228800000055
 21
71.25014000000016
 31
0.0
  0
LINE
  5
1FE4
330
1E
100
AcDbEntity
  8
DETAIL
  6
CONTINUOUS
100
AcDbLine
 10
88.19741200000136
 20
68.64060800000022
 30
0.0
 11
57.79740800000036
 21
68.64060800000022
 31
0.0
  0
ARC
  5
1FE5
330
1E
100
AcDbEntity
  8
DETAIL
  6
CONTINUOUS
100
AcDbCircle
 10
57.79740800000036
 20
69.95013999999997
 30
0.0
 40
1.309531999999999
100
AcDbArc
 50
83.08286900000252
 51
270.0
  0
LINE
  5
1FE6
330
1E
100
AcDbEntity
  8
DETAIL
  6
CONTINUOUS
100
AcDbLine
 10
88.03970000000118
 20
66.25014000000016
 30
0.0
 11
57.95512000000053
 21
66.25014000000016
 31
0.0
  0
LINE
  5
1FE7
330
1E
100
AcDbEntity
  8
DETAIL
  6
CONTINUOUS
100
AcDbLine
 10
88.19741200000136
 20
63.64060800000022
 30
0.0
 11
57.79740800000036
 21
63.64060800000022
 31
0.0
  0
ARC
  5
1FE8
330
1E
100
AcDbEntity
  8
DETAIL
  6
CONTINUOUS
100
AcDbCircle
 10
57.79740800000036
 20
64.95013999999997
 30
0.0
 40
1.309531999999999
100
AcDbArc
 50
83.08286900000252
 51
270.0
  0
LINE
  5
1FE9
330
1E
100
AcDbEntity
  8
DETAIL
  6
CONTINUOUS
100
AcDbLine
 10
88.03970000000118
 20
61.25014000000016
 30
0.0
 11
57.95512000000053
 21
61.25014000000016
 31
0.0
  0
LINE
  5
1FEA
330
1E
100
AcDbEntity
  8
DETAIL
  6
CONTINUOUS
100
AcDbLine
 10
88.19741200000136
 20
58.64060800000022
 30
0.0
 11
57.79740800000036
 21
58.64060800000022
 31
0.0
  0
ARC
  5
1FEB
330
1E
100
AcDbEntity
  8
DETAIL
  6
CONTINUOUS
100
AcDbCircle
 10
57.79740800000036
 20
59.95013999999997
 30
0.0
 40
1.309531999999999
100
AcDbArc
 50
83.08286900000252
 51
270.0
  0
LINE
  5
1FEC
330
1E
100
AcDbEntity
  8
DETAIL
  6
CONTINUOUS
100
AcDbLine
 10
57.99740800000108
 20
68.64060800000022
 30
0.0
 11
57.99740800000108
 21
66.25014000000016
 31
0.0
  0
LINE
  5
1FED
330
1E
100
AcDbEntity
  8
DETAIL
  6
CONTINUOUS
100
AcDbLine
 10
57.99740800000108
 20
63.64060800000022
 30
0.0
 11
57.99740800000108
 21
61.25014000000016
 31
0.0
  0
LINE
  5
1FEE
330
1E
100
AcDbEntity
  8
DETAIL
  6
CONTINUOUS
100
AcDbLine
 10
58.0
 20
120.0
 30
0.0
 11
88.0
 21
120.0
 31
0.0
  0
ARC
  5
1FEF
330
1E
100
AcDbEntity
  8
DETAIL
  6
DIVIDE
100
AcDbCircle
 10
46.48787600000105
 20
36.53960000000012
 30
0.0
 40
10.0
100
AcDbArc
 50
326.4834439999904
 51
0.0
  0
LINE
  5
1FF0
330
1E
100
AcDbEntity
  8
DETAIL
  6
DIVIDE
100
AcDbLine
 10
82.35717199999999
 20
12.82473600000008
 30
0.0
 11
73.86333600000035
 21
0.0000000000000568
 31
0.0
  0
LINE
  5
1FF1
330
1E
100
AcDbEntity
  8
DETAIL
  6
DIVIDE
100
AcDbLine
 10
54.82514000000083
 20
31.01782400000007
 30
0.0
 11
34.28200000000106
 21
0.0000000000000568
 31
0.0
  0
LINE
  5
2011
330
1E
100
AcDbEntity
  8
BASIS
  6
DASHDOT
100
AcDbLine
 10
68.59374800000114
 20
21.92518800000021
 30
0.0
 11
54.07266865403426
 21
0.0000000000001137
 31
0.0
  0
TEXT
  5
271B
330
1E
100
AcDbEntity
  8
ETC
  6
CONTINUOUS
100
AcDbText
 10
423.2412072026163
 20
525.463277378099
 30
0.0
 40
64.0
  1
PAC
 41
0.9
100
AcDbText
  0
TEXT
  5
271C
330
1E
100
AcDbEntity
  8
ETC
  6
CONTINUOUS
100
AcDbText
 10
416.5822072026166
 20
407.9472049190776
 30
0.0
 40
64.0
  1
SPAC5092
 41
0.9
100
AcDbText
  0
LINE
  5
291A
330
1E
100
AcDbEntity
  8
NOTE
  6
CONTINUOUS
100
AcDbLine
 10
73.0
 20
140.0
 30
0.0
 11
73.0
 21
100.0
 31
0.0
  0
LINE
  5
291B
330
1E
100
AcDbEntity
  8
NOTE
  6
CONTINUOUS
100
AcDbLine
 10
53.0
 20
120.0
 30
0.0
 11
93.0
 21
120.0
 31
0.0
  0
TEXT
  5
293A
330
1E
100
AcDbEntity
  8
NOTE
  6
CONTINUOUS
100
AcDbText
 10
330.9179885098874
 20
277.4378740704467
 30
0.0
 40
64.0
  1
WD VP20（メス）
 41
0.9
100
AcDbText
  0
LINE
  5
293B
330
1E
100
AcDbEntity
  8
NOTE
  6
CONTINUOUS
100
AcDbLine
 10
901.2891185456719
 20
250.5676070704467
 30
0.0
 11
313.0424477800183
 21
250.5676070704468
 31
0.0
  0
TEXT
  5
293D
330
1E
100
AcDbEntity
  8
NOTE
  6
CONTINUOUS
100
AcDbText
 10
330.9179885098874
 20
158.5808949428336
 30
0.0
 40
64.0
  1
(フレキシブル)
 41
0.9
100
AcDbText
  0
LINE
  5
293E
330
1E
100
AcDbEntity
  8
NOTE
  6
CONTINUOUS
100
AcDbLine
 10
73.0
 20
120.0
 30
0.0
 11
313.0424477800183
 21
250.5676070704468
 31
0.0
  0
LWPOLYLINE
  5
293F
330
1E
100
AcDbEntity
  8
NOTE
  6
CONTINUOUS
100
AcDbPolyline
 90
        3
 70
     0
 43
0.0
 10
101.5138323087935
 20
148.0528314570906
 10
73.0
 20
120.0
 10
111.7201189836446
 20
130.0375496044144
  0
LINE
  5
2E4B
330
1E
100
AcDbEntity
  8
SERVICE_SPACE
  6
CONTINUOUS
100
AcDbLine
 10
-399.9999999999995
 20
-299.9999999999999
 30
0.0
 11
-400.0
 21
0.0000000000000568
 31
0.0
  0
LINE
  5
2E4C
330
1E
100
AcDbEntity
  8
SERVICE_SPACE
  6
CONTINUOUS
100
AcDbLine
 10
172.9999999999995
 20
-299.9999999999999
 30
0.0
 11
-399.9999999999995
 21
-299.9999999999999
 31
0.0
  0
LINE
  5
2E4D
330
1E
100
AcDbEntity
  8
SERVICE_SPACE
  6
CONTINUOUS
100
AcDbLine
 10
173.0
 20
-550.0
 30
0.0
 11
-149.9999999999995
 21
-550.0
 31
0.0
  0
LINE
  5
2E4E
330
1E
100
AcDbEntity
  8
SERVICE_SPACE
  6
CONTINUOUS
100
AcDbLine
 10
173.0
 20
0.0
 30
0.0
 11
-400.0
 21
0.0000000000000568
 31
0.0
  0
LINE
  5
2E4F
330
1E
100
AcDbEntity
  8
SERVICE_SPACE
  6
CONTINUOUS
100
AcDbLine
 10
173.0
 20
100.0
 30
0.0
 11
-150.0
 21
100.0
 31
0.0
  0
LINE
  5
2E50
330
1E
100
AcDbEntity
  8
SERVICE_SPACE
  6
CONTINUOUS
100
AcDbLine
 10
173.0
 20
0.0
 30
0.0
 11
173.0
 21
100.0
 31
0.0
  0
LINE
  5
2E51
330
1E
100
AcDbEntity
  8
SERVICE_SPACE
  6
CONTINUOUS
100
AcDbLine
 10
-150.0
 20
0.0000000000000568
 30
0.0
 11
-150.0
 21
100.0
 31
0.0
  0
LINE
  5
2E52
330
1E
100
AcDbEntity
  8
SERVICE_SPACE
  6
CONTINUOUS
100
AcDbLine
 10
-150.0
 20
0.0000000000000568
 30
0.0
 11
173.0
 21
100.0
 31
0.0
  0
LINE
  5
2E53
330
1E
100
AcDbEntity
  8
SERVICE_SPACE
  6
CONTINUOUS
100
AcDbLine
 10
173.0
 20
0.0
 30
0.0
 11
-150.0
 21
100.0
 31
0.0
  0
LINE
  5
2E54
330
1E
100
AcDbEntity
  8
SERVICE_SPACE
  6
CONTINUOUS
100
AcDbLine
 10
172.9999999999995
 20
-299.9999999999999
 30
0.0
 11
173.0
 21
-550.0
 31
0.0
  0
LINE
  5
2E55
330
1E
100
AcDbEntity
  8
SERVICE_SPACE
  6
CONTINUOUS
100
AcDbLine
 10
-150.0
 20
-299.9999999999999
 30
0.0
 11
-149.9999999999995
 21
-550.0
 31
0.0
  0
LINE
  5
2E56
330
1E
100
AcDbEntity
  8
SERVICE_SPACE
  6
CONTINUOUS
100
AcDbLine
 10
-150.0
 20
-299.9999999999999
 30
0.0
 11
-150.0
 21
0.0000000000000568
 31
0.0
  0
LINE
  5
2E57
330
1E
100
AcDbEntity
  8
SERVICE_SPACE
  6
CONTINUOUS
100
AcDbLine
 10
-150.0
 20
0.0000000000000568
 30
0.0
 11
-399.9999999999995
 21
-299.9999999999999
 31
0.0
  0
LINE
  5
2E58
330
1E
100
AcDbEntity
  8
SERVICE_SPACE
  6
CONTINUOUS
100
AcDbLine
 10
-150.0
 20
-299.9999999999999
 30
0.0
 11
-400.0
 21
0.0000000000000568
 31
0.0
  0
TEXT
  5
2E9F
330
1E
100
AcDbEntity
  8
NOTE
  6
CONTINUOUS
100
AcDbText
 10
-119.0462540953412
 20
-637.1738306643488
 30
0.0
 40
64.0
  1
サ－ビス
 41
0.9
100
AcDbText
  0
TEXT
  5
2EA0
330
1E
100
AcDbEntity
  8
NOTE
  6
CONTINUOUS
100
AcDbText
 10
-119.0462540953412
 20
-707.8187198842384
 30
0.0
 40
64.0
  1
スペ－ス
 41
0.9
100
AcDbText
  0
TEXT
  5
2EAB
330
1E
100
AcDbEntity
  8
NOTE
  6
CONTINUOUS
100
AcDbText
 10
-689.6839713344852
 20
-180.79203795706
 30
0.0
 40
64.0
  1
サ－ビス
 41
0.9
100
AcDbText
  0
TEXT
  5
2EAC
330
1E
100
AcDbEntity
  8
NOTE
  6
CONTINUOUS
100
AcDbText
 10
-689.6839713344852
 20
-251.4369271769496
 30
0.0
 40
64.0
  1
スペ－ス
 41
0.9
100
AcDbText
  0
TEXT
  5
2EAD
330
1E
100
AcDbEntity
  8
NOTE
  6
CONTINUOUS
100
AcDbText
 10
346.4739854615727
 20
53.40389977735373
 30
0.0
 40
64.0
  1
サ－ビス
 41
0.9
100
AcDbText
  0
TEXT
  5
2EAE
330
1E
100
AcDbEntity
  8
NOTE
  6
CONTINUOUS
100
AcDbText
 10
346.4739854615727
 20
-17.24098944253586
 30
0.0
 40
64.0
  1
スペ－ス
 41
0.9
100
AcDbText
  0
TEXT
  5
2EAF
330
1E
100
AcDbEntity
  8
NOTE
  6
CONTINUOUS
100
AcDbText
 10
341.0822392042719
 20
-200.5088428645243
 30
0.0
 40
64.0
  1
ユニット側
 41
0.9
100
AcDbText
  0
LINE
  5
2EB8
330
1E
100
AcDbEntity
  8
SERVICE_SPACE
  6
CONTINUOUS
100
AcDbLine
 10
172.9999999999995
 20
-299.9999999999999
 30
0.0
 11
-149.9999999999995
 21
-550.0
 31
0.0
  0
LINE
  5
2EB9
330
1E
100
AcDbEntity
  8
SERVICE_SPACE
  6
CONTINUOUS
100
AcDbLine
 10
-149.922763999999
 20
-299.9999999999999
 30
0.0
 11
173.0
 21
-550.0
 31
0.0
  0
CIRCLE
  5
2EBD
330
1E
100
AcDbEntity
  8
ARRANGE
  6
CONTINUOUS
100
AcDbCircle
 10
0.0
 20
0.0000000000000568
 30
0.0
 40
40.0
  0
POINT
  5
2EBE
330
1E
100
AcDbEntity
  8
ARRANGE
  6
CONTINUOUS
100
AcDbPoint
 10
0.0
 20
0.0000000000000568
 30
0.0
  0
LINE
  5
2ECB
330
1E
100
AcDbEntity
  8
BASIS
  6
DASHDOT
100
AcDbLine
 10
0.0
 20
-354.3417239999998
 30
0.0
 11
0.0
 21
43.36240542356842
 31
0.0
  0
LINE
  5
30ED
330
1E
100
AcDbEntity
  8
SIZE
  6
CONTINUOUS
100
AcDbLine
 10
-150.0
 20
120.0
 30
0.0
 11
-150.0
 21
216.5445050695985
 31
0.0
  0
LINE
  5
30EE
330
1E
100
AcDbEntity
  8
SIZE
  6
CONTINUOUS
100
AcDbLine
 10
-400.0
 20
20.00000000000005
 30
0.0
 11
-400.0
 21
216.5445050695985
 31
0.0
  0
LINE
  5
30EF
330
1E
100
AcDbEntity
  8
SIZE
  6
CONTINUOUS
100
AcDbLine
 10
-160.0
 20
186.5445050695985
 30
0.0
 11
-390.0
 21
186.5445050695985
 31
0.0
  0
LINE
  5
30F3
330
1E
100
AcDbEntity
  8
SIZE
  6
CONTINUOUS
100
AcDbLine
 10
193.0
 20
100.0
 30
0.0
 11
333.6110286124348
 21
100.0
 31
0.0
  0
LINE
  5
30F4
330
1E
100
AcDbEntity
  8
SIZE
  6
CONTINUOUS
100
AcDbLine
 10
193.0
 20
-0.0000000000000057
 30
0.0
 11
333.6110286124348
 21
-0.0000000000000455
 31
0.0
  0
LINE
  5
30F5
330
1E
100
AcDbEntity
  8
SIZE
  6
CONTINUOUS
100
AcDbLine
 10
303.6110286124348
 20
110.0
 30
0.0
 11
303.6110286124348
 21
120.0
 31
0.0
  0
LINE
  5
30F6
330
1E
100
AcDbEntity
  8
SIZE
  6
CONTINUOUS
100
AcDbLine
 10
303.6110286124348
 20
-10.00000000000003
 30
0.0
 11
303.6110286124348
 21
-20.00000000000003
 31
0.0
  0
LINE
  5
30F7
330
1E
100
AcDbEntity
  8
SIZE
  6
CONTINUOUS
100
AcDbLine
 10
303.6110286124348
 20
100.0
 30
0.0
 11
303.6110286124348
 21
-0.000000000000037
 31
0.0
  0
LINE
  5
30FB
330
1E
100
AcDbEntity
  8
SIZE
  6
CONTINUOUS
100
AcDbLine
 10
-169.922763999999
 20
-299.9999999999999
 30
0.0
 11
-297.7514222216377
 21
-299.9999999999999
 31
0.0
  0
LINE
  5
30FC
330
1E
100
AcDbEntity
  8
SIZE
  6
CONTINUOUS
100
AcDbLine
 10
-169.9999999999995
 20
-550.0
 30
0.0
 11
-297.7514222216377
 21
-549.9999999999999
 31
0.0
  0
LINE
  5
30FD
330
1E
100
AcDbEntity
  8
SIZE
  6
CONTINUOUS
100
AcDbLine
 10
-267.7514222216377
 20
-309.9999999999999
 30
0.0
 11
-267.7514222216377
 21
-539.9999999999998
 31
0.0
  0
LINE
  5
3101
330
1E
100
AcDbEntity
  8
SIZE
  6
CONTINUOUS
100
AcDbLine
 10
73.0
 20
160.0
 30
0.0
 11
73.00000000000001
 21
258.6646153433089
 31
0.0
  0
LINE
  5
3102
330
1E
100
AcDbEntity
  8
SIZE
  6
CONTINUOUS
100
AcDbLine
 10
150.0
 20
1.877304000000151
 30
0.0
 11
150.0
 21
258.6646153433089
 31
0.0
  0
LINE
  5
3103
330
1E
100
AcDbEntity
  8
SIZE
  6
CONTINUOUS
100
AcDbLine
 10
63.0
 20
228.6646153433089
 30
0.0
 11
53.0
 21
228.6646153433089
 31
0.0
  0
LINE
  5
3104
330
1E
100
AcDbEntity
  8
SIZE
  6
CONTINUOUS
100
AcDbLine
 10
160.0
 20
228.6646153433089
 30
0.0
 11
170.0
 21
228.6646153433089
 31
0.0
  0
LINE
  5
3105
330
1E
100
AcDbEntity
  8
SIZE
  6
CONTINUOUS
100
AcDbLine
 10
73.0
 20
228.6646153433089
 30
0.0
 11
150.0
 21
228.6646153433089
 31
0.0
  0
LINE
  5
3109
330
1E
100
AcDbEntity
  8
SIZE
  6
CONTINUOUS
100
AcDbLine
 10
33.0
 20
120.0
 30
0.0
 11
-297.5683220432424
 21
120.0000000000001
 31
0.0
  0
LINE
  5
310A
330
1E
100
AcDbEntity
  8
SIZE
  6
CONTINUOUS
100
AcDbLine
 10
-151.2141439999995
 20
0.0000000000000625
 30
0.0
 11
-297.5683220432424
 21
0.000000000000104
 31
0.0
  0
LINE
  5
310B
330
1E
100
AcDbEntity
  8
SIZE
  6
CONTINUOUS
100
AcDbLine
 10
-267.5683220432424
 20
130.0000000000001
 30
0.0
 11
-267.5683220432424
 21
140.0000000000001
 31
0.0
  0
LINE
  5
310C
330
1E
100
AcDbEntity
  8
SIZE
  6
CONTINUOUS
100
AcDbLine
 10
-267.5683220432424
 20
-9.999999999999905
 30
0.0
 11
-267.5683220432424
 21
-19.9999999999999
 31
0.0
  0
LINE
  5
310D
330
1E
100
AcDbEntity
  8
SIZE
  6
CONTINUOUS
100
AcDbLine
 10
-267.5683220432424
 20
120.0000000000001
 30
0.0
 11
-267.5683220432424
 21
0.0000000000000955
 31
0.0
  0
LINE
  5
3111
330
1E
100
AcDbEntity
  8
SIZE
  6
CONTINUOUS
100
AcDbLine
 10
-149.922763999999
 20
-299.9999999999999
 30
0.0
 11
-297.7514222216378
 21
-299.9999999999999
 31
0.0
  0
LINE
  5
3112
330
1E
100
AcDbEntity
  8
SIZE
  6
CONTINUOUS
100
AcDbLine
 10
-151.2141439999995
 20
0.0000000000000625
 30
0.0
 11
-297.7514222216377
 21
0.000000000000104
 31
0.0
  0
LINE
  5
3113
330
1E
100
AcDbEntity
  8
SIZE
  6
CONTINUOUS
100
AcDbLine
 10
-267.7514222216378
 20
-289.9999999999999
 30
0.0
 11
-267.7514222216377
 21
-9.999999999999905
 31
0.0
  0
LINE
  5
3117
330
1E
100
AcDbEntity
  8
SIZE
  6
CONTINUOUS
100
AcDbLine
 10
150.0
 20
-212.4574959999999
 30
0.0
 11
149.9999999999999
 21
-491.7792952485774
 31
0.0
  0
LINE
  5
3118
330
1E
100
AcDbEntity
  8
SIZE
  6
CONTINUOUS
100
AcDbLine
 10
173.0
 20
-316.4999999999999
 30
0.0
 11
173.0
 21
-491.7792952485774
 31
0.0
  0
LINE
  5
3119
330
1E
100
AcDbEntity
  8
SIZE
  6
CONTINUOUS
100
AcDbLine
 10
139.9999999999999
 20
-461.7792952485774
 30
0.0
 11
129.9999999999999
 21
-461.7792952485774
 31
0.0
  0
LINE
  5
311A
330
1E
100
AcDbEntity
  8
SIZE
  6
CONTINUOUS
100
AcDbLine
 10
183.0
 20
-461.7792952485774
 30
0.0
 11
306.2571428571428
 21
-461.7792952485774
 31
0.0
  0
LINE
  5
311B
330
1E
100
AcDbEntity
  8
SIZE
  6
CONTINUOUS
100
AcDbLine
 10
149.9999999999999
 20
-461.7792952485774
 30
0.0
 11
173.0
 21
-461.7792952485774
 31
0.0
  0
LINE
  5
311F
330
1E
100
AcDbEntity
  8
SIZE
  6
CONTINUOUS
100
AcDbLine
 10
-150.0
 20
-297.5177040000002
 30
0.0
 11
-150.0
 21
-491.7792952485774
 31
0.0
  0
LINE
  5
3120
330
1E
100
AcDbEntity
  8
SIZE
  6
CONTINUOUS
100
AcDbLine
 10
150.0
 20
-212.4574959999999
 30
0.0
 11
149.9999999999999
 21
-491.7792952485774
 31
0.0
  0
LINE
  5
3121
330
1E
100
AcDbEntity
  8
SIZE
  6
CONTINUOUS
100
AcDbLine
 10
-140.0
 20
-461.7792952485774
 30
0.0
 11
139.9999999999999
 21
-461.7792952485774
 31
0.0
  0
TEXT
  5
3125
330
1E
100
AcDbEntity
  8
SIZE
  6
CONTINUOUS
100
AcDbText
 10
-349.0571428571428
 20
196.5445050695985
 30
0.0
 40
64.0
  1
250
 41
0.9
100
AcDbText
  0
CIRCLE
  5
3126
330
1E
100
AcDbEntity
  8
SIZE
  6
BYBLOCK
100
AcDbCircle
 10
-400.0
 20
186.5445050695985
 30
0.0
 40
5.0
  0
LINE
  5
3127
330
1E
100
AcDbEntity
  8
SIZE
  6
BYBLOCK
100
AcDbLine
 10
-400.0
 20
186.5445050695985
 30
0.0
 11
-390.0
 21
186.5445050695985
 31
0.0
  0
CIRCLE
  5
3128
330
1E
100
AcDbEntity
  8
SIZE
  6
BYBLOCK
100
AcDbCircle
 10
-150.0
 20
186.5445050695985
 30
0.0
 40
5.0
  0
LINE
  5
3129
330
1E
100
AcDbEntity
  8
SIZE
  6
BYBLOCK
100
AcDbLine
 10
-150.0
 20
186.5445050695985
 30
0.0
 11
-160.0
 21
186.5445050695985
 31
0.0
  0
TEXT
  5
312A
330
1E
100
AcDbEntity
  8
SIZE
  6
CONTINUOUS
100
AcDbText
 10
293.6110286124348
 20
-18.57142857142852
 30
0.0
 40
64.0
  1
100
 50
90.0
 41
0.9
100
AcDbText
  0
CIRCLE
  5
312B
330
1E
100
AcDbEntity
  8
SIZE
  6
BYBLOCK
100
AcDbCircle
 10
303.6110286124348
 20
-0.000000000000037
 30
0.0
 40
5.0
  0
LINE
  5
312C
330
1E
100
AcDbEntity
  8
SIZE
  6
BYBLOCK
100
AcDbLine
 10
303.6110286124348
 20
-0.000000000000037
 30
0.0
 11
303.6110286124348
 21
-10.00000000000003
 31
0.0
  0
CIRCLE
  5
312D
330
1E
100
AcDbEntity
  8
SIZE
  6
BYBLOCK
100
AcDbCircle
 10
303.6110286124348
 20
100.0
 30
0.0
 40
5.0
  0
LINE
  5
312E
330
1E
100
AcDbEntity
  8
SIZE
  6
BYBLOCK
100
AcDbLine
 10
303.6110286124348
 20
100.0
 30
0.0
 11
303.6110286124348
 21
110.0
 31
0.0
  0
TEXT
  5
312F
330
1E
100
AcDbEntity
  8
SIZE
  6
CONTINUOUS
100
AcDbText
 10
-277.7514222216376
 20
-499.0571428571428
 30
0.0
 40
64.0
  1
250
 50
90.0
 41
0.9
100
AcDbText
  0
CIRCLE
  5
3130
330
1E
100
AcDbEntity
  8
SIZE
  6
BYBLOCK
100
AcDbCircle
 10
-267.7514222216377
 20
-549.9999999999999
 30
0.0
 40
5.0
  0
LINE
  5
3131
330
1E
100
AcDbEntity
  8
SIZE
  6
BYBLOCK
100
AcDbLine
 10
-267.7514222216377
 20
-549.9999999999999
 30
0.0
 11
-267.7514222216377
 21
-539.9999999999998
 31
0.0
  0
CIRCLE
  5
3132
330
1E
100
AcDbEntity
  8
SIZE
  6
BYBLOCK
100
AcDbCircle
 10
-267.7514222216377
 20
-299.9999999999999
 30
0.0
 40
5.0
  0
LINE
  5
3133
330
1E
100
AcDbEntity
  8
SIZE
  6
BYBLOCK
100
AcDbLine
 10
-267.7514222216377
 20
-299.9999999999999
 30
0.0
 11
-267.7514222216377
 21
-309.9999999999999
 31
0.0
  0
TEXT
  5
3134
330
1E
100
AcDbEntity
  8
SIZE
  6
CONTINUOUS
100
AcDbText
 10
64.87142857142858
 20
238.664615343309
 30
0.0
 40
64.0
  1
77
 41
0.9
100
AcDbText
  0
CIRCLE
  5
3135
330
1E
100
AcDbEntity
  8
SIZE
  6
BYBLOCK
100
AcDbCircle
 10
150.0
 20
228.6646153433089
 30
0.0
 40
5.0
  0
LINE
  5
3136
330
1E
100
AcDbEntity
  8
SIZE
  6
BYBLOCK
100
AcDbLine
 10
150.0
 20
228.6646153433089
 30
0.0
 11
160.0
 21
228.6646153433089
 31
0.0
  0
CIRCLE
  5
3137
330
1E
100
AcDbEntity
  8
SIZE
  6
BYBLOCK
100
AcDbCircle
 10
73.0
 20
228.6646153433089
 30
0.0
 40
5.0
  0
LINE
  5
3138
330
1E
100
AcDbEntity
  8
SIZE
  6
BYBLOCK
100
AcDbLine
 10
73.0
 20
228.6646153433089
 30
0.0
 11
63.0
 21
228.6646153433089
 31
0.0
  0
TEXT
  5
3139
330
1E
100
AcDbEntity
  8
SIZE
  6
CONTINUOUS
100
AcDbText
 10
-277.5683220432424
 20
-8.571428571428484
 30
0.0
 40
64.0
  1
120
 50
90.0
 41
0.9
100
AcDbText
  0
CIRCLE
  5
313A
330
1E
100
AcDbEntity
  8
SIZE
  6
BYBLOCK
100
AcDbCircle
 10
-267.5683220432424
 20
0.0000000000000955
 30
0.0
 40
5.0
  0
LINE
  5
313B
330
1E
100
AcDbEntity
  8
SIZE
  6
BYBLOCK
100
AcDbLine
 10
-267.5683220432424
 20
0.0000000000000955
 30
0.0
 11
-267.5683220432424
 21
-9.999999999999904
 31
0.0
  0
CIRCLE
  5
313C
330
1E
100
AcDbEntity
  8
SIZE
  6
BYBLOCK
100
AcDbCircle
 10
-267.5683220432424
 20
120.0000000000001
 30
0.0
 40
5.0
  0
LINE
  5
313D
330
1E
100
AcDbEntity
  8
SIZE
  6
BYBLOCK
100
AcDbLine
 10
-267.5683220432424
 20
120.0000000000001
 30
0.0
 11
-267.5683220432424
 21
130.0000000000001
 31
0.0
  0
TEXT
  5
313E
330
1E
100
AcDbEntity
  8
SIZE
  6
CONTINUOUS
100
AcDbText
 10
-277.7514222216377
 20
-224.0571428571427
 30
0.0
 40
64.0
  1
300
 50
90.0
 41
0.9
100
AcDbText
  0
CIRCLE
  5
313F
330
1E
100
AcDbEntity
  8
SIZE
  6
BYBLOCK
100
AcDbCircle
 10
-267.7514222216377
 20
0.0000000000000955
 30
0.0
 40
5.0
  0
LINE
  5
3140
330
1E
100
AcDbEntity
  8
SIZE
  6
BYBLOCK
100
AcDbLine
 10
-267.7514222216377
 20
0.0000000000000955
 30
0.0
 11
-267.7514222216377
 21
-9.999999999999904
 31
0.0
  0
CIRCLE
  5
3141
330
1E
100
AcDbEntity
  8
SIZE
  6
BYBLOCK
100
AcDbCircle
 10
-267.7514222216378
 20
-299.9999999999999
 30
0.0
 40
5.0
  0
LINE
  5
3142
330
1E
100
AcDbEntity
  8
SIZE
  6
BYBLOCK
100
AcDbLine
 10
-267.7514222216378
 20
-299.9999999999999
 30
0.0
 11
-267.7514222216378
 21
-289.9999999999999
 31
0.0
  0
TEXT
  5
3143
330
1E
100
AcDbEntity
  8
SIZE
  6
CONTINUOUS
100
AcDbText
 10
203.0
 20
-451.7792952485773
 30
0.0
 40
64.0
  1
23
 41
0.9
100
AcDbText
  0
CIRCLE
  5
3144
330
1E
100
AcDbEntity
  8
SIZE
  6
BYBLOCK
100
AcDbCircle
 10
173.0
 20
-461.7792952485774
 30
0.0
 40
5.0
  0
LINE
  5
3145
330
1E
100
AcDbEntity
  8
SIZE
  6
BYBLOCK
100
AcDbLine
 10
173.0
 20
-461.7792952485774
 30
0.0
 11
183.0
 21
-461.7792952485774
 31
0.0
  0
CIRCLE
  5
3146
330
1E
100
AcDbEntity
  8
SIZE
  6
BYBLOCK
100
AcDbCircle
 10
149.9999999999999
 20
-461.7792952485774
 30
0.0
 40
5.0
  0
LINE
  5
3147
330
1E
100
AcDbEntity
  8
SIZE
  6
BYBLOCK
100
AcDbLine
 10
149.9999999999999
 20
-461.7792952485774
 30
0.0
 11
139.9999999999999
 21
-461.7792952485774
 31
0.0
  0
TEXT
  5
3148
330
1E
100
AcDbEntity
  8
SIZE
  6
CONTINUOUS
100
AcDbText
 10
-74.05714285714286
 20
-451.7792952485773
 30
0.0
 40
64.0
  1
300
 41
0.9
100
AcDbText
  0
CIRCLE
  5
3149
330
1E
100
AcDbEntity
  8
SIZE
  6
BYBLOCK
100
AcDbCircle
 10
149.9999999999999
 20
-461.7792952485774
 30
0.0
 40
5.0
  0
LINE
  5
314A
330
1E
100
AcDbEntity
  8
SIZE
  6
BYBLOCK
100
AcDbLine
 10
149.9999999999999
 20
-461.7792952485774
 30
0.0
 11
139.9999999999999
 21
-461.7792952485774
 31
0.0
  0
CIRCLE
  5
314B
330
1E
100
AcDbEntity
  8
SIZE
  6
BYBLOCK
100
AcDbCircle
 10
-150.0
 20
-461.7792952485774
 30
0.0
 40
5.0
  0
LINE
  5
314C
330
1E
100
AcDbEntity
  8
SIZE
  6
BYBLOCK
100
AcDbLine
 10
-150.0
 20
-461.7792952485774
 30
0.0
 11
-140.0
 21
-461.7792952485774
 31
0.0
  0
LINE
  5
314F
330
1E
100
AcDbEntity
  8
OUTLINE
  6
CONTINUOUS
100
AcDbLine
 10
150.0
 20
-19.99999999999994
 30
0.0
 11
160.0
 21
-19.99999999999994
 31
0.0
  0
LINE
  5
3150
330
1E
100
AcDbEntity
  8
OUTLINE
  6
CONTINUOUS
100
AcDbLine
 10
150.0
 20
-59.99999999999994
 30
0.0
 11
160.0
 21
-59.99999999999994
 31
0.0
  0
LINE
  5
3151
330
1E
100
AcDbEntity
  8
OUTLINE
  6
CONTINUOUS
100
AcDbLine
 10
163.0
 20
-56.99999999999994
 30
0.0
 11
163.0
 21
-22.99999999999994
 31
0.0
  0
LINE
  5
3152
330
1E
100
AcDbEntity
  8
OUTLINE
  6
CONTINUOUS
100
AcDbLine
 10
160.0
 20
-19.99999999999994
 30
0.0
 11
163.0
 21
-22.99999999999994
 31
0.0
  0
LINE
  5
3153
330
1E
100
AcDbEntity
  8
OUTLINE
  6
CONTINUOUS
100
AcDbLine
 10
160.0
 20
-59.99999999999994
 30
0.0
 11
163.0
 21
-56.99999999999994
 31
0.0
  0
ARC
  5
3154
330
1E
100
AcDbEntity
  8
OUTLINE
  6
CONTINUOUS
100
AcDbCircle
 10
-131.2141439999995
 20
-14.99999999999994
 30
0.0
 40
15.0
100
AcDbArc
 50
90.0
 51
122.8067669999767
  0
ARC
  5
3155
330
1E
100
AcDbEntity
  8
OUTLINE
  6
CONTINUOUS
100
AcDbCircle
 10
-135.0
 20
-18.12269599999984
 30
0.0
 40
15.0
100
AcDbArc
 50
136.2270069999647
 51
180.0
  0
ARC
  5
3156
330
1E
100
AcDbEntity
  8
OUTLINE
  6
CONTINUOUS
100
AcDbCircle
 10
-135.0
 20
-277.5177040000002
 30
0.0
 40
15.0
100
AcDbArc
 50
180.0
 51
201.7268220000146
  0
ARC
  5
3157
330
1E
100
AcDbEntity
  8
OUTLINE
  6
CONTINUOUS
100
AcDbCircle
 10
-129.922763999999
 20
-284.9999999999998
 30
0.0
 40
15.0
100
AcDbArc
 50
226.592225999994
 51
270.0
  0
ARC
  5
3158
330
1E
100
AcDbEntity
  8
OUTLINE
  6
CONTINUOUS
100
AcDbCircle
 10
131.21414
 20
-14.99999999999994
 30
0.0
 40
15.0
100
AcDbArc
 50
57.19323300002325
 51
90.0
  0
ARC
  5
3159
330
1E
100
AcDbEntity
  8
OUTLINE
  6
CONTINUOUS
100
AcDbCircle
 10
135.0
 20
-18.12269599999984
 30
0.0
 40
15.0
100
AcDbArc
 50
0.0
 51
43.77299300003525
  0
LINE
  5
317C
330
1E
100
AcDbEntity
  8
OUTLINE
  6
CONTINUOUS
100
AcDbLine
 10
152.0
 20
-283.9999999999998
 30
0.0
 11
152.0
 21
-192.4574959999999
 31
0.0
  0
LINE
  5
317D
330
1E
100
AcDbEntity
  8
OUTLINE
  6
CONTINUOUS
100
AcDbLine
 10
150.0
 20
-192.4574959999999
 30
0.0
 11
152.0
 21
-192.4574959999999
 31
0.0
  0
LINE
  5
3181
330
1E
100
AcDbEntity
  8
OUTLINE
  6
CONTINUOUS
100
AcDbLine
 10
150.0
 20
-192.4574959999999
 30
0.0
 11
150.0
 21
-18.12269599999984
 31
0.0
  0
LINE
  5
3185
330
1E
100
AcDbEntity
  8
OUTLINE
  6
CONTINUOUS
100
AcDbLine
 10
131.21414
 20
0.0000000000000568
 30
0.0
 11
0.0
 21
0.0000000000000568
 31
0.0
  0
LINE
  5
3186
330
1E
100
AcDbEntity
  8
OUTLINE
  6
CONTINUOUS
100
AcDbLine
 10
169.5
 20
-299.9999999999999
 30
0.0
 11
0.0
 21
-299.9999999999999
 31
0.0
  0
LINE
  5
3187
330
1E
100
AcDbEntity
  8
OUTLINE
  6
CONTINUOUS
100
AcDbLine
 10
-131.2141439999995
 20
0.0000000000000568
 30
0.0
 11
0.0
 21
0.0000000000000568
 31
0.0
  0
ARC
  5
3188
330
1E
100
AcDbEntity
  8
OUTLINE
  6
CONTINUOUS
100
AcDbCircle
 10
-119.8361879999993
 20
-32.65055599999999
 30
0.0
 40
36.0
100
AcDbArc
 50
122.8067669999767
 51
136.2270069999647
  0
ARC
  5
3189
330
1E
100
AcDbEntity
  8
OUTLINE
  6
CONTINUOUS
100
AcDbCircle
 10
119.8361839999997
 20
-32.65055599999999
 30
0.0
 40
36.0
100
AcDbArc
 50
43.77299300003525
 51
57.19323300002325
  0
LINE
  5
318A
330
1E
100
AcDbEntity
  8
OUTLINE
  6
CONTINUOUS
100
AcDbLine
 10
-150.0
 20
-277.5177040000002
 30
0.0
 11
-150.0
 21
-18.12269599999984
 31
0.0
  0
ARC
  5
318B
330
1E
100
AcDbEntity
  8
OUTLINE
  6
CONTINUOUS
100
AcDbCircle
 10
-115.4918559999987
 20
-269.7438879999998
 30
0.0
 40
36.0
100
AcDbArc
 50
201.7268220000146
 51
226.592225999994
  0
LINE
  5
318C
330
1E
100
AcDbEntity
  8
OUTLINE
  6
CONTINUOUS
100
AcDbLine
 10
-129.922763999999
 20
-299.9999999999999
 30
0.0
 11
0.0
 21
-299.9999999999999
 31
0.0
  0
LINE
  5
318F
330
1E
100
AcDbEntity
  8
OUTLINE
  6
CONTINUOUS
100
AcDbLine
 10
173.0
 20
-296.4999999999998
 30
0.0
 11
173.0
 21
-287.9999999999999
 31
0.0
  0
LINE
  5
3190
330
1E
100
AcDbEntity
  8
OUTLINE
  6
CONTINUOUS
100
AcDbLine
 10
173.0
 20
-287.9999999999999
 30
0.0
 11
156.0
 21
-287.9999999999999
 31
0.0
  0
ARC
  5
3191
330
1E
100
AcDbEntity
  8
OUTLINE
  6
CONTINUOUS
100
AcDbCircle
 10
156.0
 20
-283.9999999999998
 30
0.0
 40
4.0
100
AcDbArc
 50
180.0
 51
270.0
  0
ARC
  5
3192
330
1E
100
AcDbEntity
  8
OUTLINE
  6
CONTINUOUS
100
AcDbCircle
 10
169.5
 20
-296.4999999999998
 30
0.0
 40
3.5
100
AcDbArc
 50
270.0
 51
0.0
  0
ARC
  5
3193
330
1E
100
AcDbEntity
  8
OUTLINE
  6
CONTINUOUS
100
AcDbCircle
 10
88.19741200000136
 20
69.95013999999997
 30
0.0
 40
1.309531999999999
100
AcDbArc
 50
270.0
 51
96.91713099999747
  0
LINE
  5
3194
330
1E
100
AcDbEntity
  8
OUTLINE
  6
CONTINUOUS
100
AcDbLine
 10
87.99741200000061
 20
68.64060800000022
 30
0.0
 11
87.99741200000061
 21
66.25014000000016
 31
0.0
  0
LINE
  5
3195
330
1E
100
AcDbEntity
  8
OUTLINE
  6
CONTINUOUS
100
AcDbLine
 10
88.0
 20
72.00000000000006
 30
0.0
 11
88.0
 21
71.25014000000016
 31
0.0
  0
ARC
  5
3196
330
1E
100
AcDbEntity
  8
OUTLINE
  6
CONTINUOUS
100
AcDbCircle
 10
88.19741200000136
 20
64.95013999999997
 30
0.0
 40
1.309531999999999
100
AcDbArc
 50
270.0
 51
96.91713099999747
  0
ARC
  5
3197
330
1E
100
AcDbEntity
  8
OUTLINE
  6
CONTINUOUS
100
AcDbCircle
 10
88.19741200000136
 20
59.95013999999997
 30
0.0
 40
1.309531999999999
100
AcDbArc
 50
270.0
 51
96.91713099999747
  0
LINE
  5
3198
330
1E
100
AcDbEntity
  8
OUTLINE
  6
CONTINUOUS
100
AcDbLine
 10
87.99741200000061
 20
63.64060800000022
 30
0.0
 11
87.99741200000061
 21
61.25014000000016
 31
0.0
  0
LINE
  5
3199
330
1E
100
AcDbEntity
  8
OUTLINE
  6
DIVIDE
100
AcDbLine
 10
89.50694400000065
 20
59.95013999999997
 30
0.0
 11
89.50694400000065
 21
36.5683880000002
 31
0.0
  0
ARC
  5
319A
330
1E
100
AcDbEntity
  8
OUTLINE
  6
DIVIDE
100
AcDbCircle
 10
46.50694400000065
 20
36.5683880000002
 30
0.0
 40
43.0
100
AcDbArc
 50
326.4834439999904
 51
0.0
  0
LINE
  5
319B
330
1E
100
AcDbEntity
  8
OUTLINE
  6
CONTINUOUS
100
AcDbLine
 10
88.0
 20
120.0
 30
0.0
 11
88.0
 21
92.00000000000006
 31
0.0
  0
LINE
  5
319C
330
1E
100
AcDbEntity
  8
OUTLINE
  6
CONTINUOUS
100
AcDbLine
 10
91.0
 20
90.00000000000005
 30
0.0
 11
91.0
 21
72.00000000000006
 31
0.0
  0
ARC
  5
319D
330
1E
100
AcDbEntity
  8
OUTLINE
  6
CONTINUOUS
100
AcDbCircle
 10
89.0
 20
90.00000000000005
 30
0.0
 40
2.0
100
AcDbArc
 50
0.0
 51
90.0
  0
LINE
  5
319E
330
1E
100
AcDbEntity
  8
OUTLINE
  6
CONTINUOUS
100
AcDbLine
 10
88.0
 20
92.00000000000006
 30
0.0
 11
89.0
 21
92.00000000000006
 31
0.0
  0
LINE
  5
319F
330
1E
100
AcDbEntity
  8
OUTLINE
  6
CONTINUOUS
100
AcDbLine
 10
57.99740800000108
 20
72.00000000000006
 30
0.0
 11
57.99740800000108
 21
71.25014000000016
 31
0.0
  0
LINE
  5
31A0
330
1E
100
AcDbEntity
  8
OUTLINE
  6
DIVIDE
100
AcDbLine
 10
56.48787600000105
 20
59.95013999999997
 30
0.0
 11
56.48787600000105
 21
36.53960000000012
 31
0.0
  0
LINE
  5
31A1
330
1E
100
AcDbEntity
  8
OUTLINE
  6
CONTINUOUS
100
AcDbLine
 10
58.0
 20
120.0
 30
0.0
 11
58.0
 21
92.00000000000006
 31
0.0
  0
LINE
  5
31A2
330
1E
100
AcDbEntity
  8
OUTLINE
  6
CONTINUOUS
100
AcDbLine
 10
55.0
 20
90.00000000000005
 30
0.0
 11
55.0
 21
72.00000000000006
 31
0.0
  0
LINE
  5
31A3
330
1E
100
AcDbEntity
  8
OUTLINE
  6
CONTINUOUS
100
AcDbLine
 10
57.0
 20
92.00000000000006
 30
0.0
 11
88.0
 21
92.00000000000006
 31
0.0
  0
LINE
  5
31A4
330
1E
100
AcDbEntity
  8
OUTLINE
  6
CONTINUOUS
100
AcDbLine
 10
55.0
 20
72.00000000000006
 30
0.0
 11
91.0
 21
72.00000000000006
 31
0.0
  0
ARC
  5
31A5
330
1E
100
AcDbEntity
  8
OUTLINE
  6
CONTINUOUS
100
AcDbCircle
 10
57.0
 20
90.00000000000005
 30
0.0
 40
2.0
100
AcDbArc
 50
90.0
 51
180.0
  0
LINE
  5
31A6
330
1E
100
AcDbEntity
  8
OUTLINE
  6
CONTINUOUS
100
AcDbLine
 10
58.0
 20
72.00000000000006
 30
0.0
 11
58.0
 21
71.25014000000016
 31
0.0
  0
LINE
  5
31A7
330
1E
100
AcDbEntity
  8
OUTLINE
  6
CONTINUOUS
100
AcDbLine
 10
57.95771200000126
 20
71.25014000000016
 30
0.0
 11
88.04228800000055
 21
71.25014000000016
 31
0.0
  0
LINE
  5
31A8
330
1E
100
AcDbEntity
  8
OUTLINE
  6
CONTINUOUS
100
AcDbLine
 10
88.19741200000136
 20
68.64060800000022
 30
0.0
 11
57.79740800000036
 21
68.64060800000022
 31
0.0
  0
ARC
  5
31A9
330
1E
100
AcDbEntity
  8
OUTLINE
  6
CONTINUOUS
100
AcDbCircle
 10
57.79740800000036
 20
69.95013999999997
 30
0.0
 40
1.309531999999999
100
AcDbArc
 50
83.08286900000252
 51
270.0
  0
LINE
  5
31AA
330
1E
100
AcDbEntity
  8
OUTLINE
  6
CONTINUOUS
100
AcDbLine
 10
88.03970000000118
 20
66.25014000000016
 30
0.0
 11
57.95512000000053
 21
66.25014000000016
 31
0.0
  0
LINE
  5
31AB
330
1E
100
AcDbEntity
  8
OUTLINE
  6
CONTINUOUS
100
AcDbLine
 10
88.19741200000136
 20
63.64060800000022
 30
0.0
 11
57.79740800000036
 21
63.64060800000022
 31
0.0
  0
ARC
  5
31AC
330
1E
100
AcDbEntity
  8
OUTLINE
  6
CONTINUOUS
100
AcDbCircle
 10
57.79740800000036
 20
64.95013999999997
 30
0.0
 40
1.309531999999999
100
AcDbArc
 50
83.08286900000252
 51
270.0
  0
LINE
  5
31AD
330
1E
100
AcDbEntity
  8
OUTLINE
  6
CONTINUOUS
100
AcDbLine
 10
88.03970000000118
 20
61.25014000000016
 30
0.0
 11
57.95512000000053
 21
61.25014000000016
 31
0.0
  0
LINE
  5
31AE
330
1E
100
AcDbEntity
  8
OUTLINE
  6
CONTINUOUS
100
AcDbLine
 10
88.19741200000136
 20
58.64060800000022
 30
0.0
 11
57.79740800000036
 21
58.64060800000022
 31
0.0
  0
ARC
  5
31AF
330
1E
100
AcDbEntity
  8
OUTLINE
  6
CONTINUOUS
100
AcDbCircle
 10
57.79740800000036
 20
59.95013999999997
 30
0.0
 40
1.309531999999999
100
AcDbArc
 50
83.08286900000252
 51
270.0
  0
LINE
  5
31B0
330
1E
100
AcDbEntity
  8
OUTLINE
  6
CONTINUOUS
100
AcDbLine
 10
57.99740800000108
 20
68.64060800000022
 30
0.0
 11
57.99740800000108
 21
66.25014000000016
 31
0.0
  0
LINE
  5
31B1
330
1E
100
AcDbEntity
  8
OUTLINE
  6
CONTINUOUS
100
AcDbLine
 10
57.99740800000108
 20
63.64060800000022
 30
0.0
 11
57.99740800000108
 21
61.25014000000016
 31
0.0
  0
LINE
  5
31B2
330
1E
100
AcDbEntity
  8
OUTLINE
  6
CONTINUOUS
100
AcDbLine
 10
58.0
 20
120.0
 30
0.0
 11
88.0
 21
120.0
 31
0.0
  0
ARC
  5
31B3
330
1E
100
AcDbEntity
  8
OUTLINE
  6
DIVIDE
100
AcDbCircle
 10
46.48787600000105
 20
36.53960000000012
 30
0.0
 40
10.0
100
AcDbArc
 50
326.4834439999904
 51
0.0
  0
LINE
  5
31B4
330
1E
100
AcDbEntity
  8
OUTLINE
  6
DIVIDE
100
AcDbLine
 10
82.35717199999999
 20
12.82473600000008
 30
0.0
 11
73.86333600000035
 21
0.0000000000000568
 31
0.0
  0
LINE
  5
31B5
330
1E
100
AcDbEntity
  8
OUTLINE
  6
DIVIDE
100
AcDbLine
 10
54.82514000000083
 20
31.01782400000007
 30
0.0
 11
34.28200000000106
 21
0.0000000000000568
 31
0.0
  0
ENDSEC
  0
SECTION
  2
OBJECTS
  0
DICTIONARY
  5
C
330
0
100
AcDbDictionary
  3
ACAD_COLOR
350
167D
  3
ACAD_GROUP
350
D
  3
ACAD_LAYOUT
350
19
  3
ACAD_MATERIAL
350
167C
  3
ACAD_MLINESTYLE
350
16
  3
ACAD_PLOTSETTINGS
350
18
  3
ACAD_PLOTSTYLENAME
350
E
  3
ACAD_TABLESTYLE
350
167E
  3
ACDBHEADERROUNDTRIPXREC
350
31D5
  3
ACDBVARIABLEDICTIONARY
350
2770
  0
DICTIONARY
  5
30EA
330
2
100
AcDbDictionary
280
     1
  3
ACAD_LAYERFILTERS
360
31B7
  3
ACLYDICTIONARY
360
31B6
  0
DICTIONARY
  5
2783
330
1E
100
AcDbDictionary
280
     1
  3
ACAD_LAYOUTSELFREF
360
31F8
  3
ACAD_SORTENTS
360
2784
  0
DICTIONARY
  5
31F6
330
1A
100
AcDbDictionary
280
     1
  3
ACAD_LAYOUTSELFREF
360
31F7
  0
DICTIONARY
  5
167D
102
{ACAD_REACTORS
330
C
102
}
330
C
100
AcDbDictionary
  0
DICTIONARY
  5
D
102
{ACAD_REACTORS
330
C
102
}
330
C
100
AcDbDictionary
  0
DICTIONARY
  5
19
102
{ACAD_REACTORS
330
C
102
}
330
C
100
AcDbDictionary
  0
DICTIONARY
  5
167C
102
{ACAD_REACTORS
330
C
102
}
330
C
100
AcDbDictionary
  0
DICTIONARY
  5
16
102
{ACAD_REACTORS
330
C
102
}
330
C
100
AcDbDictionary
  3
STANDARD
350
17
  0
DICTIONARY
  5
18
102
{ACAD_REACTORS
330
C
102
}
330
C
100
AcDbDictionary
  0
ACDBDICTIONARYWDFLT
  5
E
102
{ACAD_REACTORS
330
C
102
}
330
C
100
AcDbDictionary
281
     1
  3
Normal
350
F
100
AcDbDictionaryWithDefault
340
F
  0
DICTIONARY
  5
167E
102
{ACAD_REACTORS
330
C
102
}
330
C
100
AcDbDictionary
  3
STANDARD
350
167F
  0
DICTIONARY
  5
31D5
102
{ACAD_REACTORS
330
C
102
}
330
C
100
AcDbDictionary
  3
CEPSNTYPE
350
31DF
  3
DIMSTYLEDATA
350
31E3
  3
FINGERPRINTGUID
350
31E0
  3
HYPERLINKBASE
350
31D8
  3
INSUNITS
350
31DE
  3
LAYOUTDICT
350
31DA
  3
LWETCUNION
350
31DD
  3
PLOTSETDICT
350
31DB
  3
PLOTSTYLNAMDICT
350
31DC
  3
PSVPSCALE
350
31E2
  3
PUCSBASE
350
31E6
  3
PUCSORGBACK
350
31EC
  3
PUCSORGBOTTOM
350
31E8
  3
PUCSORGFRONT
350
31EB
  3
PUCSORGLEFT
350
31E9
  3
PUCSORGRIGHT
350
31EA
  3
PUCSORGTOP
350
31E7
  3
PUCSORTHOREF
350
31E4
  3
PUCSORTHOVIEW
350
31E5
  3
STYLESHEET
350
31D9
  3
TSTACKALIGN
350
31D6
  3
TSTACKSIZE
350
31D7
  3
UCSBASE
350
31EF
  3
UCSORGBACK
350
31F5
  3
UCSORGBOTTOM
350
31F1
  3
UCSORGFRONT
350
31F4
  3
UCSORGLEFT
350
31F2
  3
UCSORGRIGHT
350
31F3
  3
UCSORGTOP
350
31F0
  3
UCSORTHOREF
350
31ED
  3
UCSORTHOVIEW
350
31EE
  3
VERSIONGUID
350
31E1
  0
DICTIONARY
  5
2770
102
{ACAD_REACTORS
330
C
102
}
330
C
100
AcDbDictionary
  3
CTABLESTYLE
350
2771
  3
DIMASSOC
350
3084
  3
PROJECTNAME
350
3085
  0
DICTIONARY
  5
31B7
102
{ACAD_REACTORS
330
30EA
102
}
330
30EA
100
AcDbDictionary
  0
DICTIONARY
  5
31B6
102
{ACAD_REACTORS
330
30EA
102
}
330
30EA
100
AcDbDictionary
1001
ACAD
1000
<All
  0
XRECORD
  5
31F8
102
{ACAD_REACTORS
330
2783
102
}
330
2783
100
AcDbXrecord
340
1E
  0
SORTENTSTABLE
  5
2784
102
{ACAD_REACTORS
330
2783
102
}
330
2783
100
AcDbSortentsTable
330
1E
331
3130
  5
312C
331
2EBD
  5
314A
331
1F85
  5
1F86
331
1FDB
  5
1FDE
331
3103
  5
3104
331
2E53
  5
3121
331
3141
  5
30EE
331
1F96
  5
1F97
331
1F76
  5
1F77
331
1FA7
  5
1FAA
331
30EF
  5
313B
331
1FEC
  5
1FEF
331
3125
  5
3140
331
3136
  5
310D
331
2ECB
  5
314C
331
1F6B
  5
1F6C
331
1FD0
  5
1FD3
331
1F8B
  5
1F8C
331
1FE1
  5
1FE4
331
3109
  5
30F8
331
3147
  5
2EAE
331
2E9F
  5
3141
331
311A
  5
2EAB
331
2EB8
  5
3148
331
1F9C
  5
1F9D
331
1F7C
  5
1F7D
331
1F80
  5
1F81
331
1FAD
  5
1FB0
331
271B
  5
2724
331
2E4E
  5
311C
331
312B
  5
3136
331
313C
  5
30FD
331
293D
  5
3114
331
1F91
  5
1F92
331
1F71
  5
1F72
331
1FD6
  5
1FD9
331
1FA2
  5
1FA5
331
1FE7
  5
1FEA
331
3120
  5
293B
331
30F3
  5
312F
331
2EBE
  5
314B
331
3131
  5
312D
331
1F86
  5
1F87
331
1FDC
  5
1FDF
331
3104
  5
3105
331
2E54
  5
3122
331
3142
  5
30EF
331
1F97
  5
1F98
331
1F77
  5
1F78
331
1FA8
  5
1FAB
331
1FED
  5
1FF0
331
3126
  5
313E
331
2EAB
  5
3143
331
3137
  5
3107
331
1FD1
  5
1FD4
331
1F8C
  5
1F8D
331
1F6C
  5
1F6D
331
310A
  5
30F9
331
1FE2
  5
1FE5
331
2EA0
  5
3142
331
311B
  5
2EAC
331
3148
  5
2E51
331
2EB9
  5
3149
331
1F9D
  5
1F9E
331
1F7D
  5
1F7E
331
1F81
  5
1F82
331
1FAE
  5
1FB1
331
271C
  5
2725
331
2E4F
  5
311D
331
312C
  5
3137
331
313D
  5
30FE
331
293E
  5
3115
331
1F92
  5
1F93
331
1F72
  5
1F73
331
1FD7
  5
1FDA
331
1FE8
  5
1FEB
331
1FA3
  5
1FA6
331
30F4
  5
3130
331
3121
  5
293F
331
2011
  5
2019
331
3132
  5
312A
331
1F87
  5
1F88
331
1FDD
  5
1FE0
331
3105
  5
3106
331
2E55
  5
3123
331
3143
  5
2EB9
331
1F98
  5
1F99
331
1F78
  5
1F7A
331
1FA9
  5
1FAC
331
1FEE
  5
1FF1
331
3127
  5
313F
331
2EAC
  5
3144
331
3138
  5
310B
331
1F8D
  5
1F8E
331
1F6D
  5
1F6E
331
1FD2
  5
1FD5
331
310B
  5
30FA
331
1FE3
  5
1FE6
331
3149
  5
2E4F
331
1F9E
  5
1FA1
331
1F7E
  5
1F7F
331
1F82
  5
1F83
331
1FD8
  5
1FDB
331
2E50
  5
311E
331
312D
  5
3134
331
313E
  5
30F5
331
3111
  5
2EBF
331
293F
  5
3119
331
1F93
  5
1F94
331
1F73
  5
1F74
331
1FA4
  5
1FA7
331
1FE9
  5
1FEC
331
30F5
  5
3131
331
3133
  5
312B
331
1F88
  5
1F89
331
1FCD
  5
1FD0
331
1FDE
  5
1FE1
331
2E56
  5
3124
331
3117
  5
2E55
331
3144
  5
2EAF
331
1F99
  5
1F9A
331
1FAA
  5
1FAD
331
1FEF
  5
1FF2
331
2E4B
  5
1FA0
331
3128
  5
313C
331
2EAD
  5
3145
331
30FB
  5
3127
331
3139
  5
3101
331
293A
  5
310F
331
1F8E
  5
1F8F
331
1F6E
  5
1F6F
331
1FD3
  5
1FD6
331
310C
  5
30FB
331
1FE4
  5
1FE7
331
314A
  5
2E50
331
1F9F
  5
1FA2
331
1F7F
  5
1F80
331
1F83
  5
1F84
331
1FD9
  5
1FDC
331
2E51
  5
311F
331
312E
  5
3135
331
3101
  5
3102
331
313F
  5
30F3
331
3112
  5
2ECB
331
1F94
  5
1F95
331
1F74
  5
1F75
331
1FA5
  5
1FA8
331
30ED
  5
3139
331
1FEA
  5
1FED
331
30F6
  5
3132
331
3134
  5
310E
331
1F89
  5
1F8A
331
1FCE
  5
1FD1
331
1FDF
  5
1FE2
331
2E57
  5
3125
331
3118
  5
2E56
331
3145
  5
2EB8
331
1F9A
  5
1F9B
331
1F7A
  5
1F7B
331
1FF0
  5
2012
331
1FAB
  5
1FAE
331
30FC
  5
3128
331
2E4C
  5
311A
331
2EAE
  5
3146
331
3129
  5
313D
331
313A
  5
30FF
331
291A
  5
30F6
331
293B
  5
3113
331
1F8F
  5
1F90
331
1F6F
  5
1F70
331
1FD4
  5
1FD7
331
1FA0
  5
1FA3
331
310D
  5
30FC
331
1FE5
  5
1FE8
331
314B
  5
297C
331
1F84
  5
1F85
331
2E52
  5
3120
331
312F
  5
312E
331
3102
  5
3103
331
1FDA
  5
1FDD
331
3113
  5
30ED
331
3140
  5
30F4
331
1F95
  5
1F96
331
1F75
  5
1F76
331
1FA6
  5
1FA9
331
30EE
  5
313A
331
1FEB
  5
1FEE
331
30F7
  5
3133
331
3135
  5
310C
331
1F8A
  5
1F8B
331
1F6A
  5
1F6B
331
1FCF
  5
1FD2
331
1FE0
  5
1FE3
331
2E58
  5
3126
331
3146
  5
2EAD
331
3119
  5
2E57
331
1F9B
  5
1F9C
331
1F7B
  5
1F7C
331
1FAC
  5
1FAF
331
1FF1
  5
2018
331
30FD
  5
3129
331
2E4D
  5
311B
331
2EAF
  5
3147
331
312A
  5
3138
331
313B
  5
3100
331
291B
  5
30F7
331
1F90
  5
1F91
331
1F70
  5
1F71
331
1FD5
  5
1FD8
331
1FA1
  5
1FA4
331
1FE6
  5
1FE9
331
311F
  5
293A
331
314C
  5
2E4E
  0
XRECORD
  5
31F7
102
{ACAD_REACTORS
330
31F6
102
}
330
31F6
100
AcDbXrecord
340
1A
  0
MLINESTYLE
  5
17
102
{ACAD_REACTORS
330
16
102
}
330
16
100
AcDbMlineStyle
  2
STANDARD
 70
     0
  3

 62
   256
 51
90.0
 52
90.0
 71
     2
 49
0.5
 62
   256
  6
BYLAYER
 49
-0.5
 62
   256
  6
BYLAYER
  0
ACDBPLACEHOLDER
  5
F
102
{ACAD_REACTORS
330
E
102
}
330
E
100
AcDbPlaceHolder
280
     0
  0
ACAD_PROXY_OBJECT
  5
167F
102
{ACAD_REACTORS
330
167E
102
}
330
167E
100
AcDbProxyObject
 90
      499
 91
      506
 93
     1841
310
4214DD185B99185C9928B81E85EB51B8AE3F2E07A17AD46E2B8FC02B5E8DC0F42B1CFD028000000C1008070000C3001FDFF8000000C1003FBFF000000182007F7FE00000030400FEFFC00000060801FDFF8000000C1003FBFF00000018200000000000000681FA0B0000001820100E000186003FBFF000000182007F7FE000
310
00030400FEFFC00000060801FDFF8000000C1003FBFF000000182007F7FE000000304000AD7A3703D0AC73F4160000003040201C00030C007F7FE00000030400FEFFC00000060801FDFF8000000C1003FBFF000000182007F7FE00000030400FEFFC000000608000
340
11
340
11
340
11
 94
        0
1001
ACAD
1000
AcadProxyRoundTripData
1071
      503
1071
   655383
1070
     0
  0
XRECORD
  5
31DF
102
{ACAD_REACTORS
330
31D5
102
}
330
31D5
100
AcDbXrecord
 90
        0
  0
XRECORD
  5
31E3
102
{ACAD_REACTORS
330
31D5
102
}
330
31D5
100
AcDbXrecord
1000
DSTYLE
1002
{
1070
   341
340
13CC
1070
   342
340
13CC
1002
}
  0
XRECORD
  5
31E0
102
{ACAD_REACTORS
330
31D5
102
}
330
31D5
100
AcDbXrecord
  1
{8E873859-7981-469D-9774-FECD588D52BD}
  0
XRECORD
  5
31D8
102
{ACAD_REACTORS
330
31D5
102
}
330
31D5
100
AcDbXrecord
  1

  0
XRECORD
  5
31DE
102
{ACAD_REACTORS
330
31D5
102
}
330
31D5
100
AcDbXrecord
 90
        0
  0
XRECORD
  5
31DA
102
{ACAD_REACTORS
330
31D5
102
}
330
31D5
100
AcDbXrecord
340
19
  0
XRECORD
  5
31DD
102
{ACAD_REACTORS
330
31D5
102
}
330
31D5
100
AcDbXrecord
 90
     2589
  0
XRECORD
  5
31DB
102
{ACAD_REACTORS
330
31D5
102
}
330
31D5
100
AcDbXrecord
340
18
  0
XRECORD
  5
31DC
102
{ACAD_REACTORS
330
31D5
102
}
330
31D5
100
AcDbXrecord
340
E
  0
XRECORD
  5
31E2
102
{ACAD_REACTORS
330
31D5
102
}
330
31D5
100
AcDbXrecord
 40
0.0
  0
XRECORD
  5
31E6
102
{ACAD_REACTORS
330
31D5
102
}
330
31D5
100
AcDbXrecord
340
0
  0
XRECORD
  5
31EC
102
{ACAD_REACTORS
330
31D5
102
}
330
31D5
100
AcDbXrecord
 10
0.0
 20
0.0
 30
0.0
  0
XRECORD
  5
31E8
102
{ACAD_REACTORS
330
31D5
102
}
330
31D5
100
AcDbXrecord
 10
0.0
 20
0.0
 30
0.0
  0
XRECORD
  5
31EB
102
{ACAD_REACTORS
330
31D5
102
}
330
31D5
100
AcDbXrecord
 10
0.0
 20
0.0
 30
0.0
  0
XRECORD
  5
31E9
102
{ACAD_REACTORS
330
31D5
102
}
330
31D5
100
AcDbXrecord
 10
0.0
 20
0.0
 30
0.0
  0
XRECORD
  5
31EA
102
{ACAD_REACTORS
330
31D5
102
}
330
31D5
100
AcDbXrecord
 10
0.0
 20
0.0
 30
0.0
  0
XRECORD
  5
31E7
102
{ACAD_REACTORS
330
31D5
102
}
330
31D5
100
AcDbXrecord
 10
0.0
 20
0.0
 30
0.0
  0
XRECORD
  5
31E4
102
{ACAD_REACTORS
330
31D5
102
}
330
31D5
100
AcDbXrecord
340
0
  0
XRECORD
  5
31E5
102
{ACAD_REACTORS
330
31D5
102
}
330
31D5
100
AcDbXrecord
 70
     0
  0
XRECORD
  5
31D9
102
{ACAD_REACTORS
330
31D5
102
}
330
31D5
100
AcDbXrecord
  1

  0
XRECORD
  5
31D6
102
{ACAD_REACTORS
330
31D5
102
}
330
31D5
100
AcDbXrecord
 90
        1
  0
XRECORD
  5
31D7
102
{ACAD_REACTORS
330
31D5
102
}
330
31D5
100
AcDbXrecord
 90
       70
  0
XRECORD
  5
31EF
102
{ACAD_REACTORS
330
31D5
102
}
330
31D5
100
AcDbXrecord
340
0
  0
XRECORD
  5
31F5
102
{ACAD_REACTORS
330
31D5
102
}
330
31D5
100
AcDbXrecord
 10
0.0
 20
0.0
 30
0.0
  0
XRECORD
  5
31F1
102
{ACAD_REACTORS
330
31D5
102
}
330
31D5
100
AcDbXrecord
 10
0.0
 20
0.0
 30
0.0
  0
XRECORD
  5
31F4
102
{ACAD_REACTORS
330
31D5
102
}
330
31D5
100
AcDbXrecord
 10
0.0
 20
0.0
 30
0.0
  0
XRECORD
  5
31F2
102
{ACAD_REACTORS
330
31D5
102
}
330
31D5
100
AcDbXrecord
 10
0.0
 20
0.0
 30
0.0
  0
XRECORD
  5
31F3
102
{ACAD_REACTORS
330
31D5
102
}
330
31D5
100
AcDbXrecord
 10
0.0
 20
0.0
 30
0.0
  0
XRECORD
  5
31F0
102
{ACAD_REACTORS
330
31D5
102
}
330
31D5
100
AcDbXrecord
 10
0.0
 20
0.0
 30
0.0
  0
XRECORD
  5
31ED
102
{ACAD_REACTORS
330
31D5
102
}
330
31D5
100
AcDbXrecord
340
0
  0
XRECORD
  5
31EE
102
{ACAD_REACTORS
330
31D5
102
}
330
31D5
100
AcDbXrecord
 70
     0
  0
XRECORD
  5
31E1
102
{ACAD_REACTORS
330
31D5
102
}
330
31D5
100
AcDbXrecord
  1
{C242B98A-2584-44D5-ACD9-2B160D189D05}
  0
DICTIONARYVAR
  5
2771
102
{ACAD_REACTORS
330
2770
102
}
330
2770
100
DictionaryVariables
280
     0
  1
STANDARD
  0
DICTIONARYVAR
  5
3084
102
{ACAD_REACTORS
330
2770
102
}
330
2770
100
DictionaryVariables
280
     0
  1
1
  0
DICTIONARYVAR
  5
3085
102
{ACAD_REACTORS
330
2770
102
}
330
2770
100
DictionaryVariables
280
     0
  1

  0
ENDSEC
  0
EOF
