  0
SECTION
  2
HEADER
  9
$ACADVER
  1
AC1014
  9
$ACADMAINTVER
 70
     9
  9
$DWGCODEPAGE
  3
ANSI_932
  9
$INSBASE
 10
0.0
 20
0.0
 30
0.0
  9
$EXTMIN
 10
-817.9311224941265
 20
-263.2373170786431
 30
-0.0015258207003583
  9
$EXTMAX
 10
970.2427673403471
 20
1006.717350631055
 30
0.0000000349246037
  9
$LIMMIN
 10
-968.8194059608322
 20
-488.047099567113
  9
$LIMMAX
 10
1137.544922124379
 20
1104.320480210004
  9
$ORTHOMODE
 70
     0
  9
$REGENMODE
 70
     0
  9
$FILLMODE
 70
     1
  9
$QTEXTMODE
 70
     0
  9
$MIRRTEXT
 70
     0
  9
$DRAGMODE
 70
     2
  9
$LTSCALE
 40
20.0
  9
$OSMODE
 70
    39
  9
$ATTMODE
 70
     1
  9
$TEXTSIZE
 40
64.0
  9
$TRACEWID
 40
0.05
  9
$TEXTSTYLE
  7
STANDARD
  9
$CLAYER
  8
SIZE
  9
$CELTYPE
  6
BYLAYER
  9
$CECOLOR
 62
   256
  9
$CELTSCALE
 40
1.0
  9
$DELOBJ
 70
     1
  9
$DISPSILH
 70
     0
  9
$DIMSCALE
 40
1.0
  9
$DIMASZ
 40
10.0
  9
$DIMEXO
 40
20.0
  9
$DIMDLI
 40
200.0
  9
$DIMRND
 40
0.0
  9
$DIMDLE
 40
0.0
  9
$DIMEXE
 40
20.0
  9
$DIMTP
 40
0.0
  9
$DIMTM
 40
0.0
  9
$DIMTXT
 40
64.0
  9
$DIMCEN
 40
0.09
  9
$DIMTSZ
 40
0.0
  9
$DIMTOL
 70
     0
  9
$DIMLIM
 70
     0
  9
$DIMTIH
 70
     0
  9
$DIMTOH
 70
     0
  9
$DIMSE1
 70
     0
  9
$DIMSE2
 70
     0
  9
$DIMTAD
 70
     1
  9
$DIMZIN
 70
     8
  9
$DIMBLK
  1
ORIGIN
  9
$DIMASO
 70
     1
  9
$DIMSHO
 70
     0
  9
$DIMPOST
  1

  9
$DIMAPOST
  1

  9
$DIMALT
 70
     0
  9
$DIMALTD
 70
     2
  9
$DIMALTF
 40
25.4
  9
$DIMLFAC
 40
1.0
  9
$DIMTOFL
 70
     1
  9
$DIMTVP
 40
0.0
  9
$DIMTIX
 70
     1
  9
$DIMSOXD
 70
     0
  9
$DIMSAH
 70
     0
  9
$DIMBLK1
  1

  9
$DIMBLK2
  1

  9
$DIMSTYLE
  2
STANDARD
  9
$DIMCLRD
 70
     0
  9
$DIMCLRE
 70
     0
  9
$DIMCLRT
 70
     0
  9
$DIMTFAC
 40
1.0
  9
$DIMGAP
 40
10.0
  9
$DIMJUST
 70
     0
  9
$DIMSD1
 70
     0
  9
$DIMSD2
 70
     0
  9
$DIMTOLJ
 70
     1
  9
$DIMTZIN
 70
     0
  9
$DIMALTZ
 70
     0
  9
$DIMALTTZ
 70
     0
  9
$DIMFIT
 70
     3
  9
$DIMUPT
 70
     0
  9
$DIMUNIT
 70
     2
  9
$DIMDEC
 70
     0
  9
$DIMTDEC
 70
     0
  9
$DIMALTU
 70
     2
  9
$DIMALTTD
 70
     2
  9
$DIMTXSTY
  7
STANDARD
  9
$DIMAUNIT
 70
     0
  9
$LUNITS
 70
     2
  9
$LUPREC
 70
     4
  9
$SKETCHINC
 40
0.1
  9
$FILLETRAD
 40
6.0
  9
$AUNITS
 70
     1
  9
$AUPREC
 70
     3
  9
$MENU
  1
ACAD
  9
$ELEVATION
 40
0.0
  9
$PELEVATION
 40
0.0
  9
$THICKNESS
 40
0.0
  9
$LIMCHECK
 70
     1
  9
$BLIPMODE
 70
     0
  9
$CHAMFERA
 40
0.0
  9
$CHAMFERB
 40
0.0
  9
$CHAMFERC
 40
0.0
  9
$CHAMFERD
 40
0.0
  9
$SKPOLY
 70
     0
  9
$TDCREATE
 40
2450332.765427997
  9
$TDUPDATE
 40
2454987.381830358
  9
$TDINDWG
 40
0.7322796644
  9
$TDUSRTIMER
 40
0.7322787616
  9
$USRTIMER
 70
     1
  9
$ANGBASE
 50
0.0
  9
$ANGDIR
 70
     0
  9
$PDMODE
 70
     3
  9
$PDSIZE
 40
-2.0
  9
$PLINEWID
 40
0.0
  9
$COORDS
 70
     1
  9
$SPLFRAME
 70
     0
  9
$SPLINETYPE
 70
     6
  9
$SPLINESEGS
 70
     8
  9
$ATTDIA
 70
     0
  9
$ATTREQ
 70
     1
  9
$HANDLING
 70
-16383
  9
$HANDSEED
  5
272F
  9
$SURFTAB1
 70
     6
  9
$SURFTAB2
 70
     6
  9
$SURFTYPE
 70
     6
  9
$SURFU
 70
     6
  9
$SURFV
 70
     6
  9
$UCSNAME
  2

  9
$UCSORG
 10
0.0
 20
0.0
 30
0.0
  9
$UCSXDIR
 10
1.0
 20
0.0
 30
0.0
  9
$UCSYDIR
 10
0.0
 20
1.0
 30
0.0
  9
$PUCSNAME
  2

  9
$PUCSORG
 10
0.0
 20
0.0
 30
0.0
  9
$PUCSXDIR
 10
1.0
 20
0.0
 30
0.0
  9
$PUCSYDIR
 10
0.0
 20
1.0
 30
0.0
  9
$USERI1
 70
     0
  9
$USERI2
 70
     0
  9
$USERI3
 70
     0
  9
$USERI4
 70
     0
  9
$USERI5
 70
     0
  9
$USERR1
 40
20.0
  9
$USERR2
 40
0.0
  9
$USERR3
 40
0.0
  9
$USERR4
 40
0.0
  9
$USERR5
 40
0.0
  9
$WORLDVIEW
 70
     1
  9
$SHADEDGE
 70
     3
  9
$SHADEDIF
 70
    70
  9
$TILEMODE
 70
     1
  9
$MAXACTVP
 70
    64
  9
$PINSBASE
 10
0.0
 20
0.0
 30
0.0
  9
$PLIMCHECK
 70
     0
  9
$PEXTMIN
 10
1.000000000000000E+20
 20
1.000000000000000E+20
 30
1.000000000000000E+20
  9
$PEXTMAX
 10
-1.000000000000000E+20
 20
-1.000000000000000E+20
 30
-1.000000000000000E+20
  9
$PLIMMIN
 10
0.0
 20
0.0
  9
$PLIMMAX
 10
12.0
 20
9.0
  9
$UNITMODE
 70
     0
  9
$VISRETAIN
 70
     1
  9
$PLINEGEN
 70
     0
  9
$PSLTSCALE
 70
     1
  9
$TREEDEPTH
 70
  3020
  9
$PICKSTYLE
 70
     1
  9
$CMLSTYLE
  2
STANDARD
  9
$CMLJUST
 70
     0
  9
$CMLSCALE
 40
1.0
  9
$PROXYGRAPHICS
 70
     1
  9
$MEASUREMENT
 70
     0
  0
ENDSEC
  0
SECTION
  2
CLASSES
  0
CLASS
  1
ACDBDICTIONARYWDFLT
  2
AcDbDictionaryWithDefault
  3
AutoCAD 2000
 90
        0
280
     0
281
     0
  0
CLASS
  1
ACDBPLACEHOLDER
  2
AcDbPlaceHolder
  3
AutoCAD 2000
 90
        0
280
     0
281
     0
  0
CLASS
  1
LAYOUT
  2
AcDbLayout
  3
AutoCAD 2000
 90
        0
280
     0
281
     0
  0
CLASS
  1
LONG_TRANSACTION
  2
AcDbLongTransaction
  3
AutoCAD 2000
 90
        0
280
     0
281
     0
  0
CLASS
  1
LWPOLYLINE
  2
AcDbPolyline
  3
AutoCAD 2000
 90
        0
280
     0
281
     1
  0
CLASS
  1
HATCH
  2
AcDbHatch
  3
AutoCAD 2000
 90
        0
280
     0
281
     1
  0
CLASS
  1
XRECORD
  2
AcDbXrecord
  3
AutoCAD 2000
 90
        0
280
     0
281
     0
  0
ENDSEC
  0
SECTION
  2
TABLES
  0
TABLE
  2
VPORT
  5
8
330
0
100
AcDbSymbolTable
 70
     5
  0
VPORT
  5
2709
330
8
100
AcDbSymbolTableRecord
100
AcDbViewportTableRecord
  2
*ACTIVE
 70
     0
 10
0.0
 20
0.0
 11
1.0
 21
1.0
 12
215.548603715257
 22
343.2352813811976
 13
0.0
 23
0.0
 14
400.0
 24
400.0
 15
400.0
 25
400.0
 16
0.0
 26
0.0
 36
1.0
 17
0.0
 27
0.0
 37
0.0
 40
3025.867815405769
 41
1.211491442542787
 42
50.0
 43
0.0
 44
0.0
 50
0.0
 51
0.0
 71
     0
 72
   500
 73
     1
 74
     0
 75
     0
 76
     0
 77
     0
 78
     0
  0
ENDTAB
  0
TABLE
  2
LTYPE
  5
5
330
0
100
AcDbSymbolTable
 70
     6
  0
LTYPE
  5
13
330
5
100
AcDbSymbolTableRecord
100
AcDbLinetypeTableRecord
  2
BYBLOCK
 70
     0
  3

 72
    65
 73
     0
 40
0.0
  0
LTYPE
  5
14
330
5
100
AcDbSymbolTableRecord
100
AcDbLinetypeTableRecord
  2
BYLAYER
 70
     0
  3

 72
    65
 73
     0
 40
0.0
  0
LTYPE
  5
15
330
5
100
AcDbSymbolTableRecord
100
AcDbLinetypeTableRecord
  2
CONTINUOUS
 70
     0
  3
実線
 72
    65
 73
     0
 40
0.0
  0
LTYPE
  5
23
330
5
100
AcDbSymbolTableRecord
100
AcDbLinetypeTableRecord
  2
DASHED
 70
     0
  3
_ _ _ _ _ _ _ _ _ _ _ _ _ _ _ _ _ _ _ _ _ _ _
 72
    65
 73
     2
 40
2.0
 49
1.199999999999999
 74
     0
 49
-0.8
 74
     0
  0
LTYPE
  5
24
330
5
100
AcDbSymbolTableRecord
100
AcDbLinetypeTableRecord
  2
DASHDOT
 70
     0
  3
____ _ ____ _ ____ _ ____ _ ____ _ ____ _ ____
 72
    65
 73
     4
 40
5.5
 49
4.0
 74
     0
 49
-0.6
 74
     0
 49
0.3
 74
     0
 49
-0.6
 74
     0
  0
LTYPE
  5
F8A
330
5
100
AcDbSymbolTableRecord
100
AcDbLinetypeTableRecord
  2
ACAD_ISO07W100
 70
     0
  3
ISO dot . . . . . . . . . . . . . . . . . . . .
 72
    65
 73
     2
 40
3.0
 49
0.0
 74
     0
 49
-3.0
 74
     0
  0
LTYPE
  5
F8B
330
5
100
AcDbSymbolTableRecord
100
AcDbLinetypeTableRecord
  2
DASHED2
 70
     0
  3
Dashed (.5x) _ _ _ _ _ _ _ _ _ _ _ _ _ _ _ _ _
 72
    65
 73
     2
 40
0.375
 49
0.25
 74
     0
 49
-0.125
 74
     0
  0
LTYPE
  5
F8C
330
5
100
AcDbSymbolTableRecord
100
AcDbLinetypeTableRecord
  2
DASHEDX2
 70
     0
  3
Dashed (2x) ____  ____  ____  ____  ____  ___
 72
    65
 73
     2
 40
1.5
 49
1.0
 74
     0
 49
-0.5
 74
     0
  0
ENDTAB
  0
TABLE
  2
LAYER
  5
2
330
0
100
AcDbSymbolTable
 70
    11
  0
LAYER
  5
10
330
2
100
AcDbSymbolTableRecord
100
AcDbLayerTableRecord
  2
0
 70
     0
 62
     7
  6
CONTINUOUS
  0
LAYER
  5
28
330
2
100
AcDbSymbolTableRecord
100
AcDbLayerTableRecord
  2
OUTLINE
 70
     0
 62
     3
  6
CONTINUOUS
  0
LAYER
  5
29
330
2
100
AcDbSymbolTableRecord
100
AcDbLayerTableRecord
  2
DETAIL
 70
     0
 62
     5
  6
CONTINUOUS
  0
LAYER
  5
2A
330
2
100
AcDbSymbolTableRecord
100
AcDbLayerTableRecord
  2
BASIS
 70
     0
 62
     6
  6
CONTINUOUS
  0
LAYER
  5
2B
330
2
100
AcDbSymbolTableRecord
100
AcDbLayerTableRecord
  2
SIZE
 70
     0
 62
    32
  6
CONTINUOUS
  0
LAYER
  5
2C
330
2
100
AcDbSymbolTableRecord
100
AcDbLayerTableRecord
  2
NOTE
 70
     0
 62
     4
  6
CONTINUOUS
  0
LAYER
  5
2D
330
2
100
AcDbSymbolTableRecord
100
AcDbLayerTableRecord
  2
ARRANGE
 70
     0
 62
     1
  6
CONTINUOUS
  0
LAYER
  5
2E
330
2
100
AcDbSymbolTableRecord
100
AcDbLayerTableRecord
  2
DEFPOINTS
 70
     0
 62
     7
  6
CONTINUOUS
  0
LAYER
  5
2F
330
2
100
AcDbSymbolTableRecord
100
AcDbLayerTableRecord
  2
FIX
 70
     0
 62
   241
  6
CONTINUOUS
  0
LAYER
  5
30
330
2
100
AcDbSymbolTableRecord
100
AcDbLayerTableRecord
  2
SERVICESPACE
 70
     0
 62
     2
  6
CONTINUOUS
  0
LAYER
  5
31
330
2
100
AcDbSymbolTableRecord
100
AcDbLayerTableRecord
  2
ETC
 70
     0
 62
    83
  6
CONTINUOUS
  0
ENDTAB
  0
TABLE
  2
STYLE
  5
3
330
0
100
AcDbSymbolTable
 70
     2
  0
STYLE
  5
11
330
3
100
AcDbSymbolTableRecord
100
AcDbTextStyleTableRecord
  2
STANDARD
 70
     0
 40
0.0
 41
0.9
 50
0.0
 71
     0
 42
64.0
  3
SIMPLEX
  4
BIGFONT
  0
STYLE
  5
F89
330
3
100
AcDbSymbolTableRecord
100
AcDbTextStyleTableRecord
  2

 70
     1
 40
0.0
 41
1.0
 50
0.0
 71
     0
 42
64.0
  3
ltypeshp.shx
  4

  0
ENDTAB
  0
TABLE
  2
VIEW
  5
6
330
0
100
AcDbSymbolTable
 70
     1
  0
VIEW
  5
33
330
6
100
AcDbSymbolTableRecord
100
AcDbViewTableRecord
  2
ALL
 70
     0
 40
4508.021
 10
0.0
 20
41.30990399999999
 41
6252.632
 11
0.0
 21
0.0
 31
1.0
 12
0.0
 22
0.0
 32
0.0
 42
50.0
 43
0.0
 44
0.0
 50
0.0
 71
     0
  0
ENDTAB
  0
TABLE
  2
UCS
  5
7
330
0
100
AcDbSymbolTable
 70
     0
  0
ENDTAB
  0
TABLE
  2
APPID
  5
9
330
0
100
AcDbSymbolTable
 70
     1
  0
APPID
  5
12
330
9
100
AcDbSymbolTableRecord
100
AcDbRegAppTableRecord
  2
ACAD
 70
     0
  0
ENDTAB
  0
TABLE
  2
DIMSTYLE
  5
A
330
0
100
AcDbSymbolTable
 70
     1
  0
DIMSTYLE
105
181
330
A
100
AcDbSymbolTableRecord
100
AcDbDimStyleTableRecord
  2
STANDARD
 70
     0
  3

  4

  5

  6

  7

 40
1.0
 41
0.18
 42
0.0625
 43
0.38
 44
0.18
 45
0.0
 46
0.0
 47
0.0
 48
0.0
140
0.18
141
0.09
142
0.0
143
25.4
144
1.0
145
0.0
146
1.0
147
0.09
 71
     0
 72
     0
 73
     1
 74
     1
 75
     0
 76
     0
 77
     0
 78
     0
170
     0
171
     2
172
     0
173
     0
174
     0
175
     0
176
     0
177
     0
178
     0
270
     2
271
     4
272
     4
273
     2
274
     2
340
11
275
     0
280
     0
281
     0
282
     0
283
     1
284
     0
285
     0
286
     0
287
     3
288
     0
  0
ENDTAB
  0
TABLE
  2
BLOCK_RECORD
  5
1
330
0
100
AcDbSymbolTable
 70
    93
  0
BLOCK_RECORD
  5
1E
102
{ACAD_XDICTIONARY
360
272D
102
}
330
1
100
AcDbSymbolTableRecord
100
AcDbBlockTableRecord
  2
*MODEL_SPACE
  0
BLOCK_RECORD
  5
1A
102
{ACAD_XDICTIONARY
360
272B
102
}
330
1
100
AcDbSymbolTableRecord
100
AcDbBlockTableRecord
  2
*PAPER_SPACE
  0
BLOCK_RECORD
  5
11EF
330
1
100
AcDbSymbolTableRecord
100
AcDbBlockTableRecord
  2
_ORIGIN
  0
BLOCK_RECORD
  5
120F
330
1
100
AcDbSymbolTableRecord
100
AcDbBlockTableRecord
  2
*D1
  0
BLOCK_RECORD
  5
121C
330
1
100
AcDbSymbolTableRecord
100
AcDbBlockTableRecord
  2
*D2
  0
BLOCK_RECORD
  5
1229
330
1
100
AcDbSymbolTableRecord
100
AcDbBlockTableRecord
  2
*D3
  0
BLOCK_RECORD
  5
1236
330
1
100
AcDbSymbolTableRecord
100
AcDbBlockTableRecord
  2
*D4
  0
BLOCK_RECORD
  5
1245
330
1
100
AcDbSymbolTableRecord
100
AcDbBlockTableRecord
  2
*D5
  0
BLOCK_RECORD
  5
1254
330
1
100
AcDbSymbolTableRecord
100
AcDbBlockTableRecord
  2
*D6
  0
BLOCK_RECORD
  5
1263
330
1
100
AcDbSymbolTableRecord
100
AcDbBlockTableRecord
  2
*D7
  0
BLOCK_RECORD
  5
1272
330
1
100
AcDbSymbolTableRecord
100
AcDbBlockTableRecord
  2
*D8
  0
BLOCK_RECORD
  5
12BC
330
1
100
AcDbSymbolTableRecord
100
AcDbBlockTableRecord
  2
*D9
  0
BLOCK_RECORD
  5
12C9
330
1
100
AcDbSymbolTableRecord
100
AcDbBlockTableRecord
  2
*D10
  0
BLOCK_RECORD
  5
12E9
330
1
100
AcDbSymbolTableRecord
100
AcDbBlockTableRecord
  2
*D11
  0
BLOCK_RECORD
  5
130E
330
1
100
AcDbSymbolTableRecord
100
AcDbBlockTableRecord
  2
*D12
  0
BLOCK_RECORD
  5
1324
330
1
100
AcDbSymbolTableRecord
100
AcDbBlockTableRecord
  2
*D13
  0
BLOCK_RECORD
  5
1390
330
1
100
AcDbSymbolTableRecord
100
AcDbBlockTableRecord
  2
*D14
  0
BLOCK_RECORD
  5
13AF
330
1
100
AcDbSymbolTableRecord
100
AcDbBlockTableRecord
  2
*D15
  0
BLOCK_RECORD
  5
13BE
330
1
100
AcDbSymbolTableRecord
100
AcDbBlockTableRecord
  2
*D16
  0
BLOCK_RECORD
  5
13E7
330
1
100
AcDbSymbolTableRecord
100
AcDbBlockTableRecord
  2
*D17
  0
BLOCK_RECORD
  5
13F4
330
1
100
AcDbSymbolTableRecord
100
AcDbBlockTableRecord
  2
*D18
  0
BLOCK_RECORD
  5
1415
330
1
100
AcDbSymbolTableRecord
100
AcDbBlockTableRecord
  2
*D19
  0
BLOCK_RECORD
  5
1424
330
1
100
AcDbSymbolTableRecord
100
AcDbBlockTableRecord
  2
*D20
  0
BLOCK_RECORD
  5
144C
330
1
100
AcDbSymbolTableRecord
100
AcDbBlockTableRecord
  2
*D21
  0
BLOCK_RECORD
  5
1466
330
1
100
AcDbSymbolTableRecord
100
AcDbBlockTableRecord
  2
*D22
  0
BLOCK_RECORD
  5
1485
330
1
100
AcDbSymbolTableRecord
100
AcDbBlockTableRecord
  2
*D23
  0
BLOCK_RECORD
  5
1494
330
1
100
AcDbSymbolTableRecord
100
AcDbBlockTableRecord
  2
*D24
  0
BLOCK_RECORD
  5
14A1
330
1
100
AcDbSymbolTableRecord
100
AcDbBlockTableRecord
  2
*D25
  0
BLOCK_RECORD
  5
14FF
330
1
100
AcDbSymbolTableRecord
100
AcDbBlockTableRecord
  2
*D26
  0
BLOCK_RECORD
  5
152E
330
1
100
AcDbSymbolTableRecord
100
AcDbBlockTableRecord
  2
*D27
  0
BLOCK_RECORD
  5
153C
330
1
100
AcDbSymbolTableRecord
100
AcDbBlockTableRecord
  2
*D28
  0
BLOCK_RECORD
  5
154B
330
1
100
AcDbSymbolTableRecord
100
AcDbBlockTableRecord
  2
*D29
  0
BLOCK_RECORD
  5
155A
330
1
100
AcDbSymbolTableRecord
100
AcDbBlockTableRecord
  2
*D30
  0
BLOCK_RECORD
  5
1567
330
1
100
AcDbSymbolTableRecord
100
AcDbBlockTableRecord
  2
*D31
  0
BLOCK_RECORD
  5
157E
330
1
100
AcDbSymbolTableRecord
100
AcDbBlockTableRecord
  2
*D32
  0
BLOCK_RECORD
  5
1595
330
1
100
AcDbSymbolTableRecord
100
AcDbBlockTableRecord
  2
*D33
  0
BLOCK_RECORD
  5
15B6
330
1
100
AcDbSymbolTableRecord
100
AcDbBlockTableRecord
  2
*D34
  0
BLOCK_RECORD
  5
15E9
330
1
100
AcDbSymbolTableRecord
100
AcDbBlockTableRecord
  2
*D35
  0
BLOCK_RECORD
  5
160F
330
1
100
AcDbSymbolTableRecord
100
AcDbBlockTableRecord
  2
*D36
  0
BLOCK_RECORD
  5
1638
330
1
100
AcDbSymbolTableRecord
100
AcDbBlockTableRecord
  2
*D37
  0
BLOCK_RECORD
  5
165A
330
1
100
AcDbSymbolTableRecord
100
AcDbBlockTableRecord
  2
*D38
  0
BLOCK_RECORD
  5
166A
330
1
100
AcDbSymbolTableRecord
100
AcDbBlockTableRecord
  2
*D39
  0
BLOCK_RECORD
  5
1692
330
1
100
AcDbSymbolTableRecord
100
AcDbBlockTableRecord
  2
*D40
  0
BLOCK_RECORD
  5
16CB
330
1
100
AcDbSymbolTableRecord
100
AcDbBlockTableRecord
  2
*D41
  0
BLOCK_RECORD
  5
16D8
330
1
100
AcDbSymbolTableRecord
100
AcDbBlockTableRecord
  2
*D42
  0
BLOCK_RECORD
  5
16F4
330
1
100
AcDbSymbolTableRecord
100
AcDbBlockTableRecord
  2
*D43
  0
BLOCK_RECORD
  5
1703
330
1
100
AcDbSymbolTableRecord
100
AcDbBlockTableRecord
  2
*D44
  0
BLOCK_RECORD
  5
1711
330
1
100
AcDbSymbolTableRecord
100
AcDbBlockTableRecord
  2
*D45
  0
BLOCK_RECORD
  5
1720
330
1
100
AcDbSymbolTableRecord
100
AcDbBlockTableRecord
  2
*D46
  0
BLOCK_RECORD
  5
172F
330
1
100
AcDbSymbolTableRecord
100
AcDbBlockTableRecord
  2
*D47
  0
BLOCK_RECORD
  5
173C
330
1
100
AcDbSymbolTableRecord
100
AcDbBlockTableRecord
  2
*D48
  0
BLOCK_RECORD
  5
174B
330
1
100
AcDbSymbolTableRecord
100
AcDbBlockTableRecord
  2
*D49
  0
BLOCK_RECORD
  5
1766
330
1
100
AcDbSymbolTableRecord
100
AcDbBlockTableRecord
  2
*D50
  0
BLOCK_RECORD
  5
1843
330
1
100
AcDbSymbolTableRecord
100
AcDbBlockTableRecord
  2
*D51
  0
BLOCK_RECORD
  5
184F
330
1
100
AcDbSymbolTableRecord
100
AcDbBlockTableRecord
  2
*D52
  0
BLOCK_RECORD
  5
185B
330
1
100
AcDbSymbolTableRecord
100
AcDbBlockTableRecord
  2
*D53
  0
BLOCK_RECORD
  5
1867
330
1
100
AcDbSymbolTableRecord
100
AcDbBlockTableRecord
  2
*D54
  0
BLOCK_RECORD
  5
1873
330
1
100
AcDbSymbolTableRecord
100
AcDbBlockTableRecord
  2
*D55
  0
BLOCK_RECORD
  5
1881
330
1
100
AcDbSymbolTableRecord
100
AcDbBlockTableRecord
  2
*D56
  0
BLOCK_RECORD
  5
188D
330
1
100
AcDbSymbolTableRecord
100
AcDbBlockTableRecord
  2
*D57
  0
BLOCK_RECORD
  5
189B
330
1
100
AcDbSymbolTableRecord
100
AcDbBlockTableRecord
  2
*D58
  0
BLOCK_RECORD
  5
18A9
330
1
100
AcDbSymbolTableRecord
100
AcDbBlockTableRecord
  2
*D59
  0
BLOCK_RECORD
  5
18B6
330
1
100
AcDbSymbolTableRecord
100
AcDbBlockTableRecord
  2
*D60
  0
BLOCK_RECORD
  5
18C4
330
1
100
AcDbSymbolTableRecord
100
AcDbBlockTableRecord
  2
*D61
  0
BLOCK_RECORD
  5
18F8
330
1
100
AcDbSymbolTableRecord
100
AcDbBlockTableRecord
  2
*D62
  0
BLOCK_RECORD
  5
1904
330
1
100
AcDbSymbolTableRecord
100
AcDbBlockTableRecord
  2
*D63
  0
BLOCK_RECORD
  5
1938
330
1
100
AcDbSymbolTableRecord
100
AcDbBlockTableRecord
  2
*D64
  0
BLOCK_RECORD
  5
194E
330
1
100
AcDbSymbolTableRecord
100
AcDbBlockTableRecord
  2
*D65
  0
BLOCK_RECORD
  5
195C
330
1
100
AcDbSymbolTableRecord
100
AcDbBlockTableRecord
  2
*D66
  0
BLOCK_RECORD
  5
1968
330
1
100
AcDbSymbolTableRecord
100
AcDbBlockTableRecord
  2
*D67
  0
BLOCK_RECORD
  5
1DA6
330
1
100
AcDbSymbolTableRecord
100
AcDbBlockTableRecord
  2
*D68
  0
BLOCK_RECORD
  5
1DB2
330
1
100
AcDbSymbolTableRecord
100
AcDbBlockTableRecord
  2
*D69
  0
BLOCK_RECORD
  5
1DBE
330
1
100
AcDbSymbolTableRecord
100
AcDbBlockTableRecord
  2
*D70
  0
BLOCK_RECORD
  5
1DCC
330
1
100
AcDbSymbolTableRecord
100
AcDbBlockTableRecord
  2
*D71
  0
BLOCK_RECORD
  5
1DD8
330
1
100
AcDbSymbolTableRecord
100
AcDbBlockTableRecord
  2
*D72
  0
BLOCK_RECORD
  5
1DE6
330
1
100
AcDbSymbolTableRecord
100
AcDbBlockTableRecord
  2
*D73
  0
BLOCK_RECORD
  5
1E00
330
1
100
AcDbSymbolTableRecord
100
AcDbBlockTableRecord
  2
*D74
  0
BLOCK_RECORD
  5
1E0C
330
1
100
AcDbSymbolTableRecord
100
AcDbBlockTableRecord
  2
*D75
  0
BLOCK_RECORD
  5
2016
330
1
100
AcDbSymbolTableRecord
100
AcDbBlockTableRecord
  2
*D76
  0
BLOCK_RECORD
  5
20F5
330
1
100
AcDbSymbolTableRecord
100
AcDbBlockTableRecord
  2
*D77
  0
BLOCK_RECORD
  5
2101
330
1
100
AcDbSymbolTableRecord
100
AcDbBlockTableRecord
  2
*D78
  0
BLOCK_RECORD
  5
210D
330
1
100
AcDbSymbolTableRecord
100
AcDbBlockTableRecord
  2
*D79
  0
BLOCK_RECORD
  5
2119
330
1
100
AcDbSymbolTableRecord
100
AcDbBlockTableRecord
  2
*D80
  0
BLOCK_RECORD
  5
2126
330
1
100
AcDbSymbolTableRecord
100
AcDbBlockTableRecord
  2
*D81
  0
BLOCK_RECORD
  5
2132
330
1
100
AcDbSymbolTableRecord
100
AcDbBlockTableRecord
  2
*D82
  0
BLOCK_RECORD
  5
213F
330
1
100
AcDbSymbolTableRecord
100
AcDbBlockTableRecord
  2
*D83
  0
BLOCK_RECORD
  5
214B
330
1
100
AcDbSymbolTableRecord
100
AcDbBlockTableRecord
  2
*D84
  0
BLOCK_RECORD
  5
2158
330
1
100
AcDbSymbolTableRecord
100
AcDbBlockTableRecord
  2
*D85
  0
BLOCK_RECORD
  5
2164
330
1
100
AcDbSymbolTableRecord
100
AcDbBlockTableRecord
  2
*D86
  0
BLOCK_RECORD
  5
2170
330
1
100
AcDbSymbolTableRecord
100
AcDbBlockTableRecord
  2
*D87
  0
BLOCK_RECORD
  5
217E
330
1
100
AcDbSymbolTableRecord
100
AcDbBlockTableRecord
  2
*D88
  0
BLOCK_RECORD
  5
218A
330
1
100
AcDbSymbolTableRecord
100
AcDbBlockTableRecord
  2
*D89
  0
BLOCK_RECORD
  5
2196
330
1
100
AcDbSymbolTableRecord
100
AcDbBlockTableRecord
  2
*D90
  0
BLOCK_RECORD
  5
21A2
330
1
100
AcDbSymbolTableRecord
100
AcDbBlockTableRecord
  2
*D91
  0
BLOCK_RECORD
  5
21AE
330
1
100
AcDbSymbolTableRecord
100
AcDbBlockTableRecord
  2
*D92
  0
ENDTAB
  0
ENDSEC
  0
SECTION
  2
BLOCKS
  0
BLOCK
  5
1F
330
1E
100
AcDbEntity
  8
0
100
AcDbBlockBegin
  2
*MODEL_SPACE
 70
     0
 10
0.0
 20
0.0
 30
0.0
  3
*MODEL_SPACE
  1

  0
ENDBLK
  5
20
330
1E
100
AcDbEntity
  8
0
100
AcDbBlockEnd
  0
BLOCK
  5
1B
330
1A
100
AcDbEntity
 67
     1
  8
0
100
AcDbBlockBegin
  2
*PAPER_SPACE
 70
     0
 10
0.0
 20
0.0
 30
0.0
  3
*PAPER_SPACE
  1

  0
ENDBLK
  5
1C
330
1A
100
AcDbEntity
 67
     1
  8
0
100
AcDbBlockEnd
  0
BLOCK
  5
11F2
330
11EF
100
AcDbEntity
  8
0
100
AcDbBlockBegin
  2
_ORIGIN
 70
     0
 10
0.0
 20
0.0
 30
0.0
  3
_ORIGIN
  1

  0
CIRCLE
  5
11F0
330
11EF
100
AcDbEntity
  8
0
  6
BYBLOCK
 62
     0
100
AcDbCircle
 10
0.0
 20
0.0
 30
0.0
 40
0.5
  0
LINE
  5
11F1
330
11EF
100
AcDbEntity
  8
0
  6
BYBLOCK
 62
     0
100
AcDbLine
 10
0.0
 20
0.0
 30
0.0
 11
-1.0
 21
0.0
 31
0.0
  0
ENDBLK
  5
11F3
330
11EF
100
AcDbEntity
  8
0
100
AcDbBlockEnd
  0
BLOCK
  5
1219
330
120F
100
AcDbEntity
  8
0
100
AcDbBlockBegin
  2
*D1
 70
     1
 10
0.0
 20
0.0
 30
0.0
  3
*D1
  1

  0
LINE
  5
1210
330
120F
100
AcDbEntity
  8
SIZE
 62
     0
100
AcDbLine
 10
-230.0
 20
174.3230212166599
 30
0.0
 11
-230.0
 21
287.753153572863
 31
0.0
  0
LINE
  5
1211
330
120F
100
AcDbEntity
  8
SIZE
 62
     0
100
AcDbLine
 10
230.0
 20
174.3230212166599
 30
0.0
 11
230.0
 21
287.753153572863
 31
0.0
  0
LINE
  5
1212
330
120F
100
AcDbEntity
  8
SIZE
 62
     0
100
AcDbLine
 10
-220.0
 20
267.753153572863
 30
0.0
 11
220.0
 21
267.753153572863
 31
0.0
  0
INSERT
  5
1213
330
120F
100
AcDbEntity
  8
SIZE
 62
     0
100
AcDbBlockReference
  2
_ORIGIN
 10
-230.0
 20
267.753153572863
 30
0.0
 41
10.0
 42
10.0
 43
10.0
 50
180.0
  0
INSERT
  5
1214
330
120F
100
AcDbEntity
  8
SIZE
 62
     0
100
AcDbBlockReference
  2
_ORIGIN
 10
230.0
 20
267.753153572863
 30
0.0
 41
10.0
 42
10.0
 43
10.0
  0
MTEXT
  5
1215
330
120F
100
AcDbEntity
  8
SIZE
 62
     0
100
AcDbMText
 10
0.0000000000000026
 20
309.753153572863
 30
0.0
 40
64.0
 41
0.0
 71
     5
 72
     1
  1
\A1;460
1001
ACAD
1000
MTEXTBEGIN
1070
    73
1070
     1
1070
    44
1040
1.0
1070
    74
1070
     0
1000
MTEXTEND
  0
POINT
  5
1216
330
120F
100
AcDbEntity
  8
DEFPOINTS
 62
     0
100
AcDbPoint
 10
-230.0
 20
154.3230212166599
 30
0.0
  0
POINT
  5
1217
330
120F
100
AcDbEntity
  8
DEFPOINTS
 62
     0
100
AcDbPoint
 10
230.0
 20
154.3230212166599
 30
0.0
  0
POINT
  5
1218
330
120F
100
AcDbEntity
  8
DEFPOINTS
 62
     0
100
AcDbPoint
 10
230.0
 20
267.753153572863
 30
0.0
  0
ENDBLK
  5
121A
330
120F
100
AcDbEntity
  8
0
100
AcDbBlockEnd
  0
BLOCK
  5
1226
330
121C
100
AcDbEntity
  8
0
100
AcDbBlockBegin
  2
*D2
 70
     1
 10
0.0
 20
0.0
 30
0.0
  3
*D2
  1

  0
LINE
  5
121D
330
121C
100
AcDbEntity
  8
SIZE
 62
     0
100
AcDbLine
 10
-250.0
 20
125.3037965567236
 30
0.0
 11
-249.9999999999999
 21
396.1870565683202
 31
0.0
  0
LINE
  5
121E
330
121C
100
AcDbEntity
  8
SIZE
 62
     0
100
AcDbLine
 10
250.0
 20
138.9462943904145
 30
0.0
 11
250.0
 21
396.1870565683202
 31
0.0
  0
LINE
  5
121F
330
121C
100
AcDbEntity
  8
SIZE
 62
     0
100
AcDbLine
 10
-239.9999999999999
 20
376.1870565683202
 30
0.0
 11
240.0
 21
376.1870565683202
 31
0.0
  0
INSERT
  5
1220
330
121C
100
AcDbEntity
  8
SIZE
 62
     0
100
AcDbBlockReference
  2
_ORIGIN
 10
-249.9999999999999
 20
376.1870565683202
 30
0.0
 41
10.0
 42
10.0
 43
10.0
 50
180.0
  0
INSERT
  5
1221
330
121C
100
AcDbEntity
  8
SIZE
 62
     0
100
AcDbBlockReference
  2
_ORIGIN
 10
250.0
 20
376.1870565683202
 30
0.0
 41
10.0
 42
10.0
 43
10.0
  0
MTEXT
  5
1222
330
121C
100
AcDbEntity
  8
SIZE
 62
     0
100
AcDbMText
 10
0.000000000000031
 20
418.1870565683202
 30
0.0
 40
64.0
 41
0.0
 71
     5
 72
     1
  1
\A1;500
1001
ACAD
1000
MTEXTBEGIN
1070
    73
1070
     1
1070
    44
1040
1.0
1070
    74
1070
     0
1000
MTEXTEND
  0
POINT
  5
1223
330
121C
100
AcDbEntity
  8
DEFPOINTS
 62
     0
100
AcDbPoint
 10
-250.0
 20
105.3037965567236
 30
0.0
  0
POINT
  5
1224
330
121C
100
AcDbEntity
  8
DEFPOINTS
 62
     0
100
AcDbPoint
 10
250.0
 20
118.9462943904145
 30
0.0
  0
POINT
  5
1225
330
121C
100
AcDbEntity
  8
DEFPOINTS
 62
     0
100
AcDbPoint
 10
250.0
 20
376.1870565683202
 30
0.0
  0
ENDBLK
  5
1227
330
121C
100
AcDbEntity
  8
0
100
AcDbBlockEnd
  0
BLOCK
  5
1233
330
1229
100
AcDbEntity
  8
0
100
AcDbBlockBegin
  2
*D3
 70
     1
 10
0.0
 20
0.0
 30
0.0
  3
*D3
  1

  0
LINE
  5
122A
330
1229
100
AcDbEntity
  8
SIZE
 62
     0
100
AcDbLine
 10
-270.0
 20
133.3230212166599
 30
0.0
 11
-270.0
 21
509.7147006854866
 31
0.0
  0
LINE
  5
122B
330
1229
100
AcDbEntity
  8
SIZE
 62
     0
100
AcDbLine
 10
270.0
 20
133.3230212166599
 30
0.0
 11
270.0
 21
509.7147006854866
 31
0.0
  0
LINE
  5
122C
330
1229
100
AcDbEntity
  8
SIZE
 62
     0
100
AcDbLine
 10
-260.0
 20
489.7147006854866
 30
0.0
 11
260.0
 21
489.7147006854866
 31
0.0
  0
INSERT
  5
122D
330
1229
100
AcDbEntity
  8
SIZE
 62
     0
100
AcDbBlockReference
  2
_ORIGIN
 10
-270.0
 20
489.7147006854866
 30
0.0
 41
10.0
 42
10.0
 43
10.0
 50
180.0
  0
INSERT
  5
122E
330
1229
100
AcDbEntity
  8
SIZE
 62
     0
100
AcDbBlockReference
  2
_ORIGIN
 10
270.0
 20
489.7147006854866
 30
0.0
 41
10.0
 42
10.0
 43
10.0
  0
MTEXT
  5
122F
330
1229
100
AcDbEntity
  8
SIZE
 62
     0
100
AcDbMText
 10
0.0000000000000026
 20
531.7147006854866
 30
0.0
 40
64.0
 41
0.0
 71
     5
 72
     1
  1
\A1;540
1001
ACAD
1000
MTEXTBEGIN
1070
    73
1070
     1
1070
    44
1040
1.0
1070
    74
1070
     0
1000
MTEXTEND
  0
POINT
  5
1230
330
1229
100
AcDbEntity
  8
DEFPOINTS
 62
     0
100
AcDbPoint
 10
-270.0
 20
113.3230212166599
 30
0.0
  0
POINT
  5
1231
330
1229
100
AcDbEntity
  8
DEFPOINTS
 62
     0
100
AcDbPoint
 10
270.0
 20
113.3230212166599
 30
0.0
  0
POINT
  5
1232
330
1229
100
AcDbEntity
  8
DEFPOINTS
 62
     0
100
AcDbPoint
 10
270.0
 20
489.7147006854866
 30
0.0
  0
ENDBLK
  5
1234
330
1229
100
AcDbEntity
  8
0
100
AcDbBlockEnd
  0
BLOCK
  5
1242
330
1236
100
AcDbEntity
  8
0
100
AcDbBlockBegin
  2
*D4
 70
     1
 10
0.0
 20
0.0
 30
0.0
  3
*D4
  1

  0
LINE
  5
1373
330
1236
100
AcDbEntity
  8
SIZE
 62
     0
100
AcDbLine
 10
-190.0
 20
-343.3790818610141
 30
0.0
 11
-190.0
 21
-528.5122759301157
 31
0.0
  0
LINE
  5
1374
330
1236
100
AcDbEntity
  8
SIZE
 62
     0
100
AcDbLine
 10
-230.0
 20
-297.67697878334
 30
0.0
 11
-230.0
 21
-528.5122759301157
 31
0.0
  0
LINE
  5
1375
330
1236
100
AcDbEntity
  8
SIZE
 62
     0
100
AcDbLine
 10
-220.0
 20
-508.5122759301157
 30
0.0
 11
-200.0
 21
-508.5122759301157
 31
0.0
  0
LINE
  5
1376
330
1236
100
AcDbEntity
  8
SIZE
 62
     0
100
AcDbLine
 10
-190.0
 20
-508.5122759301157
 30
0.0
 11
-66.74285714285716
 21
-508.5122759301157
 31
0.0
  0
INSERT
  5
1377
330
1236
100
AcDbEntity
  8
SIZE
 62
     0
100
AcDbBlockReference
  2
_ORIGIN
 10
-230.0
 20
-508.5122759301157
 30
0.0
 41
10.0
 42
10.0
 43
10.0
 50
180.0
  0
INSERT
  5
1378
330
1236
100
AcDbEntity
  8
SIZE
 62
     0
100
AcDbBlockReference
  2
_ORIGIN
 10
-190.0
 20
-508.5122759301157
 30
0.0
 41
10.0
 42
10.0
 43
10.0
  0
MTEXT
  5
1379
330
1236
100
AcDbEntity
  8
SIZE
 62
     0
100
AcDbMText
 10
-123.3714285714285
 20
-466.5122759301157
 30
0.0
 40
64.0
 41
0.0
 71
     5
 72
     1
  1
\A1;40
1001
ACAD
1000
MTEXTBEGIN
1070
    73
1070
     1
1070
    44
1040
1.0
1070
    74
1070
     0
1000
MTEXTEND
  0
POINT
  5
137A
330
1236
100
AcDbEntity
  8
DEFPOINTS
 62
     0
100
AcDbPoint
 10
-190.0
 20
-323.3790818610141
 30
0.0
  0
POINT
  5
137B
330
1236
100
AcDbEntity
  8
DEFPOINTS
 62
     0
100
AcDbPoint
 10
-230.0
 20
-277.67697878334
 30
0.0
  0
POINT
  5
137C
330
1236
100
AcDbEntity
  8
DEFPOINTS
 62
     0
100
AcDbPoint
 10
-230.0
 20
-508.5122759301157
 30
0.0
  0
ENDBLK
  5
1243
330
1236
100
AcDbEntity
  8
0
100
AcDbBlockEnd
  0
BLOCK
  5
1251
330
1245
100
AcDbEntity
  8
0
100
AcDbBlockBegin
  2
*D5
 70
     1
 10
0.0
 20
0.0
 30
0.0
  3
*D5
  1

  0
LINE
  5
136A
330
1245
100
AcDbEntity
  8
SIZE
 62
     0
100
AcDbLine
 10
-230.0
 20
-297.67697878334
 30
0.0
 11
-230.0
 21
-663.978265271362
 31
0.0
  0
LINE
  5
136B
330
1245
100
AcDbEntity
  8
SIZE
 62
     0
100
AcDbLine
 10
-100.0
 20
-388.2061385328051
 30
0.0
 11
-100.0
 21
-663.978265271362
 31
0.0
  0
LINE
  5
136C
330
1245
100
AcDbEntity
  8
SIZE
 62
     0
100
AcDbLine
 10
-220.0
 20
-643.978265271362
 30
0.0
 11
-110.0
 21
-643.978265271362
 31
0.0
  0
INSERT
  5
136D
330
1245
100
AcDbEntity
  8
SIZE
 62
     0
100
AcDbBlockReference
  2
_ORIGIN
 10
-230.0
 20
-643.978265271362
 30
0.0
 41
10.0
 42
10.0
 43
10.0
 50
180.0
  0
INSERT
  5
136E
330
1245
100
AcDbEntity
  8
SIZE
 62
     0
100
AcDbBlockReference
  2
_ORIGIN
 10
-100.0
 20
-643.978265271362
 30
0.0
 41
10.0
 42
10.0
 43
10.0
  0
MTEXT
  5
136F
330
1245
100
AcDbEntity
  8
SIZE
 62
     0
100
AcDbMText
 10
-165.0
 20
-601.978265271362
 30
0.0
 40
64.0
 41
0.0
 71
     5
 72
     1
  1
\A1;130
1001
ACAD
1000
MTEXTBEGIN
1070
    73
1070
     1
1070
    44
1040
1.0
1070
    74
1070
     0
1000
MTEXTEND
  0
POINT
  5
1370
330
1245
100
AcDbEntity
  8
DEFPOINTS
 62
     0
100
AcDbPoint
 10
-230.0
 20
-277.67697878334
 30
0.0
  0
POINT
  5
1371
330
1245
100
AcDbEntity
  8
DEFPOINTS
 62
     0
100
AcDbPoint
 10
-100.0
 20
-368.2061385328052
 30
0.0
  0
POINT
  5
1372
330
1245
100
AcDbEntity
  8
DEFPOINTS
 62
     0
100
AcDbPoint
 10
-100.0
 20
-643.978265271362
 30
0.0
  0
ENDBLK
  5
1252
330
1245
100
AcDbEntity
  8
0
100
AcDbBlockEnd
  0
BLOCK
  5
1260
330
1254
100
AcDbEntity
  8
0
100
AcDbBlockBegin
  2
*D6
 70
     1
 10
0.0
 20
0.0
 30
0.0
  3
*D6
  1

  0
LINE
  5
12B0
330
1254
100
AcDbEntity
  8
SIZE
 62
     0
100
AcDbLine
 10
230.0
 20
-297.67697878334
 30
0.0
 11
230.0
 21
-446.8452045804297
 31
0.0
  0
LINE
  5
12B1
330
1254
100
AcDbEntity
  8
SIZE
 62
     0
100
AcDbLine
 10
288.0
 20
-174.67697878334
 30
0.0
 11
288.0
 21
-446.8452045804297
 31
0.0
  0
LINE
  5
12B2
330
1254
100
AcDbEntity
  8
SIZE
 62
     0
100
AcDbLine
 10
278.0
 20
-426.8452045804297
 30
0.0
 11
240.0
 21
-426.8452045804297
 31
0.0
  0
LINE
  5
12B3
330
1254
100
AcDbEntity
  8
SIZE
 62
     0
100
AcDbLine
 10
230.0
 20
-426.8452045804297
 30
0.0
 11
106.7428571428571
 21
-426.8452045804297
 31
0.0
  0
INSERT
  5
12B4
330
1254
100
AcDbEntity
  8
SIZE
 62
     0
100
AcDbBlockReference
  2
_ORIGIN
 10
288.0
 20
-426.8452045804297
 30
0.0
 41
10.0
 42
10.0
 43
10.0
  0
INSERT
  5
12B5
330
1254
100
AcDbEntity
  8
SIZE
 62
     0
100
AcDbBlockReference
  2
_ORIGIN
 10
230.0
 20
-426.8452045804297
 30
0.0
 41
10.0
 42
10.0
 43
10.0
 50
180.0
  0
MTEXT
  5
12B6
330
1254
100
AcDbEntity
  8
SIZE
 62
     0
100
AcDbMText
 10
163.3714285714285
 20
-384.8452045804297
 30
0.0
 40
64.0
 41
0.0
 71
     5
 72
     1
  1
\A1;58
1001
ACAD
1000
MTEXTBEGIN
1070
    73
1070
     1
1070
    44
1040
1.0
1070
    74
1070
     0
1000
MTEXTEND
  0
POINT
  5
12B7
330
1254
100
AcDbEntity
  8
DEFPOINTS
 62
     0
100
AcDbPoint
 10
230.0
 20
-277.67697878334
 30
0.0
  0
POINT
  5
12B8
330
1254
100
AcDbEntity
  8
DEFPOINTS
 62
     0
100
AcDbPoint
 10
288.0
 20
-154.67697878334
 30
0.0
  0
POINT
  5
12B9
330
1254
100
AcDbEntity
  8
DEFPOINTS
 62
     0
100
AcDbPoint
 10
288.0
 20
-426.8452045804297
 30
0.0
  0
ENDBLK
  5
1261
330
1254
100
AcDbEntity
  8
0
100
AcDbBlockEnd
  0
BLOCK
  5
126F
330
1263
100
AcDbEntity
  8
0
100
AcDbBlockBegin
  2
*D7
 70
     1
 10
0.0
 20
0.0
 30
0.0
  3
*D7
  1

  0
LINE
  5
12A7
330
1263
100
AcDbEntity
  8
SIZE
 62
     0
100
AcDbLine
 10
230.0
 20
-297.67697878334
 30
0.0
 11
229.9999999999999
 21
-584.2641188303096
 31
0.0
  0
LINE
  5
12A8
330
1263
100
AcDbEntity
  8
SIZE
 62
     0
100
AcDbLine
 10
348.0
 20
-134.67697878334
 30
0.0
 11
347.9999999999999
 21
-584.2641188303096
 31
0.0
  0
LINE
  5
12A9
330
1263
100
AcDbEntity
  8
SIZE
 62
     0
100
AcDbLine
 10
239.9999999999999
 20
-564.2641188303096
 30
0.0
 11
338.0
 21
-564.2641188303096
 31
0.0
  0
INSERT
  5
12AA
330
1263
100
AcDbEntity
  8
SIZE
 62
     0
100
AcDbBlockReference
  2
_ORIGIN
 10
229.9999999999999
 20
-564.2641188303096
 30
0.0
 41
10.0
 42
10.0
 43
10.0
 50
180.0
  0
INSERT
  5
12AB
330
1263
100
AcDbEntity
  8
SIZE
 62
     0
100
AcDbBlockReference
  2
_ORIGIN
 10
348.0
 20
-564.2641188303096
 30
0.0
 41
10.0
 42
10.0
 43
10.0
  0
MTEXT
  5
12AC
330
1263
100
AcDbEntity
  8
SIZE
 62
     0
100
AcDbMText
 10
289.0
 20
-522.2641188303096
 30
0.0
 40
64.0
 41
0.0
 71
     5
 72
     1
  1
\A1;118
1001
ACAD
1000
MTEXTBEGIN
1070
    73
1070
     1
1070
    44
1040
1.0
1070
    74
1070
     0
1000
MTEXTEND
  0
POINT
  5
12AD
330
1263
100
AcDbEntity
  8
DEFPOINTS
 62
     0
100
AcDbPoint
 10
230.0
 20
-277.67697878334
 30
0.0
  0
POINT
  5
12AE
330
1263
100
AcDbEntity
  8
DEFPOINTS
 62
     0
100
AcDbPoint
 10
348.0
 20
-114.67697878334
 30
0.0
  0
POINT
  5
12AF
330
1263
100
AcDbEntity
  8
DEFPOINTS
 62
     0
100
AcDbPoint
 10
348.0
 20
-564.2641188303096
 30
0.0
  0
ENDBLK
  5
1270
330
1263
100
AcDbEntity
  8
0
100
AcDbBlockEnd
  0
BLOCK
  5
127E
330
1272
100
AcDbEntity
  8
0
100
AcDbBlockBegin
  2
*D8
 70
     1
 10
0.0
 20
0.0
 30
0.0
  3
*D8
  1

  0
LINE
  5
137D
330
1272
100
AcDbEntity
  8
SIZE
 62
     0
100
AcDbLine
 10
-230.0
 20
-297.67697878334
 30
0.0
 11
-230.0
 21
-528.5122759301157
 31
0.0
  0
LINE
  5
137E
330
1272
100
AcDbEntity
  8
SIZE
 62
     0
100
AcDbLine
 10
-290.0
 20
-134.67697878334
 30
0.0
 11
-290.0
 21
-528.5122759301157
 31
0.0
  0
LINE
  5
137F
330
1272
100
AcDbEntity
  8
SIZE
 62
     0
100
AcDbLine
 10
-240.0
 20
-508.5122759301157
 30
0.0
 11
-280.0
 21
-508.5122759301157
 31
0.0
  0
LINE
  5
1380
330
1272
100
AcDbEntity
  8
SIZE
 62
     0
100
AcDbLine
 10
-290.0
 20
-508.5122759301157
 30
0.0
 11
-413.2571428571428
 21
-508.5122759301157
 31
0.0
  0
INSERT
  5
1381
330
1272
100
AcDbEntity
  8
SIZE
 62
     0
100
AcDbBlockReference
  2
_ORIGIN
 10
-230.0
 20
-508.5122759301157
 30
0.0
 41
10.0
 42
10.0
 43
10.0
  0
INSERT
  5
1382
330
1272
100
AcDbEntity
  8
SIZE
 62
     0
100
AcDbBlockReference
  2
_ORIGIN
 10
-290.0
 20
-508.5122759301157
 30
0.0
 41
10.0
 42
10.0
 43
10.0
 50
180.0
  0
MTEXT
  5
1383
330
1272
100
AcDbEntity
  8
SIZE
 62
     0
100
AcDbMText
 10
-356.6285714285715
 20
-466.5122759301157
 30
0.0
 40
64.0
 41
0.0
 71
     5
 72
     1
  1
\A1;60
1001
ACAD
1000
MTEXTBEGIN
1070
    73
1070
     1
1070
    44
1040
1.0
1070
    74
1070
     0
1000
MTEXTEND
  0
POINT
  5
1384
330
1272
100
AcDbEntity
  8
DEFPOINTS
 62
     0
100
AcDbPoint
 10
-230.0
 20
-277.67697878334
 30
0.0
  0
POINT
  5
1385
330
1272
100
AcDbEntity
  8
DEFPOINTS
 62
     0
100
AcDbPoint
 10
-290.0
 20
-114.67697878334
 30
0.0
  0
POINT
  5
1386
330
1272
100
AcDbEntity
  8
DEFPOINTS
 62
     0
100
AcDbPoint
 10
-290.0
 20
-508.5122759301157
 30
0.0
  0
ENDBLK
  5
127F
330
1272
100
AcDbEntity
  8
0
100
AcDbBlockEnd
  0
BLOCK
  5
12C6
330
12BC
100
AcDbEntity
  8
0
100
AcDbBlockBegin
  2
*D9
 70
     1
 10
0.0
 20
0.0
 30
0.0
  3
*D9
  1

  0
LINE
  5
12D6
330
12BC
100
AcDbEntity
  8
SIZE
 62
     0
100
AcDbLine
 10
-291.6804774513584
 20
83.32302121666
 30
0.0
 11
-490.6953158890683
 21
83.32302121666005
 31
0.0
  0
LINE
  5
12D7
330
12BC
100
AcDbEntity
  8
SIZE
 62
     0
100
AcDbLine
 10
-291.7213645758056
 20
-206.67697878334
 30
0.0
 11
-490.6953158890683
 21
-206.6769787833399
 31
0.0
  0
LINE
  5
12D8
330
12BC
100
AcDbEntity
  8
SIZE
 62
     0
100
AcDbLine
 10
-470.6953158890683
 20
73.32302121666003
 30
0.0
 11
-470.6953158890683
 21
-196.6769787833399
 31
0.0
  0
INSERT
  5
12D9
330
12BC
100
AcDbEntity
  8
SIZE
 62
     0
100
AcDbBlockReference
  2
_ORIGIN
 10
-470.6953158890683
 20
83.32302121666003
 30
0.0
 41
10.0
 42
10.0
 43
10.0
 50
90.0
  0
INSERT
  5
12DA
330
12BC
100
AcDbEntity
  8
SIZE
 62
     0
100
AcDbBlockReference
  2
_ORIGIN
 10
-470.6953158890683
 20
-206.6769787833399
 30
0.0
 41
10.0
 42
10.0
 43
10.0
 50
270.0
  0
MTEXT
  5
12DB
330
12BC
100
AcDbEntity
  8
SIZE
 62
     0
100
AcDbMText
 10
-512.6953158890683
 20
-62.2053840965018
 30
0.0
 40
64.0
 41
0.0
 71
     5
 72
     1
  1
\A1;290
 11
0.0000000000000001
 21
1.0
 31
0.0
1001
ACAD
1000
MTEXTBEGIN
1070
    73
1070
     1
1070
    44
1040
1.0
1070
    74
1070
     0
1000
MTEXTEND
  0
POINT
  5
12DC
330
12BC
100
AcDbEntity
  8
DEFPOINTS
 62
     0
100
AcDbPoint
 10
-271.6804774513584
 20
83.32302121665998
 30
0.0
  0
POINT
  5
12DD
330
12BC
100
AcDbEntity
  8
DEFPOINTS
 62
     0
100
AcDbPoint
 10
-271.7213645758056
 20
-206.67697878334
 30
0.0
  0
POINT
  5
12DE
330
12BC
100
AcDbEntity
  8
DEFPOINTS
 62
     0
100
AcDbPoint
 10
-470.6953158890683
 20
-206.6769787833399
 30
0.0
  0
ENDBLK
  5
12C7
330
12BC
100
AcDbEntity
  8
0
100
AcDbBlockEnd
  0
BLOCK
  5
12D3
330
12C9
100
AcDbEntity
  8
0
100
AcDbBlockBegin
  2
*D10
 70
     1
 10
0.0
 20
0.0
 30
0.0
  3
*D10
  1

  0
LINE
  5
12DF
330
12C9
100
AcDbEntity
  8
SIZE
 62
     0
100
AcDbLine
 10
-250.0
 20
154.3230212166599
 30
0.0
 11
-609.1470807829973
 21
154.3230212166601
 31
0.0
  0
LINE
  5
12E0
330
12C9
100
AcDbEntity
  8
SIZE
 62
     0
100
AcDbLine
 10
-250.0
 20
-277.67697878334
 30
0.0
 11
-609.1470807829974
 21
-277.6769787833399
 31
0.0
  0
LINE
  5
12E1
330
12C9
100
AcDbEntity
  8
SIZE
 62
     0
100
AcDbLine
 10
-589.1470807829973
 20
144.32302121666
 30
0.0
 11
-589.1470807829974
 21
-267.6769787833399
 31
0.0
  0
INSERT
  5
12E2
330
12C9
100
AcDbEntity
  8
SIZE
 62
     0
100
AcDbBlockReference
  2
_ORIGIN
 10
-589.1470807829973
 20
154.3230212166601
 30
0.0
 41
10.0
 42
10.0
 43
10.0
 50
90.0
  0
INSERT
  5
12E3
330
12C9
100
AcDbEntity
  8
SIZE
 62
     0
100
AcDbBlockReference
  2
_ORIGIN
 10
-589.1470807829974
 20
-277.6769787833399
 30
0.0
 41
10.0
 42
10.0
 43
10.0
 50
270.0
  0
MTEXT
  5
12E4
330
12C9
100
AcDbEntity
  8
SIZE
 62
     0
100
AcDbMText
 10
-631.1470807829973
 20
-61.48327442340814
 30
0.0
 40
64.0
 41
0.0
 71
     5
 72
     1
  1
\A1;432
 11
0.0000000000000001
 21
1.0
 31
0.0
1001
ACAD
1000
MTEXTBEGIN
1070
    73
1070
     1
1070
    44
1040
1.0
1070
    74
1070
     0
1000
MTEXTEND
  0
POINT
  5
12E5
330
12C9
100
AcDbEntity
  8
DEFPOINTS
 62
     0
100
AcDbPoint
 10
-230.0
 20
154.3230212166599
 30
0.0
  0
POINT
  5
12E6
330
12C9
100
AcDbEntity
  8
DEFPOINTS
 62
     0
100
AcDbPoint
 10
-230.0
 20
-277.67697878334
 30
0.0
  0
POINT
  5
12E7
330
12C9
100
AcDbEntity
  8
DEFPOINTS
 62
     0
100
AcDbPoint
 10
-589.1470807829974
 20
-277.6769787833399
 30
0.0
  0
ENDBLK
  5
12D4
330
12C9
100
AcDbEntity
  8
0
100
AcDbBlockEnd
  0
BLOCK
  5
12F5
330
12E9
100
AcDbEntity
  8
0
100
AcDbBlockBegin
  2
*D11
 70
     1
 10
0.0
 20
0.0
 30
0.0
  3
*D11
  1

  0
LINE
  5
1302
330
12E9
100
AcDbEntity
  8
SIZE
 62
     0
100
AcDbLine
 10
-310.0
 20
-114.67697878334
 30
0.0
 11
-377.2724192777605
 21
-114.67697878334
 31
0.0
  0
LINE
  5
1303
330
12E9
100
AcDbEntity
  8
SIZE
 62
     0
100
AcDbLine
 10
-310.0
 20
-8.676978783340011
 30
0.0
 11
-377.2724192777605
 21
-8.676978783339993
 31
0.0
  0
LINE
  5
1304
330
12E9
100
AcDbEntity
  8
SIZE
 62
     0
100
AcDbLine
 10
-357.2724192777605
 20
-124.67697878334
 30
0.0
 11
-357.2724192777605
 21
-134.6769787833399
 31
0.0
  0
LINE
  5
1305
330
12E9
100
AcDbEntity
  8
SIZE
 62
     0
100
AcDbLine
 10
-357.2724192777605
 20
1.32302121666
 30
0.0
 11
-357.2724192777605
 21
11.32302121666
 31
0.0
  0
LINE
  5
1306
330
12E9
100
AcDbEntity
  8
SIZE
 62
     0
100
AcDbLine
 10
-357.2724192777605
 20
-114.67697878334
 30
0.0
 11
-357.2724192777605
 21
-8.676978783339999
 31
0.0
  0
INSERT
  5
1307
330
12E9
100
AcDbEntity
  8
SIZE
 62
     0
100
AcDbBlockReference
  2
_ORIGIN
 10
-357.2724192777605
 20
-114.67697878334
 30
0.0
 41
10.0
 42
10.0
 43
10.0
 50
90.0
  0
INSERT
  5
1308
330
12E9
100
AcDbEntity
  8
SIZE
 62
     0
100
AcDbBlockReference
  2
_ORIGIN
 10
-357.2724192777605
 20
-8.676978783339999
 30
0.0
 41
10.0
 42
10.0
 43
10.0
 50
270.0
  0
MTEXT
  5
1309
330
12E9
100
AcDbEntity
  8
SIZE
 62
     0
100
AcDbMText
 10
-399.2724192777604
 20
-61.67697878334006
 30
0.0
 40
64.0
 41
0.0
 71
     5
 72
     1
  1
\A1;%%c106
 11
0.0000000000000001
 21
1.0
 31
0.0
1001
ACAD
1000
MTEXTBEGIN
1070
    73
1070
     1
1070
    44
1040
1.0
1070
    74
1070
     0
1000
MTEXTEND
  0
POINT
  5
130A
330
12E9
100
AcDbEntity
  8
DEFPOINTS
 62
     0
100
AcDbPoint
 10
-290.0
 20
-114.67697878334
 30
0.0
  0
POINT
  5
130B
330
12E9
100
AcDbEntity
  8
DEFPOINTS
 62
     0
100
AcDbPoint
 10
-290.0
 20
-8.676978783340018
 30
0.0
  0
POINT
  5
130C
330
12E9
100
AcDbEntity
  8
DEFPOINTS
 62
     0
100
AcDbPoint
 10
-357.2724192777605
 20
-8.676978783339999
 30
0.0
  0
ENDBLK
  5
12F6
330
12E9
100
AcDbEntity
  8
0
100
AcDbBlockEnd
  0
BLOCK
  5
1318
330
130E
100
AcDbEntity
  8
0
100
AcDbBlockBegin
  2
*D12
 70
     1
 10
0.0
 20
0.0
 30
0.0
  3
*D12
  1

  0
LINE
  5
131A
330
130E
100
AcDbEntity
  8
SIZE
 62
     0
100
AcDbLine
 10
308.0
 20
31.32302121665997
 30
0.0
 11
660.3740574442927
 21
31.32302121665988
 31
0.0
  0
LINE
  5
131B
330
130E
100
AcDbEntity
  8
SIZE
 62
     0
100
AcDbLine
 10
308.0
 20
-154.67697878334
 30
0.0
 11
660.3740574442927
 21
-154.6769787833401
 31
0.0
  0
LINE
  5
131C
330
130E
100
AcDbEntity
  8
SIZE
 62
     0
100
AcDbLine
 10
640.3740574442926
 20
21.32302121665988
 30
0.0
 11
640.3740574442926
 21
-144.6769787833401
 31
0.0
  0
INSERT
  5
131D
330
130E
100
AcDbEntity
  8
SIZE
 62
     0
100
AcDbBlockReference
  2
_ORIGIN
 10
640.3740574442926
 20
31.32302121665988
 30
0.0
 41
10.0
 42
10.0
 43
10.0
 50
90.0
  0
INSERT
  5
131E
330
130E
100
AcDbEntity
  8
SIZE
 62
     0
100
AcDbBlockReference
  2
_ORIGIN
 10
640.3740574442926
 20
-154.6769787833401
 30
0.0
 41
10.0
 42
10.0
 43
10.0
 50
270.0
  0
MTEXT
  5
131F
330
130E
100
AcDbEntity
  8
SIZE
 62
     0
100
AcDbMText
 10
598.3740574442927
 20
-61.67697878333998
 30
0.0
 40
64.0
 41
0.0
 71
     5
 72
     1
  1
\A1;186
 11
0.0000000000000001
 21
1.0
 31
0.0
1001
ACAD
1000
MTEXTBEGIN
1070
    73
1070
     1
1070
    44
1040
1.0
1070
    74
1070
     0
1000
MTEXTEND
  0
POINT
  5
1320
330
130E
100
AcDbEntity
  8
DEFPOINTS
 62
     0
100
AcDbPoint
 10
288.0
 20
31.32302121665998
 30
0.0
  0
POINT
  5
1321
330
130E
100
AcDbEntity
  8
DEFPOINTS
 62
     0
100
AcDbPoint
 10
288.0
 20
-154.67697878334
 30
0.0
  0
POINT
  5
1322
330
130E
100
AcDbEntity
  8
DEFPOINTS
 62
     0
100
AcDbPoint
 10
640.3740574442926
 20
-154.6769787833401
 30
0.0
  0
ENDBLK
  5
1319
330
130E
100
AcDbEntity
  8
0
100
AcDbBlockEnd
  0
BLOCK
  5
1330
330
1324
100
AcDbEntity
  8
0
100
AcDbBlockBegin
  2
*D13
 70
     1
 10
0.0
 20
0.0
 30
0.0
  3
*D13
  1

  0
LINE
  5
1342
330
1324
100
AcDbEntity
  8
SIZE
 62
     0
100
AcDbLine
 10
368.0
 20
-8.676978783340024
 30
0.0
 11
536.7816106638711
 21
-8.676978783340071
 31
0.0
  0
LINE
  5
1343
330
1324
100
AcDbEntity
  8
SIZE
 62
     0
100
AcDbLine
 10
368.0
 20
-114.67697878334
 30
0.0
 11
536.7816106638711
 21
-114.67697878334
 31
0.0
  0
LINE
  5
1344
330
1324
100
AcDbEntity
  8
SIZE
 62
     0
100
AcDbLine
 10
516.7816106638711
 20
-18.67697878334006
 30
0.0
 11
516.7816106638711
 21
-104.67697878334
 31
0.0
  0
INSERT
  5
1345
330
1324
100
AcDbEntity
  8
SIZE
 62
     0
100
AcDbBlockReference
  2
_ORIGIN
 10
516.7816106638711
 20
-8.676978783340066
 30
0.0
 41
10.0
 42
10.0
 43
10.0
 50
90.0
  0
INSERT
  5
1346
330
1324
100
AcDbEntity
  8
SIZE
 62
     0
100
AcDbBlockReference
  2
_ORIGIN
 10
516.7816106638711
 20
-114.67697878334
 30
0.0
 41
10.0
 42
10.0
 43
10.0
 50
270.0
  0
MTEXT
  5
1347
330
1324
100
AcDbEntity
  8
SIZE
 62
     0
100
AcDbMText
 10
474.7816106638711
 20
-61.67697878333998
 30
0.0
 40
64.0
 41
0.0
 71
     5
 72
     1
  1
\A1;%%c106
 11
0.0000000000000001
 21
1.0
 31
0.0
1001
ACAD
1000
MTEXTBEGIN
1070
    73
1070
     1
1070
    44
1040
1.0
1070
    74
1070
     0
1000
MTEXTEND
  0
POINT
  5
1348
330
1324
100
AcDbEntity
  8
DEFPOINTS
 62
     0
100
AcDbPoint
 10
348.0
 20
-8.676978783340018
 30
0.0
  0
POINT
  5
1349
330
1324
100
AcDbEntity
  8
DEFPOINTS
 62
     0
100
AcDbPoint
 10
348.0
 20
-114.67697878334
 30
0.0
  0
POINT
  5
134A
330
1324
100
AcDbEntity
  8
DEFPOINTS
 62
     0
100
AcDbPoint
 10
516.7816106638711
 20
-114.67697878334
 30
0.0
  0
ENDBLK
  5
1331
330
1324
100
AcDbEntity
  8
0
100
AcDbBlockEnd
  0
BLOCK
  5
139A
330
1390
100
AcDbEntity
  8
0
100
AcDbBlockBegin
  2
*D14
 70
     1
 10
0.0
 20
0.0
 30
0.0
  3
*D14
  1

  0
LINE
  5
139C
330
1390
100
AcDbEntity
  8
SIZE
 62
     0
100
AcDbLine
 10
-22.0
 20
-321.9623573644931
 30
0.0
 11
-22.00000000000002
 21
-784.4190554030356
 31
0.0
  0
LINE
  5
139D
330
1390
100
AcDbEntity
  8
SIZE
 62
     0
100
AcDbLine
 10
-230.0
 20
-297.67697878334
 30
0.0
 11
-230.0
 21
-784.4190554030356
 31
0.0
  0
LINE
  5
139E
330
1390
100
AcDbEntity
  8
SIZE
 62
     0
100
AcDbLine
 10
-32.00000000000002
 20
-764.4190554030355
 30
0.0
 11
-220.0
 21
-764.4190554030355
 31
0.0
  0
INSERT
  5
139F
330
1390
100
AcDbEntity
  8
SIZE
 62
     0
100
AcDbBlockReference
  2
_ORIGIN
 10
-22.00000000000002
 20
-764.4190554030355
 30
0.0
 41
10.0
 42
10.0
 43
10.0
  0
INSERT
  5
13A0
330
1390
100
AcDbEntity
  8
SIZE
 62
     0
100
AcDbBlockReference
  2
_ORIGIN
 10
-230.0
 20
-764.4190554030355
 30
0.0
 41
10.0
 42
10.0
 43
10.0
 50
180.0
  0
MTEXT
  5
13A1
330
1390
100
AcDbEntity
  8
SIZE
 62
     0
100
AcDbMText
 10
-126.0
 20
-722.4190554030355
 30
0.0
 40
64.0
 41
0.0
 71
     5
 72
     1
  1
\A1;208
1001
ACAD
1000
MTEXTBEGIN
1070
    73
1070
     1
1070
    44
1040
1.0
1070
    74
1070
     0
1000
MTEXTEND
  0
POINT
  5
13A2
330
1390
100
AcDbEntity
  8
DEFPOINTS
 62
     0
100
AcDbPoint
 10
-22.0
 20
-301.962357364493
 30
0.0
  0
POINT
  5
13A3
330
1390
100
AcDbEntity
  8
DEFPOINTS
 62
     0
100
AcDbPoint
 10
-230.0
 20
-277.67697878334
 30
0.0
  0
POINT
  5
13A4
330
1390
100
AcDbEntity
  8
DEFPOINTS
 62
     0
100
AcDbPoint
 10
-230.0
 20
-764.4190554030355
 30
0.0
  0
ENDBLK
  5
139B
330
1390
100
AcDbEntity
  8
0
100
AcDbBlockEnd
  0
BLOCK
  5
13BB
330
13AF
100
AcDbEntity
  8
0
100
AcDbBlockBegin
  2
*D15
 70
     1
 10
0.0
 20
0.0
 30
0.0
  3
*D15
  1

  0
LINE
  5
13CD
330
13AF
100
AcDbEntity
  8
SIZE
 62
     0
100
AcDbLine
 10
-250.0
 20
-277.67697878334
 30
0.0
 11
-420.8974457620788
 21
-277.6769787833399
 31
0.0
  0
LINE
  5
13CE
330
13AF
100
AcDbEntity
  8
SIZE
 62
     0
100
AcDbLine
 10
-230.0
 20
-317.67697878334
 30
0.0
 11
-420.8974457620788
 21
-317.6769787833399
 31
0.0
  0
LINE
  5
13CF
330
13AF
100
AcDbEntity
  8
SIZE
 62
     0
100
AcDbLine
 10
-400.8974457620789
 20
-287.6769787833399
 30
0.0
 11
-400.8974457620789
 21
-307.6769787833399
 31
0.0
  0
INSERT
  5
13D0
330
13AF
100
AcDbEntity
  8
SIZE
 62
     0
100
AcDbBlockReference
  2
_ORIGIN
 10
-400.8974457620789
 20
-277.6769787833399
 30
0.0
 41
10.0
 42
10.0
 43
10.0
 50
90.0
  0
INSERT
  5
13D1
330
13AF
100
AcDbEntity
  8
SIZE
 62
     0
100
AcDbBlockReference
  2
_ORIGIN
 10
-400.8974457620789
 20
-317.6769787833399
 30
0.0
 41
10.0
 42
10.0
 43
10.0
 50
270.0
  0
MTEXT
  5
13D2
330
13AF
100
AcDbEntity
  8
SIZE
 62
     0
100
AcDbMText
 10
-442.8974457620788
 20
-297.67697878334
 30
0.0
 40
64.0
 41
0.0
 71
     5
 72
     1
  1
\A1;40
 11
0.0000000000000001
 21
1.0
 31
0.0
1001
ACAD
1000
MTEXTBEGIN
1070
    73
1070
     1
1070
    44
1040
1.0
1070
    74
1070
     0
1000
MTEXTEND
  0
POINT
  5
13D3
330
13AF
100
AcDbEntity
  8
DEFPOINTS
 62
     0
100
AcDbPoint
 10
-230.0
 20
-277.67697878334
 30
0.0
  0
POINT
  5
13D4
330
13AF
100
AcDbEntity
  8
DEFPOINTS
 62
     0
100
AcDbPoint
 10
-210.0
 20
-317.67697878334
 30
0.0
  0
POINT
  5
13D5
330
13AF
100
AcDbEntity
  8
DEFPOINTS
 62
     0
100
AcDbPoint
 10
-400.8974457620789
 20
-317.6769787833399
 30
0.0
  0
ENDBLK
  5
13BC
330
13AF
100
AcDbEntity
  8
0
100
AcDbBlockEnd
  0
BLOCK
  5
13CA
330
13BE
100
AcDbEntity
  8
0
100
AcDbBlockBegin
  2
*D16
 70
     1
 10
0.0
 20
0.0
 30
0.0
  3
*D16
  1

  0
LINE
  5
13BF
330
13BE
100
AcDbEntity
  8
SIZE
 62
     0
100
AcDbLine
 10
-250.0
 20
-277.67697878334
 30
0.0
 11
-609.1470807829974
 21
-277.6769787833399
 31
0.0
  0
LINE
  5
13C0
330
13BE
100
AcDbEntity
  8
SIZE
 62
     0
100
AcDbLine
 10
-140.0
 20
-347.6769787833398
 30
0.0
 11
-609.1470807829974
 21
-347.6769787833398
 31
0.0
  0
LINE
  5
13C1
330
13BE
100
AcDbEntity
  8
SIZE
 62
     0
100
AcDbLine
 10
-589.1470807829974
 20
-267.6769787833399
 30
0.0
 11
-589.1470807829974
 21
-257.6769787833399
 31
0.0
  0
LINE
  5
13C2
330
13BE
100
AcDbEntity
  8
SIZE
 62
     0
100
AcDbLine
 10
-589.1470807829974
 20
-357.6769787833398
 30
0.0
 11
-589.1470807829974
 21
-367.6769787833397
 31
0.0
  0
LINE
  5
13C3
330
13BE
100
AcDbEntity
  8
SIZE
 62
     0
100
AcDbLine
 10
-589.1470807829974
 20
-277.6769787833399
 30
0.0
 11
-589.1470807829974
 21
-347.6769787833398
 31
0.0
  0
INSERT
  5
13C4
330
13BE
100
AcDbEntity
  8
SIZE
 62
     0
100
AcDbBlockReference
  2
_ORIGIN
 10
-589.1470807829974
 20
-277.6769787833399
 30
0.0
 41
10.0
 42
10.0
 43
10.0
 50
270.0
  0
INSERT
  5
13C5
330
13BE
100
AcDbEntity
  8
SIZE
 62
     0
100
AcDbBlockReference
  2
_ORIGIN
 10
-589.1470807829974
 20
-347.6769787833398
 30
0.0
 41
10.0
 42
10.0
 43
10.0
 50
90.0
  0
MTEXT
  5
13C6
330
13BE
100
AcDbEntity
  8
SIZE
 62
     0
100
AcDbMText
 10
-631.1470807829973
 20
-312.6769787833399
 30
0.0
 40
64.0
 41
0.0
 71
     5
 72
     1
  1
\A1;70
 11
0.0000000000000001
 21
1.0
 31
0.0
1001
ACAD
1000
MTEXTBEGIN
1070
    73
1070
     1
1070
    44
1040
1.0
1070
    74
1070
     0
1000
MTEXTEND
  0
POINT
  5
13C7
330
13BE
100
AcDbEntity
  8
DEFPOINTS
 62
     0
100
AcDbPoint
 10
-230.0
 20
-277.67697878334
 30
0.0
  0
POINT
  5
13C8
330
13BE
100
AcDbEntity
  8
DEFPOINTS
 62
     0
100
AcDbPoint
 10
-120.0
 20
-347.6769787833399
 30
0.0
  0
POINT
  5
13C9
330
13BE
100
AcDbEntity
  8
DEFPOINTS
 62
     0
100
AcDbPoint
 10
-589.1470807829974
 20
-347.6769787833398
 30
0.0
  0
ENDBLK
  5
13CB
330
13BE
100
AcDbEntity
  8
0
100
AcDbBlockEnd
  0
BLOCK
  5
13F1
330
13E7
100
AcDbEntity
  8
0
100
AcDbBlockBegin
  2
*D17
 70
     1
 10
0.0
 20
0.0
 30
0.0
  3
*D17
  1

  0
LINE
  5
15CD
330
13E7
100
AcDbEntity
  8
SIZE
 62
     0
100
AcDbLine
 10
-250.0
 20
-2118.137866183773
 30
0.0
 11
-577.6842417909796
 21
-2118.137866183773
 31
0.0
  0
LINE
  5
15CE
330
13E7
100
AcDbEntity
  8
SIZE
 62
     0
100
AcDbLine
 10
-330.2216434818328
 20
-1923.137866183773
 30
0.0
 11
-577.6842417909796
 21
-1923.137866183773
 31
0.0
  0
LINE
  5
15CF
330
13E7
100
AcDbEntity
  8
SIZE
 62
     0
100
AcDbLine
 10
-557.6842417909796
 20
-2108.137866183773
 30
0.0
 11
-557.6842417909796
 21
-1933.137866183773
 31
0.0
  0
INSERT
  5
15D0
330
13E7
100
AcDbEntity
  8
SIZE
 62
     0
100
AcDbBlockReference
  2
_ORIGIN
 10
-557.6842417909796
 20
-2118.137866183773
 30
0.0
 41
10.0
 42
10.0
 43
10.0
 50
270.0
  0
INSERT
  5
15D1
330
13E7
100
AcDbEntity
  8
SIZE
 62
     0
100
AcDbBlockReference
  2
_ORIGIN
 10
-557.6842417909796
 20
-1923.137866183773
 30
0.0
 41
10.0
 42
10.0
 43
10.0
 50
90.0
  0
MTEXT
  5
15D2
330
13E7
100
AcDbEntity
  8
SIZE
 62
     0
100
AcDbMText
 10
-599.6842417909792
 20
-2020.637866183773
 30
0.0
 40
64.0
 41
0.0
 71
     5
 72
     1
  1
\A1;195
 11
0.0000000000000001
 21
1.0
 31
0.0
1001
ACAD
1000
MTEXTBEGIN
1070
    73
1070
     1
1070
    44
1040
1.0
1070
    74
1070
     0
1000
MTEXTEND
  0
POINT
  5
15D3
330
13E7
100
AcDbEntity
  8
DEFPOINTS
 62
     0
100
AcDbPoint
 10
-230.0
 20
-2118.137866183773
 30
0.0
  0
POINT
  5
15D4
330
13E7
100
AcDbEntity
  8
DEFPOINTS
 62
     0
100
AcDbPoint
 10
-310.2216434818328
 20
-1923.137866183773
 30
0.0
  0
POINT
  5
15D5
330
13E7
100
AcDbEntity
  8
DEFPOINTS
 62
     0
100
AcDbPoint
 10
-557.6842417909796
 20
-1923.137866183773
 30
0.0
  0
ENDBLK
  5
13F2
330
13E7
100
AcDbEntity
  8
0
100
AcDbBlockEnd
  0
BLOCK
  5
1400
330
13F4
100
AcDbEntity
  8
0
100
AcDbBlockBegin
  2
*D18
 70
     1
 10
0.0
 20
0.0
 30
0.0
  3
*D18
  1

  0
LINE
  5
1472
330
13F4
100
AcDbEntity
  8
SIZE
 62
     0
100
AcDbLine
 10
290.0
 20
-1931.137866183773
 30
0.0
 11
690.3965245666618
 21
-1931.137866183773
 31
0.0
  0
LINE
  5
1473
330
13F4
100
AcDbEntity
  8
SIZE
 62
     0
100
AcDbLine
 10
250.0
 20
-2118.137866183773
 30
0.0
 11
690.3965245666618
 21
-2118.137866183773
 31
0.0
  0
LINE
  5
1474
330
13F4
100
AcDbEntity
  8
SIZE
 62
     0
100
AcDbLine
 10
670.3965245666619
 20
-1941.137866183773
 30
0.0
 11
670.3965245666619
 21
-2108.137866183773
 31
0.0
  0
INSERT
  5
1475
330
13F4
100
AcDbEntity
  8
SIZE
 62
     0
100
AcDbBlockReference
  2
_ORIGIN
 10
670.3965245666619
 20
-1931.137866183773
 30
0.0
 41
10.0
 42
10.0
 43
10.0
 50
90.0
  0
INSERT
  5
1476
330
13F4
100
AcDbEntity
  8
SIZE
 62
     0
100
AcDbBlockReference
  2
_ORIGIN
 10
670.3965245666619
 20
-2118.137866183773
 30
0.0
 41
10.0
 42
10.0
 43
10.0
 50
270.0
  0
MTEXT
  5
1477
330
13F4
100
AcDbEntity
  8
SIZE
 62
     0
100
AcDbMText
 10
628.3965245666622
 20
-2024.637866183773
 30
0.0
 40
64.0
 41
0.0
 71
     5
 72
     1
  1
\A1;187
 11
0.0000000000000001
 21
1.0
 31
0.0
1001
ACAD
1000
MTEXTBEGIN
1070
    73
1070
     1
1070
    44
1040
1.0
1070
    74
1070
     0
1000
MTEXTEND
  0
POINT
  5
1478
330
13F4
100
AcDbEntity
  8
DEFPOINTS
 62
     0
100
AcDbPoint
 10
270.0
 20
-1931.137866183773
 30
0.0
  0
POINT
  5
1479
330
13F4
100
AcDbEntity
  8
DEFPOINTS
 62
     0
100
AcDbPoint
 10
230.0
 20
-2118.137866183773
 30
0.0
  0
POINT
  5
147A
330
13F4
100
AcDbEntity
  8
DEFPOINTS
 62
     0
100
AcDbPoint
 10
670.3965245666619
 20
-2118.137866183773
 30
0.0
  0
ENDBLK
  5
1401
330
13F4
100
AcDbEntity
  8
0
100
AcDbBlockEnd
  0
BLOCK
  5
1421
330
1415
100
AcDbEntity
  8
0
100
AcDbBlockBegin
  2
*D19
 70
     1
 10
0.0
 20
0.0
 30
0.0
  3
*D19
  1

  0
LINE
  5
1442
330
1415
100
AcDbEntity
  8
SIZE
 62
     0
100
AcDbLine
 10
250.0
 20
-2118.137866183773
 30
0.0
 11
586.9823174489425
 21
-2118.137866183773
 31
0.0
  0
LINE
  5
1443
330
1415
100
AcDbEntity
  8
SIZE
 62
     0
100
AcDbLine
 10
382.3390703004333
 20
-1989.137866183773
 30
0.0
 11
586.9823174489425
 21
-1989.137866183773
 31
0.0
  0
LINE
  5
1444
330
1415
100
AcDbEntity
  8
SIZE
 62
     0
100
AcDbLine
 10
566.9823174489425
 20
-2108.137866183773
 30
0.0
 11
566.9823174489425
 21
-1999.137866183773
 31
0.0
  0
INSERT
  5
1445
330
1415
100
AcDbEntity
  8
SIZE
 62
     0
100
AcDbBlockReference
  2
_ORIGIN
 10
566.9823174489425
 20
-2118.137866183773
 30
0.0
 41
10.0
 42
10.0
 43
10.0
 50
270.0
  0
INSERT
  5
1446
330
1415
100
AcDbEntity
  8
SIZE
 62
     0
100
AcDbBlockReference
  2
_ORIGIN
 10
566.9823174489425
 20
-1989.137866183773
 30
0.0
 41
10.0
 42
10.0
 43
10.0
 50
90.0
  0
MTEXT
  5
1447
330
1415
100
AcDbEntity
  8
SIZE
 62
     0
100
AcDbMText
 10
524.9823174489429
 20
-2053.637866183773
 30
0.0
 40
64.0
 41
0.0
 71
     5
 72
     1
  1
\A1;129
 11
0.0000000000000001
 21
1.0
 31
0.0
1001
ACAD
1000
MTEXTBEGIN
1070
    73
1070
     1
1070
    44
1040
1.0
1070
    74
1070
     0
1000
MTEXTEND
  0
POINT
  5
1448
330
1415
100
AcDbEntity
  8
DEFPOINTS
 62
     0
100
AcDbPoint
 10
230.0
 20
-2118.137866183773
 30
0.0
  0
POINT
  5
1449
330
1415
100
AcDbEntity
  8
DEFPOINTS
 62
     0
100
AcDbPoint
 10
362.3390703004333
 20
-1989.137866183773
 30
0.0
  0
POINT
  5
144A
330
1415
100
AcDbEntity
  8
DEFPOINTS
 62
     0
100
AcDbPoint
 10
566.9823174489425
 20
-1989.137866183773
 30
0.0
  0
ENDBLK
  5
1422
330
1415
100
AcDbEntity
  8
0
100
AcDbBlockEnd
  0
BLOCK
  5
142E
330
1424
100
AcDbEntity
  8
0
100
AcDbBlockBegin
  2
*D20
 70
     1
 10
0.0
 20
0.0
 30
0.0
  3
*D20
  1

  0
LINE
  5
147B
330
1424
100
AcDbEntity
  8
SIZE
 62
     0
100
AcDbLine
 10
250.0
 20
-2118.137866183773
 30
0.0
 11
807.6217696830205
 21
-2118.137866183773
 31
0.0
  0
LINE
  5
147C
330
1424
100
AcDbEntity
  8
SIZE
 62
     0
100
AcDbLine
 10
250.0
 20
-1905.137866183773
 30
0.0
 11
807.6217696830205
 21
-1905.137866183773
 31
0.0
  0
LINE
  5
147D
330
1424
100
AcDbEntity
  8
SIZE
 62
     0
100
AcDbLine
 10
787.6217696830204
 20
-2108.137866183773
 30
0.0
 11
787.6217696830204
 21
-1915.137866183773
 31
0.0
  0
INSERT
  5
147E
330
1424
100
AcDbEntity
  8
SIZE
 62
     0
100
AcDbBlockReference
  2
_ORIGIN
 10
787.6217696830204
 20
-2118.137866183773
 30
0.0
 41
10.0
 42
10.0
 43
10.0
 50
270.0
  0
INSERT
  5
147F
330
1424
100
AcDbEntity
  8
SIZE
 62
     0
100
AcDbBlockReference
  2
_ORIGIN
 10
787.6217696830204
 20
-1905.137866183773
 30
0.0
 41
10.0
 42
10.0
 43
10.0
 50
90.0
  0
MTEXT
  5
1480
330
1424
100
AcDbEntity
  8
SIZE
 62
     0
100
AcDbMText
 10
745.6217696830208
 20
-2011.637866183773
 30
0.0
 40
64.0
 41
0.0
 71
     5
 72
     1
  1
\A1;213
 11
0.0000000000000001
 21
1.0
 31
0.0
1001
ACAD
1000
MTEXTBEGIN
1070
    73
1070
     1
1070
    44
1040
1.0
1070
    74
1070
     0
1000
MTEXTEND
  0
POINT
  5
1481
330
1424
100
AcDbEntity
  8
DEFPOINTS
 62
     0
100
AcDbPoint
 10
230.0
 20
-2118.137866183773
 30
0.0
  0
POINT
  5
1482
330
1424
100
AcDbEntity
  8
DEFPOINTS
 62
     0
100
AcDbPoint
 10
230.0
 20
-1905.137866183773
 30
0.0
  0
POINT
  5
1483
330
1424
100
AcDbEntity
  8
DEFPOINTS
 62
     0
100
AcDbPoint
 10
787.6217696830204
 20
-1905.137866183773
 30
0.0
  0
ENDBLK
  5
142F
330
1424
100
AcDbEntity
  8
0
100
AcDbBlockEnd
  0
BLOCK
  5
1458
330
144C
100
AcDbEntity
  8
0
100
AcDbBlockBegin
  2
*D21
 70
     1
 10
0.0
 20
0.0
 30
0.0
  3
*D21
  1

  0
LINE
  5
145A
330
144C
100
AcDbEntity
  8
SIZE
 62
     0
100
AcDbLine
 10
368.0
 20
-2042.137866183773
 30
0.0
 11
479.0848764295151
 21
-2042.137866183773
 31
0.0
  0
LINE
  5
145B
330
144C
100
AcDbEntity
  8
SIZE
 62
     0
100
AcDbLine
 10
368.0
 20
-1936.137866183773
 30
0.0
 11
479.0848764295151
 21
-1936.137866183773
 31
0.0
  0
LINE
  5
145C
330
144C
100
AcDbEntity
  8
SIZE
 62
     0
100
AcDbLine
 10
459.0848764295151
 20
-2052.137866183773
 30
0.0
 11
459.0848764295151
 21
-2062.137866183773
 31
0.0
  0
LINE
  5
145D
330
144C
100
AcDbEntity
  8
SIZE
 62
     0
100
AcDbLine
 10
459.0848764295151
 20
-1926.137866183773
 30
0.0
 11
459.0848764295151
 21
-1916.137866183773
 31
0.0
  0
LINE
  5
145E
330
144C
100
AcDbEntity
  8
SIZE
 62
     0
100
AcDbLine
 10
459.0848764295151
 20
-2042.137866183773
 30
0.0
 11
459.0848764295151
 21
-1936.137866183773
 31
0.0
  0
INSERT
  5
145F
330
144C
100
AcDbEntity
  8
SIZE
 62
     0
100
AcDbBlockReference
  2
_ORIGIN
 10
459.0848764295151
 20
-2042.137866183773
 30
0.0
 41
10.0
 42
10.0
 43
10.0
 50
90.0
  0
INSERT
  5
1460
330
144C
100
AcDbEntity
  8
SIZE
 62
     0
100
AcDbBlockReference
  2
_ORIGIN
 10
459.0848764295151
 20
-1936.137866183773
 30
0.0
 41
10.0
 42
10.0
 43
10.0
 50
270.0
  0
MTEXT
  5
1461
330
144C
100
AcDbEntity
  8
SIZE
 62
     0
100
AcDbMText
 10
417.0848764295154
 20
-1989.137866183773
 30
0.0
 40
64.0
 41
0.0
 71
     5
 72
     1
  1
\A1;%%c106
 11
0.0000000000000001
 21
1.0
 31
0.0
1001
ACAD
1000
MTEXTBEGIN
1070
    73
1070
     1
1070
    44
1040
1.0
1070
    74
1070
     0
1000
MTEXTEND
  0
POINT
  5
1462
330
144C
100
AcDbEntity
  8
DEFPOINTS
 62
     0
100
AcDbPoint
 10
348.0
 20
-2042.137866183773
 30
0.0
  0
POINT
  5
1463
330
144C
100
AcDbEntity
  8
DEFPOINTS
 62
     0
100
AcDbPoint
 10
348.0
 20
-1936.137866183773
 30
0.0
  0
POINT
  5
1464
330
144C
100
AcDbEntity
  8
DEFPOINTS
 62
     0
100
AcDbPoint
 10
459.0848764295151
 20
-1936.137866183773
 30
0.0
  0
ENDBLK
  5
1459
330
144C
100
AcDbEntity
  8
0
100
AcDbBlockEnd
  0
BLOCK
  5
1470
330
1466
100
AcDbEntity
  8
0
100
AcDbBlockBegin
  2
*D22
 70
     1
 10
0.0
 20
0.0
 30
0.0
  3
*D22
  1

  0
LINE
  5
1467
330
1466
100
AcDbEntity
  8
SIZE
 62
     0
100
AcDbLine
 10
210.0
 20
-2071.637866183773
 30
0.0
 11
167.2294201616095
 21
-2071.637866183773
 31
0.0
  0
LINE
  5
1468
330
1466
100
AcDbEntity
  8
SIZE
 62
     0
100
AcDbLine
 10
210.0
 20
-1906.637866183773
 30
0.0
 11
167.2294201616096
 21
-1906.637866183773
 31
0.0
  0
LINE
  5
1469
330
1466
100
AcDbEntity
  8
SIZE
 62
     0
100
AcDbLine
 10
187.2294201616095
 20
-2061.637866183773
 30
0.0
 11
187.2294201616096
 21
-1916.637866183773
 31
0.0
  0
INSERT
  5
146A
330
1466
100
AcDbEntity
  8
SIZE
 62
     0
100
AcDbBlockReference
  2
_ORIGIN
 10
187.2294201616095
 20
-2071.637866183773
 30
0.0
 41
10.0
 42
10.0
 43
10.0
 50
270.0
  0
INSERT
  5
146B
330
1466
100
AcDbEntity
  8
SIZE
 62
     0
100
AcDbBlockReference
  2
_ORIGIN
 10
187.2294201616096
 20
-1906.637866183773
 30
0.0
 41
10.0
 42
10.0
 43
10.0
 50
90.0
  0
MTEXT
  5
146C
330
1466
100
AcDbEntity
  8
SIZE
 62
     0
100
AcDbMText
 10
145.2294201616099
 20
-1989.137866183773
 30
0.0
 40
64.0
 41
0.0
 71
     5
 72
     1
  1
\A1;165
 11
0.0000000000000001
 21
1.0
 31
0.0
1001
ACAD
1000
MTEXTBEGIN
1070
    73
1070
     1
1070
    44
1040
1.0
1070
    74
1070
     0
1000
MTEXTEND
  0
POINT
  5
146D
330
1466
100
AcDbEntity
  8
DEFPOINTS
 62
     0
100
AcDbPoint
 10
230.0
 20
-2071.637866183773
 30
0.0
  0
POINT
  5
146E
330
1466
100
AcDbEntity
  8
DEFPOINTS
 62
     0
100
AcDbPoint
 10
230.0
 20
-1906.637866183773
 30
0.0
  0
POINT
  5
146F
330
1466
100
AcDbEntity
  8
DEFPOINTS
 62
     0
100
AcDbPoint
 10
187.2294201616096
 20
-1906.637866183773
 30
0.0
  0
ENDBLK
  5
1471
330
1466
100
AcDbEntity
  8
0
100
AcDbBlockEnd
  0
BLOCK
  5
1491
330
1485
100
AcDbEntity
  8
0
100
AcDbBlockBegin
  2
*D23
 70
     1
 10
0.0
 20
0.0
 30
0.0
  3
*D23
  1

  0
LINE
  5
1486
330
1485
100
AcDbEntity
  8
SIZE
 62
     0
100
AcDbLine
 10
250.0
 20
-1905.137866183773
 30
0.0
 11
807.6217696830205
 21
-1905.137866183773
 31
0.0
  0
LINE
  5
1487
330
1485
100
AcDbEntity
  8
SIZE
 62
     0
100
AcDbLine
 10
45.0
 20
-1835.137866183773
 30
0.0
 11
807.6217696830205
 21
-1835.137866183774
 31
0.0
  0
LINE
  5
1488
330
1485
100
AcDbEntity
  8
SIZE
 62
     0
100
AcDbLine
 10
787.6217696830204
 20
-1915.137866183773
 30
0.0
 11
787.6217696830204
 21
-1925.137866183773
 31
0.0
  0
LINE
  5
1489
330
1485
100
AcDbEntity
  8
SIZE
 62
     0
100
AcDbLine
 10
787.6217696830204
 20
-1825.137866183773
 30
0.0
 11
787.6217696830204
 21
-1815.137866183773
 31
0.0
  0
LINE
  5
148A
330
1485
100
AcDbEntity
  8
SIZE
 62
     0
100
AcDbLine
 10
787.6217696830204
 20
-1905.137866183773
 30
0.0
 11
787.6217696830204
 21
-1835.137866183774
 31
0.0
  0
INSERT
  5
148B
330
1485
100
AcDbEntity
  8
SIZE
 62
     0
100
AcDbBlockReference
  2
_ORIGIN
 10
787.6217696830204
 20
-1905.137866183773
 30
0.0
 41
10.0
 42
10.0
 43
10.0
 50
90.0
  0
INSERT
  5
148C
330
1485
100
AcDbEntity
  8
SIZE
 62
     0
100
AcDbBlockReference
  2
_ORIGIN
 10
787.6217696830204
 20
-1835.137866183774
 30
0.0
 41
10.0
 42
10.0
 43
10.0
 50
270.0
  0
MTEXT
  5
148D
330
1485
100
AcDbEntity
  8
SIZE
 62
     0
100
AcDbMText
 10
745.6217696830208
 20
-1870.137866183773
 30
0.0
 40
64.0
 41
0.0
 71
     5
 72
     1
  1
\A1;70
 11
0.0000000000000001
 21
1.0
 31
0.0
1001
ACAD
1000
MTEXTBEGIN
1070
    73
1070
     1
1070
    44
1040
1.0
1070
    74
1070
     0
1000
MTEXTEND
  0
POINT
  5
148E
330
1485
100
AcDbEntity
  8
DEFPOINTS
 62
     0
100
AcDbPoint
 10
230.0
 20
-1905.137866183773
 30
0.0
  0
POINT
  5
148F
330
1485
100
AcDbEntity
  8
DEFPOINTS
 62
     0
100
AcDbPoint
 10
25.0
 20
-1835.137866183773
 30
0.0
  0
POINT
  5
1490
330
1485
100
AcDbEntity
  8
DEFPOINTS
 62
     0
100
AcDbPoint
 10
787.6217696830204
 20
-1835.137866183774
 30
0.0
  0
ENDBLK
  5
1492
330
1485
100
AcDbEntity
  8
0
100
AcDbBlockEnd
  0
BLOCK
  5
149E
330
1494
100
AcDbEntity
  8
0
100
AcDbBlockBegin
  2
*D24
 70
     1
 10
0.0
 20
0.0
 30
0.0
  3
*D24
  1

  0
LINE
  5
1521
330
1494
100
AcDbEntity
  8
SIZE
 62
     0
100
AcDbLine
 10
230.0
 20
-1885.137866183773
 30
0.0
 11
230.0
 21
-1730.733159687312
 31
0.0
  0
LINE
  5
1522
330
1494
100
AcDbEntity
  8
SIZE
 62
     0
100
AcDbLine
 10
65.0
 20
-1885.137866183773
 30
0.0
 11
65.00000000000001
 21
-1730.733159687312
 31
0.0
  0
LINE
  5
1523
330
1494
100
AcDbEntity
  8
SIZE
 62
     0
100
AcDbLine
 10
240.0
 20
-1750.733159687311
 30
0.0
 11
250.0
 21
-1750.733159687311
 31
0.0
  0
LINE
  5
1524
330
1494
100
AcDbEntity
  8
SIZE
 62
     0
100
AcDbLine
 10
55.00000000000001
 20
-1750.733159687311
 30
0.0
 11
45.00000000000001
 21
-1750.733159687311
 31
0.0
  0
LINE
  5
1525
330
1494
100
AcDbEntity
  8
SIZE
 62
     0
100
AcDbLine
 10
230.0
 20
-1750.733159687311
 30
0.0
 11
65.00000000000001
 21
-1750.733159687311
 31
0.0
  0
INSERT
  5
1526
330
1494
100
AcDbEntity
  8
SIZE
 62
     0
100
AcDbBlockReference
  2
_ORIGIN
 10
230.0
 20
-1750.733159687311
 30
0.0
 41
10.0
 42
10.0
 43
10.0
 50
180.0
  0
INSERT
  5
1527
330
1494
100
AcDbEntity
  8
SIZE
 62
     0
100
AcDbBlockReference
  2
_ORIGIN
 10
65.00000000000001
 20
-1750.733159687311
 30
0.0
 41
10.0
 42
10.0
 43
10.0
  0
MTEXT
  5
1528
330
1494
100
AcDbEntity
  8
SIZE
 62
     0
100
AcDbMText
 10
147.5
 20
-1708.733159687312
 30
0.0
 40
64.0
 41
0.0
 71
     5
 72
     1
  1
\A1;165
1001
ACAD
1000
MTEXTBEGIN
1070
    73
1070
     1
1070
    44
1040
1.0
1070
    74
1070
     0
1000
MTEXTEND
  0
POINT
  5
1529
330
1494
100
AcDbEntity
  8
DEFPOINTS
 62
     0
100
AcDbPoint
 10
230.0
 20
-1905.137866183773
 30
0.0
  0
POINT
  5
152A
330
1494
100
AcDbEntity
  8
DEFPOINTS
 62
     0
100
AcDbPoint
 10
65.0
 20
-1905.137866183773
 30
0.0
  0
POINT
  5
152B
330
1494
100
AcDbEntity
  8
DEFPOINTS
 62
     0
100
AcDbPoint
 10
65.00000000000001
 20
-1750.733159687311
 30
0.0
  0
ENDBLK
  5
149F
330
1494
100
AcDbEntity
  8
0
100
AcDbBlockEnd
  0
BLOCK
  5
14AD
330
14A1
100
AcDbEntity
  8
0
100
AcDbBlockBegin
  2
*D25
 70
     1
 10
0.0
 20
0.0
 30
0.0
  3
*D25
  1

  0
LINE
  5
1517
330
14A1
100
AcDbEntity
  8
SIZE
 62
     0
100
AcDbLine
 10
230.0
 20
-1885.137866183773
 30
0.0
 11
230.0
 21
-1730.733159687312
 31
0.0
  0
LINE
  5
1518
330
14A1
100
AcDbEntity
  8
SIZE
 62
     0
100
AcDbLine
 10
288.0
 20
-1886.637866183773
 30
0.0
 11
288.0
 21
-1730.733159687312
 31
0.0
  0
LINE
  5
1519
330
14A1
100
AcDbEntity
  8
SIZE
 62
     0
100
AcDbLine
 10
240.0
 20
-1750.733159687311
 30
0.0
 11
278.0
 21
-1750.733159687311
 31
0.0
  0
LINE
  5
151A
330
14A1
100
AcDbEntity
  8
SIZE
 62
     0
100
AcDbLine
 10
288.0
 20
-1750.733159687311
 30
0.0
 11
411.2571428571428
 21
-1750.733159687311
 31
0.0
  0
INSERT
  5
151B
330
14A1
100
AcDbEntity
  8
SIZE
 62
     0
100
AcDbBlockReference
  2
_ORIGIN
 10
230.0
 20
-1750.733159687311
 30
0.0
 41
10.0
 42
10.0
 43
10.0
 50
180.0
  0
INSERT
  5
151C
330
14A1
100
AcDbEntity
  8
SIZE
 62
     0
100
AcDbBlockReference
  2
_ORIGIN
 10
288.0
 20
-1750.733159687311
 30
0.0
 41
10.0
 42
10.0
 43
10.0
  0
MTEXT
  5
151D
330
14A1
100
AcDbEntity
  8
SIZE
 62
     0
100
AcDbMText
 10
354.6285714285713
 20
-1708.733159687312
 30
0.0
 40
64.0
 41
0.0
 71
     5
 72
     1
  1
\A1;58
1001
ACAD
1000
MTEXTBEGIN
1070
    73
1070
     1
1070
    44
1040
1.0
1070
    74
1070
     0
1000
MTEXTEND
  0
POINT
  5
151E
330
14A1
100
AcDbEntity
  8
DEFPOINTS
 62
     0
100
AcDbPoint
 10
230.0
 20
-1905.137866183773
 30
0.0
  0
POINT
  5
151F
330
14A1
100
AcDbEntity
  8
DEFPOINTS
 62
     0
100
AcDbPoint
 10
288.0
 20
-1906.637866183773
 30
0.0
  0
POINT
  5
1520
330
14A1
100
AcDbEntity
  8
DEFPOINTS
 62
     0
100
AcDbPoint
 10
288.0
 20
-1750.733159687311
 30
0.0
  0
ENDBLK
  5
14AE
330
14A1
100
AcDbEntity
  8
0
100
AcDbBlockEnd
  0
BLOCK
  5
150B
330
14FF
100
AcDbEntity
  8
0
100
AcDbBlockBegin
  2
*D26
 70
     1
 10
0.0
 20
0.0
 30
0.0
  3
*D26
  1

  0
LINE
  5
1500
330
14FF
100
AcDbEntity
  8
SIZE
 62
     0
100
AcDbLine
 10
348.0
 20
-1916.137866183773
 30
0.0
 11
348.0
 21
-1623.657096374889
 31
0.0
  0
LINE
  5
1501
330
14FF
100
AcDbEntity
  8
SIZE
 62
     0
100
AcDbLine
 10
230.0
 20
-1885.137866183773
 30
0.0
 11
230.0
 21
-1623.657096374889
 31
0.0
  0
LINE
  5
1502
330
14FF
100
AcDbEntity
  8
SIZE
 62
     0
100
AcDbLine
 10
358.0
 20
-1643.657096374889
 30
0.0
 11
368.0
 21
-1643.657096374889
 31
0.0
  0
LINE
  5
1503
330
14FF
100
AcDbEntity
  8
SIZE
 62
     0
100
AcDbLine
 10
220.0
 20
-1643.657096374889
 30
0.0
 11
210.0
 21
-1643.657096374889
 31
0.0
  0
LINE
  5
1504
330
14FF
100
AcDbEntity
  8
SIZE
 62
     0
100
AcDbLine
 10
348.0
 20
-1643.657096374889
 30
0.0
 11
230.0
 21
-1643.657096374889
 31
0.0
  0
INSERT
  5
1505
330
14FF
100
AcDbEntity
  8
SIZE
 62
     0
100
AcDbBlockReference
  2
_ORIGIN
 10
348.0
 20
-1643.657096374889
 30
0.0
 41
10.0
 42
10.0
 43
10.0
 50
180.0
  0
INSERT
  5
1506
330
14FF
100
AcDbEntity
  8
SIZE
 62
     0
100
AcDbBlockReference
  2
_ORIGIN
 10
230.0
 20
-1643.657096374889
 30
0.0
 41
10.0
 42
10.0
 43
10.0
  0
MTEXT
  5
1507
330
14FF
100
AcDbEntity
  8
SIZE
 62
     0
100
AcDbMText
 10
289.0
 20
-1601.657096374889
 30
0.0
 40
64.0
 41
0.0
 71
     5
 72
     1
  1
\A1;118
1001
ACAD
1000
MTEXTBEGIN
1070
    73
1070
     1
1070
    44
1040
1.0
1070
    74
1070
     0
1000
MTEXTEND
  0
POINT
  5
1508
330
14FF
100
AcDbEntity
  8
DEFPOINTS
 62
     0
100
AcDbPoint
 10
348.0
 20
-1936.137866183773
 30
0.0
  0
POINT
  5
1509
330
14FF
100
AcDbEntity
  8
DEFPOINTS
 62
     0
100
AcDbPoint
 10
230.0
 20
-1905.137866183773
 30
0.0
  0
POINT
  5
150A
330
14FF
100
AcDbEntity
  8
DEFPOINTS
 62
     0
100
AcDbPoint
 10
230.0
 20
-1643.657096374889
 30
0.0
  0
ENDBLK
  5
150C
330
14FF
100
AcDbEntity
  8
0
100
AcDbBlockEnd
  0
BLOCK
  5
1538
330
152E
100
AcDbEntity
  8
0
100
AcDbBlockBegin
  2
*D27
 70
     1
 10
0.0
 20
0.0
 30
0.0
  3
*D27
  1

  0
LINE
  5
152F
330
152E
100
AcDbEntity
  8
SIZE
 62
     0
100
AcDbLine
 10
-230.0
 20
-1815.137866183773
 30
0.0
 11
-230.0
 21
-1728.921237993119
 31
0.0
  0
LINE
  5
1530
330
152E
100
AcDbEntity
  8
SIZE
 62
     0
100
AcDbLine
 10
25.0
 20
-1815.137866183773
 30
0.0
 11
25.0
 21
-1728.921237993119
 31
0.0
  0
LINE
  5
1531
330
152E
100
AcDbEntity
  8
SIZE
 62
     0
100
AcDbLine
 10
-220.0
 20
-1748.921237993119
 30
0.0
 11
15.0
 21
-1748.921237993119
 31
0.0
  0
INSERT
  5
1532
330
152E
100
AcDbEntity
  8
SIZE
 62
     0
100
AcDbBlockReference
  2
_ORIGIN
 10
-230.0
 20
-1748.921237993119
 30
0.0
 41
10.0
 42
10.0
 43
10.0
 50
180.0
  0
INSERT
  5
1533
330
152E
100
AcDbEntity
  8
SIZE
 62
     0
100
AcDbBlockReference
  2
_ORIGIN
 10
25.0
 20
-1748.921237993119
 30
0.0
 41
10.0
 42
10.0
 43
10.0
  0
MTEXT
  5
1534
330
152E
100
AcDbEntity
  8
SIZE
 62
     0
100
AcDbMText
 10
-102.4999999999999
 20
-1706.921237993119
 30
0.0
 40
64.0
 41
0.0
 71
     5
 72
     1
  1
\A1;255
1001
ACAD
1000
MTEXTBEGIN
1070
    73
1070
     1
1070
    44
1040
1.0
1070
    74
1070
     0
1000
MTEXTEND
  0
POINT
  5
1535
330
152E
100
AcDbEntity
  8
DEFPOINTS
 62
     0
100
AcDbPoint
 10
-230.0
 20
-1835.137866183773
 30
0.0
  0
POINT
  5
1536
330
152E
100
AcDbEntity
  8
DEFPOINTS
 62
     0
100
AcDbPoint
 10
25.0
 20
-1835.137866183773
 30
0.0
  0
POINT
  5
1537
330
152E
100
AcDbEntity
  8
DEFPOINTS
 62
     0
100
AcDbPoint
 10
25.0
 20
-1748.921237993119
 30
0.0
  0
ENDBLK
  5
1539
330
152E
100
AcDbEntity
  8
0
100
AcDbBlockEnd
  0
BLOCK
  5
1548
330
153C
100
AcDbEntity
  8
0
100
AcDbBlockBegin
  2
*D28
 70
     1
 10
0.0
 20
0.0
 30
0.0
  3
*D28
  1

  0
LINE
  5
153D
330
153C
100
AcDbEntity
  8
SIZE
 62
     0
100
AcDbLine
 10
-230.0
 20
-2138.137866183773
 30
0.0
 11
-230.0
 21
-2269.463504427644
 31
0.0
  0
LINE
  5
153E
330
153C
100
AcDbEntity
  8
SIZE
 62
     0
100
AcDbLine
 10
-190.0
 20
-2131.904550741634
 30
0.0
 11
-190.0
 21
-2269.463504427644
 31
0.0
  0
LINE
  5
153F
330
153C
100
AcDbEntity
  8
SIZE
 62
     0
100
AcDbLine
 10
-240.0
 20
-2249.463504427644
 30
0.0
 11
-250.0
 21
-2249.463504427644
 31
0.0
  0
LINE
  5
1540
330
153C
100
AcDbEntity
  8
SIZE
 62
     0
100
AcDbLine
 10
-180.0
 20
-2249.463504427644
 30
0.0
 11
-170.0
 21
-2249.463504427644
 31
0.0
  0
LINE
  5
1541
330
153C
100
AcDbEntity
  8
SIZE
 62
     0
100
AcDbLine
 10
-230.0
 20
-2249.463504427644
 30
0.0
 11
-190.0
 21
-2249.463504427644
 31
0.0
  0
INSERT
  5
1542
330
153C
100
AcDbEntity
  8
SIZE
 62
     0
100
AcDbBlockReference
  2
_ORIGIN
 10
-230.0
 20
-2249.463504427644
 30
0.0
 41
10.0
 42
10.0
 43
10.0
  0
INSERT
  5
1543
330
153C
100
AcDbEntity
  8
SIZE
 62
     0
100
AcDbBlockReference
  2
_ORIGIN
 10
-190.0
 20
-2249.463504427644
 30
0.0
 41
10.0
 42
10.0
 43
10.0
 50
180.0
  0
MTEXT
  5
1544
330
153C
100
AcDbEntity
  8
SIZE
 62
     0
100
AcDbMText
 10
-210.0
 20
-2207.463504427643
 30
0.0
 40
64.0
 41
0.0
 71
     5
 72
     1
  1
\A1;40
1001
ACAD
1000
MTEXTBEGIN
1070
    73
1070
     1
1070
    44
1040
1.0
1070
    74
1070
     0
1000
MTEXTEND
  0
POINT
  5
1545
330
153C
100
AcDbEntity
  8
DEFPOINTS
 62
     0
100
AcDbPoint
 10
-230.0
 20
-2118.137866183773
 30
0.0
  0
POINT
  5
1546
330
153C
100
AcDbEntity
  8
DEFPOINTS
 62
     0
100
AcDbPoint
 10
-190.0
 20
-2111.904550741634
 30
0.0
  0
POINT
  5
1547
330
153C
100
AcDbEntity
  8
DEFPOINTS
 62
     0
100
AcDbPoint
 10
-190.0
 20
-2249.463504427644
 30
0.0
  0
ENDBLK
  5
1549
330
153C
100
AcDbEntity
  8
0
100
AcDbBlockEnd
  0
BLOCK
  5
1557
330
154B
100
AcDbEntity
  8
0
100
AcDbBlockBegin
  2
*D29
 70
     1
 10
0.0
 20
0.0
 30
0.0
  3
*D29
  1

  0
LINE
  5
154C
330
154B
100
AcDbEntity
  8
SIZE
 62
     0
100
AcDbLine
 10
-230.0
 20
-2138.137866183773
 30
0.0
 11
-230.0
 21
-2379.658200257756
 31
0.0
  0
LINE
  5
154D
330
154B
100
AcDbEntity
  8
SIZE
 62
     0
100
AcDbLine
 10
-100.0
 20
-2033.650418592278
 30
0.0
 11
-100.0
 21
-2379.658200257756
 31
0.0
  0
LINE
  5
154E
330
154B
100
AcDbEntity
  8
SIZE
 62
     0
100
AcDbLine
 10
-240.0
 20
-2359.658200257756
 30
0.0
 11
-250.0
 21
-2359.658200257756
 31
0.0
  0
LINE
  5
154F
330
154B
100
AcDbEntity
  8
SIZE
 62
     0
100
AcDbLine
 10
-90.00000000000001
 20
-2359.658200257756
 30
0.0
 11
-80.00000000000001
 21
-2359.658200257756
 31
0.0
  0
LINE
  5
1550
330
154B
100
AcDbEntity
  8
SIZE
 62
     0
100
AcDbLine
 10
-230.0
 20
-2359.658200257756
 30
0.0
 11
-100.0
 21
-2359.658200257756
 31
0.0
  0
INSERT
  5
1551
330
154B
100
AcDbEntity
  8
SIZE
 62
     0
100
AcDbBlockReference
  2
_ORIGIN
 10
-230.0
 20
-2359.658200257756
 30
0.0
 41
10.0
 42
10.0
 43
10.0
  0
INSERT
  5
1552
330
154B
100
AcDbEntity
  8
SIZE
 62
     0
100
AcDbBlockReference
  2
_ORIGIN
 10
-100.0
 20
-2359.658200257756
 30
0.0
 41
10.0
 42
10.0
 43
10.0
 50
180.0
  0
MTEXT
  5
1553
330
154B
100
AcDbEntity
  8
SIZE
 62
     0
100
AcDbMText
 10
-165.0
 20
-2317.658200257756
 30
0.0
 40
64.0
 41
0.0
 71
     5
 72
     1
  1
\A1;130
1001
ACAD
1000
MTEXTBEGIN
1070
    73
1070
     1
1070
    44
1040
1.0
1070
    74
1070
     0
1000
MTEXTEND
  0
POINT
  5
1554
330
154B
100
AcDbEntity
  8
DEFPOINTS
 62
     0
100
AcDbPoint
 10
-230.0
 20
-2118.137866183773
 30
0.0
  0
POINT
  5
1555
330
154B
100
AcDbEntity
  8
DEFPOINTS
 62
     0
100
AcDbPoint
 10
-100.0
 20
-2013.650418592278
 30
0.0
  0
POINT
  5
1556
330
154B
100
AcDbEntity
  8
DEFPOINTS
 62
     0
100
AcDbPoint
 10
-100.0
 20
-2359.658200257756
 30
0.0
  0
ENDBLK
  5
1558
330
154B
100
AcDbEntity
  8
0
100
AcDbBlockEnd
  0
BLOCK
  5
1564
330
155A
100
AcDbEntity
  8
0
100
AcDbBlockBegin
  2
*D30
 70
     1
 10
0.0
 20
0.0
 30
0.0
  3
*D30
  1

  0
LINE
  5
155B
330
155A
100
AcDbEntity
  8
SIZE
 62
     0
100
AcDbLine
 10
-230.0
 20
-2138.137866183773
 30
0.0
 11
-230.0
 21
-2496.066609939793
 31
0.0
  0
LINE
  5
155C
330
155A
100
AcDbEntity
  8
SIZE
 62
     0
100
AcDbLine
 10
-22.0
 20
-2143.869221542714
 30
0.0
 11
-22.00000000000002
 21
-2496.066609939793
 31
0.0
  0
LINE
  5
155D
330
155A
100
AcDbEntity
  8
SIZE
 62
     0
100
AcDbLine
 10
-220.0
 20
-2476.066609939793
 30
0.0
 11
-32.00000000000002
 21
-2476.066609939793
 31
0.0
  0
INSERT
  5
155E
330
155A
100
AcDbEntity
  8
SIZE
 62
     0
100
AcDbBlockReference
  2
_ORIGIN
 10
-230.0
 20
-2476.066609939793
 30
0.0
 41
10.0
 42
10.0
 43
10.0
 50
180.0
  0
INSERT
  5
155F
330
155A
100
AcDbEntity
  8
SIZE
 62
     0
100
AcDbBlockReference
  2
_ORIGIN
 10
-22.00000000000002
 20
-2476.066609939793
 30
0.0
 41
10.0
 42
10.0
 43
10.0
  0
MTEXT
  5
1560
330
155A
100
AcDbEntity
  8
SIZE
 62
     0
100
AcDbMText
 10
-126.0
 20
-2434.066609939793
 30
0.0
 40
64.0
 41
0.0
 71
     5
 72
     1
  1
\A1;208
1001
ACAD
1000
MTEXTBEGIN
1070
    73
1070
     1
1070
    44
1040
1.0
1070
    74
1070
     0
1000
MTEXTEND
  0
POINT
  5
1561
330
155A
100
AcDbEntity
  8
DEFPOINTS
 62
     0
100
AcDbPoint
 10
-230.0
 20
-2118.137866183773
 30
0.0
  0
POINT
  5
1562
330
155A
100
AcDbEntity
  8
DEFPOINTS
 62
     0
100
AcDbPoint
 10
-22.0
 20
-2123.869221542714
 30
0.0
  0
POINT
  5
1563
330
155A
100
AcDbEntity
  8
DEFPOINTS
 62
     0
100
AcDbPoint
 10
-22.00000000000002
 20
-2476.066609939793
 30
0.0
  0
ENDBLK
  5
1565
330
155A
100
AcDbEntity
  8
0
100
AcDbBlockEnd
  0
BLOCK
  5
1571
330
1567
100
AcDbEntity
  8
0
100
AcDbBlockBegin
  2
*D31
 70
     1
 10
0.0
 20
0.0
 30
0.0
  3
*D31
  1

  0
LINE
  5
1568
330
1567
100
AcDbEntity
  8
SIZE
 62
     0
100
AcDbLine
 10
-230.0
 20
-1815.137866183773
 30
0.0
 11
-230.0
 21
-1623.657096374889
 31
0.0
  0
LINE
  5
1569
330
1567
100
AcDbEntity
  8
SIZE
 62
     0
100
AcDbLine
 10
230.0
 20
-1885.137866183773
 30
0.0
 11
230.0
 21
-1623.657096374889
 31
0.0
  0
LINE
  5
156A
330
1567
100
AcDbEntity
  8
SIZE
 62
     0
100
AcDbLine
 10
-220.0
 20
-1643.657096374889
 30
0.0
 11
220.0
 21
-1643.657096374889
 31
0.0
  0
INSERT
  5
156B
330
1567
100
AcDbEntity
  8
SIZE
 62
     0
100
AcDbBlockReference
  2
_ORIGIN
 10
-230.0
 20
-1643.657096374889
 30
0.0
 41
10.0
 42
10.0
 43
10.0
 50
180.0
  0
INSERT
  5
156C
330
1567
100
AcDbEntity
  8
SIZE
 62
     0
100
AcDbBlockReference
  2
_ORIGIN
 10
230.0
 20
-1643.657096374889
 30
0.0
 41
10.0
 42
10.0
 43
10.0
  0
MTEXT
  5
156D
330
1567
100
AcDbEntity
  8
SIZE
 62
     0
100
AcDbMText
 10
0.0000000000000168
 20
-1601.657096374889
 30
0.0
 40
64.0
 41
0.0
 71
     5
 72
     1
  1
\A1;460
1001
ACAD
1000
MTEXTBEGIN
1070
    73
1070
     1
1070
    44
1040
1.0
1070
    74
1070
     0
1000
MTEXTEND
  0
POINT
  5
156E
330
1567
100
AcDbEntity
  8
DEFPOINTS
 62
     0
100
AcDbPoint
 10
-230.0
 20
-1835.137866183773
 30
0.0
  0
POINT
  5
156F
330
1567
100
AcDbEntity
  8
DEFPOINTS
 62
     0
100
AcDbPoint
 10
230.0
 20
-1905.137866183773
 30
0.0
  0
POINT
  5
1570
330
1567
100
AcDbEntity
  8
DEFPOINTS
 62
     0
100
AcDbPoint
 10
230.0
 20
-1643.657096374889
 30
0.0
  0
ENDBLK
  5
1572
330
1567
100
AcDbEntity
  8
0
100
AcDbBlockEnd
  0
BLOCK
  5
1588
330
157E
100
AcDbEntity
  8
0
100
AcDbBlockBegin
  2
*D32
 70
     1
 10
0.0
 20
0.0
 30
0.0
  3
*D32
  1

  0
LINE
  5
15D6
330
157E
100
AcDbEntity
  8
SIZE
 62
     0
100
AcDbLine
 10
-250.0
 20
-2118.137866183773
 30
0.0
 11
-486.3836895736898
 21
-2118.137866183773
 31
0.0
  0
LINE
  5
15D7
330
157E
100
AcDbEntity
  8
SIZE
 62
     0
100
AcDbLine
 10
-290.0
 20
-1931.137866183773
 30
0.0
 11
-486.3836895736898
 21
-1931.137866183773
 31
0.0
  0
LINE
  5
15D8
330
157E
100
AcDbEntity
  8
SIZE
 62
     0
100
AcDbLine
 10
-466.3836895736898
 20
-2108.137866183773
 30
0.0
 11
-466.3836895736898
 21
-1941.137866183773
 31
0.0
  0
INSERT
  5
15D9
330
157E
100
AcDbEntity
  8
SIZE
 62
     0
100
AcDbBlockReference
  2
_ORIGIN
 10
-466.3836895736898
 20
-2118.137866183773
 30
0.0
 41
10.0
 42
10.0
 43
10.0
 50
270.0
  0
INSERT
  5
15DA
330
157E
100
AcDbEntity
  8
SIZE
 62
     0
100
AcDbBlockReference
  2
_ORIGIN
 10
-466.3836895736898
 20
-1931.137866183773
 30
0.0
 41
10.0
 42
10.0
 43
10.0
 50
90.0
  0
MTEXT
  5
15DB
330
157E
100
AcDbEntity
  8
SIZE
 62
     0
100
AcDbMText
 10
-508.3836895736895
 20
-2024.637866183773
 30
0.0
 40
64.0
 41
0.0
 71
     5
 72
     1
  1
\A1;187
 11
0.0000000000000001
 21
1.0
 31
0.0
1001
ACAD
1000
MTEXTBEGIN
1070
    73
1070
     1
1070
    44
1040
1.0
1070
    74
1070
     0
1000
MTEXTEND
  0
POINT
  5
15DC
330
157E
100
AcDbEntity
  8
DEFPOINTS
 62
     0
100
AcDbPoint
 10
-230.0
 20
-2118.137866183773
 30
0.0
  0
POINT
  5
15DD
330
157E
100
AcDbEntity
  8
DEFPOINTS
 62
     0
100
AcDbPoint
 10
-270.0
 20
-1931.137866183773
 30
0.0
  0
POINT
  5
15DE
330
157E
100
AcDbEntity
  8
DEFPOINTS
 62
     0
100
AcDbPoint
 10
-466.3836895736898
 20
-1931.137866183773
 30
0.0
  0
ENDBLK
  5
1589
330
157E
100
AcDbEntity
  8
0
100
AcDbBlockEnd
  0
BLOCK
  5
15A1
330
1595
100
AcDbEntity
  8
0
100
AcDbBlockBegin
  2
*D33
 70
     1
 10
0.0
 20
0.0
 30
0.0
  3
*D33
  1

  0
LINE
  5
1596
330
1595
100
AcDbEntity
  8
SIZE
 62
     0
100
AcDbLine
 10
-250.0
 20
-2118.137866183773
 30
0.0
 11
-288.3009169904326
 21
-2118.137866183773
 31
0.0
  0
LINE
  5
1597
330
1595
100
AcDbEntity
  8
SIZE
 62
     0
100
AcDbLine
 10
-228.9267961983896
 20
-2093.137866183773
 30
0.0
 11
-288.3009169904326
 21
-2093.137866183773
 31
0.0
  0
LINE
  5
1598
330
1595
100
AcDbEntity
  8
SIZE
 62
     0
100
AcDbLine
 10
-268.3009169904325
 20
-2128.137866183773
 30
0.0
 11
-268.3009169904325
 21
-2138.137866183773
 31
0.0
  0
LINE
  5
1599
330
1595
100
AcDbEntity
  8
SIZE
 62
     0
100
AcDbLine
 10
-268.3009169904325
 20
-2083.137866183773
 30
0.0
 11
-268.3009169904325
 21
-2073.137866183773
 31
0.0
  0
LINE
  5
159A
330
1595
100
AcDbEntity
  8
SIZE
 62
     0
100
AcDbLine
 10
-268.3009169904325
 20
-2118.137866183773
 30
0.0
 11
-268.3009169904325
 21
-2093.137866183773
 31
0.0
  0
INSERT
  5
159B
330
1595
100
AcDbEntity
  8
SIZE
 62
     0
100
AcDbBlockReference
  2
_ORIGIN
 10
-268.3009169904325
 20
-2118.137866183773
 30
0.0
 41
10.0
 42
10.0
 43
10.0
 50
90.0
  0
INSERT
  5
159C
330
1595
100
AcDbEntity
  8
SIZE
 62
     0
100
AcDbBlockReference
  2
_ORIGIN
 10
-268.3009169904325
 20
-2093.137866183773
 30
0.0
 41
10.0
 42
10.0
 43
10.0
 50
270.0
  0
MTEXT
  5
159D
330
1595
100
AcDbEntity
  8
SIZE
 62
     0
100
AcDbMText
 10
-310.3009169904322
 20
-2105.637866183773
 30
0.0
 40
64.0
 41
0.0
 71
     5
 72
     1
  1
\A1;25
 11
0.0000000000000001
 21
1.0
 31
0.0
1001
ACAD
1000
MTEXTBEGIN
1070
    73
1070
     1
1070
    44
1040
1.0
1070
    74
1070
     0
1000
MTEXTEND
  0
POINT
  5
159E
330
1595
100
AcDbEntity
  8
DEFPOINTS
 62
     0
100
AcDbPoint
 10
-230.0
 20
-2118.137866183773
 30
0.0
  0
POINT
  5
159F
330
1595
100
AcDbEntity
  8
DEFPOINTS
 62
     0
100
AcDbPoint
 10
-208.9267961983896
 20
-2093.137866183773
 30
0.0
  0
POINT
  5
15A0
330
1595
100
AcDbEntity
  8
DEFPOINTS
 62
     0
100
AcDbPoint
 10
-268.3009169904325
 20
-2093.137866183773
 30
0.0
  0
ENDBLK
  5
15A2
330
1595
100
AcDbEntity
  8
0
100
AcDbBlockEnd
  0
BLOCK
  5
15C2
330
15B6
100
AcDbEntity
  8
0
100
AcDbBlockBegin
  2
*D34
 70
     1
 10
0.0
 20
0.0
 30
0.0
  3
*D34
  1

  0
LINE
  5
15DF
330
15B6
100
AcDbEntity
  8
SIZE
 62
     0
100
AcDbLine
 10
-250.0
 20
-2118.137866183773
 30
0.0
 11
-388.7224524361302
 21
-2118.137866183773
 31
0.0
  0
LINE
  5
15E0
330
15B6
100
AcDbEntity
  8
SIZE
 62
     0
100
AcDbLine
 10
-150.6103524983263
 20
-1983.137866183773
 30
0.0
 11
-388.7224524361302
 21
-1983.137866183773
 31
0.0
  0
LINE
  5
15E1
330
15B6
100
AcDbEntity
  8
SIZE
 62
     0
100
AcDbLine
 10
-368.7224524361303
 20
-2108.137866183773
 30
0.0
 11
-368.7224524361303
 21
-1993.137866183773
 31
0.0
  0
INSERT
  5
15E2
330
15B6
100
AcDbEntity
  8
SIZE
 62
     0
100
AcDbBlockReference
  2
_ORIGIN
 10
-368.7224524361303
 20
-2118.137866183773
 30
0.0
 41
10.0
 42
10.0
 43
10.0
 50
270.0
  0
INSERT
  5
15E3
330
15B6
100
AcDbEntity
  8
SIZE
 62
     0
100
AcDbBlockReference
  2
_ORIGIN
 10
-368.7224524361303
 20
-1983.137866183773
 30
0.0
 41
10.0
 42
10.0
 43
10.0
 50
90.0
  0
MTEXT
  5
15E4
330
15B6
100
AcDbEntity
  8
SIZE
 62
     0
100
AcDbMText
 10
-410.7224524361299
 20
-2050.637866183773
 30
0.0
 40
64.0
 41
0.0
 71
     5
 72
     1
  1
\A1;135
 11
0.0000000000000001
 21
1.0
 31
0.0
1001
ACAD
1000
MTEXTBEGIN
1070
    73
1070
     1
1070
    44
1040
1.0
1070
    74
1070
     0
1000
MTEXTEND
  0
POINT
  5
15E5
330
15B6
100
AcDbEntity
  8
DEFPOINTS
 62
     0
100
AcDbPoint
 10
-230.0
 20
-2118.137866183773
 30
0.0
  0
POINT
  5
15E6
330
15B6
100
AcDbEntity
  8
DEFPOINTS
 62
     0
100
AcDbPoint
 10
-130.6103524983263
 20
-1983.137866183773
 30
0.0
  0
POINT
  5
15E7
330
15B6
100
AcDbEntity
  8
DEFPOINTS
 62
     0
100
AcDbPoint
 10
-368.7224524361303
 20
-1983.137866183773
 30
0.0
  0
ENDBLK
  5
15C3
330
15B6
100
AcDbEntity
  8
0
100
AcDbBlockEnd
  0
BLOCK
  5
15F5
330
15E9
100
AcDbEntity
  8
0
100
AcDbBlockBegin
  2
*D35
 70
     1
 10
0.0
 20
0.0
 30
0.0
  3
*D35
  1

  0
LINE
  5
1602
330
15E9
100
AcDbEntity
  8
SIZE
 62
     0
100
AcDbLine
 10
20.0
 20
-2118.137866183773
 30
0.0
 11
102.100280468992
 21
-2118.137866183773
 31
0.0
  0
LINE
  5
1603
330
15E9
100
AcDbEntity
  8
SIZE
 62
     0
100
AcDbLine
 10
15.56379637007557
 20
-2086.137866183773
 30
0.0
 11
102.100280468992
 21
-2086.137866183773
 31
0.0
  0
LINE
  5
1604
330
15E9
100
AcDbEntity
  8
SIZE
 62
     0
100
AcDbLine
 10
82.10028046899209
 20
-2128.137866183773
 30
0.0
 11
82.10028046899209
 21
-2138.137866183773
 31
0.0
  0
LINE
  5
1605
330
15E9
100
AcDbEntity
  8
SIZE
 62
     0
100
AcDbLine
 10
82.10028046899209
 20
-2076.137866183773
 30
0.0
 11
82.10028046899211
 21
-1952.88072332663
 31
0.0
  0
LINE
  5
1606
330
15E9
100
AcDbEntity
  8
SIZE
 62
     0
100
AcDbLine
 10
82.10028046899209
 20
-2118.137866183773
 30
0.0
 11
82.10028046899209
 21
-2086.137866183773
 31
0.0
  0
INSERT
  5
1607
330
15E9
100
AcDbEntity
  8
SIZE
 62
     0
100
AcDbBlockReference
  2
_ORIGIN
 10
82.10028046899209
 20
-2118.137866183773
 30
0.0
 41
10.0
 42
10.0
 43
10.0
 50
90.0
  0
INSERT
  5
1608
330
15E9
100
AcDbEntity
  8
SIZE
 62
     0
100
AcDbBlockReference
  2
_ORIGIN
 10
82.10028046899209
 20
-2086.137866183773
 30
0.0
 41
10.0
 42
10.0
 43
10.0
 50
270.0
  0
MTEXT
  5
1609
330
15E9
100
AcDbEntity
  8
SIZE
 62
     0
100
AcDbMText
 10
40.10028046899242
 20
-2009.509294755202
 30
0.0
 40
64.0
 41
0.0
 71
     5
 72
     1
  1
\A1;32
 11
0.0000000000000001
 21
1.0
 31
0.0
1001
ACAD
1000
MTEXTBEGIN
1070
    73
1070
     1
1070
    44
1040
1.0
1070
    74
1070
     0
1000
MTEXTEND
  0
POINT
  5
160A
330
15E9
100
AcDbEntity
  8
DEFPOINTS
 62
     0
100
AcDbPoint
 10
0.0
 20
-2118.137866183773
 30
0.0
  0
POINT
  5
160B
330
15E9
100
AcDbEntity
  8
DEFPOINTS
 62
     0
100
AcDbPoint
 10
-4.43620362992442
 20
-2086.137866183773
 30
0.0
  0
POINT
  5
160C
330
15E9
100
AcDbEntity
  8
DEFPOINTS
 62
     0
100
AcDbPoint
 10
82.10028046899209
 20
-2086.137866183773
 30
0.0
  0
ENDBLK
  5
15F6
330
15E9
100
AcDbEntity
  8
0
100
AcDbBlockEnd
  0
BLOCK
  5
161B
330
160F
100
AcDbEntity
  8
0
100
AcDbBlockBegin
  2
*D36
 70
     1
 10
0.0
 20
0.0
 30
0.0
  3
*D36
  1

  0
LINE
  5
1628
330
160F
100
AcDbEntity
  8
SIZE
 62
     0
100
AcDbLine
 10
-310.0
 20
-1976.137866183773
 30
0.0
 11
-415.3150980323554
 21
-1976.137866183773
 31
0.0
  0
LINE
  5
1629
330
160F
100
AcDbEntity
  8
SIZE
 62
     0
100
AcDbLine
 10
-310.0
 20
-1870.137866183773
 30
0.0
 11
-415.3150980323553
 21
-1870.137866183773
 31
0.0
  0
LINE
  5
162A
330
160F
100
AcDbEntity
  8
SIZE
 62
     0
100
AcDbLine
 10
-395.3150980323553
 20
-1966.137866183773
 30
0.0
 11
-395.3150980323553
 21
-1880.137866183773
 31
0.0
  0
LINE
  5
162B
330
160F
100
AcDbEntity
  8
SIZE
 62
     0
100
AcDbLine
 10
-395.3150980323553
 20
-1870.137866183773
 30
0.0
 11
-395.3150980323552
 21
-1653.623580469487
 31
0.0
  0
INSERT
  5
162C
330
160F
100
AcDbEntity
  8
SIZE
 62
     0
100
AcDbBlockReference
  2
_ORIGIN
 10
-395.3150980323553
 20
-1976.137866183773
 30
0.0
 41
10.0
 42
10.0
 43
10.0
 50
270.0
  0
INSERT
  5
162D
330
160F
100
AcDbEntity
  8
SIZE
 62
     0
100
AcDbBlockReference
  2
_ORIGIN
 10
-395.3150980323553
 20
-1870.137866183773
 30
0.0
 41
10.0
 42
10.0
 43
10.0
 50
90.0
  0
MTEXT
  5
162E
330
160F
100
AcDbEntity
  8
SIZE
 62
     0
100
AcDbMText
 10
-437.315098032355
 20
-1756.880723326631
 30
0.0
 40
64.0
 41
0.0
 71
     5
 72
     1
  1
\A1;%%c106
 11
0.0000000000000001
 21
1.0
 31
0.0
1001
ACAD
1000
MTEXTBEGIN
1070
    73
1070
     1
1070
    44
1040
1.0
1070
    74
1070
     0
1000
MTEXTEND
  0
POINT
  5
162F
330
160F
100
AcDbEntity
  8
DEFPOINTS
 62
     0
100
AcDbPoint
 10
-290.0
 20
-1976.137866183773
 30
0.0
  0
POINT
  5
1630
330
160F
100
AcDbEntity
  8
DEFPOINTS
 62
     0
100
AcDbPoint
 10
-290.0
 20
-1870.137866183773
 30
0.0
  0
POINT
  5
1631
330
160F
100
AcDbEntity
  8
DEFPOINTS
 62
     0
100
AcDbPoint
 10
-395.3150980323553
 20
-1870.137866183773
 30
0.0
  0
ENDBLK
  5
161C
330
160F
100
AcDbEntity
  8
0
100
AcDbBlockEnd
  0
BLOCK
  5
163F
330
1638
100
AcDbEntity
  8
0
100
AcDbBlockBegin
  2
*D37
 70
     1
 10
0.0
 20
0.0
 30
0.0
  3
*D37
  1

  0
LINE
  5
1639
330
1638
100
AcDbEntity
  8
SIZE
 62
     0
100
AcDbLine
 10
11.94003725967383
 20
-1923.440251355492
 30
0.0
 11
-17.71154763866945
 21
-2065.580405826409
 31
0.0
  0
MTEXT
  5
163A
330
1638
100
AcDbEntity
  8
SIZE
 62
     0
100
AcDbMText
 10
-42.97961581819492
 20
-1981.038790449869
 30
0.0
 40
64.0
 41
0.0
 71
     5
 72
     1
  1
\A1;R11
 11
0.2042120172062213
 21
0.9789266836840059
 31
0.0
1001
ACAD
1000
MTEXTBEGIN
1070
    73
1070
     1
1070
    44
1040
1.0
1070
    74
1070
     0
1000
MTEXTEND
  0
LINE
  5
163B
330
1638
100
AcDbEntity
  8
SIZE
 62
     0
100
AcDbLine
 10
-21.99999999999988
 20
-2086.137866183772
 30
0.0
 11
-19.75366781073165
 21
-2075.369672663249
 31
0.0
  0
INSERT
  5
163C
330
1638
100
AcDbEntity
  8
SIZE
 62
     0
100
AcDbBlockReference
  2
_ORIGIN
 10
-19.75366781073165
 20
-2075.369672663249
 30
0.0
 41
10.0
 42
10.0
 43
10.0
 50
258.2166248186859
  0
POINT
  5
163D
330
1638
100
AcDbEntity
  8
DEFPOINTS
 62
     0
100
AcDbPoint
 10
-19.75366781073165
 20
-2075.369672663249
 30
0.0
  0
POINT
  5
163E
330
1638
100
AcDbEntity
  8
DEFPOINTS
 62
     0
100
AcDbPoint
 10
-21.99999999999988
 20
-2086.137866183772
 30
0.0
  0
ENDBLK
  5
1640
330
1638
100
AcDbEntity
  8
0
100
AcDbBlockEnd
  0
BLOCK
  5
1666
330
165A
100
AcDbEntity
  8
0
100
AcDbBlockBegin
  2
*D38
 70
     1
 10
0.0
 20
0.0
 30
0.0
  3
*D38
  1

  0
LINE
  5
165B
330
165A
100
AcDbEntity
  8
SIZE
 62
     0
100
AcDbLine
 10
-230.0
 20
-1815.137866183773
 30
0.0
 11
-230.0
 21
-1728.921237993119
 31
0.0
  0
LINE
  5
165C
330
165A
100
AcDbEntity
  8
SIZE
 62
     0
100
AcDbLine
 10
-290.0
 20
-1850.137866183773
 30
0.0
 11
-290.0
 21
-1728.921237993119
 31
0.0
  0
LINE
  5
165D
330
165A
100
AcDbEntity
  8
SIZE
 62
     0
100
AcDbLine
 10
-220.0
 20
-1748.921237993119
 30
0.0
 11
-210.0
 21
-1748.921237993119
 31
0.0
  0
LINE
  5
165E
330
165A
100
AcDbEntity
  8
SIZE
 62
     0
100
AcDbLine
 10
-300.0
 20
-1748.921237993119
 30
0.0
 11
-310.0
 21
-1748.921237993119
 31
0.0
  0
LINE
  5
165F
330
165A
100
AcDbEntity
  8
SIZE
 62
     0
100
AcDbLine
 10
-230.0
 20
-1748.921237993119
 30
0.0
 11
-290.0
 21
-1748.921237993119
 31
0.0
  0
INSERT
  5
1660
330
165A
100
AcDbEntity
  8
SIZE
 62
     0
100
AcDbBlockReference
  2
_ORIGIN
 10
-230.0
 20
-1748.921237993119
 30
0.0
 41
10.0
 42
10.0
 43
10.0
 50
180.0
  0
INSERT
  5
1661
330
165A
100
AcDbEntity
  8
SIZE
 62
     0
100
AcDbBlockReference
  2
_ORIGIN
 10
-290.0
 20
-1748.921237993119
 30
0.0
 41
10.0
 42
10.0
 43
10.0
  0
MTEXT
  5
1662
330
165A
100
AcDbEntity
  8
SIZE
 62
     0
100
AcDbMText
 10
-260.0
 20
-1706.921237993119
 30
0.0
 40
64.0
 41
0.0
 71
     5
 72
     1
  1
\A1;60
1001
ACAD
1000
MTEXTBEGIN
1070
    73
1070
     1
1070
    44
1040
1.0
1070
    74
1070
     0
1000
MTEXTEND
  0
POINT
  5
1663
330
165A
100
AcDbEntity
  8
DEFPOINTS
 62
     0
100
AcDbPoint
 10
-230.0
 20
-1835.137866183773
 30
0.0
  0
POINT
  5
1664
330
165A
100
AcDbEntity
  8
DEFPOINTS
 62
     0
100
AcDbPoint
 10
-290.0
 20
-1870.137866183773
 30
0.0
  0
POINT
  5
1665
330
165A
100
AcDbEntity
  8
DEFPOINTS
 62
     0
100
AcDbPoint
 10
-290.0
 20
-1748.921237993119
 30
0.0
  0
ENDBLK
  5
1667
330
165A
100
AcDbEntity
  8
0
100
AcDbBlockEnd
  0
BLOCK
  5
1674
330
166A
100
AcDbEntity
  8
0
100
AcDbBlockBegin
  2
*D39
 70
     1
 10
0.0
 20
0.0
 30
0.0
  3
*D39
  1

  0
LINE
  5
166B
330
166A
100
AcDbEntity
  8
SIZE
 62
     0
100
AcDbLine
 10
250.0
 20
-1901.10386905483
 30
0.0
 11
250.0
 21
-1518.207052350553
 31
0.0
  0
LINE
  5
166C
330
166A
100
AcDbEntity
  8
SIZE
 62
     0
100
AcDbLine
 10
-250.0
 20
-1901.10386905483
 30
0.0
 11
-249.9999999999999
 21
-1518.207052350553
 31
0.0
  0
LINE
  5
166D
330
166A
100
AcDbEntity
  8
SIZE
 62
     0
100
AcDbLine
 10
240.0
 20
-1538.207052350553
 30
0.0
 11
-239.9999999999999
 21
-1538.207052350553
 31
0.0
  0
INSERT
  5
166E
330
166A
100
AcDbEntity
  8
SIZE
 62
     0
100
AcDbBlockReference
  2
_ORIGIN
 10
250.0
 20
-1538.207052350553
 30
0.0
 41
10.0
 42
10.0
 43
10.0
  0
INSERT
  5
166F
330
166A
100
AcDbEntity
  8
SIZE
 62
     0
100
AcDbBlockReference
  2
_ORIGIN
 10
-249.9999999999999
 20
-1538.207052350553
 30
0.0
 41
10.0
 42
10.0
 43
10.0
 50
180.0
  0
MTEXT
  5
1670
330
166A
100
AcDbEntity
  8
SIZE
 62
     0
100
AcDbMText
 10
0.000000000000031
 20
-1496.207052350553
 30
0.0
 40
64.0
 41
0.0
 71
     5
 72
     1
  1
\A1;500
1001
ACAD
1000
MTEXTBEGIN
1070
    73
1070
     1
1070
    44
1040
1.0
1070
    74
1070
     0
1000
MTEXTEND
  0
POINT
  5
1671
330
166A
100
AcDbEntity
  8
DEFPOINTS
 62
     0
100
AcDbPoint
 10
250.0
 20
-1921.10386905483
 30
0.0
  0
POINT
  5
1672
330
166A
100
AcDbEntity
  8
DEFPOINTS
 62
     0
100
AcDbPoint
 10
-250.0
 20
-1921.10386905483
 30
0.0
  0
POINT
  5
1673
330
166A
100
AcDbEntity
  8
DEFPOINTS
 62
     0
100
AcDbPoint
 10
-249.9999999999999
 20
-1538.207052350553
 30
0.0
  0
ENDBLK
  5
1675
330
166A
100
AcDbEntity
  8
0
100
AcDbBlockEnd
  0
BLOCK
  5
169C
330
1692
100
AcDbEntity
  8
0
100
AcDbBlockBegin
  2
*D40
 70
     1
 10
0.0
 20
0.0
 30
0.0
  3
*D40
  1

  0
LINE
  5
1693
330
1692
100
AcDbEntity
  8
SIZE
 62
     0
100
AcDbLine
 10
270.0
 20
-1907.937866183773
 30
0.0
 11
270.0
 21
-1404.251688353375
 31
0.0
  0
LINE
  5
1694
330
1692
100
AcDbEntity
  8
SIZE
 62
     0
100
AcDbLine
 10
-270.0
 20
-1907.937866183773
 30
0.0
 11
-269.9999999999999
 21
-1404.251688353375
 31
0.0
  0
LINE
  5
1695
330
1692
100
AcDbEntity
  8
SIZE
 62
     0
100
AcDbLine
 10
260.0
 20
-1424.251688353375
 30
0.0
 11
-259.9999999999999
 21
-1424.251688353375
 31
0.0
  0
INSERT
  5
1696
330
1692
100
AcDbEntity
  8
SIZE
 62
     0
100
AcDbBlockReference
  2
_ORIGIN
 10
270.0
 20
-1424.251688353375
 30
0.0
 41
10.0
 42
10.0
 43
10.0
  0
INSERT
  5
1697
330
1692
100
AcDbEntity
  8
SIZE
 62
     0
100
AcDbBlockReference
  2
_ORIGIN
 10
-269.9999999999999
 20
-1424.251688353375
 30
0.0
 41
10.0
 42
10.0
 43
10.0
 50
180.0
  0
MTEXT
  5
1698
330
1692
100
AcDbEntity
  8
SIZE
 62
     0
100
AcDbMText
 10
0.0000000000000594
 20
-1382.251688353375
 30
0.0
 40
64.0
 41
0.0
 71
     5
 72
     1
  1
\A1;540
1001
ACAD
1000
MTEXTBEGIN
1070
    73
1070
     1
1070
    44
1040
1.0
1070
    74
1070
     0
1000
MTEXTEND
  0
POINT
  5
1699
330
1692
100
AcDbEntity
  8
DEFPOINTS
 62
     0
100
AcDbPoint
 10
270.0
 20
-1927.937866183773
 30
0.0
  0
POINT
  5
169A
330
1692
100
AcDbEntity
  8
DEFPOINTS
 62
     0
100
AcDbPoint
 10
-270.0
 20
-1927.937866183773
 30
0.0
  0
POINT
  5
169B
330
1692
100
AcDbEntity
  8
DEFPOINTS
 62
     0
100
AcDbPoint
 10
-269.9999999999999
 20
-1424.251688353375
 30
0.0
  0
ENDBLK
  5
169D
330
1692
100
AcDbEntity
  8
0
100
AcDbBlockEnd
  0
BLOCK
  5
16D5
330
16CB
100
AcDbEntity
  8
0
100
AcDbBlockBegin
  2
*D41
 70
     1
 10
0.0
 20
0.0
 30
0.0
  3
*D41
  1

  0
LINE
  5
2617
330
16CB
100
AcDbEntity
  8
SIZE
 62
     0
100
AcDbLine
 10
-145.0
 20
220.8923150472664
 30
0.0
 11
-145.0
 21
383.81877291626
 31
0.0
  0
LINE
  5
2618
330
16CB
100
AcDbEntity
  8
SIZE
 62
     0
100
AcDbLine
 10
145.0
 20
220.8923150472664
 30
0.0
 11
145.0
 21
383.81877291626
 31
0.0
  0
LINE
  5
2619
330
16CB
100
AcDbEntity
  8
SIZE
 62
     0
100
AcDbLine
 10
-135.0
 20
363.81877291626
 30
0.0
 11
135.0
 21
363.81877291626
 31
0.0
  0
INSERT
  5
261A
330
16CB
100
AcDbEntity
  8
SIZE
 62
     0
100
AcDbBlockReference
  2
_ORIGIN
 10
-145.0
 20
363.81877291626
 30
0.0
 41
10.0
 42
10.0
 43
10.0
 50
180.0
  0
INSERT
  5
261B
330
16CB
100
AcDbEntity
  8
SIZE
 62
     0
100
AcDbBlockReference
  2
_ORIGIN
 10
145.0
 20
363.81877291626
 30
0.0
 41
10.0
 42
10.0
 43
10.0
  0
MTEXT
  5
261C
330
16CB
100
AcDbEntity
  8
SIZE
 62
     0
100
AcDbMText
 10
0.0000000000000026
 20
405.81877291626
 30
0.0
 40
64.0
 41
0.0
 71
     5
 72
     1
  1
\A1;290
1001
ACAD
1000
MTEXTBEGIN
1070
    73
1070
     1
1070
    44
1040
1.0
1070
    74
1070
     0
1000
MTEXTEND
  0
POINT
  5
261D
330
16CB
100
AcDbEntity
  8
DEFPOINTS
 62
     0
100
AcDbPoint
 10
-145.0
 20
200.8923150472664
 30
0.0
  0
POINT
  5
261E
330
16CB
100
AcDbEntity
  8
DEFPOINTS
 62
     0
100
AcDbPoint
 10
145.0
 20
200.8923150472664
 30
0.0
  0
POINT
  5
261F
330
16CB
100
AcDbEntity
  8
DEFPOINTS
 62
     0
100
AcDbPoint
 10
145.0
 20
363.81877291626
 30
0.0
  0
ENDBLK
  5
16D6
330
16CB
100
AcDbEntity
  8
0
100
AcDbBlockEnd
  0
BLOCK
  5
16E2
330
16D8
100
AcDbEntity
  8
0
100
AcDbBlockBegin
  2
*D42
 70
     1
 10
0.0
 20
0.0
 30
0.0
  3
*D42
  1

  0
LINE
  5
25E0
330
16D8
100
AcDbEntity
  8
SIZE
 62
     0
100
AcDbLine
 10
-216.0
 20
303.0
 30
0.0
 11
-216.0
 21
507.6031473533076
 31
0.0
  0
LINE
  5
25E1
330
16D8
100
AcDbEntity
  8
SIZE
 62
     0
100
AcDbLine
 10
216.0
 20
303.0
 30
0.0
 11
216.0
 21
507.6031473533076
 31
0.0
  0
LINE
  5
25E2
330
16D8
100
AcDbEntity
  8
SIZE
 62
     0
100
AcDbLine
 10
-206.0
 20
487.6031473533076
 30
0.0
 11
206.0
 21
487.6031473533076
 31
0.0
  0
INSERT
  5
25E3
330
16D8
100
AcDbEntity
  8
SIZE
 62
     0
100
AcDbBlockReference
  2
_ORIGIN
 10
-216.0
 20
487.6031473533076
 30
0.0
 41
10.0
 42
10.0
 43
10.0
 50
180.0
  0
INSERT
  5
25E4
330
16D8
100
AcDbEntity
  8
SIZE
 62
     0
100
AcDbBlockReference
  2
_ORIGIN
 10
216.0
 20
487.6031473533076
 30
0.0
 41
10.0
 42
10.0
 43
10.0
  0
MTEXT
  5
25E5
330
16D8
100
AcDbEntity
  8
SIZE
 62
     0
100
AcDbMText
 10
0.0000000000000026
 20
529.6031473533076
 30
0.0
 40
64.0
 41
0.0
 71
     5
 72
     1
  1
\A1;432
1001
ACAD
1000
MTEXTBEGIN
1070
    73
1070
     1
1070
    44
1040
1.0
1070
    74
1070
     0
1000
MTEXTEND
  0
POINT
  5
25E6
330
16D8
100
AcDbEntity
  8
DEFPOINTS
 62
     0
100
AcDbPoint
 10
-216.0
 20
283.0
 30
0.0
  0
POINT
  5
25E7
330
16D8
100
AcDbEntity
  8
DEFPOINTS
 62
     0
100
AcDbPoint
 10
216.0
 20
283.0
 30
0.0
  0
POINT
  5
25E8
330
16D8
100
AcDbEntity
  8
DEFPOINTS
 62
     0
100
AcDbPoint
 10
216.0
 20
487.6031473533076
 30
0.0
  0
ENDBLK
  5
16E3
330
16D8
100
AcDbEntity
  8
0
100
AcDbBlockEnd
  0
BLOCK
  5
1700
330
16F4
100
AcDbEntity
  8
0
100
AcDbBlockBegin
  2
*D43
 70
     1
 10
0.0
 20
0.0
 30
0.0
  3
*D43
  1

  0
LINE
  5
2620
330
16F4
100
AcDbEntity
  8
SIZE
 62
     0
100
AcDbLine
 10
138.4888360197546
 20
128.9816798560423
 30
0.0
 11
366.9744883778913
 21
128.9816798560422
 31
0.0
  0
LINE
  5
2621
330
16F4
100
AcDbEntity
  8
SIZE
 62
     0
100
AcDbLine
 10
236.0
 20
-0.0000000000000057
 30
0.0
 11
366.9744883778912
 21
-0.0000000000000428
 31
0.0
  0
LINE
  5
2622
330
16F4
100
AcDbEntity
  8
SIZE
 62
     0
100
AcDbLine
 10
346.9744883778913
 20
138.9816798560422
 30
0.0
 11
346.9744883778913
 21
148.9816798560422
 31
0.0
  0
LINE
  5
2623
330
16F4
100
AcDbEntity
  8
SIZE
 62
     0
100
AcDbLine
 10
346.9744883778912
 20
-10.00000000000003
 30
0.0
 11
346.9744883778912
 21
-20.00000000000003
 31
0.0
  0
LINE
  5
2624
330
16F4
100
AcDbEntity
  8
SIZE
 62
     0
100
AcDbLine
 10
346.9744883778913
 20
128.9816798560422
 30
0.0
 11
346.9744883778912
 21
-0.0000000000000371
 31
0.0
  0
INSERT
  5
2625
330
16F4
100
AcDbEntity
  8
SIZE
 62
     0
100
AcDbBlockReference
  2
_ORIGIN
 10
346.9744883778913
 20
128.9816798560422
 30
0.0
 41
10.0
 42
10.0
 43
10.0
 50
270.0
  0
INSERT
  5
2626
330
16F4
100
AcDbEntity
  8
SIZE
 62
     0
100
AcDbBlockReference
  2
_ORIGIN
 10
346.9744883778912
 20
-0.0000000000000371
 30
0.0
 41
10.0
 42
10.0
 43
10.0
 50
90.0
  0
MTEXT
  5
2627
330
16F4
100
AcDbEntity
  8
SIZE
 62
     0
100
AcDbMText
 10
304.9744883778912
 20
64.49083992802117
 30
0.0
 40
64.0
 41
0.0
 71
     5
 72
     1
  1
\A1;129
 11
0.0000000000000001
 21
1.0
 31
0.0
1001
ACAD
1000
MTEXTBEGIN
1070
    73
1070
     1
1070
    44
1040
1.0
1070
    74
1070
     0
1000
MTEXTEND
  0
POINT
  5
2628
330
16F4
100
AcDbEntity
  8
DEFPOINTS
 62
     0
100
AcDbPoint
 10
118.4888360197546
 20
128.9816798560423
 30
0.0
  0
POINT
  5
2629
330
16F4
100
AcDbEntity
  8
DEFPOINTS
 62
     0
100
AcDbPoint
 10
216.0
 20
0.0
 30
0.0
  0
POINT
  5
262A
330
16F4
100
AcDbEntity
  8
DEFPOINTS
 62
     0
100
AcDbPoint
 10
346.9744883778912
 20
-0.0000000000000371
 30
0.0
  0
ENDBLK
  5
1701
330
16F4
100
AcDbEntity
  8
0
100
AcDbBlockEnd
  0
BLOCK
  5
170D
330
1703
100
AcDbEntity
  8
0
100
AcDbBlockBegin
  2
*D44
 70
     1
 10
0.0
 20
0.0
 30
0.0
  3
*D44
  1

  0
LINE
  5
262B
330
1703
100
AcDbEntity
  8
SIZE
 62
     0
100
AcDbLine
 10
236.0
 20
-0.0000000000000057
 30
0.0
 11
487.8562555660245
 21
-0.000000000000077
 31
0.0
  0
LINE
  5
262C
330
1703
100
AcDbEntity
  8
SIZE
 62
     0
100
AcDbLine
 10
188.8000000000001
 20
186.7000000000005
 30
0.0
 11
487.8562555660247
 21
186.7000000000004
 31
0.0
  0
LINE
  5
262D
330
1703
100
AcDbEntity
  8
SIZE
 62
     0
100
AcDbLine
 10
467.8562555660246
 20
9.999999999999928
 30
0.0
 11
467.8562555660246
 21
176.7000000000003
 31
0.0
  0
INSERT
  5
262E
330
1703
100
AcDbEntity
  8
SIZE
 62
     0
100
AcDbBlockReference
  2
_ORIGIN
 10
467.8562555660246
 20
-0.0000000000000713
 30
0.0
 41
10.0
 42
10.0
 43
10.0
 50
270.0
  0
INSERT
  5
262F
330
1703
100
AcDbEntity
  8
SIZE
 62
     0
100
AcDbBlockReference
  2
_ORIGIN
 10
467.8562555660246
 20
186.7000000000004
 30
0.0
 41
10.0
 42
10.0
 43
10.0
 50
90.0
  0
MTEXT
  5
2630
330
1703
100
AcDbEntity
  8
SIZE
 62
     0
100
AcDbMText
 10
425.8562555660246
 20
93.35000000000023
 30
0.0
 40
64.0
 41
0.0
 71
     5
 72
     1
  1
\A1;187
 11
0.0000000000000001
 21
1.0
 31
0.0
1001
ACAD
1000
MTEXTBEGIN
1070
    73
1070
     1
1070
    44
1040
1.0
1070
    74
1070
     0
1000
MTEXTEND
  0
POINT
  5
2631
330
1703
100
AcDbEntity
  8
DEFPOINTS
 62
     0
100
AcDbPoint
 10
216.0
 20
0.0
 30
0.0
  0
POINT
  5
2632
330
1703
100
AcDbEntity
  8
DEFPOINTS
 62
     0
100
AcDbPoint
 10
168.8000000000001
 20
186.7000000000005
 30
0.0
  0
POINT
  5
2633
330
1703
100
AcDbEntity
  8
DEFPOINTS
 62
     0
100
AcDbPoint
 10
467.8562555660246
 20
186.7000000000004
 30
0.0
  0
ENDBLK
  5
170E
330
1703
100
AcDbEntity
  8
0
100
AcDbBlockEnd
  0
BLOCK
  5
171D
330
1711
100
AcDbEntity
  8
0
100
AcDbBlockBegin
  2
*D45
 70
     1
 10
0.0
 20
0.0
 30
0.0
  3
*D45
  1

  0
LINE
  5
25F2
330
1711
100
AcDbEntity
  8
SIZE
 62
     0
100
AcDbLine
 10
-236.0
 20
0.0000000000000057
 30
0.0
 11
-350.7316519376618
 21
0.0000000000000382
 31
0.0
  0
LINE
  5
25F3
330
1711
100
AcDbEntity
  8
SIZE
 62
     0
100
AcDbLine
 10
-280.6169765996674
 20
25.0
 30
0.0
 11
-350.7316519376618
 21
25.00000000000003
 31
0.0
  0
LINE
  5
25F4
330
1711
100
AcDbEntity
  8
SIZE
 62
     0
100
AcDbLine
 10
-330.7316519376618
 20
-9.999999999999968
 30
0.0
 11
-330.7316519376618
 21
-19.99999999999996
 31
0.0
  0
LINE
  5
25F5
330
1711
100
AcDbEntity
  8
SIZE
 62
     0
100
AcDbLine
 10
-330.7316519376618
 20
35.00000000000001
 30
0.0
 11
-330.7316519376618
 21
45.00000000000001
 31
0.0
  0
LINE
  5
25F6
330
1711
100
AcDbEntity
  8
SIZE
 62
     0
100
AcDbLine
 10
-330.7316519376618
 20
0.0000000000000325
 30
0.0
 11
-330.7316519376618
 21
25.00000000000002
 31
0.0
  0
INSERT
  5
25F7
330
1711
100
AcDbEntity
  8
SIZE
 62
     0
100
AcDbBlockReference
  2
_ORIGIN
 10
-330.7316519376618
 20
0.0000000000000325
 30
0.0
 41
10.0
 42
10.0
 43
10.0
 50
90.0
  0
INSERT
  5
25F8
330
1711
100
AcDbEntity
  8
SIZE
 62
     0
100
AcDbBlockReference
  2
_ORIGIN
 10
-330.7316519376618
 20
25.00000000000002
 30
0.0
 41
10.0
 42
10.0
 43
10.0
 50
270.0
  0
MTEXT
  5
25F9
330
1711
100
AcDbEntity
  8
SIZE
 62
     0
100
AcDbMText
 10
-372.7316519376618
 20
12.49999999999997
 30
0.0
 40
64.0
 41
0.0
 71
     5
 72
     1
  1
\A1;25
 11
0.0000000000000001
 21
1.0
 31
0.0
1001
ACAD
1000
MTEXTBEGIN
1070
    73
1070
     1
1070
    44
1040
1.0
1070
    74
1070
     0
1000
MTEXTEND
  0
POINT
  5
25FA
330
1711
100
AcDbEntity
  8
DEFPOINTS
 62
     0
100
AcDbPoint
 10
-216.0
 20
0.0
 30
0.0
  0
POINT
  5
25FB
330
1711
100
AcDbEntity
  8
DEFPOINTS
 62
     0
100
AcDbPoint
 10
-260.6169765996674
 20
25.0
 30
0.0
  0
POINT
  5
25FC
330
1711
100
AcDbEntity
  8
DEFPOINTS
 62
     0
100
AcDbPoint
 10
-330.7316519376618
 20
25.00000000000002
 30
0.0
  0
ENDBLK
  5
171E
330
1711
100
AcDbEntity
  8
0
100
AcDbBlockEnd
  0
BLOCK
  5
172C
330
1720
100
AcDbEntity
  8
0
100
AcDbBlockBegin
  2
*D46
 70
     1
 10
0.0
 20
0.0
 30
0.0
  3
*D46
  1

  0
LINE
  5
25E9
330
1720
100
AcDbEntity
  8
SIZE
 62
     0
100
AcDbLine
 10
-236.0
 20
0.0000000000000057
 30
0.0
 11
-457.7282960399097
 21
0.0000000000000685
 31
0.0
  0
LINE
  5
25EA
330
1720
100
AcDbEntity
  8
SIZE
 62
     0
100
AcDbLine
 10
-318.4738273683397
 20
135.0
 30
0.0
 11
-457.7282960399097
 21
135.0
 31
0.0
  0
LINE
  5
25EB
330
1720
100
AcDbEntity
  8
SIZE
 62
     0
100
AcDbLine
 10
-437.7282960399098
 20
10.00000000000006
 30
0.0
 11
-437.7282960399098
 21
125.0
 31
0.0
  0
INSERT
  5
25EC
330
1720
100
AcDbEntity
  8
SIZE
 62
     0
100
AcDbBlockReference
  2
_ORIGIN
 10
-437.7282960399098
 20
0.0000000000000628
 30
0.0
 41
10.0
 42
10.0
 43
10.0
 50
270.0
  0
INSERT
  5
25ED
330
1720
100
AcDbEntity
  8
SIZE
 62
     0
100
AcDbBlockReference
  2
_ORIGIN
 10
-437.7282960399097
 20
135.0
 30
0.0
 41
10.0
 42
10.0
 43
10.0
 50
90.0
  0
MTEXT
  5
25EE
330
1720
100
AcDbEntity
  8
SIZE
 62
     0
100
AcDbMText
 10
-479.7282960399098
 20
67.49999999999999
 30
0.0
 40
64.0
 41
0.0
 71
     5
 72
     1
  1
\A1;135
 11
0.0000000000000001
 21
1.0
 31
0.0
1001
ACAD
1000
MTEXTBEGIN
1070
    73
1070
     1
1070
    44
1040
1.0
1070
    74
1070
     0
1000
MTEXTEND
  0
POINT
  5
25EF
330
1720
100
AcDbEntity
  8
DEFPOINTS
 62
     0
100
AcDbPoint
 10
-216.0
 20
0.0
 30
0.0
  0
POINT
  5
25F0
330
1720
100
AcDbEntity
  8
DEFPOINTS
 62
     0
100
AcDbPoint
 10
-298.4738273683396
 20
135.0
 30
0.0
  0
POINT
  5
25F1
330
1720
100
AcDbEntity
  8
DEFPOINTS
 62
     0
100
AcDbPoint
 10
-437.7282960399097
 20
135.0
 30
0.0
  0
ENDBLK
  5
172D
330
1720
100
AcDbEntity
  8
0
100
AcDbBlockEnd
  0
BLOCK
  5
1739
330
172F
100
AcDbEntity
  8
0
100
AcDbBlockBegin
  2
*D47
 70
     1
 10
0.0
 20
0.0
 30
0.0
  3
*D47
  1

  0
LINE
  5
25FD
330
172F
100
AcDbEntity
  8
SIZE
 62
     0
100
AcDbLine
 10
236.0
 20
-0.0000000000000057
 30
0.0
 11
609.6815786568622
 21
-0.0000000000001115
 31
0.0
  0
LINE
  5
25FE
330
172F
100
AcDbEntity
  8
SIZE
 62
     0
100
AcDbLine
 10
236.0
 20
213.0
 30
0.0
 11
609.6815786568622
 21
212.9999999999999
 31
0.0
  0
LINE
  5
25FF
330
172F
100
AcDbEntity
  8
SIZE
 62
     0
100
AcDbLine
 10
589.6815786568622
 20
9.999999999999893
 30
0.0
 11
589.6815786568622
 21
202.9999999999998
 31
0.0
  0
INSERT
  5
2600
330
172F
100
AcDbEntity
  8
SIZE
 62
     0
100
AcDbBlockReference
  2
_ORIGIN
 10
589.6815786568622
 20
-0.0000000000001059
 30
0.0
 41
10.0
 42
10.0
 43
10.0
 50
270.0
  0
INSERT
  5
2601
330
172F
100
AcDbEntity
  8
SIZE
 62
     0
100
AcDbBlockReference
  2
_ORIGIN
 10
589.6815786568622
 20
212.9999999999999
 30
0.0
 41
10.0
 42
10.0
 43
10.0
 50
90.0
  0
MTEXT
  5
2602
330
172F
100
AcDbEntity
  8
SIZE
 62
     0
100
AcDbMText
 10
547.6815786568622
 20
106.4999999999999
 30
0.0
 40
64.0
 41
0.0
 71
     5
 72
     1
  1
\A1;213
 11
0.0000000000000001
 21
1.0
 31
0.0
1001
ACAD
1000
MTEXTBEGIN
1070
    73
1070
     1
1070
    44
1040
1.0
1070
    74
1070
     0
1000
MTEXTEND
  0
POINT
  5
2603
330
172F
100
AcDbEntity
  8
DEFPOINTS
 62
     0
100
AcDbPoint
 10
216.0
 20
0.0
 30
0.0
  0
POINT
  5
2604
330
172F
100
AcDbEntity
  8
DEFPOINTS
 62
     0
100
AcDbPoint
 10
216.0
 20
213.0
 30
0.0
  0
POINT
  5
2605
330
172F
100
AcDbEntity
  8
DEFPOINTS
 62
     0
100
AcDbPoint
 10
589.6815786568622
 20
212.9999999999999
 30
0.0
  0
ENDBLK
  5
173A
330
172F
100
AcDbEntity
  8
0
100
AcDbBlockEnd
  0
BLOCK
  5
1746
330
173C
100
AcDbEntity
  8
0
100
AcDbBlockBegin
  2
*D48
 70
     1
 10
0.0
 20
0.0
 30
0.0
  3
*D48
  1

  0
LINE
  5
2606
330
173C
100
AcDbEntity
  8
SIZE
 62
     0
100
AcDbLine
 10
236.0
 20
-0.0000000000000057
 30
0.0
 11
710.0305152902145
 21
-0.0000000000001399
 31
0.0
  0
LINE
  5
2607
330
173C
100
AcDbEntity
  8
SIZE
 62
     0
100
AcDbLine
 10
236.0
 20
283.0
 30
0.0
 11
710.0305152902146
 21
282.9999999999998
 31
0.0
  0
LINE
  5
2608
330
173C
100
AcDbEntity
  8
SIZE
 62
     0
100
AcDbLine
 10
690.0305152902145
 20
9.999999999999866
 30
0.0
 11
690.0305152902147
 21
272.9999999999998
 31
0.0
  0
INSERT
  5
2609
330
173C
100
AcDbEntity
  8
SIZE
 62
     0
100
AcDbBlockReference
  2
_ORIGIN
 10
690.0305152902145
 20
-0.0000000000001343
 30
0.0
 41
10.0
 42
10.0
 43
10.0
 50
270.0
  0
INSERT
  5
260A
330
173C
100
AcDbEntity
  8
SIZE
 62
     0
100
AcDbBlockReference
  2
_ORIGIN
 10
690.0305152902147
 20
282.9999999999998
 30
0.0
 41
10.0
 42
10.0
 43
10.0
 50
90.0
  0
MTEXT
  5
260B
330
173C
100
AcDbEntity
  8
SIZE
 62
     0
100
AcDbMText
 10
648.0305152902145
 20
141.4999999999999
 30
0.0
 40
64.0
 41
0.0
 71
     5
 72
     1
  1
\A1;283
 11
0.0000000000000001
 21
1.0
 31
0.0
1001
ACAD
1000
MTEXTBEGIN
1070
    73
1070
     1
1070
    44
1040
1.0
1070
    74
1070
     0
1000
MTEXTEND
  0
POINT
  5
260C
330
173C
100
AcDbEntity
  8
DEFPOINTS
 62
     0
100
AcDbPoint
 10
216.0
 20
0.0
 30
0.0
  0
POINT
  5
260D
330
173C
100
AcDbEntity
  8
DEFPOINTS
 62
     0
100
AcDbPoint
 10
216.0
 20
283.0
 30
0.0
  0
POINT
  5
260E
330
173C
100
AcDbEntity
  8
DEFPOINTS
 62
     0
100
AcDbPoint
 10
690.0305152902147
 20
282.9999999999998
 30
0.0
  0
ENDBLK
  5
1747
330
173C
100
AcDbEntity
  8
0
100
AcDbBlockEnd
  0
BLOCK
  5
1754
330
174B
100
AcDbEntity
  8
0
100
AcDbBlockBegin
  2
*D49
 70
     1
 10
0.0
 20
0.0
 30
0.0
  3
*D49
  1

  0
LINE
  5
260F
330
174B
100
AcDbEntity
  8
SIZE
 62
     0
100
AcDbLine
 10
204.5993626338805
 20
319.0439134705729
 30
0.0
 11
43.95934740445556
 21
169.8176416516748
 31
0.0
  0
LINE
  5
2610
330
174B
100
AcDbEntity
  8
SIZE
 62
     0
100
AcDbLine
 10
-43.95934740445555
 20
88.14571806040943
 30
0.0
 11
-51.28590530519816
 21
81.33972442780395
 31
0.0
  0
MTEXT
  5
2611
330
174B
100
AcDbEntity
  8
SIZE
 62
     0
100
AcDbMText
 10
99.35746071259643
 20
278.6053175605455
 30
0.0
 40
64.0
 41
0.0
 71
     5
 72
     1
  1
\A1;\U+2205100
 11
0.7326557900742606
 21
0.6805993632605464
 31
0.0
1001
ACAD
1000
MTEXTBEGIN
1070
    73
1070
     1
1070
    44
1040
1.0
1070
    74
1070
     0
1000
MTEXTEND
  0
LINE
  5
2612
330
174B
100
AcDbEntity
  8
SIZE
 62
     0
100
AcDbLine
 10
-36.63278950371295
 20
94.95171169301489
 30
0.0
 11
36.63278950371295
 21
163.0116480190693
 31
0.0
  0
INSERT
  5
2613
330
174B
100
AcDbEntity
  8
SIZE
 62
     0
100
AcDbBlockReference
  2
_ORIGIN
 10
-36.63278950371295
 20
94.95171169301489
 30
0.0
 41
10.0
 42
10.0
 43
10.0
 50
42.89049717456008
  0
INSERT
  5
2614
330
174B
100
AcDbEntity
  8
SIZE
 62
     0
100
AcDbBlockReference
  2
_ORIGIN
 10
36.63278950371295
 20
163.0116480190693
 30
0.0
 41
10.0
 42
10.0
 43
10.0
 50
222.89049717456
  0
POINT
  5
2615
330
174B
100
AcDbEntity
  8
DEFPOINTS
 62
     0
100
AcDbPoint
 10
36.63278950371295
 20
163.0116480190693
 30
0.0
  0
POINT
  5
2616
330
174B
100
AcDbEntity
  8
DEFPOINTS
 62
     0
100
AcDbPoint
 10
-36.63278950371295
 20
94.95171169301489
 30
0.0
  0
ENDBLK
  5
1755
330
174B
100
AcDbEntity
  8
0
100
AcDbBlockEnd
  0
BLOCK
  5
176F
330
1766
100
AcDbEntity
  8
0
100
AcDbBlockBegin
  2
*D50
 70
     1
 10
0.0
 20
0.0
 30
0.0
  3
*D50
  1

  0
LINE
  5
2634
330
1766
100
AcDbEntity
  8
SIZE
 62
     0
100
AcDbLine
 10
223.617179573207
 20
-38.71922329624122
 30
0.0
 11
50.40129622395214
 21
91.18340821638314
 31
0.0
  0
LINE
  5
2635
330
1766
100
AcDbEntity
  8
SIZE
 62
     0
100
AcDbLine
 10
-50.40129622395167
 20
166.7799514957014
 30
0.0
 11
-58.4015019737853
 21
172.7796771527902
 31
0.0
  0
MTEXT
  5
2636
330
1766
100
AcDbEntity
  8
SIZE
 62
     0
100
AcDbMText
 10
166.2081885332691
 20
56.83309378082781
 30
0.0
 40
64.0
 41
0.0
 71
     5
 72
     1
  1
\A1;\U+2205106
 11
0.8000205749833625
 21
-0.5999725657088747
 31
0.0
1001
ACAD
1000
MTEXTBEGIN
1070
    73
1070
     1
1070
    44
1040
1.0
1070
    74
1070
     0
1000
MTEXTEND
  0
LINE
  5
2637
330
1766
100
AcDbEntity
  8
SIZE
 62
     0
100
AcDbLine
 10
-42.40109047411805
 20
160.7802258386127
 30
0.0
 11
42.40109047411851
 21
97.18313387347189
 31
0.0
  0
INSERT
  5
2638
330
1766
100
AcDbEntity
  8
SIZE
 62
     0
100
AcDbBlockReference
  2
_ORIGIN
 10
-42.40109047411805
 20
160.7802258386127
 30
0.0
 41
10.0
 42
10.0
 43
10.0
 50
323.1320671652588
  0
INSERT
  5
2639
330
1766
100
AcDbEntity
  8
SIZE
 62
     0
100
AcDbBlockReference
  2
_ORIGIN
 10
42.40109047411851
 20
97.18313387347189
 30
0.0
 41
10.0
 42
10.0
 43
10.0
 50
143.1320671652588
  0
POINT
  5
263A
330
1766
100
AcDbEntity
  8
DEFPOINTS
 62
     0
100
AcDbPoint
 10
42.40109047411851
 20
97.18313387347189
 30
0.0
  0
POINT
  5
263B
330
1766
100
AcDbEntity
  8
DEFPOINTS
 62
     0
100
AcDbPoint
 10
-42.40109047411805
 20
160.7802258386127
 30
0.0
  0
ENDBLK
  5
1770
330
1766
100
AcDbEntity
  8
0
100
AcDbBlockEnd
  0
BLOCK
  5
184D
330
1843
100
AcDbEntity
  8
0
100
AcDbBlockBegin
  2
*D51
 70
     1
 10
0.0
 20
0.0
 30
0.0
  3
*D51
  1

  0
LINE
  5
1D1A
330
1843
100
AcDbEntity
  8
SIZE
 62
     0
100
AcDbLine
 10
4604.958633043898
 20
-2118.137866183773
 30
0.0
 11
4970.618994632306
 21
-2118.137866183773
 31
0.0
  0
LINE
  5
1D1B
330
1843
100
AcDbEntity
  8
SIZE
 62
     0
100
AcDbLine
 10
4685.180276525731
 20
-1923.137866183773
 30
0.0
 11
4970.618994632307
 21
-1923.137866183773
 31
0.0
  0
LINE
  5
1D1C
330
1843
100
AcDbEntity
  8
SIZE
 62
     0
100
AcDbLine
 10
4950.618994632305
 20
-2108.137866183773
 30
0.0
 11
4950.618994632307
 21
-1933.137866183773
 31
0.0
  0
INSERT
  5
1D1D
330
1843
100
AcDbEntity
  8
SIZE
 62
     0
100
AcDbBlockReference
  2
_ORIGIN
 10
4950.618994632305
 20
-2118.137866183773
 30
0.0
 41
10.0
 42
10.0
 43
10.0
 50
270.0
  0
INSERT
  5
1D1E
330
1843
100
AcDbEntity
  8
SIZE
 62
     0
100
AcDbBlockReference
  2
_ORIGIN
 10
4950.618994632307
 20
-1923.137866183773
 30
0.0
 41
10.0
 42
10.0
 43
10.0
 50
90.0
  0
MTEXT
  5
1D1F
330
1843
100
AcDbEntity
  8
SIZE
 62
     0
100
AcDbMText
 10
4908.618994632306
 20
-2020.637866183773
 30
0.0
 40
64.0
 41
0.0
 71
     5
 72
     1
  1
\A1;195
 11
0.0000000000000001
 21
1.0
 31
0.0
1001
ACAD
1000
MTEXTBEGIN
1070
    73
1070
     1
1070
    44
1040
1.0
1070
    74
1070
     0
1000
MTEXTEND
  0
POINT
  5
1D20
330
1843
100
AcDbEntity
  8
DEFPOINTS
 62
     0
100
AcDbPoint
 10
4584.958633043898
 20
-2118.137866183773
 30
0.0
  0
POINT
  5
1D21
330
1843
100
AcDbEntity
  8
DEFPOINTS
 62
     0
100
AcDbPoint
 10
4665.18027652573
 20
-1923.137866183773
 30
0.0
  0
POINT
  5
1D22
330
1843
100
AcDbEntity
  8
DEFPOINTS
 62
     0
100
AcDbPoint
 10
4950.618994632307
 20
-1923.137866183773
 30
0.0
  0
ENDBLK
  5
184E
330
1843
100
AcDbEntity
  8
0
100
AcDbBlockEnd
  0
BLOCK
  5
1859
330
184F
100
AcDbEntity
  8
0
100
AcDbBlockBegin
  2
*D52
 70
     1
 10
0.0
 20
0.0
 30
0.0
  3
*D52
  1

  0
LINE
  5
1C72
330
184F
100
AcDbEntity
  8
SIZE
 62
     0
100
AcDbLine
 10
4064.958633043898
 20
-1931.137866183773
 30
0.0
 11
3664.562108477235
 21
-1931.137866183773
 31
0.0
  0
LINE
  5
1C73
330
184F
100
AcDbEntity
  8
SIZE
 62
     0
100
AcDbLine
 10
4104.958633043898
 20
-2118.137866183773
 30
0.0
 11
3664.562108477235
 21
-2118.137866183773
 31
0.0
  0
LINE
  5
1C74
330
184F
100
AcDbEntity
  8
SIZE
 62
     0
100
AcDbLine
 10
3684.562108477235
 20
-1941.137866183773
 30
0.0
 11
3684.562108477235
 21
-2108.137866183773
 31
0.0
  0
INSERT
  5
1C75
330
184F
100
AcDbEntity
  8
SIZE
 62
     0
100
AcDbBlockReference
  2
_ORIGIN
 10
3684.562108477235
 20
-1931.137866183773
 30
0.0
 41
10.0
 42
10.0
 43
10.0
 50
90.0
  0
INSERT
  5
1C76
330
184F
100
AcDbEntity
  8
SIZE
 62
     0
100
AcDbBlockReference
  2
_ORIGIN
 10
3684.562108477235
 20
-2118.137866183773
 30
0.0
 41
10.0
 42
10.0
 43
10.0
 50
270.0
  0
MTEXT
  5
1C77
330
184F
100
AcDbEntity
  8
SIZE
 62
     0
100
AcDbMText
 10
3642.562108477235
 20
-2024.637866183773
 30
0.0
 40
64.0
 41
0.0
 71
     5
 72
     1
  1
\A1;187
 11
0.0000000000000001
 21
1.0
 31
0.0
1001
ACAD
1000
MTEXTBEGIN
1070
    73
1070
     1
1070
    44
1040
1.0
1070
    74
1070
     0
1000
MTEXTEND
  0
POINT
  5
1C78
330
184F
100
AcDbEntity
  8
DEFPOINTS
 62
     0
100
AcDbPoint
 10
4084.958633043898
 20
-1931.137866183773
 30
0.0
  0
POINT
  5
1C79
330
184F
100
AcDbEntity
  8
DEFPOINTS
 62
     0
100
AcDbPoint
 10
4124.958633043898
 20
-2118.137866183773
 30
0.0
  0
POINT
  5
1C7A
330
184F
100
AcDbEntity
  8
DEFPOINTS
 62
     0
100
AcDbPoint
 10
3684.562108477235
 20
-2118.137866183773
 30
0.0
  0
ENDBLK
  5
185A
330
184F
100
AcDbEntity
  8
0
100
AcDbBlockEnd
  0
BLOCK
  5
1865
330
185B
100
AcDbEntity
  8
0
100
AcDbBlockBegin
  2
*D53
 70
     1
 10
0.0
 20
0.0
 30
0.0
  3
*D53
  1

  0
LINE
  5
1CA4
330
185B
100
AcDbEntity
  8
SIZE
 62
     0
100
AcDbLine
 10
4104.958633043898
 20
-2118.137866183773
 30
0.0
 11
3767.976315594954
 21
-2118.137866183773
 31
0.0
  0
LINE
  5
1CA5
330
185B
100
AcDbEntity
  8
SIZE
 62
     0
100
AcDbLine
 10
3972.619562743465
 20
-1989.137866183773
 30
0.0
 11
3767.976315594954
 21
-1989.137866183773
 31
0.0
  0
LINE
  5
1CA6
330
185B
100
AcDbEntity
  8
SIZE
 62
     0
100
AcDbLine
 10
3787.976315594955
 20
-2108.137866183773
 30
0.0
 11
3787.976315594955
 21
-1999.137866183773
 31
0.0
  0
INSERT
  5
1CA7
330
185B
100
AcDbEntity
  8
SIZE
 62
     0
100
AcDbBlockReference
  2
_ORIGIN
 10
3787.976315594955
 20
-2118.137866183773
 30
0.0
 41
10.0
 42
10.0
 43
10.0
 50
270.0
  0
INSERT
  5
1CA8
330
185B
100
AcDbEntity
  8
SIZE
 62
     0
100
AcDbBlockReference
  2
_ORIGIN
 10
3787.976315594955
 20
-1989.137866183773
 30
0.0
 41
10.0
 42
10.0
 43
10.0
 50
90.0
  0
MTEXT
  5
1CA9
330
185B
100
AcDbEntity
  8
SIZE
 62
     0
100
AcDbMText
 10
3745.976315594955
 20
-2053.637866183773
 30
0.0
 40
64.0
 41
0.0
 71
     5
 72
     1
  1
\A1;129
 11
0.0000000000000001
 21
1.0
 31
0.0
1001
ACAD
1000
MTEXTBEGIN
1070
    73
1070
     1
1070
    44
1040
1.0
1070
    74
1070
     0
1000
MTEXTEND
  0
POINT
  5
1CAA
330
185B
100
AcDbEntity
  8
DEFPOINTS
 62
     0
100
AcDbPoint
 10
4124.958633043898
 20
-2118.137866183773
 30
0.0
  0
POINT
  5
1CAB
330
185B
100
AcDbEntity
  8
DEFPOINTS
 62
     0
100
AcDbPoint
 10
3992.619562743464
 20
-1989.137866183773
 30
0.0
  0
POINT
  5
1CAC
330
185B
100
AcDbEntity
  8
DEFPOINTS
 62
     0
100
AcDbPoint
 10
3787.976315594955
 20
-1989.137866183773
 30
0.0
  0
ENDBLK
  5
1866
330
185B
100
AcDbEntity
  8
0
100
AcDbBlockEnd
  0
BLOCK
  5
1871
330
1867
100
AcDbEntity
  8
0
100
AcDbBlockBegin
  2
*D54
 70
     1
 10
0.0
 20
0.0
 30
0.0
  3
*D54
  1

  0
LINE
  5
1C7B
330
1867
100
AcDbEntity
  8
SIZE
 62
     0
100
AcDbLine
 10
4104.958633043898
 20
-2118.137866183773
 30
0.0
 11
3547.336863360876
 21
-2118.137866183773
 31
0.0
  0
LINE
  5
1C7C
330
1867
100
AcDbEntity
  8
SIZE
 62
     0
100
AcDbLine
 10
4104.958633043898
 20
-1905.137866183773
 30
0.0
 11
3547.336863360876
 21
-1905.137866183773
 31
0.0
  0
LINE
  5
1C7D
330
1867
100
AcDbEntity
  8
SIZE
 62
     0
100
AcDbLine
 10
3567.336863360877
 20
-2108.137866183773
 30
0.0
 11
3567.336863360877
 21
-1915.137866183773
 31
0.0
  0
INSERT
  5
1C7E
330
1867
100
AcDbEntity
  8
SIZE
 62
     0
100
AcDbBlockReference
  2
_ORIGIN
 10
3567.336863360877
 20
-2118.137866183773
 30
0.0
 41
10.0
 42
10.0
 43
10.0
 50
270.0
  0
INSERT
  5
1C7F
330
1867
100
AcDbEntity
  8
SIZE
 62
     0
100
AcDbBlockReference
  2
_ORIGIN
 10
3567.336863360877
 20
-1905.137866183773
 30
0.0
 41
10.0
 42
10.0
 43
10.0
 50
90.0
  0
MTEXT
  5
1C80
330
1867
100
AcDbEntity
  8
SIZE
 62
     0
100
AcDbMText
 10
3525.336863360877
 20
-2011.637866183773
 30
0.0
 40
64.0
 41
0.0
 71
     5
 72
     1
  1
\A1;213
 11
0.0000000000000001
 21
1.0
 31
0.0
1001
ACAD
1000
MTEXTBEGIN
1070
    73
1070
     1
1070
    44
1040
1.0
1070
    74
1070
     0
1000
MTEXTEND
  0
POINT
  5
1C81
330
1867
100
AcDbEntity
  8
DEFPOINTS
 62
     0
100
AcDbPoint
 10
4124.958633043898
 20
-2118.137866183773
 30
0.0
  0
POINT
  5
1C82
330
1867
100
AcDbEntity
  8
DEFPOINTS
 62
     0
100
AcDbPoint
 10
4124.958633043898
 20
-1905.137866183773
 30
0.0
  0
POINT
  5
1C83
330
1867
100
AcDbEntity
  8
DEFPOINTS
 62
     0
100
AcDbPoint
 10
3567.336863360877
 20
-1905.137866183773
 30
0.0
  0
ENDBLK
  5
1872
330
1867
100
AcDbEntity
  8
0
100
AcDbBlockEnd
  0
BLOCK
  5
187F
330
1873
100
AcDbEntity
  8
0
100
AcDbBlockBegin
  2
*D55
 70
     1
 10
0.0
 20
0.0
 30
0.0
  3
*D55
  1

  0
LINE
  5
1CAD
330
1873
100
AcDbEntity
  8
SIZE
 62
     0
100
AcDbLine
 10
3986.958633043897
 20
-2042.137866183773
 30
0.0
 11
3875.873756614383
 21
-2042.137866183773
 31
0.0
  0
LINE
  5
1CAE
330
1873
100
AcDbEntity
  8
SIZE
 62
     0
100
AcDbLine
 10
3986.958633043897
 20
-1936.137866183773
 30
0.0
 11
3875.873756614383
 21
-1936.137866183773
 31
0.0
  0
LINE
  5
1CAF
330
1873
100
AcDbEntity
  8
SIZE
 62
     0
100
AcDbLine
 10
3895.873756614383
 20
-2052.137866183773
 30
0.0
 11
3895.873756614383
 21
-2062.137866183773
 31
0.0
  0
LINE
  5
1CB0
330
1873
100
AcDbEntity
  8
SIZE
 62
     0
100
AcDbLine
 10
3895.873756614383
 20
-1926.137866183773
 30
0.0
 11
3895.873756614383
 21
-1916.137866183773
 31
0.0
  0
LINE
  5
1CB1
330
1873
100
AcDbEntity
  8
SIZE
 62
     0
100
AcDbLine
 10
3895.873756614383
 20
-2042.137866183773
 30
0.0
 11
3895.873756614383
 21
-1936.137866183773
 31
0.0
  0
INSERT
  5
1CB2
330
1873
100
AcDbEntity
  8
SIZE
 62
     0
100
AcDbBlockReference
  2
_ORIGIN
 10
3895.873756614383
 20
-2042.137866183773
 30
0.0
 41
10.0
 42
10.0
 43
10.0
 50
90.0
  0
INSERT
  5
1CB3
330
1873
100
AcDbEntity
  8
SIZE
 62
     0
100
AcDbBlockReference
  2
_ORIGIN
 10
3895.873756614383
 20
-1936.137866183773
 30
0.0
 41
10.0
 42
10.0
 43
10.0
 50
270.0
  0
MTEXT
  5
1CB4
330
1873
100
AcDbEntity
  8
SIZE
 62
     0
100
AcDbMText
 10
3853.873756614383
 20
-1989.137866183772
 30
0.0
 40
64.0
 41
0.0
 71
     5
 72
     1
  1
\A1;%%c106
 11
0.0000000000000001
 21
1.0
 31
0.0
1001
ACAD
1000
MTEXTBEGIN
1070
    73
1070
     1
1070
    44
1040
1.0
1070
    74
1070
     0
1000
MTEXTEND
  0
POINT
  5
1CB5
330
1873
100
AcDbEntity
  8
DEFPOINTS
 62
     0
100
AcDbPoint
 10
4006.958633043898
 20
-2042.137866183773
 30
0.0
  0
POINT
  5
1CB6
330
1873
100
AcDbEntity
  8
DEFPOINTS
 62
     0
100
AcDbPoint
 10
4006.958633043898
 20
-1936.137866183773
 30
0.0
  0
POINT
  5
1CB7
330
1873
100
AcDbEntity
  8
DEFPOINTS
 62
     0
100
AcDbPoint
 10
3895.873756614383
 20
-1936.137866183773
 30
0.0
  0
ENDBLK
  5
1880
330
1873
100
AcDbEntity
  8
0
100
AcDbBlockEnd
  0
BLOCK
  5
188B
330
1881
100
AcDbEntity
  8
0
100
AcDbBlockBegin
  2
*D56
 70
     1
 10
0.0
 20
0.0
 30
0.0
  3
*D56
  1

  0
LINE
  5
1CC3
330
1881
100
AcDbEntity
  8
SIZE
 62
     0
100
AcDbLine
 10
4144.958633043898
 20
-2071.637866183773
 30
0.0
 11
4187.729212882287
 21
-2071.637866183773
 31
0.0
  0
LINE
  5
1CC4
330
1881
100
AcDbEntity
  8
SIZE
 62
     0
100
AcDbLine
 10
4144.958633043898
 20
-1906.637866183773
 30
0.0
 11
4187.729212882287
 21
-1906.637866183773
 31
0.0
  0
LINE
  5
1CC5
330
1881
100
AcDbEntity
  8
SIZE
 62
     0
100
AcDbLine
 10
4167.729212882288
 20
-2061.637866183773
 30
0.0
 11
4167.729212882288
 21
-1916.637866183773
 31
0.0
  0
INSERT
  5
1CC6
330
1881
100
AcDbEntity
  8
SIZE
 62
     0
100
AcDbBlockReference
  2
_ORIGIN
 10
4167.729212882288
 20
-2071.637866183773
 30
0.0
 41
10.0
 42
10.0
 43
10.0
 50
270.0
  0
INSERT
  5
1CC7
330
1881
100
AcDbEntity
  8
SIZE
 62
     0
100
AcDbBlockReference
  2
_ORIGIN
 10
4167.729212882288
 20
-1906.637866183773
 30
0.0
 41
10.0
 42
10.0
 43
10.0
 50
90.0
  0
MTEXT
  5
1CC8
330
1881
100
AcDbEntity
  8
SIZE
 62
     0
100
AcDbMText
 10
4125.729212882288
 20
-1989.137866183772
 30
0.0
 40
64.0
 41
0.0
 71
     5
 72
     1
  1
\A1;165
 11
0.0000000000000001
 21
1.0
 31
0.0
1001
ACAD
1000
MTEXTBEGIN
1070
    73
1070
     1
1070
    44
1040
1.0
1070
    74
1070
     0
1000
MTEXTEND
  0
POINT
  5
1CC9
330
1881
100
AcDbEntity
  8
DEFPOINTS
 62
     0
100
AcDbPoint
 10
4124.958633043898
 20
-2071.637866183773
 30
0.0
  0
POINT
  5
1CCA
330
1881
100
AcDbEntity
  8
DEFPOINTS
 62
     0
100
AcDbPoint
 10
4124.958633043898
 20
-1906.637866183773
 30
0.0
  0
POINT
  5
1CCB
330
1881
100
AcDbEntity
  8
DEFPOINTS
 62
     0
100
AcDbPoint
 10
4167.729212882288
 20
-1906.637866183773
 30
0.0
  0
ENDBLK
  5
188C
330
1881
100
AcDbEntity
  8
0
100
AcDbBlockEnd
  0
BLOCK
  5
1899
330
188D
100
AcDbEntity
  8
0
100
AcDbBlockBegin
  2
*D57
 70
     1
 10
0.0
 20
0.0
 30
0.0
  3
*D57
  1

  0
LINE
  5
1C67
330
188D
100
AcDbEntity
  8
SIZE
 62
     0
100
AcDbLine
 10
4104.958633043898
 20
-1905.137866183773
 30
0.0
 11
3547.336863360877
 21
-1905.137866183773
 31
0.0
  0
LINE
  5
1C68
330
188D
100
AcDbEntity
  8
SIZE
 62
     0
100
AcDbLine
 10
4309.958633043898
 20
-1835.137866183773
 30
0.0
 11
3547.336863360877
 21
-1835.137866183773
 31
0.0
  0
LINE
  5
1C69
330
188D
100
AcDbEntity
  8
SIZE
 62
     0
100
AcDbLine
 10
3567.336863360877
 20
-1915.137866183773
 30
0.0
 11
3567.336863360877
 21
-1925.137866183773
 31
0.0
  0
LINE
  5
1C6A
330
188D
100
AcDbEntity
  8
SIZE
 62
     0
100
AcDbLine
 10
3567.336863360877
 20
-1825.137866183773
 30
0.0
 11
3567.336863360877
 21
-1815.137866183773
 31
0.0
  0
LINE
  5
1C6B
330
188D
100
AcDbEntity
  8
SIZE
 62
     0
100
AcDbLine
 10
3567.336863360877
 20
-1905.137866183773
 30
0.0
 11
3567.336863360877
 21
-1835.137866183773
 31
0.0
  0
INSERT
  5
1C6C
330
188D
100
AcDbEntity
  8
SIZE
 62
     0
100
AcDbBlockReference
  2
_ORIGIN
 10
3567.336863360877
 20
-1905.137866183773
 30
0.0
 41
10.0
 42
10.0
 43
10.0
 50
90.0
  0
INSERT
  5
1C6D
330
188D
100
AcDbEntity
  8
SIZE
 62
     0
100
AcDbBlockReference
  2
_ORIGIN
 10
3567.336863360877
 20
-1835.137866183773
 30
0.0
 41
10.0
 42
10.0
 43
10.0
 50
270.0
  0
MTEXT
  5
1C6E
330
188D
100
AcDbEntity
  8
SIZE
 62
     0
100
AcDbMText
 10
3525.336863360877
 20
-1870.137866183773
 30
0.0
 40
64.0
 41
0.0
 71
     5
 72
     1
  1
\A1;70
 11
0.0000000000000001
 21
1.0
 31
0.0
1001
ACAD
1000
MTEXTBEGIN
1070
    73
1070
     1
1070
    44
1040
1.0
1070
    74
1070
     0
1000
MTEXTEND
  0
POINT
  5
1C6F
330
188D
100
AcDbEntity
  8
DEFPOINTS
 62
     0
100
AcDbPoint
 10
4124.958633043898
 20
-1905.137866183773
 30
0.0
  0
POINT
  5
1C70
330
188D
100
AcDbEntity
  8
DEFPOINTS
 62
     0
100
AcDbPoint
 10
4329.958633043897
 20
-1835.137866183773
 30
0.0
  0
POINT
  5
1C71
330
188D
100
AcDbEntity
  8
DEFPOINTS
 62
     0
100
AcDbPoint
 10
3567.336863360877
 20
-1835.137866183773
 30
0.0
  0
ENDBLK
  5
189A
330
188D
100
AcDbEntity
  8
0
100
AcDbBlockEnd
  0
BLOCK
  5
18A7
330
189B
100
AcDbEntity
  8
0
100
AcDbBlockBegin
  2
*D58
 70
     1
 10
0.0
 20
0.0
 30
0.0
  3
*D58
  1

  0
LINE
  5
1C8E
330
189B
100
AcDbEntity
  8
SIZE
 62
     0
100
AcDbLine
 10
4124.958633043898
 20
-1885.137866183773
 30
0.0
 11
4124.958633043898
 21
-1730.733159687312
 31
0.0
  0
LINE
  5
1C8F
330
189B
100
AcDbEntity
  8
SIZE
 62
     0
100
AcDbLine
 10
4289.958633043897
 20
-1885.137866183773
 30
0.0
 11
4289.958633043897
 21
-1730.733159687312
 31
0.0
  0
LINE
  5
1C90
330
189B
100
AcDbEntity
  8
SIZE
 62
     0
100
AcDbLine
 10
4114.958633043897
 20
-1750.733159687311
 30
0.0
 11
4104.958633043898
 21
-1750.733159687311
 31
0.0
  0
LINE
  5
1C91
330
189B
100
AcDbEntity
  8
SIZE
 62
     0
100
AcDbLine
 10
4299.958633043898
 20
-1750.733159687311
 30
0.0
 11
4309.958633043898
 21
-1750.733159687311
 31
0.0
  0
LINE
  5
1C92
330
189B
100
AcDbEntity
  8
SIZE
 62
     0
100
AcDbLine
 10
4124.958633043898
 20
-1750.733159687311
 30
0.0
 11
4289.958633043897
 21
-1750.733159687311
 31
0.0
  0
INSERT
  5
1C93
330
189B
100
AcDbEntity
  8
SIZE
 62
     0
100
AcDbBlockReference
  2
_ORIGIN
 10
4124.958633043898
 20
-1750.733159687311
 30
0.0
 41
10.0
 42
10.0
 43
10.0
  0
INSERT
  5
1C94
330
189B
100
AcDbEntity
  8
SIZE
 62
     0
100
AcDbBlockReference
  2
_ORIGIN
 10
4289.958633043897
 20
-1750.733159687311
 30
0.0
 41
10.0
 42
10.0
 43
10.0
 50
180.0
  0
MTEXT
  5
1C95
330
189B
100
AcDbEntity
  8
SIZE
 62
     0
100
AcDbMText
 10
4207.458633043898
 20
-1708.733159687312
 30
0.0
 40
64.0
 41
0.0
 71
     5
 72
     1
  1
\A1;165
1001
ACAD
1000
MTEXTBEGIN
1070
    73
1070
     1
1070
    44
1040
1.0
1070
    74
1070
     0
1000
MTEXTEND
  0
POINT
  5
1C96
330
189B
100
AcDbEntity
  8
DEFPOINTS
 62
     0
100
AcDbPoint
 10
4124.958633043898
 20
-1905.137866183773
 30
0.0
  0
POINT
  5
1C97
330
189B
100
AcDbEntity
  8
DEFPOINTS
 62
     0
100
AcDbPoint
 10
4289.958633043897
 20
-1905.137866183773
 30
0.0
  0
POINT
  5
1C98
330
189B
100
AcDbEntity
  8
DEFPOINTS
 62
     0
100
AcDbPoint
 10
4289.958633043897
 20
-1750.733159687311
 30
0.0
  0
ENDBLK
  5
18A8
330
189B
100
AcDbEntity
  8
0
100
AcDbBlockEnd
  0
BLOCK
  5
18B4
330
18A9
100
AcDbEntity
  8
0
100
AcDbBlockBegin
  2
*D59
 70
     1
 10
0.0
 20
0.0
 30
0.0
  3
*D59
  1

  0
LINE
  5
1C84
330
18A9
100
AcDbEntity
  8
SIZE
 62
     0
100
AcDbLine
 10
4124.958633043898
 20
-1885.137866183773
 30
0.0
 11
4124.958633043898
 21
-1730.733159687312
 31
0.0
  0
LINE
  5
1C85
330
18A9
100
AcDbEntity
  8
SIZE
 62
     0
100
AcDbLine
 10
4066.958633043898
 20
-1886.637866183773
 30
0.0
 11
4066.958633043898
 21
-1730.733159687312
 31
0.0
  0
LINE
  5
1C86
330
18A9
100
AcDbEntity
  8
SIZE
 62
     0
100
AcDbLine
 10
4114.958633043897
 20
-1750.733159687311
 30
0.0
 11
4076.958633043897
 21
-1750.733159687311
 31
0.0
  0
LINE
  5
1C87
330
18A9
100
AcDbEntity
  8
SIZE
 62
     0
100
AcDbLine
 10
4066.958633043898
 20
-1750.733159687311
 30
0.0
 11
3943.701490186755
 21
-1750.733159687311
 31
0.0
  0
INSERT
  5
1C88
330
18A9
100
AcDbEntity
  8
SIZE
 62
     0
100
AcDbBlockReference
  2
_ORIGIN
 10
4124.958633043898
 20
-1750.733159687311
 30
0.0
 41
10.0
 42
10.0
 43
10.0
  0
INSERT
  5
1C89
330
18A9
100
AcDbEntity
  8
SIZE
 62
     0
100
AcDbBlockReference
  2
_ORIGIN
 10
4066.958633043898
 20
-1750.733159687311
 30
0.0
 41
10.0
 42
10.0
 43
10.0
 50
180.0
  0
MTEXT
  5
1C8A
330
18A9
100
AcDbEntity
  8
SIZE
 62
     0
100
AcDbMText
 10
4000.330061615327
 20
-1708.733159687312
 30
0.0
 40
64.0
 41
0.0
 71
     5
 72
     1
  1
\A1;58
1001
ACAD
1000
MTEXTBEGIN
1070
    73
1070
     1
1070
    44
1040
1.0
1070
    74
1070
     0
1000
MTEXTEND
  0
POINT
  5
1C8B
330
18A9
100
AcDbEntity
  8
DEFPOINTS
 62
     0
100
AcDbPoint
 10
4124.958633043898
 20
-1905.137866183773
 30
0.0
  0
POINT
  5
1C8C
330
18A9
100
AcDbEntity
  8
DEFPOINTS
 62
     0
100
AcDbPoint
 10
4066.958633043898
 20
-1906.637866183773
 30
0.0
  0
POINT
  5
1C8D
330
18A9
100
AcDbEntity
  8
DEFPOINTS
 62
     0
100
AcDbPoint
 10
4066.958633043898
 20
-1750.733159687311
 30
0.0
  0
ENDBLK
  5
18B5
330
18A9
100
AcDbEntity
  8
0
100
AcDbBlockEnd
  0
BLOCK
  5
18C2
330
18B6
100
AcDbEntity
  8
0
100
AcDbBlockBegin
  2
*D60
 70
     1
 10
0.0
 20
0.0
 30
0.0
  3
*D60
  1

  0
LINE
  5
1C99
330
18B6
100
AcDbEntity
  8
SIZE
 62
     0
100
AcDbLine
 10
4006.958633043898
 20
-1916.137866183773
 30
0.0
 11
4006.958633043898
 21
-1623.657096374889
 31
0.0
  0
LINE
  5
1C9A
330
18B6
100
AcDbEntity
  8
SIZE
 62
     0
100
AcDbLine
 10
4124.958633043898
 20
-1885.137866183773
 30
0.0
 11
4124.958633043898
 21
-1623.657096374889
 31
0.0
  0
LINE
  5
1C9B
330
18B6
100
AcDbEntity
  8
SIZE
 62
     0
100
AcDbLine
 10
3996.958633043897
 20
-1643.657096374889
 30
0.0
 11
3986.958633043897
 21
-1643.657096374889
 31
0.0
  0
LINE
  5
1C9C
330
18B6
100
AcDbEntity
  8
SIZE
 62
     0
100
AcDbLine
 10
4134.958633043898
 20
-1643.657096374889
 30
0.0
 11
4144.958633043898
 21
-1643.657096374889
 31
0.0
  0
LINE
  5
1C9D
330
18B6
100
AcDbEntity
  8
SIZE
 62
     0
100
AcDbLine
 10
4006.958633043898
 20
-1643.657096374889
 30
0.0
 11
4124.958633043898
 21
-1643.657096374889
 31
0.0
  0
INSERT
  5
1C9E
330
18B6
100
AcDbEntity
  8
SIZE
 62
     0
100
AcDbBlockReference
  2
_ORIGIN
 10
4006.958633043898
 20
-1643.657096374889
 30
0.0
 41
10.0
 42
10.0
 43
10.0
  0
INSERT
  5
1C9F
330
18B6
100
AcDbEntity
  8
SIZE
 62
     0
100
AcDbBlockReference
  2
_ORIGIN
 10
4124.958633043898
 20
-1643.657096374889
 30
0.0
 41
10.0
 42
10.0
 43
10.0
 50
180.0
  0
MTEXT
  5
1CA0
330
18B6
100
AcDbEntity
  8
SIZE
 62
     0
100
AcDbMText
 10
4065.958633043897
 20
-1601.657096374889
 30
0.0
 40
64.0
 41
0.0
 71
     5
 72
     1
  1
\A1;118
1001
ACAD
1000
MTEXTBEGIN
1070
    73
1070
     1
1070
    44
1040
1.0
1070
    74
1070
     0
1000
MTEXTEND
  0
POINT
  5
1CA1
330
18B6
100
AcDbEntity
  8
DEFPOINTS
 62
     0
100
AcDbPoint
 10
4006.958633043898
 20
-1936.137866183773
 30
0.0
  0
POINT
  5
1CA2
330
18B6
100
AcDbEntity
  8
DEFPOINTS
 62
     0
100
AcDbPoint
 10
4124.958633043898
 20
-1905.137866183773
 30
0.0
  0
POINT
  5
1CA3
330
18B6
100
AcDbEntity
  8
DEFPOINTS
 62
     0
100
AcDbPoint
 10
4124.958633043898
 20
-1643.657096374889
 30
0.0
  0
ENDBLK
  5
18C3
330
18B6
100
AcDbEntity
  8
0
100
AcDbBlockEnd
  0
BLOCK
  5
18CE
330
18C4
100
AcDbEntity
  8
0
100
AcDbBlockBegin
  2
*D61
 70
     1
 10
0.0
 20
0.0
 30
0.0
  3
*D61
  1

  0
LINE
  5
1C5E
330
18C4
100
AcDbEntity
  8
SIZE
 62
     0
100
AcDbLine
 10
4584.958633043898
 20
-1815.137866183773
 30
0.0
 11
4584.958633043898
 21
-1728.921237993119
 31
0.0
  0
LINE
  5
1C5F
330
18C4
100
AcDbEntity
  8
SIZE
 62
     0
100
AcDbLine
 10
4329.958633043897
 20
-1815.137866183773
 30
0.0
 11
4329.958633043897
 21
-1728.921237993119
 31
0.0
  0
LINE
  5
1C60
330
18C4
100
AcDbEntity
  8
SIZE
 62
     0
100
AcDbLine
 10
4574.958633043897
 20
-1748.921237993119
 30
0.0
 11
4339.958633043898
 21
-1748.921237993119
 31
0.0
  0
INSERT
  5
1C61
330
18C4
100
AcDbEntity
  8
SIZE
 62
     0
100
AcDbBlockReference
  2
_ORIGIN
 10
4584.958633043898
 20
-1748.921237993119
 30
0.0
 41
10.0
 42
10.0
 43
10.0
  0
INSERT
  5
1C62
330
18C4
100
AcDbEntity
  8
SIZE
 62
     0
100
AcDbBlockReference
  2
_ORIGIN
 10
4329.958633043897
 20
-1748.921237993119
 30
0.0
 41
10.0
 42
10.0
 43
10.0
 50
180.0
  0
MTEXT
  5
1C63
330
18C4
100
AcDbEntity
  8
SIZE
 62
     0
100
AcDbMText
 10
4457.458633043898
 20
-1706.921237993119
 30
0.0
 40
64.0
 41
0.0
 71
     5
 72
     1
  1
\A1;255
1001
ACAD
1000
MTEXTBEGIN
1070
    73
1070
     1
1070
    44
1040
1.0
1070
    74
1070
     0
1000
MTEXTEND
  0
POINT
  5
1C64
330
18C4
100
AcDbEntity
  8
DEFPOINTS
 62
     0
100
AcDbPoint
 10
4584.958633043898
 20
-1835.137866183773
 30
0.0
  0
POINT
  5
1C65
330
18C4
100
AcDbEntity
  8
DEFPOINTS
 62
     0
100
AcDbPoint
 10
4329.958633043897
 20
-1835.137866183773
 30
0.0
  0
POINT
  5
1C66
330
18C4
100
AcDbEntity
  8
DEFPOINTS
 62
     0
100
AcDbPoint
 10
4329.958633043897
 20
-1748.921237993119
 30
0.0
  0
ENDBLK
  5
18CF
330
18C4
100
AcDbEntity
  8
0
100
AcDbBlockEnd
  0
BLOCK
  5
1902
330
18F8
100
AcDbEntity
  8
0
100
AcDbBlockBegin
  2
*D62
 70
     1
 10
0.0
 20
0.0
 30
0.0
  3
*D62
  1

  0
LINE
  5
1C4C
330
18F8
100
AcDbEntity
  8
SIZE
 62
     0
100
AcDbLine
 10
4584.958633043898
 20
-1815.137866183773
 30
0.0
 11
4584.958633043898
 21
-1623.657096374889
 31
0.0
  0
LINE
  5
1C4D
330
18F8
100
AcDbEntity
  8
SIZE
 62
     0
100
AcDbLine
 10
4124.958633043898
 20
-1885.137866183773
 30
0.0
 11
4124.958633043898
 21
-1623.657096374889
 31
0.0
  0
LINE
  5
1C4E
330
18F8
100
AcDbEntity
  8
SIZE
 62
     0
100
AcDbLine
 10
4574.958633043897
 20
-1643.657096374889
 30
0.0
 11
4134.958633043898
 21
-1643.657096374889
 31
0.0
  0
INSERT
  5
1C4F
330
18F8
100
AcDbEntity
  8
SIZE
 62
     0
100
AcDbBlockReference
  2
_ORIGIN
 10
4584.958633043898
 20
-1643.657096374889
 30
0.0
 41
10.0
 42
10.0
 43
10.0
  0
INSERT
  5
1C50
330
18F8
100
AcDbEntity
  8
SIZE
 62
     0
100
AcDbBlockReference
  2
_ORIGIN
 10
4124.958633043898
 20
-1643.657096374889
 30
0.0
 41
10.0
 42
10.0
 43
10.0
 50
180.0
  0
MTEXT
  5
1C51
330
18F8
100
AcDbEntity
  8
SIZE
 62
     0
100
AcDbMText
 10
4354.958633043898
 20
-1601.657096374889
 30
0.0
 40
64.0
 41
0.0
 71
     5
 72
     1
  1
\A1;460
1001
ACAD
1000
MTEXTBEGIN
1070
    73
1070
     1
1070
    44
1040
1.0
1070
    74
1070
     0
1000
MTEXTEND
  0
POINT
  5
1C52
330
18F8
100
AcDbEntity
  8
DEFPOINTS
 62
     0
100
AcDbPoint
 10
4584.958633043898
 20
-1835.137866183773
 30
0.0
  0
POINT
  5
1C53
330
18F8
100
AcDbEntity
  8
DEFPOINTS
 62
     0
100
AcDbPoint
 10
4124.958633043898
 20
-1905.137866183773
 30
0.0
  0
POINT
  5
1C54
330
18F8
100
AcDbEntity
  8
DEFPOINTS
 62
     0
100
AcDbPoint
 10
4124.958633043898
 20
-1643.657096374889
 30
0.0
  0
ENDBLK
  5
1903
330
18F8
100
AcDbEntity
  8
0
100
AcDbBlockEnd
  0
BLOCK
  5
190E
330
1904
100
AcDbEntity
  8
0
100
AcDbBlockBegin
  2
*D63
 70
     1
 10
0.0
 20
0.0
 30
0.0
  3
*D63
  1

  0
LINE
  5
1D23
330
1904
100
AcDbEntity
  8
SIZE
 62
     0
100
AcDbLine
 10
4604.958633043898
 20
-2118.137866183773
 30
0.0
 11
4869.788333438663
 21
-2118.137866183773
 31
0.0
  0
LINE
  5
1D24
330
1904
100
AcDbEntity
  8
SIZE
 62
     0
100
AcDbLine
 10
4644.958633043898
 20
-1931.137866183773
 30
0.0
 11
4869.788333438664
 21
-1931.137866183773
 31
0.0
  0
LINE
  5
1D25
330
1904
100
AcDbEntity
  8
SIZE
 62
     0
100
AcDbLine
 10
4849.788333438663
 20
-2108.137866183773
 30
0.0
 11
4849.788333438664
 21
-1941.137866183773
 31
0.0
  0
INSERT
  5
1D26
330
1904
100
AcDbEntity
  8
SIZE
 62
     0
100
AcDbBlockReference
  2
_ORIGIN
 10
4849.788333438663
 20
-2118.137866183773
 30
0.0
 41
10.0
 42
10.0
 43
10.0
 50
270.0
  0
INSERT
  5
1D27
330
1904
100
AcDbEntity
  8
SIZE
 62
     0
100
AcDbBlockReference
  2
_ORIGIN
 10
4849.788333438664
 20
-1931.137866183773
 30
0.0
 41
10.0
 42
10.0
 43
10.0
 50
90.0
  0
MTEXT
  5
1D28
330
1904
100
AcDbEntity
  8
SIZE
 62
     0
100
AcDbMText
 10
4807.788333438664
 20
-2024.637866183773
 30
0.0
 40
64.0
 41
0.0
 71
     5
 72
     1
  1
\A1;187
 11
0.0000000000000001
 21
1.0
 31
0.0
1001
ACAD
1000
MTEXTBEGIN
1070
    73
1070
     1
1070
    44
1040
1.0
1070
    74
1070
     0
1000
MTEXTEND
  0
POINT
  5
1D29
330
1904
100
AcDbEntity
  8
DEFPOINTS
 62
     0
100
AcDbPoint
 10
4584.958633043898
 20
-2118.137866183773
 30
0.0
  0
POINT
  5
1D2A
330
1904
100
AcDbEntity
  8
DEFPOINTS
 62
     0
100
AcDbPoint
 10
4624.958633043898
 20
-1931.137866183773
 30
0.0
  0
POINT
  5
1D2B
330
1904
100
AcDbEntity
  8
DEFPOINTS
 62
     0
100
AcDbPoint
 10
4849.788333438664
 20
-1931.137866183773
 30
0.0
  0
ENDBLK
  5
190F
330
1904
100
AcDbEntity
  8
0
100
AcDbBlockEnd
  0
BLOCK
  5
1943
330
1938
100
AcDbEntity
  8
0
100
AcDbBlockBegin
  2
*D64
 70
     1
 10
0.0
 20
0.0
 30
0.0
  3
*D64
  1

  0
LINE
  5
1CD2
330
1938
100
AcDbEntity
  8
SIZE
 62
     0
100
AcDbLine
 10
4664.958633043897
 20
-1976.137866183773
 30
0.0
 11
4770.273731076253
 21
-1976.137866183773
 31
0.0
  0
LINE
  5
1CD3
330
1938
100
AcDbEntity
  8
SIZE
 62
     0
100
AcDbLine
 10
4664.958633043897
 20
-1870.137866183773
 30
0.0
 11
4770.273731076253
 21
-1870.137866183773
 31
0.0
  0
LINE
  5
1CD4
330
1938
100
AcDbEntity
  8
SIZE
 62
     0
100
AcDbLine
 10
4750.273731076253
 20
-1966.137866183773
 30
0.0
 11
4750.273731076253
 21
-1880.137866183773
 31
0.0
  0
LINE
  5
1CD5
330
1938
100
AcDbEntity
  8
SIZE
 62
     0
100
AcDbLine
 10
4750.273731076253
 20
-1870.137866183773
 30
0.0
 11
4750.273731076253
 21
-1653.623580469487
 31
0.0
  0
INSERT
  5
1CD6
330
1938
100
AcDbEntity
  8
SIZE
 62
     0
100
AcDbBlockReference
  2
_ORIGIN
 10
4750.273731076253
 20
-1976.137866183773
 30
0.0
 41
10.0
 42
10.0
 43
10.0
 50
270.0
  0
INSERT
  5
1CD7
330
1938
100
AcDbEntity
  8
SIZE
 62
     0
100
AcDbBlockReference
  2
_ORIGIN
 10
4750.273731076253
 20
-1870.137866183773
 30
0.0
 41
10.0
 42
10.0
 43
10.0
 50
90.0
  0
MTEXT
  5
1CD8
330
1938
100
AcDbEntity
  8
SIZE
 62
     0
100
AcDbMText
 10
4708.273731076253
 20
-1756.880723326629
 30
0.0
 40
64.0
 41
0.0
 71
     5
 72
     1
  1
\A1;%%c106
 11
0.0000000000000001
 21
1.0
 31
0.0
1001
ACAD
1000
MTEXTBEGIN
1070
    73
1070
     1
1070
    44
1040
1.0
1070
    74
1070
     0
1000
MTEXTEND
  0
POINT
  5
1CD9
330
1938
100
AcDbEntity
  8
DEFPOINTS
 62
     0
100
AcDbPoint
 10
4644.958633043898
 20
-1976.137866183773
 30
0.0
  0
POINT
  5
1CDA
330
1938
100
AcDbEntity
  8
DEFPOINTS
 62
     0
100
AcDbPoint
 10
4644.958633043898
 20
-1870.137866183773
 30
0.0
  0
POINT
  5
1CDB
330
1938
100
AcDbEntity
  8
DEFPOINTS
 62
     0
100
AcDbPoint
 10
4750.273731076253
 20
-1870.137866183773
 30
0.0
  0
ENDBLK
  5
1944
330
1938
100
AcDbEntity
  8
0
100
AcDbBlockEnd
  0
BLOCK
  5
195A
330
194E
100
AcDbEntity
  8
0
100
AcDbBlockBegin
  2
*D65
 70
     1
 10
0.0
 20
0.0
 30
0.0
  3
*D65
  1

  0
LINE
  5
1D0D
330
194E
100
AcDbEntity
  8
SIZE
 62
     0
100
AcDbLine
 10
4584.958633043898
 20
-1815.137866183773
 30
0.0
 11
4584.958633043898
 21
-1728.921237993119
 31
0.0
  0
LINE
  5
1D0E
330
194E
100
AcDbEntity
  8
SIZE
 62
     0
100
AcDbLine
 10
4644.958633043898
 20
-1850.137866183773
 30
0.0
 11
4644.958633043898
 21
-1728.921237993119
 31
0.0
  0
LINE
  5
1D0F
330
194E
100
AcDbEntity
  8
SIZE
 62
     0
100
AcDbLine
 10
4574.958633043897
 20
-1748.921237993119
 30
0.0
 11
4564.958633043898
 21
-1748.921237993119
 31
0.0
  0
LINE
  5
1D10
330
194E
100
AcDbEntity
  8
SIZE
 62
     0
100
AcDbLine
 10
4654.958633043897
 20
-1748.921237993119
 30
0.0
 11
4664.958633043897
 21
-1748.921237993119
 31
0.0
  0
LINE
  5
1D11
330
194E
100
AcDbEntity
  8
SIZE
 62
     0
100
AcDbLine
 10
4584.958633043898
 20
-1748.921237993119
 30
0.0
 11
4644.958633043898
 21
-1748.921237993119
 31
0.0
  0
INSERT
  5
1D12
330
194E
100
AcDbEntity
  8
SIZE
 62
     0
100
AcDbBlockReference
  2
_ORIGIN
 10
4584.958633043898
 20
-1748.921237993119
 30
0.0
 41
10.0
 42
10.0
 43
10.0
  0
INSERT
  5
1D13
330
194E
100
AcDbEntity
  8
SIZE
 62
     0
100
AcDbBlockReference
  2
_ORIGIN
 10
4644.958633043898
 20
-1748.921237993119
 30
0.0
 41
10.0
 42
10.0
 43
10.0
 50
180.0
  0
MTEXT
  5
1D14
330
194E
100
AcDbEntity
  8
SIZE
 62
     0
100
AcDbMText
 10
4614.958633043897
 20
-1706.921237993119
 30
0.0
 40
64.0
 41
0.0
 71
     5
 72
     1
  1
\A1;60
1001
ACAD
1000
MTEXTBEGIN
1070
    73
1070
     1
1070
    44
1040
1.0
1070
    74
1070
     0
1000
MTEXTEND
  0
POINT
  5
1D15
330
194E
100
AcDbEntity
  8
DEFPOINTS
 62
     0
100
AcDbPoint
 10
4584.958633043898
 20
-1835.137866183773
 30
0.0
  0
POINT
  5
1D16
330
194E
100
AcDbEntity
  8
DEFPOINTS
 62
     0
100
AcDbPoint
 10
4644.958633043898
 20
-1870.137866183773
 30
0.0
  0
POINT
  5
1D17
330
194E
100
AcDbEntity
  8
DEFPOINTS
 62
     0
100
AcDbPoint
 10
4644.958633043898
 20
-1748.921237993119
 30
0.0
  0
ENDBLK
  5
195B
330
194E
100
AcDbEntity
  8
0
100
AcDbBlockEnd
  0
BLOCK
  5
1966
330
195C
100
AcDbEntity
  8
0
100
AcDbBlockBegin
  2
*D66
 70
     1
 10
0.0
 20
0.0
 30
0.0
  3
*D66
  1

  0
LINE
  5
1C55
330
195C
100
AcDbEntity
  8
SIZE
 62
     0
100
AcDbLine
 10
4104.958633043898
 20
-1901.10386905483
 30
0.0
 11
4104.958633043898
 21
-1518.207052350553
 31
0.0
  0
LINE
  5
1C56
330
195C
100
AcDbEntity
  8
SIZE
 62
     0
100
AcDbLine
 10
4604.958633043898
 20
-1901.10386905483
 30
0.0
 11
4604.958633043898
 21
-1518.207052350553
 31
0.0
  0
LINE
  5
1C57
330
195C
100
AcDbEntity
  8
SIZE
 62
     0
100
AcDbLine
 10
4114.958633043897
 20
-1538.207052350553
 30
0.0
 11
4594.958633043898
 21
-1538.207052350553
 31
0.0
  0
INSERT
  5
1C58
330
195C
100
AcDbEntity
  8
SIZE
 62
     0
100
AcDbBlockReference
  2
_ORIGIN
 10
4104.958633043898
 20
-1538.207052350553
 30
0.0
 41
10.0
 42
10.0
 43
10.0
 50
180.0
  0
INSERT
  5
1C59
330
195C
100
AcDbEntity
  8
SIZE
 62
     0
100
AcDbBlockReference
  2
_ORIGIN
 10
4604.958633043898
 20
-1538.207052350553
 30
0.0
 41
10.0
 42
10.0
 43
10.0
  0
MTEXT
  5
1C5A
330
195C
100
AcDbEntity
  8
SIZE
 62
     0
100
AcDbMText
 10
4354.958633043898
 20
-1496.207052350553
 30
0.0
 40
64.0
 41
0.0
 71
     5
 72
     1
  1
\A1;500
1001
ACAD
1000
MTEXTBEGIN
1070
    73
1070
     1
1070
    44
1040
1.0
1070
    74
1070
     0
1000
MTEXTEND
  0
POINT
  5
1C5B
330
195C
100
AcDbEntity
  8
DEFPOINTS
 62
     0
100
AcDbPoint
 10
4104.958633043898
 20
-1921.10386905483
 30
0.0
  0
POINT
  5
1C5C
330
195C
100
AcDbEntity
  8
DEFPOINTS
 62
     0
100
AcDbPoint
 10
4604.958633043898
 20
-1921.10386905483
 30
0.0
  0
POINT
  5
1C5D
330
195C
100
AcDbEntity
  8
DEFPOINTS
 62
     0
100
AcDbPoint
 10
4604.958633043898
 20
-1538.207052350553
 30
0.0
  0
ENDBLK
  5
1967
330
195C
100
AcDbEntity
  8
0
100
AcDbBlockEnd
  0
BLOCK
  5
1972
330
1968
100
AcDbEntity
  8
0
100
AcDbBlockBegin
  2
*D67
 70
     1
 10
0.0
 20
0.0
 30
0.0
  3
*D67
  1

  0
LINE
  5
1C2F
330
1968
100
AcDbEntity
  8
SIZE
 62
     0
100
AcDbLine
 10
4084.958633043898
 20
-1907.937866183773
 30
0.0
 11
4084.958633043898
 21
-1404.251688353375
 31
0.0
  0
LINE
  5
1C30
330
1968
100
AcDbEntity
  8
SIZE
 62
     0
100
AcDbLine
 10
4624.958633043898
 20
-1907.937866183773
 30
0.0
 11
4624.958633043898
 21
-1404.251688353375
 31
0.0
  0
LINE
  5
1C31
330
1968
100
AcDbEntity
  8
SIZE
 62
     0
100
AcDbLine
 10
4094.958633043898
 20
-1424.251688353375
 30
0.0
 11
4614.958633043897
 21
-1424.251688353375
 31
0.0
  0
INSERT
  5
1C32
330
1968
100
AcDbEntity
  8
SIZE
 62
     0
100
AcDbBlockReference
  2
_ORIGIN
 10
4084.958633043898
 20
-1424.251688353375
 30
0.0
 41
10.0
 42
10.0
 43
10.0
 50
180.0
  0
INSERT
  5
1C33
330
1968
100
AcDbEntity
  8
SIZE
 62
     0
100
AcDbBlockReference
  2
_ORIGIN
 10
4624.958633043898
 20
-1424.251688353375
 30
0.0
 41
10.0
 42
10.0
 43
10.0
  0
MTEXT
  5
1C34
330
1968
100
AcDbEntity
  8
SIZE
 62
     0
100
AcDbMText
 10
4354.958633043898
 20
-1382.251688353375
 30
0.0
 40
64.0
 41
0.0
 71
     5
 72
     1
  1
\A1;540
1001
ACAD
1000
MTEXTBEGIN
1070
    73
1070
     1
1070
    44
1040
1.0
1070
    74
1070
     0
1000
MTEXTEND
  0
POINT
  5
1C35
330
1968
100
AcDbEntity
  8
DEFPOINTS
 62
     0
100
AcDbPoint
 10
4084.958633043898
 20
-1927.937866183773
 30
0.0
  0
POINT
  5
1C36
330
1968
100
AcDbEntity
  8
DEFPOINTS
 62
     0
100
AcDbPoint
 10
4624.958633043898
 20
-1927.937866183773
 30
0.0
  0
POINT
  5
1C37
330
1968
100
AcDbEntity
  8
DEFPOINTS
 62
     0
100
AcDbPoint
 10
4624.958633043898
 20
-1424.251688353375
 30
0.0
  0
ENDBLK
  5
1973
330
1968
100
AcDbEntity
  8
0
100
AcDbBlockEnd
  0
BLOCK
  5
1DB0
330
1DA6
100
AcDbEntity
  8
0
100
AcDbBlockBegin
  2
*D68
 70
     1
 10
0.0
 20
0.0
 30
0.0
  3
*D68
  1

  0
LINE
  5
1FFB
330
1DA6
100
AcDbEntity
  8
SIZE
 62
     0
100
AcDbLine
 10
-1907.46782020021
 20
-1897.245551136506
 30
0.0
 11
-1907.46782020021
 21
-1644.4791155036
 31
0.0
  0
LINE
  5
1FFC
330
1DA6
100
AcDbEntity
  8
SIZE
 62
     0
100
AcDbLine
 10
-2197.46782020021
 20
-1897.245551136506
 30
0.0
 11
-2197.46782020021
 21
-1644.4791155036
 31
0.0
  0
LINE
  5
1FFD
330
1DA6
100
AcDbEntity
  8
SIZE
 62
     0
100
AcDbLine
 10
-1917.46782020021
 20
-1664.4791155036
 30
0.0
 11
-2187.46782020021
 21
-1664.4791155036
 31
0.0
  0
INSERT
  5
1FFE
330
1DA6
100
AcDbEntity
  8
SIZE
 62
     0
100
AcDbBlockReference
  2
_ORIGIN
 10
-1907.46782020021
 20
-1664.4791155036
 30
0.0
 41
10.0
 42
10.0
 43
10.0
  0
INSERT
  5
1FFF
330
1DA6
100
AcDbEntity
  8
SIZE
 62
     0
100
AcDbBlockReference
  2
_ORIGIN
 10
-2197.46782020021
 20
-1664.4791155036
 30
0.0
 41
10.0
 42
10.0
 43
10.0
 50
180.0
  0
MTEXT
  5
2000
330
1DA6
100
AcDbEntity
  8
SIZE
 62
     0
100
AcDbMText
 10
-2052.46782020021
 20
-1622.4791155036
 30
0.0
 40
64.0
 41
0.0
 71
     5
 72
     1
  1
\A1;290
1001
ACAD
1000
MTEXTBEGIN
1070
    73
1070
     1
1070
    44
1040
1.0
1070
    74
1070
     0
1000
MTEXTEND
  0
POINT
  5
2001
330
1DA6
100
AcDbEntity
  8
DEFPOINTS
 62
     0
100
AcDbPoint
 10
-1907.46782020021
 20
-1917.245551136506
 30
0.0
  0
POINT
  5
2002
330
1DA6
100
AcDbEntity
  8
DEFPOINTS
 62
     0
100
AcDbPoint
 10
-2197.46782020021
 20
-1917.245551136506
 30
0.0
  0
POINT
  5
2003
330
1DA6
100
AcDbEntity
  8
DEFPOINTS
 62
     0
100
AcDbPoint
 10
-2197.46782020021
 20
-1664.4791155036
 30
0.0
  0
ENDBLK
  5
1DB1
330
1DA6
100
AcDbEntity
  8
0
100
AcDbBlockEnd
  0
BLOCK
  5
1DBC
330
1DB2
100
AcDbEntity
  8
0
100
AcDbBlockBegin
  2
*D69
 70
     1
 10
0.0
 20
0.0
 30
0.0
  3
*D69
  1

  0
LINE
  5
1FF2
330
1DB2
100
AcDbEntity
  8
SIZE
 62
     0
100
AcDbLine
 10
-1836.46782020021
 20
-1815.137866183773
 30
0.0
 11
-1836.46782020021
 21
-1531.901571709611
 31
0.0
  0
LINE
  5
1FF3
330
1DB2
100
AcDbEntity
  8
SIZE
 62
     0
100
AcDbLine
 10
-2268.46782020021
 20
-1815.137866183773
 30
0.0
 11
-2268.46782020021
 21
-1531.901571709611
 31
0.0
  0
LINE
  5
1FF4
330
1DB2
100
AcDbEntity
  8
SIZE
 62
     0
100
AcDbLine
 10
-1846.46782020021
 20
-1551.901571709611
 30
0.0
 11
-2258.46782020021
 21
-1551.901571709611
 31
0.0
  0
INSERT
  5
1FF5
330
1DB2
100
AcDbEntity
  8
SIZE
 62
     0
100
AcDbBlockReference
  2
_ORIGIN
 10
-1836.46782020021
 20
-1551.901571709611
 30
0.0
 41
10.0
 42
10.0
 43
10.0
  0
INSERT
  5
1FF6
330
1DB2
100
AcDbEntity
  8
SIZE
 62
     0
100
AcDbBlockReference
  2
_ORIGIN
 10
-2268.46782020021
 20
-1551.901571709611
 30
0.0
 41
10.0
 42
10.0
 43
10.0
 50
180.0
  0
MTEXT
  5
1FF7
330
1DB2
100
AcDbEntity
  8
SIZE
 62
     0
100
AcDbMText
 10
-2052.46782020021
 20
-1509.901571709611
 30
0.0
 40
64.0
 41
0.0
 71
     5
 72
     1
  1
\A1;432
1001
ACAD
1000
MTEXTBEGIN
1070
    73
1070
     1
1070
    44
1040
1.0
1070
    74
1070
     0
1000
MTEXTEND
  0
POINT
  5
1FF8
330
1DB2
100
AcDbEntity
  8
DEFPOINTS
 62
     0
100
AcDbPoint
 10
-1836.46782020021
 20
-1835.137866183773
 30
0.0
  0
POINT
  5
1FF9
330
1DB2
100
AcDbEntity
  8
DEFPOINTS
 62
     0
100
AcDbPoint
 10
-2268.46782020021
 20
-1835.137866183773
 30
0.0
  0
POINT
  5
1FFA
330
1DB2
100
AcDbEntity
  8
DEFPOINTS
 62
     0
100
AcDbPoint
 10
-2268.46782020021
 20
-1551.901571709611
 30
0.0
  0
ENDBLK
  5
1DBD
330
1DB2
100
AcDbEntity
  8
0
100
AcDbBlockEnd
  0
BLOCK
  5
1DCA
330
1DBE
100
AcDbEntity
  8
0
100
AcDbBlockBegin
  2
*D70
 70
     1
 10
0.0
 20
0.0
 30
0.0
  3
*D70
  1

  0
LINE
  5
203C
330
1DBE
100
AcDbEntity
  8
SIZE
 62
     0
100
AcDbLine
 10
-2149.830143586215
 20
-1923.137866183773
 30
0.0
 11
-2501.342232169453
 21
-1923.137866183773
 31
0.0
  0
LINE
  5
203D
330
1DBE
100
AcDbEntity
  8
SIZE
 62
     0
100
AcDbLine
 10
-2288.46782020021
 20
-2118.137866183773
 30
0.0
 11
-2501.342232169453
 21
-2118.137866183773
 31
0.0
  0
LINE
  5
203E
330
1DBE
100
AcDbEntity
  8
SIZE
 62
     0
100
AcDbLine
 10
-2481.342232169453
 20
-1933.137866183773
 30
0.0
 11
-2481.342232169453
 21
-2108.137866183773
 31
0.0
  0
INSERT
  5
203F
330
1DBE
100
AcDbEntity
  8
SIZE
 62
     0
100
AcDbBlockReference
  2
_ORIGIN
 10
-2481.342232169453
 20
-1923.137866183773
 30
0.0
 41
10.0
 42
10.0
 43
10.0
 50
90.0
  0
INSERT
  5
2040
330
1DBE
100
AcDbEntity
  8
SIZE
 62
     0
100
AcDbBlockReference
  2
_ORIGIN
 10
-2481.342232169453
 20
-2118.137866183773
 30
0.0
 41
10.0
 42
10.0
 43
10.0
 50
270.0
  0
MTEXT
  5
2041
330
1DBE
100
AcDbEntity
  8
SIZE
 62
     0
100
AcDbMText
 10
-2523.342232169452
 20
-2020.637866183773
 30
0.0
 40
64.0
 41
0.0
 71
     5
 72
     1
  1
\A1;195
 11
0.0000000000000001
 21
1.0
 31
0.0
1001
ACAD
1000
MTEXTBEGIN
1070
    73
1070
     1
1070
    44
1040
1.0
1070
    74
1070
     0
1000
MTEXTEND
  0
POINT
  5
2042
330
1DBE
100
AcDbEntity
  8
DEFPOINTS
 62
     0
100
AcDbPoint
 10
-2129.830143586215
 20
-1923.137866183773
 30
0.0
  0
POINT
  5
2043
330
1DBE
100
AcDbEntity
  8
DEFPOINTS
 62
     0
100
AcDbPoint
 10
-2268.46782020021
 20
-2118.137866183773
 30
0.0
  0
POINT
  5
2044
330
1DBE
100
AcDbEntity
  8
DEFPOINTS
 62
     0
100
AcDbPoint
 10
-2481.342232169453
 20
-2118.137866183773
 30
0.0
  0
ENDBLK
  5
1DCB
330
1DBE
100
AcDbEntity
  8
0
100
AcDbBlockEnd
  0
BLOCK
  5
1DD6
330
1DCC
100
AcDbEntity
  8
0
100
AcDbBlockBegin
  2
*D71
 70
     1
 10
0.0
 20
0.0
 30
0.0
  3
*D71
  1

  0
LINE
  5
2033
330
1DCC
100
AcDbEntity
  8
SIZE
 62
     0
100
AcDbLine
 10
-2288.46782020021
 20
-2118.137866183773
 30
0.0
 11
-2378.718322142908
 21
-2118.137866183773
 31
0.0
  0
LINE
  5
2034
330
1DCC
100
AcDbEntity
  8
SIZE
 62
     0
100
AcDbLine
 10
-2241.26782020021
 20
-1931.437866183772
 30
0.0
 11
-2378.718322142908
 21
-1931.437866183772
 31
0.0
  0
LINE
  5
2035
330
1DCC
100
AcDbEntity
  8
SIZE
 62
     0
100
AcDbLine
 10
-2358.718322142908
 20
-2108.137866183773
 30
0.0
 11
-2358.718322142908
 21
-1941.437866183772
 31
0.0
  0
INSERT
  5
2036
330
1DCC
100
AcDbEntity
  8
SIZE
 62
     0
100
AcDbBlockReference
  2
_ORIGIN
 10
-2358.718322142908
 20
-2118.137866183773
 30
0.0
 41
10.0
 42
10.0
 43
10.0
 50
270.0
  0
INSERT
  5
2037
330
1DCC
100
AcDbEntity
  8
SIZE
 62
     0
100
AcDbBlockReference
  2
_ORIGIN
 10
-2358.718322142908
 20
-1931.437866183772
 30
0.0
 41
10.0
 42
10.0
 43
10.0
 50
90.0
  0
MTEXT
  5
2038
330
1DCC
100
AcDbEntity
  8
SIZE
 62
     0
100
AcDbMText
 10
-2400.718322142907
 20
-2024.787866183773
 30
0.0
 40
64.0
 41
0.0
 71
     5
 72
     1
  1
\A1;187
 11
0.0000000000000001
 21
1.0
 31
0.0
1001
ACAD
1000
MTEXTBEGIN
1070
    73
1070
     1
1070
    44
1040
1.0
1070
    74
1070
     0
1000
MTEXTEND
  0
POINT
  5
2039
330
1DCC
100
AcDbEntity
  8
DEFPOINTS
 62
     0
100
AcDbPoint
 10
-2268.46782020021
 20
-2118.137866183773
 30
0.0
  0
POINT
  5
203A
330
1DCC
100
AcDbEntity
  8
DEFPOINTS
 62
     0
100
AcDbPoint
 10
-2221.26782020021
 20
-1931.437866183772
 30
0.0
  0
POINT
  5
203B
330
1DCC
100
AcDbEntity
  8
DEFPOINTS
 62
     0
100
AcDbPoint
 10
-2358.718322142908
 20
-1931.437866183772
 30
0.0
  0
ENDBLK
  5
1DD7
330
1DCC
100
AcDbEntity
  8
0
100
AcDbBlockEnd
  0
BLOCK
  5
1DE4
330
1DD8
100
AcDbEntity
  8
0
100
AcDbBlockBegin
  2
*D72
 70
     1
 10
0.0
 20
0.0
 30
0.0
  3
*D72
  1

  0
LINE
  5
1FAD
330
1DD8
100
AcDbEntity
  8
SIZE
 62
     0
100
AcDbLine
 10
-1816.46782020021
 20
-2118.137866183773
 30
0.0
 11
-1637.91792797872
 21
-2118.137866183773
 31
0.0
  0
LINE
  5
1FAE
330
1DD8
100
AcDbEntity
  8
SIZE
 62
     0
100
AcDbLine
 10
-1771.850843600543
 20
-2093.137866183773
 30
0.0
 11
-1637.91792797872
 21
-2093.137866183773
 31
0.0
  0
LINE
  5
1FAF
330
1DD8
100
AcDbEntity
  8
SIZE
 62
     0
100
AcDbLine
 10
-1657.91792797872
 20
-2128.137866183773
 30
0.0
 11
-1657.91792797872
 21
-2138.137866183773
 31
0.0
  0
LINE
  5
1FB0
330
1DD8
100
AcDbEntity
  8
SIZE
 62
     0
100
AcDbLine
 10
-1657.91792797872
 20
-2083.137866183773
 30
0.0
 11
-1657.91792797872
 21
-2073.137866183773
 31
0.0
  0
LINE
  5
1FB1
330
1DD8
100
AcDbEntity
  8
SIZE
 62
     0
100
AcDbLine
 10
-1657.91792797872
 20
-2118.137866183773
 30
0.0
 11
-1657.91792797872
 21
-2093.137866183773
 31
0.0
  0
INSERT
  5
1FB2
330
1DD8
100
AcDbEntity
  8
SIZE
 62
     0
100
AcDbBlockReference
  2
_ORIGIN
 10
-1657.91792797872
 20
-2118.137866183773
 30
0.0
 41
10.0
 42
10.0
 43
10.0
 50
90.0
  0
INSERT
  5
1FB3
330
1DD8
100
AcDbEntity
  8
SIZE
 62
     0
100
AcDbBlockReference
  2
_ORIGIN
 10
-1657.91792797872
 20
-2093.137866183773
 30
0.0
 41
10.0
 42
10.0
 43
10.0
 50
270.0
  0
MTEXT
  5
1FB4
330
1DD8
100
AcDbEntity
  8
SIZE
 62
     0
100
AcDbMText
 10
-1699.91792797872
 20
-2105.637866183774
 30
0.0
 40
64.0
 41
0.0
 71
     5
 72
     1
  1
\A1;25
 11
0.0000000000000001
 21
1.0
 31
0.0
1001
ACAD
1000
MTEXTBEGIN
1070
    73
1070
     1
1070
    44
1040
1.0
1070
    74
1070
     0
1000
MTEXTEND
  0
POINT
  5
1FB5
330
1DD8
100
AcDbEntity
  8
DEFPOINTS
 62
     0
100
AcDbPoint
 10
-1836.46782020021
 20
-2118.137866183773
 30
0.0
  0
POINT
  5
1FB6
330
1DD8
100
AcDbEntity
  8
DEFPOINTS
 62
     0
100
AcDbPoint
 10
-1791.850843600543
 20
-2093.137866183773
 30
0.0
  0
POINT
  5
1FB7
330
1DD8
100
AcDbEntity
  8
DEFPOINTS
 62
     0
100
AcDbPoint
 10
-1657.91792797872
 20
-2093.137866183773
 30
0.0
  0
ENDBLK
  5
1DE5
330
1DD8
100
AcDbEntity
  8
0
100
AcDbBlockEnd
  0
BLOCK
  5
1DF2
330
1DE6
100
AcDbEntity
  8
0
100
AcDbBlockBegin
  2
*D73
 70
     1
 10
0.0
 20
0.0
 30
0.0
  3
*D73
  1

  0
LINE
  5
255F
330
1DE6
100
AcDbEntity
  8
SIZE
 62
     0
100
AcDbLine
 10
-1816.46782020021
 20
-2118.137866183773
 30
0.0
 11
-1519.832301189526
 21
-2118.137866183773
 31
0.0
  0
LINE
  5
2560
330
1DE6
100
AcDbEntity
  8
SIZE
 62
     0
100
AcDbLine
 10
-1726.46782020021
 20
-1983.137866183773
 30
0.0
 11
-1519.832301189526
 21
-1983.137866183773
 31
0.0
  0
LINE
  5
2561
330
1DE6
100
AcDbEntity
  8
SIZE
 62
     0
100
AcDbLine
 10
-1539.832301189526
 20
-2108.137866183773
 30
0.0
 11
-1539.832301189526
 21
-1993.137866183773
 31
0.0
  0
INSERT
  5
2562
330
1DE6
100
AcDbEntity
  8
SIZE
 62
     0
100
AcDbBlockReference
  2
_ORIGIN
 10
-1539.832301189526
 20
-2118.137866183773
 30
0.0
 41
10.0
 42
10.0
 43
10.0
 50
270.0
  0
INSERT
  5
2563
330
1DE6
100
AcDbEntity
  8
SIZE
 62
     0
100
AcDbBlockReference
  2
_ORIGIN
 10
-1539.832301189526
 20
-1983.137866183773
 30
0.0
 41
10.0
 42
10.0
 43
10.0
 50
90.0
  0
MTEXT
  5
2564
330
1DE6
100
AcDbEntity
  8
SIZE
 62
     0
100
AcDbMText
 10
-1581.832301189526
 20
-2050.637866183774
 30
0.0
 40
64.0
 41
0.0
 71
     5
 72
     1
  1
\A1;135
 11
0.0000000000000001
 21
1.0
 31
0.0
1001
ACAD
1000
MTEXTBEGIN
1070
    73
1070
     1
1070
    44
1040
1.0
1070
    74
1070
     0
1000
MTEXTEND
  0
POINT
  5
2565
330
1DE6
100
AcDbEntity
  8
DEFPOINTS
 62
     0
100
AcDbPoint
 10
-1836.46782020021
 20
-2118.137866183773
 30
0.0
  0
POINT
  5
2566
330
1DE6
100
AcDbEntity
  8
DEFPOINTS
 62
     0
100
AcDbPoint
 10
-1746.46782020021
 20
-1983.137866183773
 30
0.0
  0
POINT
  5
2567
330
1DE6
100
AcDbEntity
  8
DEFPOINTS
 62
     0
100
AcDbPoint
 10
-1539.832301189526
 20
-1983.137866183773
 30
0.0
  0
ENDBLK
  5
1DF3
330
1DE6
100
AcDbEntity
  8
0
100
AcDbBlockEnd
  0
BLOCK
  5
1E0A
330
1E00
100
AcDbEntity
  8
0
100
AcDbBlockBegin
  2
*D74
 70
     1
 10
0.0
 20
0.0
 30
0.0
  3
*D74
  1

  0
LINE
  5
2045
330
1E00
100
AcDbEntity
  8
SIZE
 62
     0
100
AcDbLine
 10
-2288.46782020021
 20
-2118.137866183773
 30
0.0
 11
-2615.34248941431
 21
-2118.137866183773
 31
0.0
  0
LINE
  5
2046
330
1E00
100
AcDbEntity
  8
SIZE
 62
     0
100
AcDbLine
 10
-2288.46782020021
 20
-1835.137866183773
 30
0.0
 11
-2615.34248941431
 21
-1835.137866183773
 31
0.0
  0
LINE
  5
2047
330
1E00
100
AcDbEntity
  8
SIZE
 62
     0
100
AcDbLine
 10
-2595.34248941431
 20
-2108.137866183773
 30
0.0
 11
-2595.34248941431
 21
-1845.137866183773
 31
0.0
  0
INSERT
  5
2048
330
1E00
100
AcDbEntity
  8
SIZE
 62
     0
100
AcDbBlockReference
  2
_ORIGIN
 10
-2595.34248941431
 20
-2118.137866183773
 30
0.0
 41
10.0
 42
10.0
 43
10.0
 50
270.0
  0
INSERT
  5
2049
330
1E00
100
AcDbEntity
  8
SIZE
 62
     0
100
AcDbBlockReference
  2
_ORIGIN
 10
-2595.34248941431
 20
-1835.137866183773
 30
0.0
 41
10.0
 42
10.0
 43
10.0
 50
90.0
  0
MTEXT
  5
204A
330
1E00
100
AcDbEntity
  8
SIZE
 62
     0
100
AcDbMText
 10
-2637.34248941431
 20
-1976.637866183773
 30
0.0
 40
64.0
 41
0.0
 71
     5
 72
     1
  1
\A1;283
 11
0.0000000000000001
 21
1.0
 31
0.0
1001
ACAD
1000
MTEXTBEGIN
1070
    73
1070
     1
1070
    44
1040
1.0
1070
    74
1070
     0
1000
MTEXTEND
  0
POINT
  5
204B
330
1E00
100
AcDbEntity
  8
DEFPOINTS
 62
     0
100
AcDbPoint
 10
-2268.46782020021
 20
-2118.137866183773
 30
0.0
  0
POINT
  5
204C
330
1E00
100
AcDbEntity
  8
DEFPOINTS
 62
     0
100
AcDbPoint
 10
-2268.46782020021
 20
-1835.137866183773
 30
0.0
  0
POINT
  5
204D
330
1E00
100
AcDbEntity
  8
DEFPOINTS
 62
     0
100
AcDbPoint
 10
-2595.34248941431
 20
-1835.137866183773
 30
0.0
  0
ENDBLK
  5
1E0B
330
1E00
100
AcDbEntity
  8
0
100
AcDbBlockEnd
  0
BLOCK
  5
1E15
330
1E0C
100
AcDbEntity
  8
0
100
AcDbBlockBegin
  2
*D75
 70
     1
 10
0.0
 20
0.0
 30
0.0
  3
*D75
  1

  0
LINE
  5
1FD8
330
1E0C
100
AcDbEntity
  8
SIZE
 62
     0
100
AcDbLine
 10
-2257.067182834088
 20
-1733.075632569241
 30
0.0
 11
-2096.427167604665
 21
-1882.301904388142
 31
0.0
  0
LINE
  5
1FD9
330
1E0C
100
AcDbEntity
  8
SIZE
 62
     0
100
AcDbLine
 10
-2008.508472795756
 20
-1963.973827979406
 30
0.0
 11
-2001.181914895014
 21
-1970.779821612012
 31
0.0
  0
MTEXT
  5
1FDA
330
1E0C
100
AcDbEntity
  8
SIZE
 62
     0
100
AcDbMText
 10
-2151.825280912804
 20
-1773.51422847927
 30
0.0
 40
64.0
 41
0.0
 71
     5
 72
     1
  1
\A1;\U+2205100
 11
0.7326557900742518
 21
-0.6805993632605559
 31
0.0
1001
ACAD
1000
MTEXTBEGIN
1070
    73
1070
     1
1070
    44
1040
1.0
1070
    74
1070
     0
1000
MTEXTEND
  0
LINE
  5
1FDB
330
1E0C
100
AcDbEntity
  8
SIZE
 62
     0
100
AcDbLine
 10
-2015.835030696499
 20
-1957.167834346801
 30
0.0
 11
-2089.100609703922
 21
-1889.107898020747
 31
0.0
  0
INSERT
  5
1FDC
330
1E0C
100
AcDbEntity
  8
SIZE
 62
     0
100
AcDbBlockReference
  2
_ORIGIN
 10
-2015.835030696499
 20
-1957.167834346801
 30
0.0
 41
10.0
 42
10.0
 43
10.0
 50
137.1095028254391
  0
INSERT
  5
1FDD
330
1E0C
100
AcDbEntity
  8
SIZE
 62
     0
100
AcDbBlockReference
  2
_ORIGIN
 10
-2089.100609703922
 20
-1889.107898020747
 30
0.0
 41
10.0
 42
10.0
 43
10.0
 50
317.1095028254391
  0
POINT
  5
1FDE
330
1E0C
100
AcDbEntity
  8
DEFPOINTS
 62
     0
100
AcDbPoint
 10
-2089.100609703922
 20
-1889.107898020747
 30
0.0
  0
POINT
  5
1FDF
330
1E0C
100
AcDbEntity
  8
DEFPOINTS
 62
     0
100
AcDbPoint
 10
-2015.835030696499
 20
-1957.167834346801
 30
0.0
  0
ENDBLK
  5
1E16
330
1E0C
100
AcDbEntity
  8
0
100
AcDbBlockEnd
  0
BLOCK
  5
201F
330
2016
100
AcDbEntity
  8
0
100
AcDbBlockBegin
  2
*D76
 70
     1
 10
0.0
 20
0.0
 30
0.0
  3
*D76
  1

  0
LINE
  5
2017
330
2016
100
AcDbEntity
  8
SIZE
 62
     0
100
AcDbLine
 10
-2229.99628605229
 20
-2139.035711774169
 30
0.0
 11
-2092.481135870642
 21
-1971.799294122731
 31
0.0
  0
LINE
  5
2018
330
2016
100
AcDbEntity
  8
SIZE
 62
     0
100
AcDbLine
 10
-2012.454504529779
 20
-1874.476438244816
 30
0.0
 11
-2006.103184582091
 21
-1866.752402064029
 31
0.0
  0
MTEXT
  5
2019
330
2016
100
AcDbEntity
  8
SIZE
 62
     0
100
AcDbMText
 10
-2196.855322894614
 20
-2032.603977258555
 30
0.0
 40
64.0
 41
0.0
 71
     5
 72
     1
  1
\A1;\U+2205106
 11
0.6351319947687607
 21
0.7724036180786927
 31
0.0
1001
ACAD
1000
MTEXTBEGIN
1070
    73
1070
     1
1070
    44
1040
1.0
1070
    74
1070
     0
1000
MTEXTEND
  0
LINE
  5
201A
330
2016
100
AcDbEntity
  8
SIZE
 62
     0
100
AcDbLine
 10
-2018.805824477466
 20
-1882.200474425602
 30
0.0
 11
-2086.129815922955
 21
-1964.075257941944
 31
0.0
  0
INSERT
  5
201B
330
2016
100
AcDbEntity
  8
SIZE
 62
     0
100
AcDbBlockReference
  2
_ORIGIN
 10
-2018.805824477466
 20
-1882.200474425602
 30
0.0
 41
10.0
 42
10.0
 43
10.0
 50
230.5702250403134
  0
INSERT
  5
201C
330
2016
100
AcDbEntity
  8
SIZE
 62
     0
100
AcDbBlockReference
  2
_ORIGIN
 10
-2086.129815922955
 20
-1964.075257941944
 30
0.0
 41
10.0
 42
10.0
 43
10.0
 50
50.57022504031346
  0
POINT
  5
201D
330
2016
100
AcDbEntity
  8
DEFPOINTS
 62
     0
100
AcDbPoint
 10
-2086.129815922955
 20
-1964.075257941944
 30
0.0
  0
POINT
  5
201E
330
2016
100
AcDbEntity
  8
DEFPOINTS
 62
     0
100
AcDbPoint
 10
-2018.805824477466
 20
-1882.200474425602
 30
0.0
  0
ENDBLK
  5
2020
330
2016
100
AcDbEntity
  8
0
100
AcDbBlockEnd
  0
BLOCK
  5
20FF
330
20F5
100
AcDbEntity
  8
0
100
AcDbBlockBegin
  2
*D77
 70
     1
 10
0.0
 20
0.0
 30
0.0
  3
*D77
  1

  0
LINE
  5
24BB
330
20F5
100
AcDbEntity
  8
SIZE
 62
     0
100
AcDbLine
 10
-252.1070243296926
 20
-3176.369525143746
 30
0.0
 11
-252.1070243296926
 21
-3062.939392787543
 31
0.0
  0
LINE
  5
24BC
330
20F5
100
AcDbEntity
  8
SIZE
 62
     0
100
AcDbLine
 10
207.8929756703073
 20
-3176.369525143746
 30
0.0
 11
207.8929756703073
 21
-3062.939392787543
 31
0.0
  0
LINE
  5
24BD
330
20F5
100
AcDbEntity
  8
SIZE
 62
     0
100
AcDbLine
 10
-242.1070243296926
 20
-3082.939392787542
 30
0.0
 11
197.8929756703073
 21
-3082.939392787542
 31
0.0
  0
INSERT
  5
24BE
330
20F5
100
AcDbEntity
  8
SIZE
 62
     0
100
AcDbBlockReference
  2
_ORIGIN
 10
-252.1070243296926
 20
-3082.939392787542
 30
0.0
 41
10.0
 42
10.0
 43
10.0
 50
180.0
  0
INSERT
  5
24BF
330
20F5
100
AcDbEntity
  8
SIZE
 62
     0
100
AcDbBlockReference
  2
_ORIGIN
 10
207.8929756703073
 20
-3082.939392787542
 30
0.0
 41
10.0
 42
10.0
 43
10.0
  0
MTEXT
  5
24C0
330
20F5
100
AcDbEntity
  8
SIZE
 62
     0
100
AcDbMText
 10
-22.10702432969264
 20
-3040.939392787542
 30
0.0
 40
64.0
 41
0.0
 71
     5
 72
     1
  1
\A1;460
1001
ACAD
1000
MTEXTBEGIN
1070
    73
1070
     1
1070
    44
1040
1.0
1070
    74
1070
     0
1000
MTEXTEND
  0
POINT
  5
24C1
330
20F5
100
AcDbEntity
  8
DEFPOINTS
 62
     0
100
AcDbPoint
 10
-252.1070243296926
 20
-3196.369525143746
 30
0.0
  0
POINT
  5
24C2
330
20F5
100
AcDbEntity
  8
DEFPOINTS
 62
     0
100
AcDbPoint
 10
207.8929756703073
 20
-3196.369525143746
 30
0.0
  0
POINT
  5
24C3
330
20F5
100
AcDbEntity
  8
DEFPOINTS
 62
     0
100
AcDbPoint
 10
207.8929756703073
 20
-3082.939392787542
 30
0.0
  0
ENDBLK
  5
2100
330
20F5
100
AcDbEntity
  8
0
100
AcDbBlockEnd
  0
BLOCK
  5
210B
330
2101
100
AcDbEntity
  8
0
100
AcDbBlockBegin
  2
*D78
 70
     1
 10
0.0
 20
0.0
 30
0.0
  3
*D78
  1

  0
LINE
  5
24C4
330
2101
100
AcDbEntity
  8
SIZE
 62
     0
100
AcDbLine
 10
-272.1070243296926
 20
-3225.388749803681
 30
0.0
 11
-272.1070243296926
 21
-2954.505489792085
 31
0.0
  0
LINE
  5
24C5
330
2101
100
AcDbEntity
  8
SIZE
 62
     0
100
AcDbLine
 10
227.8929756703073
 20
-3211.746251969991
 30
0.0
 11
227.8929756703073
 21
-2954.505489792085
 31
0.0
  0
LINE
  5
24C6
330
2101
100
AcDbEntity
  8
SIZE
 62
     0
100
AcDbLine
 10
-262.1070243296926
 20
-2974.505489792085
 30
0.0
 11
217.8929756703073
 21
-2974.505489792085
 31
0.0
  0
INSERT
  5
24C7
330
2101
100
AcDbEntity
  8
SIZE
 62
     0
100
AcDbBlockReference
  2
_ORIGIN
 10
-272.1070243296926
 20
-2974.505489792085
 30
0.0
 41
10.0
 42
10.0
 43
10.0
 50
180.0
  0
INSERT
  5
24C8
330
2101
100
AcDbEntity
  8
SIZE
 62
     0
100
AcDbBlockReference
  2
_ORIGIN
 10
227.8929756703073
 20
-2974.505489792085
 30
0.0
 41
10.0
 42
10.0
 43
10.0
  0
MTEXT
  5
24C9
330
2101
100
AcDbEntity
  8
SIZE
 62
     0
100
AcDbMText
 10
-22.10702432969263
 20
-2932.505489792085
 30
0.0
 40
64.0
 41
0.0
 71
     5
 72
     1
  1
\A1;500
1001
ACAD
1000
MTEXTBEGIN
1070
    73
1070
     1
1070
    44
1040
1.0
1070
    74
1070
     0
1000
MTEXTEND
  0
POINT
  5
24CA
330
2101
100
AcDbEntity
  8
DEFPOINTS
 62
     0
100
AcDbPoint
 10
-272.1070243296926
 20
-3245.388749803682
 30
0.0
  0
POINT
  5
24CB
330
2101
100
AcDbEntity
  8
DEFPOINTS
 62
     0
100
AcDbPoint
 10
227.8929756703073
 20
-3231.74625196999
 30
0.0
  0
POINT
  5
24CC
330
2101
100
AcDbEntity
  8
DEFPOINTS
 62
     0
100
AcDbPoint
 10
227.8929756703073
 20
-2974.505489792085
 30
0.0
  0
ENDBLK
  5
210C
330
2101
100
AcDbEntity
  8
0
100
AcDbBlockEnd
  0
BLOCK
  5
2117
330
210D
100
AcDbEntity
  8
0
100
AcDbBlockBegin
  2
*D79
 70
     1
 10
0.0
 20
0.0
 30
0.0
  3
*D79
  1

  0
LINE
  5
24CD
330
210D
100
AcDbEntity
  8
SIZE
 62
     0
100
AcDbLine
 10
-292.1070243296926
 20
-3217.369525143745
 30
0.0
 11
-292.1070243296926
 21
-2840.977845674919
 31
0.0
  0
LINE
  5
24CE
330
210D
100
AcDbEntity
  8
SIZE
 62
     0
100
AcDbLine
 10
247.8929756703073
 20
-3217.369525143745
 30
0.0
 11
247.8929756703073
 21
-2840.977845674919
 31
0.0
  0
LINE
  5
24CF
330
210D
100
AcDbEntity
  8
SIZE
 62
     0
100
AcDbLine
 10
-282.1070243296926
 20
-2860.977845674918
 30
0.0
 11
237.8929756703073
 21
-2860.977845674918
 31
0.0
  0
INSERT
  5
24D0
330
210D
100
AcDbEntity
  8
SIZE
 62
     0
100
AcDbBlockReference
  2
_ORIGIN
 10
-292.1070243296926
 20
-2860.977845674918
 30
0.0
 41
10.0
 42
10.0
 43
10.0
 50
180.0
  0
INSERT
  5
24D1
330
210D
100
AcDbEntity
  8
SIZE
 62
     0
100
AcDbBlockReference
  2
_ORIGIN
 10
247.8929756703073
 20
-2860.977845674918
 30
0.0
 41
10.0
 42
10.0
 43
10.0
  0
MTEXT
  5
24D2
330
210D
100
AcDbEntity
  8
SIZE
 62
     0
100
AcDbMText
 10
-22.10702432969263
 20
-2818.977845674919
 30
0.0
 40
64.0
 41
0.0
 71
     5
 72
     1
  1
\A1;540
1001
ACAD
1000
MTEXTBEGIN
1070
    73
1070
     1
1070
    44
1040
1.0
1070
    74
1070
     0
1000
MTEXTEND
  0
POINT
  5
24D3
330
210D
100
AcDbEntity
  8
DEFPOINTS
 62
     0
100
AcDbPoint
 10
-292.1070243296926
 20
-3237.369525143746
 30
0.0
  0
POINT
  5
24D4
330
210D
100
AcDbEntity
  8
DEFPOINTS
 62
     0
100
AcDbPoint
 10
247.8929756703073
 20
-3237.369525143746
 30
0.0
  0
POINT
  5
24D5
330
210D
100
AcDbEntity
  8
DEFPOINTS
 62
     0
100
AcDbPoint
 10
247.8929756703073
 20
-2860.977845674918
 30
0.0
  0
ENDBLK
  5
2118
330
210D
100
AcDbEntity
  8
0
100
AcDbBlockEnd
  0
BLOCK
  5
2124
330
2119
100
AcDbEntity
  8
0
100
AcDbBlockBegin
  2
*D80
 70
     1
 10
0.0
 20
0.0
 30
0.0
  3
*D80
  1

  0
LINE
  5
2518
330
2119
100
AcDbEntity
  8
SIZE
 62
     0
100
AcDbLine
 10
-212.1070243296926
 20
-3694.071628221419
 30
0.0
 11
-212.1070243296926
 21
-3879.204822290521
 31
0.0
  0
LINE
  5
2519
330
2119
100
AcDbEntity
  8
SIZE
 62
     0
100
AcDbLine
 10
-252.1070243296926
 20
-3648.369525143746
 30
0.0
 11
-252.1070243296926
 21
-3879.204822290521
 31
0.0
  0
LINE
  5
251A
330
2119
100
AcDbEntity
  8
SIZE
 62
     0
100
AcDbLine
 10
-242.1070243296926
 20
-3859.204822290521
 30
0.0
 11
-222.1070243296926
 21
-3859.204822290521
 31
0.0
  0
LINE
  5
251B
330
2119
100
AcDbEntity
  8
SIZE
 62
     0
100
AcDbLine
 10
-212.1070243296926
 20
-3859.204822290521
 30
0.0
 11
-88.84988147254981
 21
-3859.204822290521
 31
0.0
  0
INSERT
  5
251C
330
2119
100
AcDbEntity
  8
SIZE
 62
     0
100
AcDbBlockReference
  2
_ORIGIN
 10
-252.1070243296926
 20
-3859.204822290521
 30
0.0
 41
10.0
 42
10.0
 43
10.0
 50
180.0
  0
INSERT
  5
251D
330
2119
100
AcDbEntity
  8
SIZE
 62
     0
100
AcDbBlockReference
  2
_ORIGIN
 10
-212.1070243296926
 20
-3859.204822290521
 30
0.0
 41
10.0
 42
10.0
 43
10.0
  0
MTEXT
  5
251E
330
2119
100
AcDbEntity
  8
SIZE
 62
     0
100
AcDbMText
 10
-145.4784529011212
 20
-3817.204822290522
 30
0.0
 40
64.0
 41
0.0
 71
     5
 72
     1
  1
\A1;40
1001
ACAD
1000
MTEXTBEGIN
1070
    73
1070
     1
1070
    44
1040
1.0
1070
    74
1070
     0
1000
MTEXTEND
  0
POINT
  5
251F
330
2119
100
AcDbEntity
  8
DEFPOINTS
 62
     0
100
AcDbPoint
 10
-212.1070243296926
 20
-3674.07162822142
 30
0.0
  0
POINT
  5
2520
330
2119
100
AcDbEntity
  8
DEFPOINTS
 62
     0
100
AcDbPoint
 10
-252.1070243296926
 20
-3628.369525143745
 30
0.0
  0
POINT
  5
2521
330
2119
100
AcDbEntity
  8
DEFPOINTS
 62
     0
100
AcDbPoint
 10
-252.1070243296926
 20
-3859.204822290521
 30
0.0
  0
ENDBLK
  5
2125
330
2119
100
AcDbEntity
  8
0
100
AcDbBlockEnd
  0
BLOCK
  5
2130
330
2126
100
AcDbEntity
  8
0
100
AcDbBlockBegin
  2
*D81
 70
     1
 10
0.0
 20
0.0
 30
0.0
  3
*D81
  1

  0
LINE
  5
250F
330
2126
100
AcDbEntity
  8
SIZE
 62
     0
100
AcDbLine
 10
-252.1070243296926
 20
-3648.369525143746
 30
0.0
 11
-252.1070243296926
 21
-4014.670811631767
 31
0.0
  0
LINE
  5
2510
330
2126
100
AcDbEntity
  8
SIZE
 62
     0
100
AcDbLine
 10
-122.1070243296926
 20
-3738.898684893211
 30
0.0
 11
-122.1070243296926
 21
-4014.670811631767
 31
0.0
  0
LINE
  5
2511
330
2126
100
AcDbEntity
  8
SIZE
 62
     0
100
AcDbLine
 10
-242.1070243296926
 20
-3994.670811631768
 30
0.0
 11
-132.1070243296926
 21
-3994.670811631768
 31
0.0
  0
INSERT
  5
2512
330
2126
100
AcDbEntity
  8
SIZE
 62
     0
100
AcDbBlockReference
  2
_ORIGIN
 10
-252.1070243296926
 20
-3994.670811631768
 30
0.0
 41
10.0
 42
10.0
 43
10.0
 50
180.0
  0
INSERT
  5
2513
330
2126
100
AcDbEntity
  8
SIZE
 62
     0
100
AcDbBlockReference
  2
_ORIGIN
 10
-122.1070243296926
 20
-3994.670811631768
 30
0.0
 41
10.0
 42
10.0
 43
10.0
  0
MTEXT
  5
2514
330
2126
100
AcDbEntity
  8
SIZE
 62
     0
100
AcDbMText
 10
-187.1070243296926
 20
-3952.670811631767
 30
0.0
 40
64.0
 41
0.0
 71
     5
 72
     1
  1
\A1;130
1001
ACAD
1000
MTEXTBEGIN
1070
    73
1070
     1
1070
    44
1040
1.0
1070
    74
1070
     0
1000
MTEXTEND
  0
POINT
  5
2515
330
2126
100
AcDbEntity
  8
DEFPOINTS
 62
     0
100
AcDbPoint
 10
-252.1070243296926
 20
-3628.369525143745
 30
0.0
  0
POINT
  5
2516
330
2126
100
AcDbEntity
  8
DEFPOINTS
 62
     0
100
AcDbPoint
 10
-122.1070243296926
 20
-3718.898684893211
 30
0.0
  0
POINT
  5
2517
330
2126
100
AcDbEntity
  8
DEFPOINTS
 62
     0
100
AcDbPoint
 10
-122.1070243296926
 20
-3994.670811631768
 30
0.0
  0
ENDBLK
  5
2131
330
2126
100
AcDbEntity
  8
0
100
AcDbBlockEnd
  0
BLOCK
  5
213D
330
2132
100
AcDbEntity
  8
0
100
AcDbBlockBegin
  2
*D82
 70
     1
 10
0.0
 20
0.0
 30
0.0
  3
*D82
  1

  0
LINE
  5
24F3
330
2132
100
AcDbEntity
  8
SIZE
 62
     0
100
AcDbLine
 10
207.8929756703073
 20
-3648.369525143746
 30
0.0
 11
207.8929756703073
 21
-3797.537750940835
 31
0.0
  0
LINE
  5
24F4
330
2132
100
AcDbEntity
  8
SIZE
 62
     0
100
AcDbLine
 10
265.8929756703073
 20
-3525.369525143745
 30
0.0
 11
265.8929756703073
 21
-3797.537750940835
 31
0.0
  0
LINE
  5
24F5
330
2132
100
AcDbEntity
  8
SIZE
 62
     0
100
AcDbLine
 10
255.8929756703073
 20
-3777.537750940835
 30
0.0
 11
217.8929756703073
 21
-3777.537750940835
 31
0.0
  0
LINE
  5
24F6
330
2132
100
AcDbEntity
  8
SIZE
 62
     0
100
AcDbLine
 10
207.8929756703073
 20
-3777.537750940835
 30
0.0
 11
84.63583281316454
 21
-3777.537750940835
 31
0.0
  0
INSERT
  5
24F7
330
2132
100
AcDbEntity
  8
SIZE
 62
     0
100
AcDbBlockReference
  2
_ORIGIN
 10
265.8929756703073
 20
-3777.537750940835
 30
0.0
 41
10.0
 42
10.0
 43
10.0
  0
INSERT
  5
24F8
330
2132
100
AcDbEntity
  8
SIZE
 62
     0
100
AcDbBlockReference
  2
_ORIGIN
 10
207.8929756703073
 20
-3777.537750940835
 30
0.0
 41
10.0
 42
10.0
 43
10.0
 50
180.0
  0
MTEXT
  5
24F9
330
2132
100
AcDbEntity
  8
SIZE
 62
     0
100
AcDbMText
 10
141.2644042417359
 20
-3735.537750940835
 30
0.0
 40
64.0
 41
0.0
 71
     5
 72
     1
  1
\A1;58
1001
ACAD
1000
MTEXTBEGIN
1070
    73
1070
     1
1070
    44
1040
1.0
1070
    74
1070
     0
1000
MTEXTEND
  0
POINT
  5
24FA
330
2132
100
AcDbEntity
  8
DEFPOINTS
 62
     0
100
AcDbPoint
 10
207.8929756703073
 20
-3628.369525143745
 30
0.0
  0
POINT
  5
24FB
330
2132
100
AcDbEntity
  8
DEFPOINTS
 62
     0
100
AcDbPoint
 10
265.8929756703073
 20
-3505.369525143746
 30
0.0
  0
POINT
  5
24FC
330
2132
100
AcDbEntity
  8
DEFPOINTS
 62
     0
100
AcDbPoint
 10
265.8929756703073
 20
-3777.537750940835
 30
0.0
  0
ENDBLK
  5
213E
330
2132
100
AcDbEntity
  8
0
100
AcDbBlockEnd
  0
BLOCK
  5
2149
330
213F
100
AcDbEntity
  8
0
100
AcDbBlockBegin
  2
*D83
 70
     1
 10
0.0
 20
0.0
 30
0.0
  3
*D83
  1

  0
LINE
  5
24FD
330
213F
100
AcDbEntity
  8
SIZE
 62
     0
100
AcDbLine
 10
207.8929756703073
 20
-3648.369525143746
 30
0.0
 11
207.8929756703073
 21
-3934.956665190715
 31
0.0
  0
LINE
  5
24FE
330
213F
100
AcDbEntity
  8
SIZE
 62
     0
100
AcDbLine
 10
325.8929756703073
 20
-3485.369525143745
 30
0.0
 11
325.8929756703072
 21
-3934.956665190715
 31
0.0
  0
LINE
  5
24FF
330
213F
100
AcDbEntity
  8
SIZE
 62
     0
100
AcDbLine
 10
217.8929756703073
 20
-3914.956665190715
 30
0.0
 11
315.8929756703073
 21
-3914.956665190715
 31
0.0
  0
INSERT
  5
2500
330
213F
100
AcDbEntity
  8
SIZE
 62
     0
100
AcDbBlockReference
  2
_ORIGIN
 10
207.8929756703073
 20
-3914.956665190715
 30
0.0
 41
10.0
 42
10.0
 43
10.0
 50
180.0
  0
INSERT
  5
2501
330
213F
100
AcDbEntity
  8
SIZE
 62
     0
100
AcDbBlockReference
  2
_ORIGIN
 10
325.8929756703073
 20
-3914.956665190715
 30
0.0
 41
10.0
 42
10.0
 43
10.0
  0
MTEXT
  5
2502
330
213F
100
AcDbEntity
  8
SIZE
 62
     0
100
AcDbMText
 10
266.8929756703073
 20
-3872.956665190715
 30
0.0
 40
64.0
 41
0.0
 71
     5
 72
     1
  1
\A1;118
1001
ACAD
1000
MTEXTBEGIN
1070
    73
1070
     1
1070
    44
1040
1.0
1070
    74
1070
     0
1000
MTEXTEND
  0
POINT
  5
2503
330
213F
100
AcDbEntity
  8
DEFPOINTS
 62
     0
100
AcDbPoint
 10
207.8929756703073
 20
-3628.369525143745
 30
0.0
  0
POINT
  5
2504
330
213F
100
AcDbEntity
  8
DEFPOINTS
 62
     0
100
AcDbPoint
 10
325.8929756703073
 20
-3465.369525143745
 30
0.0
  0
POINT
  5
2505
330
213F
100
AcDbEntity
  8
DEFPOINTS
 62
     0
100
AcDbPoint
 10
325.8929756703073
 20
-3914.956665190715
 30
0.0
  0
ENDBLK
  5
214A
330
213F
100
AcDbEntity
  8
0
100
AcDbBlockEnd
  0
BLOCK
  5
2156
330
214B
100
AcDbEntity
  8
0
100
AcDbBlockBegin
  2
*D84
 70
     1
 10
0.0
 20
0.0
 30
0.0
  3
*D84
  1

  0
LINE
  5
252B
330
214B
100
AcDbEntity
  8
SIZE
 62
     0
100
AcDbLine
 10
-252.1070243296926
 20
-3648.369525143746
 30
0.0
 11
-252.1070243296926
 21
-3879.204822290521
 31
0.0
  0
LINE
  5
252C
330
214B
100
AcDbEntity
  8
SIZE
 62
     0
100
AcDbLine
 10
-312.1070243296926
 20
-3485.369525143745
 30
0.0
 11
-312.1070243296926
 21
-3879.204822290521
 31
0.0
  0
LINE
  5
252D
330
214B
100
AcDbEntity
  8
SIZE
 62
     0
100
AcDbLine
 10
-262.1070243296926
 20
-3859.204822290521
 30
0.0
 11
-302.1070243296926
 21
-3859.204822290521
 31
0.0
  0
LINE
  5
252E
330
214B
100
AcDbEntity
  8
SIZE
 62
     0
100
AcDbLine
 10
-312.1070243296926
 20
-3859.204822290521
 30
0.0
 11
-435.3641671868355
 21
-3859.204822290521
 31
0.0
  0
INSERT
  5
252F
330
214B
100
AcDbEntity
  8
SIZE
 62
     0
100
AcDbBlockReference
  2
_ORIGIN
 10
-252.1070243296926
 20
-3859.204822290521
 30
0.0
 41
10.0
 42
10.0
 43
10.0
  0
INSERT
  5
2530
330
214B
100
AcDbEntity
  8
SIZE
 62
     0
100
AcDbBlockReference
  2
_ORIGIN
 10
-312.1070243296926
 20
-3859.204822290521
 30
0.0
 41
10.0
 42
10.0
 43
10.0
 50
180.0
  0
MTEXT
  5
2531
330
214B
100
AcDbEntity
  8
SIZE
 62
     0
100
AcDbMText
 10
-378.735595758264
 20
-3817.204822290522
 30
0.0
 40
64.0
 41
0.0
 71
     5
 72
     1
  1
\A1;60
1001
ACAD
1000
MTEXTBEGIN
1070
    73
1070
     1
1070
    44
1040
1.0
1070
    74
1070
     0
1000
MTEXTEND
  0
POINT
  5
2532
330
214B
100
AcDbEntity
  8
DEFPOINTS
 62
     0
100
AcDbPoint
 10
-252.1070243296926
 20
-3628.369525143745
 30
0.0
  0
POINT
  5
2533
330
214B
100
AcDbEntity
  8
DEFPOINTS
 62
     0
100
AcDbPoint
 10
-312.1070243296926
 20
-3465.369525143745
 30
0.0
  0
POINT
  5
2534
330
214B
100
AcDbEntity
  8
DEFPOINTS
 62
     0
100
AcDbPoint
 10
-312.1070243296926
 20
-3859.204822290521
 30
0.0
  0
ENDBLK
  5
2157
330
214B
100
AcDbEntity
  8
0
100
AcDbBlockEnd
  0
BLOCK
  5
2162
330
2158
100
AcDbEntity
  8
0
100
AcDbBlockBegin
  2
*D85
 70
     1
 10
0.0
 20
0.0
 30
0.0
  3
*D85
  1

  0
LINE
  5
24D6
330
2158
100
AcDbEntity
  8
SIZE
 62
     0
100
AcDbLine
 10
-313.7875017810511
 20
-3267.369525143745
 30
0.0
 11
-512.8023402187614
 21
-3267.369525143745
 31
0.0
  0
LINE
  5
24D7
330
2158
100
AcDbEntity
  8
SIZE
 62
     0
100
AcDbLine
 10
-313.8283889054982
 20
-3557.369525143745
 30
0.0
 11
-512.8023402187615
 21
-3557.369525143745
 31
0.0
  0
LINE
  5
24D8
330
2158
100
AcDbEntity
  8
SIZE
 62
     0
100
AcDbLine
 10
-492.8023402187614
 20
-3277.369525143746
 30
0.0
 11
-492.8023402187615
 21
-3547.369525143745
 31
0.0
  0
INSERT
  5
24D9
330
2158
100
AcDbEntity
  8
SIZE
 62
     0
100
AcDbBlockReference
  2
_ORIGIN
 10
-492.8023402187614
 20
-3267.369525143745
 30
0.0
 41
10.0
 42
10.0
 43
10.0
 50
90.0
  0
INSERT
  5
24DA
330
2158
100
AcDbEntity
  8
SIZE
 62
     0
100
AcDbBlockReference
  2
_ORIGIN
 10
-492.8023402187615
 20
-3557.369525143745
 30
0.0
 41
10.0
 42
10.0
 43
10.0
 50
270.0
  0
MTEXT
  5
24DB
330
2158
100
AcDbEntity
  8
SIZE
 62
     0
100
AcDbMText
 10
-534.8023402187609
 20
-3412.897930456908
 30
0.0
 40
64.0
 41
0.0
 71
     5
 72
     1
  1
\A1;290
 11
0.0000000000000001
 21
1.0
 31
0.0
1001
ACAD
1000
MTEXTBEGIN
1070
    73
1070
     1
1070
    44
1040
1.0
1070
    74
1070
     0
1000
MTEXTEND
  0
POINT
  5
24DC
330
2158
100
AcDbEntity
  8
DEFPOINTS
 62
     0
100
AcDbPoint
 10
-293.7875017810511
 20
-3267.369525143745
 30
0.0
  0
POINT
  5
24DD
330
2158
100
AcDbEntity
  8
DEFPOINTS
 62
     0
100
AcDbPoint
 10
-293.8283889054982
 20
-3557.369525143745
 30
0.0
  0
POINT
  5
24DE
330
2158
100
AcDbEntity
  8
DEFPOINTS
 62
     0
100
AcDbPoint
 10
-492.8023402187615
 20
-3557.369525143745
 30
0.0
  0
ENDBLK
  5
2163
330
2158
100
AcDbEntity
  8
0
100
AcDbBlockEnd
  0
BLOCK
  5
216E
330
2164
100
AcDbEntity
  8
0
100
AcDbBlockBegin
  2
*D86
 70
     1
 10
0.0
 20
0.0
 30
0.0
  3
*D86
  1

  0
LINE
  5
24DF
330
2164
100
AcDbEntity
  8
SIZE
 62
     0
100
AcDbLine
 10
-272.1070243296926
 20
-3196.369525143746
 30
0.0
 11
-631.2541051126904
 21
-3196.369525143746
 31
0.0
  0
LINE
  5
24E0
330
2164
100
AcDbEntity
  8
SIZE
 62
     0
100
AcDbLine
 10
-272.1070243296926
 20
-3628.369525143745
 30
0.0
 11
-631.2541051126905
 21
-3628.369525143745
 31
0.0
  0
LINE
  5
24E1
330
2164
100
AcDbEntity
  8
SIZE
 62
     0
100
AcDbLine
 10
-611.2541051126904
 20
-3206.369525143745
 30
0.0
 11
-611.2541051126905
 21
-3618.369525143745
 31
0.0
  0
INSERT
  5
24E2
330
2164
100
AcDbEntity
  8
SIZE
 62
     0
100
AcDbBlockReference
  2
_ORIGIN
 10
-611.2541051126904
 20
-3196.369525143746
 30
0.0
 41
10.0
 42
10.0
 43
10.0
 50
90.0
  0
INSERT
  5
24E3
330
2164
100
AcDbEntity
  8
SIZE
 62
     0
100
AcDbBlockReference
  2
_ORIGIN
 10
-611.2541051126905
 20
-3628.369525143745
 30
0.0
 41
10.0
 42
10.0
 43
10.0
 50
270.0
  0
MTEXT
  5
24E4
330
2164
100
AcDbEntity
  8
SIZE
 62
     0
100
AcDbMText
 10
-653.25410511269
 20
-3412.175820783814
 30
0.0
 40
64.0
 41
0.0
 71
     5
 72
     1
  1
\A1;432
 11
0.0000000000000001
 21
1.0
 31
0.0
1001
ACAD
1000
MTEXTBEGIN
1070
    73
1070
     1
1070
    44
1040
1.0
1070
    74
1070
     0
1000
MTEXTEND
  0
POINT
  5
24E5
330
2164
100
AcDbEntity
  8
DEFPOINTS
 62
     0
100
AcDbPoint
 10
-252.1070243296926
 20
-3196.369525143746
 30
0.0
  0
POINT
  5
24E6
330
2164
100
AcDbEntity
  8
DEFPOINTS
 62
     0
100
AcDbPoint
 10
-252.1070243296926
 20
-3628.369525143745
 30
0.0
  0
POINT
  5
24E7
330
2164
100
AcDbEntity
  8
DEFPOINTS
 62
     0
100
AcDbPoint
 10
-611.2541051126905
 20
-3628.369525143745
 30
0.0
  0
ENDBLK
  5
216F
330
2164
100
AcDbEntity
  8
0
100
AcDbBlockEnd
  0
BLOCK
  5
217C
330
2170
100
AcDbEntity
  8
0
100
AcDbBlockBegin
  2
*D87
 70
     1
 10
0.0
 20
0.0
 30
0.0
  3
*D87
  1

  0
LINE
  5
2535
330
2170
100
AcDbEntity
  8
SIZE
 62
     0
100
AcDbLine
 10
-332.1070243296926
 20
-3465.369525143745
 30
0.0
 11
-399.3794436074531
 21
-3465.369525143745
 31
0.0
  0
LINE
  5
2536
330
2170
100
AcDbEntity
  8
SIZE
 62
     0
100
AcDbLine
 10
-332.1070243296926
 20
-3359.369525143746
 30
0.0
 11
-399.3794436074531
 21
-3359.369525143746
 31
0.0
  0
LINE
  5
2537
330
2170
100
AcDbEntity
  8
SIZE
 62
     0
100
AcDbLine
 10
-379.3794436074532
 20
-3475.369525143745
 30
0.0
 11
-379.3794436074532
 21
-3485.369525143745
 31
0.0
  0
LINE
  5
2538
330
2170
100
AcDbEntity
  8
SIZE
 62
     0
100
AcDbLine
 10
-379.3794436074531
 20
-3349.369525143746
 30
0.0
 11
-379.3794436074531
 21
-3339.369525143745
 31
0.0
  0
LINE
  5
2539
330
2170
100
AcDbEntity
  8
SIZE
 62
     0
100
AcDbLine
 10
-379.3794436074532
 20
-3465.369525143745
 30
0.0
 11
-379.3794436074531
 21
-3359.369525143746
 31
0.0
  0
INSERT
  5
253A
330
2170
100
AcDbEntity
  8
SIZE
 62
     0
100
AcDbBlockReference
  2
_ORIGIN
 10
-379.3794436074532
 20
-3465.369525143745
 30
0.0
 41
10.0
 42
10.0
 43
10.0
 50
90.0
  0
INSERT
  5
253B
330
2170
100
AcDbEntity
  8
SIZE
 62
     0
100
AcDbBlockReference
  2
_ORIGIN
 10
-379.3794436074531
 20
-3359.369525143746
 30
0.0
 41
10.0
 42
10.0
 43
10.0
 50
270.0
  0
MTEXT
  5
253C
330
2170
100
AcDbEntity
  8
SIZE
 62
     0
100
AcDbMText
 10
-421.3794436074526
 20
-3412.369525143746
 30
0.0
 40
64.0
 41
0.0
 71
     5
 72
     1
  1
\A1;%%c106
 11
0.0000000000000001
 21
1.0
 31
0.0
1001
ACAD
1000
MTEXTBEGIN
1070
    73
1070
     1
1070
    44
1040
1.0
1070
    74
1070
     0
1000
MTEXTEND
  0
POINT
  5
253D
330
2170
100
AcDbEntity
  8
DEFPOINTS
 62
     0
100
AcDbPoint
 10
-312.1070243296926
 20
-3465.369525143745
 30
0.0
  0
POINT
  5
253E
330
2170
100
AcDbEntity
  8
DEFPOINTS
 62
     0
100
AcDbPoint
 10
-312.1070243296926
 20
-3359.369525143746
 30
0.0
  0
POINT
  5
253F
330
2170
100
AcDbEntity
  8
DEFPOINTS
 62
     0
100
AcDbPoint
 10
-379.3794436074531
 20
-3359.369525143746
 30
0.0
  0
ENDBLK
  5
217D
330
2170
100
AcDbEntity
  8
0
100
AcDbBlockEnd
  0
BLOCK
  5
2188
330
217E
100
AcDbEntity
  8
0
100
AcDbBlockBegin
  2
*D88
 70
     1
 10
0.0
 20
0.0
 30
0.0
  3
*D88
  1

  0
LINE
  5
2540
330
217E
100
AcDbEntity
  8
SIZE
 62
     0
100
AcDbLine
 10
285.8929756703073
 20
-3319.369525143746
 30
0.0
 11
638.2670331145996
 21
-3319.369525143746
 31
0.0
  0
LINE
  5
2541
330
217E
100
AcDbEntity
  8
SIZE
 62
     0
100
AcDbLine
 10
285.8929756703073
 20
-3505.369525143746
 30
0.0
 11
638.2670331145995
 21
-3505.369525143746
 31
0.0
  0
LINE
  5
2542
330
217E
100
AcDbEntity
  8
SIZE
 62
     0
100
AcDbLine
 10
618.2670331145994
 20
-3329.369525143745
 30
0.0
 11
618.2670331145994
 21
-3495.369525143745
 31
0.0
  0
INSERT
  5
2543
330
217E
100
AcDbEntity
  8
SIZE
 62
     0
100
AcDbBlockReference
  2
_ORIGIN
 10
618.2670331145995
 20
-3319.369525143746
 30
0.0
 41
10.0
 42
10.0
 43
10.0
 50
90.0
  0
INSERT
  5
2544
330
217E
100
AcDbEntity
  8
SIZE
 62
     0
100
AcDbBlockReference
  2
_ORIGIN
 10
618.2670331145994
 20
-3505.369525143746
 30
0.0
 41
10.0
 42
10.0
 43
10.0
 50
270.0
  0
MTEXT
  5
2545
330
217E
100
AcDbEntity
  8
SIZE
 62
     0
100
AcDbMText
 10
576.2670331146
 20
-3412.369525143746
 30
0.0
 40
64.0
 41
0.0
 71
     5
 72
     1
  1
\A1;186
 11
0.0000000000000001
 21
1.0
 31
0.0
1001
ACAD
1000
MTEXTBEGIN
1070
    73
1070
     1
1070
    44
1040
1.0
1070
    74
1070
     0
1000
MTEXTEND
  0
POINT
  5
2546
330
217E
100
AcDbEntity
  8
DEFPOINTS
 62
     0
100
AcDbPoint
 10
265.8929756703073
 20
-3319.369525143746
 30
0.0
  0
POINT
  5
2547
330
217E
100
AcDbEntity
  8
DEFPOINTS
 62
     0
100
AcDbPoint
 10
265.8929756703073
 20
-3505.369525143746
 30
0.0
  0
POINT
  5
2548
330
217E
100
AcDbEntity
  8
DEFPOINTS
 62
     0
100
AcDbPoint
 10
618.2670331145994
 20
-3505.369525143746
 30
0.0
  0
ENDBLK
  5
2189
330
217E
100
AcDbEntity
  8
0
100
AcDbBlockEnd
  0
BLOCK
  5
2194
330
218A
100
AcDbEntity
  8
0
100
AcDbBlockBegin
  2
*D89
 70
     1
 10
0.0
 20
0.0
 30
0.0
  3
*D89
  1

  0
LINE
  5
2549
330
218A
100
AcDbEntity
  8
SIZE
 62
     0
100
AcDbLine
 10
345.8929756703073
 20
-3359.369525143746
 30
0.0
 11
514.6745863341778
 21
-3359.369525143746
 31
0.0
  0
LINE
  5
254A
330
218A
100
AcDbEntity
  8
SIZE
 62
     0
100
AcDbLine
 10
345.8929756703073
 20
-3465.369525143745
 30
0.0
 11
514.6745863341778
 21
-3465.369525143745
 31
0.0
  0
LINE
  5
254B
330
218A
100
AcDbEntity
  8
SIZE
 62
     0
100
AcDbLine
 10
494.6745863341779
 20
-3369.369525143746
 30
0.0
 11
494.6745863341779
 21
-3455.369525143746
 31
0.0
  0
INSERT
  5
254C
330
218A
100
AcDbEntity
  8
SIZE
 62
     0
100
AcDbBlockReference
  2
_ORIGIN
 10
494.6745863341779
 20
-3359.369525143746
 30
0.0
 41
10.0
 42
10.0
 43
10.0
 50
90.0
  0
INSERT
  5
254D
330
218A
100
AcDbEntity
  8
SIZE
 62
     0
100
AcDbBlockReference
  2
_ORIGIN
 10
494.6745863341779
 20
-3465.369525143745
 30
0.0
 41
10.0
 42
10.0
 43
10.0
 50
270.0
  0
MTEXT
  5
254E
330
218A
100
AcDbEntity
  8
SIZE
 62
     0
100
AcDbMText
 10
452.6745863341784
 20
-3412.369525143746
 30
0.0
 40
64.0
 41
0.0
 71
     5
 72
     1
  1
\A1;%%c106
 11
0.0000000000000001
 21
1.0
 31
0.0
1001
ACAD
1000
MTEXTBEGIN
1070
    73
1070
     1
1070
    44
1040
1.0
1070
    74
1070
     0
1000
MTEXTEND
  0
POINT
  5
254F
330
218A
100
AcDbEntity
  8
DEFPOINTS
 62
     0
100
AcDbPoint
 10
325.8929756703073
 20
-3359.369525143746
 30
0.0
  0
POINT
  5
2550
330
218A
100
AcDbEntity
  8
DEFPOINTS
 62
     0
100
AcDbPoint
 10
325.8929756703073
 20
-3465.369525143745
 30
0.0
  0
POINT
  5
2551
330
218A
100
AcDbEntity
  8
DEFPOINTS
 62
     0
100
AcDbPoint
 10
494.6745863341779
 20
-3465.369525143745
 30
0.0
  0
ENDBLK
  5
2195
330
218A
100
AcDbEntity
  8
0
100
AcDbBlockEnd
  0
BLOCK
  5
21A0
330
2196
100
AcDbEntity
  8
0
100
AcDbBlockBegin
  2
*D90
 70
     1
 10
0.0
 20
0.0
 30
0.0
  3
*D90
  1

  0
LINE
  5
2506
330
2196
100
AcDbEntity
  8
SIZE
 62
     0
100
AcDbLine
 10
-44.10702432969265
 20
-3668.369525143745
 30
0.0
 11
-44.10702432969268
 21
-4135.111601763441
 31
0.0
  0
LINE
  5
2507
330
2196
100
AcDbEntity
  8
SIZE
 62
     0
100
AcDbLine
 10
-252.1070243296926
 20
-3648.369525143746
 30
0.0
 11
-252.1070243296926
 21
-4135.111601763441
 31
0.0
  0
LINE
  5
2508
330
2196
100
AcDbEntity
  8
SIZE
 62
     0
100
AcDbLine
 10
-54.10702432969268
 20
-4115.111601763441
 30
0.0
 11
-242.1070243296926
 21
-4115.111601763441
 31
0.0
  0
INSERT
  5
2509
330
2196
100
AcDbEntity
  8
SIZE
 62
     0
100
AcDbBlockReference
  2
_ORIGIN
 10
-44.10702432969268
 20
-4115.111601763441
 30
0.0
 41
10.0
 42
10.0
 43
10.0
  0
INSERT
  5
250A
330
2196
100
AcDbEntity
  8
SIZE
 62
     0
100
AcDbBlockReference
  2
_ORIGIN
 10
-252.1070243296926
 20
-4115.111601763441
 30
0.0
 41
10.0
 42
10.0
 43
10.0
 50
180.0
  0
MTEXT
  5
250B
330
2196
100
AcDbEntity
  8
SIZE
 62
     0
100
AcDbMText
 10
-148.1070243296926
 20
-4073.111601763441
 30
0.0
 40
64.0
 41
0.0
 71
     5
 72
     1
  1
\A1;208
1001
ACAD
1000
MTEXTBEGIN
1070
    73
1070
     1
1070
    44
1040
1.0
1070
    74
1070
     0
1000
MTEXTEND
  0
POINT
  5
250C
330
2196
100
AcDbEntity
  8
DEFPOINTS
 62
     0
100
AcDbPoint
 10
-44.10702432969265
 20
-3648.369525143746
 30
0.0
  0
POINT
  5
250D
330
2196
100
AcDbEntity
  8
DEFPOINTS
 62
     0
100
AcDbPoint
 10
-252.1070243296926
 20
-3628.369525143745
 30
0.0
  0
POINT
  5
250E
330
2196
100
AcDbEntity
  8
DEFPOINTS
 62
     0
100
AcDbPoint
 10
-252.1070243296926
 20
-4115.111601763441
 30
0.0
  0
ENDBLK
  5
21A1
330
2196
100
AcDbEntity
  8
0
100
AcDbBlockEnd
  0
BLOCK
  5
21AC
330
21A2
100
AcDbEntity
  8
0
100
AcDbBlockBegin
  2
*D91
 70
     1
 10
0.0
 20
0.0
 30
0.0
  3
*D91
  1

  0
LINE
  5
2522
330
21A2
100
AcDbEntity
  8
SIZE
 62
     0
100
AcDbLine
 10
-272.1070243296926
 20
-3628.369525143745
 30
0.0
 11
-443.004470091772
 21
-3628.369525143745
 31
0.0
  0
LINE
  5
2523
330
21A2
100
AcDbEntity
  8
SIZE
 62
     0
100
AcDbLine
 10
-252.1070243296926
 20
-3668.369525143745
 30
0.0
 11
-443.004470091772
 21
-3668.369525143745
 31
0.0
  0
LINE
  5
2524
330
21A2
100
AcDbEntity
  8
SIZE
 62
     0
100
AcDbLine
 10
-423.004470091772
 20
-3638.369525143746
 30
0.0
 11
-423.004470091772
 21
-3658.369525143745
 31
0.0
  0
INSERT
  5
2525
330
21A2
100
AcDbEntity
  8
SIZE
 62
     0
100
AcDbBlockReference
  2
_ORIGIN
 10
-423.004470091772
 20
-3628.369525143745
 30
0.0
 41
10.0
 42
10.0
 43
10.0
 50
90.0
  0
INSERT
  5
2526
330
21A2
100
AcDbEntity
  8
SIZE
 62
     0
100
AcDbBlockReference
  2
_ORIGIN
 10
-423.004470091772
 20
-3668.369525143745
 30
0.0
 41
10.0
 42
10.0
 43
10.0
 50
270.0
  0
MTEXT
  5
2527
330
21A2
100
AcDbEntity
  8
SIZE
 62
     0
100
AcDbMText
 10
-465.0044700917715
 20
-3648.369525143746
 30
0.0
 40
64.0
 41
0.0
 71
     5
 72
     1
  1
\A1;40
 11
0.0000000000000001
 21
1.0
 31
0.0
1001
ACAD
1000
MTEXTBEGIN
1070
    73
1070
     1
1070
    44
1040
1.0
1070
    74
1070
     0
1000
MTEXTEND
  0
POINT
  5
2528
330
21A2
100
AcDbEntity
  8
DEFPOINTS
 62
     0
100
AcDbPoint
 10
-252.1070243296926
 20
-3628.369525143745
 30
0.0
  0
POINT
  5
2529
330
21A2
100
AcDbEntity
  8
DEFPOINTS
 62
     0
100
AcDbPoint
 10
-232.1070243296926
 20
-3668.369525143745
 30
0.0
  0
POINT
  5
252A
330
21A2
100
AcDbEntity
  8
DEFPOINTS
 62
     0
100
AcDbPoint
 10
-423.004470091772
 20
-3668.369525143745
 30
0.0
  0
ENDBLK
  5
21AD
330
21A2
100
AcDbEntity
  8
0
100
AcDbBlockEnd
  0
BLOCK
  5
21BA
330
21AE
100
AcDbEntity
  8
0
100
AcDbBlockBegin
  2
*D92
 70
     1
 10
0.0
 20
0.0
 30
0.0
  3
*D92
  1

  0
LINE
  5
24E8
330
21AE
100
AcDbEntity
  8
SIZE
 62
     0
100
AcDbLine
 10
-272.1070243296926
 20
-3628.369525143745
 30
0.0
 11
-631.25410511269
 21
-3628.369525143745
 31
0.0
  0
LINE
  5
24E9
330
21AE
100
AcDbEntity
  8
SIZE
 62
     0
100
AcDbLine
 10
-162.1070243296926
 20
-3698.369525143746
 30
0.0
 11
-631.25410511269
 21
-3698.369525143746
 31
0.0
  0
LINE
  5
24EA
330
21AE
100
AcDbEntity
  8
SIZE
 62
     0
100
AcDbLine
 10
-611.25410511269
 20
-3618.369525143745
 30
0.0
 11
-611.25410511269
 21
-3608.369525143745
 31
0.0
  0
LINE
  5
24EB
330
21AE
100
AcDbEntity
  8
SIZE
 62
     0
100
AcDbLine
 10
-611.25410511269
 20
-3708.369525143745
 30
0.0
 11
-611.25410511269
 21
-3718.369525143745
 31
0.0
  0
LINE
  5
24EC
330
21AE
100
AcDbEntity
  8
SIZE
 62
     0
100
AcDbLine
 10
-611.25410511269
 20
-3628.369525143745
 30
0.0
 11
-611.25410511269
 21
-3698.369525143746
 31
0.0
  0
INSERT
  5
24ED
330
21AE
100
AcDbEntity
  8
SIZE
 62
     0
100
AcDbBlockReference
  2
_ORIGIN
 10
-611.25410511269
 20
-3628.369525143745
 30
0.0
 41
10.0
 42
10.0
 43
10.0
 50
270.0
  0
INSERT
  5
24EE
330
21AE
100
AcDbEntity
  8
SIZE
 62
     0
100
AcDbBlockReference
  2
_ORIGIN
 10
-611.25410511269
 20
-3698.369525143746
 30
0.0
 41
10.0
 42
10.0
 43
10.0
 50
90.0
  0
MTEXT
  5
24EF
330
21AE
100
AcDbEntity
  8
SIZE
 62
     0
100
AcDbMText
 10
-653.2541051126894
 20
-3663.369525143746
 30
0.0
 40
64.0
 41
0.0
 71
     5
 72
     1
  1
\A1;70
 11
0.0000000000000001
 21
1.0
 31
0.0
1001
ACAD
1000
MTEXTBEGIN
1070
    73
1070
     1
1070
    44
1040
1.0
1070
    74
1070
     0
1000
MTEXTEND
  0
POINT
  5
24F0
330
21AE
100
AcDbEntity
  8
DEFPOINTS
 62
     0
100
AcDbPoint
 10
-252.1070243296926
 20
-3628.369525143745
 30
0.0
  0
POINT
  5
24F1
330
21AE
100
AcDbEntity
  8
DEFPOINTS
 62
     0
100
AcDbPoint
 10
-142.1070243296926
 20
-3698.369525143746
 30
0.0
  0
POINT
  5
24F2
330
21AE
100
AcDbEntity
  8
DEFPOINTS
 62
     0
100
AcDbPoint
 10
-611.25410511269
 20
-3698.369525143746
 30
0.0
  0
ENDBLK
  5
21BB
330
21AE
100
AcDbEntity
  8
0
100
AcDbBlockEnd
  0
ENDSEC
  0
SECTION
  2
ENTITIES
  0
LINE
  5
FC8
330
1E
100
AcDbEntity
  8
DETAIL
100
AcDbLine
 10
-216.0
 20
213.0
 30
0.0
 11
216.0
 21
213.0
 31
0.0
  0
LINE
  5
FC9
330
1E
100
AcDbEntity
  8
DETAIL
100
AcDbLine
 10
216.0
 20
0.0
 30
0.0
 11
216.0
 21
283.0
 31
0.0
  0
LINE
  5
FCA
330
1E
100
AcDbEntity
  8
DETAIL
100
AcDbLine
 10
-216.0
 20
0.0
 30
0.0
 11
-216.0
 21
283.0
 31
0.0
  0
LINE
  5
FCB
330
1E
100
AcDbEntity
  8
DETAIL
100
AcDbLine
 10
-216.0
 20
0.0
 30
0.0
 11
216.0
 21
0.0
 31
0.0
  0
LINE
  5
FCC
330
1E
100
AcDbEntity
  8
DETAIL
100
AcDbLine
 10
-216.0
 20
283.0
 30
0.0
 11
216.0
 21
283.0
 31
0.0
  0
LINE
  5
FE5
330
1E
100
AcDbEntity
  8
BASIS
  6
DASHDOT
100
AcDbLine
 10
0.0
 20
321.3852002266721
 30
0.0
 11
0.0
 21
-63.42184051458753
 31
0.0
  0
LINE
  5
FE6
330
1E
100
AcDbEntity
  8
DETAIL
100
AcDbLine
 10
-175.0
 20
190.2000000000002
 30
0.0
 11
-121.0
 21
190.2000000000002
 31
0.0
  0
LINE
  5
FE7
330
1E
100
AcDbEntity
  8
DETAIL
100
AcDbLine
 10
-175.0
 20
186.7000000000002
 30
0.0
 11
-121.2
 21
186.7000000000002
 31
0.0
  0
LINE
  5
FE8
330
1E
100
AcDbEntity
  8
DETAIL
100
AcDbLine
 10
-115.0
 20
184.2000000000002
 30
0.0
 11
-115.0
 21
180.2000000000002
 31
0.0
  0
LINE
  5
FE9
330
1E
100
AcDbEntity
  8
DETAIL
100
AcDbLine
 10
-175.0
 20
190.2000000000002
 30
0.0
 11
-175.0
 21
150.2000000000005
 31
0.0
  0
LINE
  5
FEA
330
1E
100
AcDbEntity
  8
BASIS
  6
DASHDOT
100
AcDbLine
 10
145.0
 20
200.5923150472667
 30
0.0
 11
145.0
 21
141.1973319825633
 31
0.0
  0
LINE
  5
FEB
330
1E
100
AcDbEntity
  8
DETAIL
100
AcDbLine
 10
-118.2
 20
183.7000000000002
 30
0.0
 11
-118.1999999999998
 21
180.2000000000002
 31
0.0
  0
LINE
  5
FEC
330
1E
100
AcDbEntity
  8
DETAIL
100
AcDbLine
 10
-118.1999999999998
 20
180.2000000000002
 30
0.0
 11
-115.0
 21
180.2000000000002
 31
0.0
  0
ARC
  5
FED
330
1E
100
AcDbEntity
  8
DETAIL
100
AcDbCircle
 10
-121.2
 20
183.7000000000002
 30
0.0
 40
3.0
100
AcDbArc
 50
0.0000000000000509
 51
90.0
  0
ARC
  5
FEE
330
1E
100
AcDbEntity
  8
DETAIL
100
AcDbCircle
 10
-121.0
 20
184.2000000000002
 30
0.0
 40
6.0
100
AcDbArc
 50
0.0
 51
90.0
  0
LINE
  5
FEF
330
1E
100
AcDbEntity
  8
DETAIL
100
AcDbLine
 10
-121.2
 20
186.7000000000002
 30
0.0
 11
-121.1999999999998
 21
150.2000000000002
 31
0.0
  0
LINE
  5
FF0
330
1E
100
AcDbEntity
  8
DETAIL
100
AcDbLine
 10
-175.0
 20
150.2000000000005
 30
0.0
 11
-121.1999999999998
 21
150.2000000000002
 31
0.0
  0
LINE
  5
FF2
330
1E
100
AcDbEntity
  8
BASIS
100
AcDbLine
 10
-145.0
 20
200.5923150472667
 30
0.0
 11
-145.0
 21
141.1973319825633
 31
0.0
  0
CIRCLE
  5
FFA
330
1E
100
AcDbEntity
  8
DETAIL
100
AcDbCircle
 10
-162.0
 20
178.2000000000002
 30
0.0
 40
2.75
  0
CIRCLE
  5
FFB
330
1E
100
AcDbEntity
  8
DETAIL
100
AcDbCircle
 10
-131.0
 20
161.2000000000002
 30
0.0
 40
2.75
  0
LINE
  5
FFD
330
1E
100
AcDbEntity
  8
DETAIL
100
AcDbLine
 10
115.0
 20
190.2000000000002
 30
0.0
 11
169.0
 21
190.2000000000002
 31
0.0
  0
LINE
  5
FFE
330
1E
100
AcDbEntity
  8
DETAIL
100
AcDbLine
 10
115.0
 20
186.7000000000002
 30
0.0
 11
168.8000000000001
 21
186.7000000000002
 31
0.0
  0
LINE
  5
FFF
330
1E
100
AcDbEntity
  8
DETAIL
100
AcDbLine
 10
115.0
 20
150.2000000000005
 30
0.0
 11
168.8000000000001
 21
150.2000000000002
 31
0.0
  0
LINE
  5
1000
330
1E
100
AcDbEntity
  8
DETAIL
100
AcDbLine
 10
115.0
 20
190.2000000000002
 30
0.0
 11
115.0
 21
150.2000000000005
 31
0.0
  0
CIRCLE
  5
1001
330
1E
100
AcDbEntity
  8
DETAIL
100
AcDbCircle
 10
128.0
 20
178.2000000000002
 30
0.0
 40
2.75
  0
LINE
  5
1002
330
1E
100
AcDbEntity
  8
DETAIL
100
AcDbLine
 10
168.8000000000001
 20
186.7000000000002
 30
0.0
 11
168.8000000000001
 21
150.2000000000002
 31
0.0
  0
LINE
  5
1003
330
1E
100
AcDbEntity
  8
DETAIL
100
AcDbLine
 10
171.8000000000001
 20
180.2000000000002
 30
0.0
 11
175.0
 21
180.2000000000002
 31
0.0
  0
ARC
  5
1004
330
1E
100
AcDbEntity
  8
DETAIL
100
AcDbCircle
 10
168.8000000000001
 20
183.7000000000002
 30
0.0
 40
3.0
100
AcDbArc
 50
0.0000000000000509
 51
90.0
  0
LINE
  5
1005
330
1E
100
AcDbEntity
  8
DETAIL
100
AcDbLine
 10
171.8000000000001
 20
183.7000000000002
 30
0.0
 11
171.8000000000001
 21
180.2000000000002
 31
0.0
  0
ARC
  5
1006
330
1E
100
AcDbEntity
  8
DETAIL
100
AcDbCircle
 10
169.0
 20
184.2000000000002
 30
0.0
 40
6.0
100
AcDbArc
 50
0.0
 51
90.0
  0
LINE
  5
1007
330
1E
100
AcDbEntity
  8
DETAIL
100
AcDbLine
 10
175.0
 20
184.2000000000002
 30
0.0
 11
175.0
 21
180.2000000000002
 31
0.0
  0
CIRCLE
  5
1008
330
1E
100
AcDbEntity
  8
DETAIL
100
AcDbCircle
 10
159.0
 20
161.2000000000002
 30
0.0
 40
2.75
  0
LINE
  5
104A
330
1E
100
AcDbEntity
  8
DETAIL
100
AcDbLine
 10
-285.9999999999997
 20
160.0
 30
0.0
 11
-216.0
 21
160.0
 31
0.0
  0
LINE
  5
104B
330
1E
100
AcDbEntity
  8
DETAIL
100
AcDbLine
 10
-285.9999999999997
 20
110.0
 30
0.0
 11
-216.0
 21
110.0
 31
0.0
  0
LINE
  5
104C
330
1E
100
AcDbEntity
  8
BASIS
  6
DASHDOT
100
AcDbLine
 10
-298.4738273683396
 20
135.0
 30
0.0
 11
-201.8176550485004
 21
135.0
 31
0.0
  0
LINE
  5
104D
330
1E
100
AcDbEntity
  8
DETAIL
100
AcDbLine
 10
-285.9999999999997
 20
110.0
 30
0.0
 11
-285.9999999999997
 21
160.0
 31
0.0
  0
LINE
  5
106A
330
1E
100
AcDbEntity
  8
BASIS
  6
DASHDOT
100
AcDbLine
 10
-260.6169765996674
 20
25.0
 30
0.0
 11
-208.936283002462
 21
25.0
 31
0.0
  0
LINE
  5
106C
330
1E
100
AcDbEntity
  8
DETAIL
100
AcDbLine
 10
-252.0
 20
34.8149545762235
 30
0.0
 11
-252.0
 21
15.1850454237765
 31
0.0
  0
LINE
  5
106F
330
1E
100
AcDbEntity
  8
DETAIL
100
AcDbLine
 10
-252.0
 20
32.26844489039649
 30
0.0
 11
-256.0
 21
31.0
 31
0.0
  0
LINE
  5
1070
330
1E
100
AcDbEntity
  8
DETAIL
100
AcDbLine
 10
-256.0
 20
31.0
 30
0.0
 11
-256.0
 21
19.0
 31
0.0
  0
LINE
  5
1071
330
1E
100
AcDbEntity
  8
DETAIL
100
AcDbLine
 10
-252.0
 20
17.7315551096035
 30
0.0
 11
-256.0
 21
19.0
 31
0.0
  0
LINE
  5
1072
330
1E
100
AcDbEntity
  8
DETAIL
100
AcDbLine
 10
-241.0
 20
34.8149545762235
 30
0.0
 11
-241.0
 21
15.1850454237765
 31
0.0
  0
LINE
  5
1073
330
1E
100
AcDbEntity
  8
DETAIL
100
AcDbLine
 10
-241.0
 20
25.0
 30
0.0
 11
-252.0
 21
25.0
 31
0.0
  0
LINE
  5
1074
330
1E
100
AcDbEntity
  8
DETAIL
100
AcDbLine
 10
-252.0
 20
29.90747728811175
 30
0.0
 11
-241.0
 21
29.90747728811129
 31
0.0
  0
LINE
  5
1075
330
1E
100
AcDbEntity
  8
DETAIL
100
AcDbLine
 10
-252.0
 20
20.09252271188825
 30
0.0
 11
-241.0
 21
20.09252271188825
 31
0.0
  0
LINE
  5
1076
330
1E
100
AcDbEntity
  8
DETAIL
100
AcDbLine
 10
-252.0
 20
34.8149545762235
 30
0.0
 11
-241.0
 21
34.8149545762235
 31
0.0
  0
LINE
  5
1077
330
1E
100
AcDbEntity
  8
DETAIL
100
AcDbLine
 10
-252.0
 20
15.1850454237765
 30
0.0
 11
-241.0
 21
15.1850454237765
 31
0.0
  0
LINE
  5
107F
330
1E
100
AcDbEntity
  8
DETAIL
100
AcDbLine
 10
-241.0
 20
30.5
 30
0.0
 11
-238.7999999999999
 21
30.5
 31
0.0
  0
LINE
  5
1080
330
1E
100
AcDbEntity
  8
DETAIL
100
AcDbLine
 10
-241.0
 20
19.5
 30
0.0
 11
-238.7999999999999
 21
19.5
 31
0.0
  0
LINE
  5
1081
330
1E
100
AcDbEntity
  8
DETAIL
100
AcDbLine
 10
-238.7999999999999
 20
32.50555349946489
 30
0.0
 11
-238.7999999999999
 21
17.4944465005351
 31
0.0
  0
LINE
  5
1082
330
1E
100
AcDbEntity
  8
DETAIL
100
AcDbLine
 10
-229.7999999999997
 20
32.50555349946489
 30
0.0
 11
-229.7999999999999
 21
17.4944465005351
 31
0.0
  0
LINE
  5
108A
330
1E
100
AcDbEntity
  8
DETAIL
100
AcDbLine
 10
-238.7999999999999
 20
32.50555349946489
 30
0.0
 11
-229.7999999999997
 21
32.50555349946489
 31
0.0
  0
LINE
  5
108B
330
1E
100
AcDbEntity
  8
DETAIL
100
AcDbLine
 10
-238.7999999999999
 20
17.4944465005351
 30
0.0
 11
-229.7999999999999
 21
17.4944465005351
 31
0.0
  0
LINE
  5
108C
330
1E
100
AcDbEntity
  8
DETAIL
100
AcDbLine
 10
-238.8000000000001
 20
28.75277674973222
 30
0.0
 11
-229.7999999999997
 21
28.75277674973222
 31
0.0
  0
LINE
  5
108D
330
1E
100
AcDbEntity
  8
DETAIL
100
AcDbLine
 10
-238.8000000000001
 20
21.24722325026778
 30
0.0
 11
-229.7999999999999
 21
21.24722325026778
 31
0.0
  0
LINE
  5
108E
330
1E
100
AcDbEntity
  8
DETAIL
  6
DASHDOT
100
AcDbLine
 10
-229.7999999999997
 20
28.0
 30
0.0
 11
-216.0
 21
28.0
 31
0.0
  0
LINE
  5
108F
330
1E
100
AcDbEntity
  8
DETAIL
  6
DASHDOT
100
AcDbLine
 10
-229.7999999999997
 20
22.0
 30
0.0
 11
-216.0
 21
22.0
 31
0.0
  0
CIRCLE
  5
10E3
330
1E
100
AcDbEntity
  8
ARRANGE
  6
CONTINUOUS
100
AcDbCircle
 10
0.0
 20
0.0
 30
0.0
 40
40.0
  0
POINT
  5
10E4
330
1E
100
AcDbEntity
  8
ARRANGE
  6
CONTINUOUS
100
AcDbPoint
 10
0.0
 20
0.0
 30
0.0
  0
LINE
  5
1116
330
1E
100
AcDbEntity
  8
BASIS
  6
DASHDOT
100
AcDbLine
 10
-118.4888360197546
 20
128.9816798560423
 30
0.0
 11
118.4888360197546
 21
128.9816798560423
 31
0.0
  0
CIRCLE
  5
111B
330
1E
100
AcDbEntity
  8
DETAIL
100
AcDbCircle
 10
0.0
 20
128.9816798560423
 30
0.0
 40
53.0
  0
LINE
  5
111C
330
1E
100
AcDbEntity
  8
DETAIL
100
AcDbLine
 10
-93.0
 20
211.5
 30
0.0
 11
93.0
 21
211.5
 31
0.0
  0
LINE
  5
111D
330
1E
100
AcDbEntity
  8
DETAIL
100
AcDbLine
 10
-93.0
 20
46.5
 30
0.0
 11
93.0
 21
46.5
 31
0.0
  0
LINE
  5
111E
330
1E
100
AcDbEntity
  8
DETAIL
  6
DASHDOT
100
AcDbLine
 10
93.0
 20
211.5
 30
0.0
 11
93.0
 21
46.5
 31
0.0
  0
LINE
  5
111F
330
1E
100
AcDbEntity
  8
DETAIL
  6
DASHDOT
100
AcDbLine
 10
-93.0
 20
211.5
 30
0.0
 11
-93.0
 21
46.5
 31
0.0
  0
CIRCLE
  5
1121
330
1E
100
AcDbEntity
  8
DETAIL
100
AcDbCircle
 10
0.0
 20
128.9816798560423
 30
0.0
 40
50.0
  0
CIRCLE
  5
1122
330
1E
100
AcDbEntity
  8
DETAIL
100
AcDbCircle
 10
0.0
 20
128.9816798560423
 30
0.0
 40
49.2
  0
TEXT
  5
16B2
330
1E
100
AcDbEntity
  8
ETC
  6
CONTINUOUS
100
AcDbText
 10
367.0377116695599
 20
833.0871767016324
 30
0.0
 40
64.0
  1
SPAC5104
 41
0.9
100
AcDbText
  0
TEXT
  5
16B3
330
1E
100
AcDbEntity
  8
ETC
  6
CONTINUOUS
100
AcDbText
 10
367.0377116695599
 20
942.6289783402571
 30
0.0
 40
64.0
  1
PAC別売
 41
0.9
100
AcDbText
  0
LINE
  5
1749
330
1E
100
AcDbEntity
  8
BASIS
100
AcDbLine
 10
-226.9637926089671
 20
32.0
 30
0.0
 11
-205.0362073910327
 21
32.0
 31
0.0
  0
LINE
  5
1772
330
1E
100
AcDbEntity
  8
NOTE
  6
CONTINUOUS
100
AcDbLine
 10
309.0607432394163
 20
506.7588969366524
 30
0.0
 11
969.5882971701866
 21
506.7588969366524
 31
0.0
  0
TEXT
  5
1773
330
1E
100
AcDbEntity
  8
NOTE
  6
CONTINUOUS
100
AcDbText
 10
308.6130142273068
 20
427.9335842643576
 30
0.0
 40
64.0
  1
（M10 吊ﾎﾞﾙﾄ用ﾌｯｸ）
 41
0.9
100
AcDbText
  0
TEXT
  5
1774
330
1E
100
AcDbEntity
  8
NOTE
  6
CONTINUOUS
100
AcDbText
 10
335.8616350741976
 20
526.9709069366526
 30
0.0
 40
64.0
  1
AH 4-U cut
 41
0.9
100
AcDbText
  0
LINE
  5
1775
330
1E
100
AcDbEntity
  8
NOTE
  6
CONTINUOUS
100
AcDbLine
 10
145.0
 20
190.2000000000002
 30
0.0
 11
309.0607432394163
 21
506.7588969366524
 31
0.0
  0
LWPOLYLINE
  5
1776
330
1E
100
AcDbEntity
  8
NOTE
  6
CONTINUOUS
100
AcDbPolyline
 90
        3
 70
     0
 43
0.0
 10
153.2891081884549
 20
229.3317089961544
 10
145.0
 20
190.2000000000002
 10
171.7444329674358
 20
219.9445001227591
  0
LINE
  5
1777
330
1E
100
AcDbEntity
  8
NOTE
  6
CONTINUOUS
100
AcDbLine
 10
145.0
 20
210.2000000000002
 30
0.0
 11
145.0
 21
170.2000000000002
 31
0.0
  0
CIRCLE
  5
1778
330
1E
100
AcDbEntity
  8
FIX
  6
CONTINUOUS
100
AcDbCircle
 10
145.0
 20
190.2000000000002
 30
0.0
 40
5.0
  0
LINE
  5
1779
330
1E
100
AcDbEntity
  8
NOTE
  6
CONTINUOUS
100
AcDbLine
 10
165.0
 20
190.2000000000002
 30
0.0
 11
125.0
 21
190.2000000000002
 31
0.0
  0
TEXT
  5
178E
330
1E
100
AcDbEntity
  8
NOTE
  6
CONTINUOUS
100
AcDbText
 10
-420.2038467413329
 20
533.2197876241045
 30
0.0
 40
64.0
  1
AH
 41
0.9
100
AcDbText
  0
LINE
  5
178F
330
1E
100
AcDbEntity
  8
NOTE
  6
CONTINUOUS
100
AcDbLine
 10
-280.9284467739967
 20
517.0296673257983
 30
0.0
 11
-433.255880894181
 21
517.0296673257983
 31
0.0
  0
LINE
  5
1790
330
1E
100
AcDbEntity
  8
NOTE
  6
CONTINUOUS
100
AcDbLine
 10
-145.0
 20
190.2000000000002
 30
0.0
 11
-280.9284467739967
 21
517.0296673257983
 31
0.0
  0
LWPOLYLINE
  5
1791
330
1E
100
AcDbEntity
  8
NOTE
  6
CONTINUOUS
100
AcDbPolyline
 90
        3
 70
     0
 43
0.0
 10
-170.2761683828989
 20
221.2018599049236
 10
-145.0
 20
190.2000000000002
 10
-151.3888737261004
 20
229.6864825374002
  0
CIRCLE
  5
1792
330
1E
100
AcDbEntity
  8
FIX
  6
CONTINUOUS
100
AcDbCircle
 10
-145.0
 20
190.2000000000002
 30
0.0
 40
5.0
  0
LINE
  5
1793
330
1E
100
AcDbEntity
  8
NOTE
  6
CONTINUOUS
100
AcDbLine
 10
-145.0
 20
210.2000000000002
 30
0.0
 11
-145.0
 21
170.2000000000002
 31
0.0
  0
LINE
  5
1794
330
1E
100
AcDbEntity
  8
NOTE
  6
CONTINUOUS
100
AcDbLine
 10
-125.0
 20
190.2000000000002
 30
0.0
 11
-165.0
 21
190.2000000000002
 31
0.0
  0
LINE
  5
1797
330
1E
100
AcDbEntity
  8
NOTE
  6
CONTINUOUS
100
AcDbLine
 10
-285.9999999999995
 20
135.0
 30
0.0
 11
-384.0220336328457
 21
384.1737180567145
 31
0.0
  0
TEXT
  5
1798
330
1E
100
AcDbEntity
  8
NOTE
  6
CONTINUOUS
100
AcDbText
 10
-768.0279663683381
 20
404.5041663152587
 30
0.0
 40
64.0
  1
D VP-25
 41
0.9
100
AcDbText
  0
LINE
  5
1799
330
1E
100
AcDbEntity
  8
NOTE
  6
CONTINUOUS
100
AcDbLine
 10
-775.3695948402674
 20
384.1737180567138
 30
0.0
 11
-384.0220336328457
 21
384.1737180567145
 31
0.0
  0
LWPOLYLINE
  5
179A
330
1E
100
AcDbEntity
  8
NOTE
  6
CONTINUOUS
100
AcDbPolyline
 90
        3
 70
     0
 43
0.0
 10
-309.8546181623232
 20
167.1085219810857
 10
-285.9999999999995
 20
135.0
 10
-290.6044444602471
 20
174.7341048109806
  0
LINE
  5
179B
330
1E
100
AcDbEntity
  8
NOTE
  6
CONTINUOUS
100
AcDbLine
 10
-265.9999999999997
 20
135.0
 30
0.0
 11
-305.9999999999997
 21
135.0
 31
0.0
  0
LINE
  5
179C
330
1E
100
AcDbEntity
  8
NOTE
  6
CONTINUOUS
100
AcDbLine
 10
-285.9999999999997
 20
155.0
 30
0.0
 11
-285.9999999999997
 21
115.0
 31
0.0
  0
LINE
  5
179F
330
1E
100
AcDbEntity
  8
NOTE
  6
CONTINUOUS
100
AcDbLine
 10
-703.8881985055109
 20
265.5362182723042
 30
0.0
 11
-458.8839207527903
 21
265.5362182723044
 31
0.0
  0
TEXT
  5
17A0
330
1E
100
AcDbEntity
  8
NOTE
  6
CONTINUOUS
100
AcDbText
 10
-682.7329614642731
 20
284.9457772723039
 30
0.0
 40
64.0
  1
EL,CL
 41
0.9
100
AcDbText
  0
LINE
  5
17A1
330
1E
100
AcDbEntity
  8
NOTE
  6
CONTINUOUS
100
AcDbLine
 10
-216.0000000000002
 20
32.0
 30
0.0
 11
-458.8839207527903
 21
265.5362182723044
 31
0.0
  0
LWPOLYLINE
  5
17A2
330
1E
100
AcDbEntity
  8
NOTE
  6
CONTINUOUS
100
AcDbPolyline
 90
        3
 70
     0
 43
0.0
 10
-251.0724195214554
 20
51.2334443194959
 10
-216.0000000000002
 20
32.0
 10
-236.7568842380685
 20
66.19286110644861
  0
LINE
  5
17A3
330
1E
100
AcDbEntity
  8
NOTE
  6
CONTINUOUS
100
AcDbLine
 10
-196.0
 20
32.0
 30
0.0
 11
-236.0
 21
32.0
 31
0.0
  0
LINE
  5
17A4
330
1E
100
AcDbEntity
  8
NOTE
  6
CONTINUOUS
100
AcDbLine
 10
-216.0
 20
52.0
 30
0.0
 11
-216.0
 21
12.0
 31
0.0
  0
LINE
  5
17A6
330
1E
100
AcDbEntity
  8
NOTE
  6
CONTINUOUS
100
AcDbLine
 10
-807.7245379969095
 20
-167.5419330150662
 30
0.0
 11
-384.4714789447616
 21
-167.5419330150653
 31
0.0
  0
TEXT
  5
17A7
330
1E
100
AcDbEntity
  8
NOTE
  6
CONTINUOUS
100
AcDbText
 10
-844.3783350803073
 20
-263.0277341179944
 30
0.0
 40
64.0
  1
（フレア接続）
 41
0.9
100
AcDbText
  0
TEXT
  5
17A8
330
1E
100
AcDbEntity
  8
NOTE
  6
CONTINUOUS
100
AcDbText
 10
-795.6244597442577
 20
-148.1323740150664
 30
0.0
 40
64.0
  1
CW 1/4F
 41
0.9
100
AcDbText
  0
LINE
  5
17A9
330
1E
100
AcDbEntity
  8
NOTE
  6
CONTINUOUS
100
AcDbLine
 10
-256.0
 20
25.0
 30
0.0
 11
-384.4714789447616
 21
-167.5419330150653
 31
0.0
  0
LWPOLYLINE
  5
17AA
330
1E
100
AcDbEntity
  8
NOTE
  6
CONTINUOUS
100
AcDbPolyline
 90
        3
 70
     0
 43
0.0
 10
-268.7430377586729
 20
-12.91589350340018
 10
-256.0
 20
25.0
 10
-285.9937411142605
 20
-1.464608213388601
  0
LINE
  5
17AB
330
1E
100
AcDbEntity
  8
NOTE
  6
CONTINUOUS
100
AcDbLine
 10
-236.0
 20
25.0
 30
0.0
 11
-276.0
 21
25.0
 31
0.0
  0
LINE
  5
17AC
330
1E
100
AcDbEntity
  8
NOTE
  6
CONTINUOUS
100
AcDbLine
 10
-256.0
 20
45.0
 30
0.0
 11
-256.0
 21
5.0
 31
0.0
  0
TEXT
  5
17B2
330
1E
100
AcDbEntity
  8
NOTE
  6
CONTINUOUS
100
AcDbText
 10
194.2117306994582
 20
-154.3566958547762
 30
0.0
 40
64.0
  1
吹出ダクトフランジ
 41
0.9
100
AcDbText
  0
LINE
  5
17B3
330
1E
100
AcDbEntity
  8
NOTE
  6
CONTINUOUS
100
AcDbLine
 10
171.0443184881164
 20
-173.7662548547755
 30
0.0
 11
820.3140253462711
 21
-173.7662548547759
 31
0.0
  0
LINE
  5
17B4
330
1E
100
AcDbEntity
  8
NOTE
  6
CONTINUOUS
100
AcDbLine
 10
0.0
 20
128.981679856042
 30
0.0
 11
171.0443184881164
 21
-173.7662548547755
 31
0.0
  0
LWPOLYLINE
  5
17B5
330
1E
100
AcDbEntity
  8
NOTE
  6
CONTINUOUS
100
AcDbPolyline
 90
        3
 70
     0
 43
0.0
 10
28.15186444544724
 20
100.5656189093642
 10
0.0
 20
128.981679856042
 10
10.17219942599695
 20
90.29671697955382
  0
LINE
  5
263C
330
1E
100
AcDbEntity
  8
SIZE
100
AcDbLine
 10
-216.0
 20
303.0
 30
0.0
 11
-216.0
 21
507.6031473533076
 31
0.0
  0
LINE
  5
263D
330
1E
100
AcDbEntity
  8
SIZE
100
AcDbLine
 10
216.0
 20
303.0
 30
0.0
 11
216.0
 21
507.6031473533076
 31
0.0
  0
LINE
  5
263E
330
1E
100
AcDbEntity
  8
SIZE
100
AcDbLine
 10
-206.0
 20
487.6031473533076
 30
0.0
 11
206.0
 21
487.6031473533076
 31
0.0
  0
LINE
  5
2642
330
1E
100
AcDbEntity
  8
SIZE
100
AcDbLine
 10
-236.0
 20
0.0000000000000057
 30
0.0
 11
-457.7282960399097
 21
0.0000000000000685
 31
0.0
  0
LINE
  5
2643
330
1E
100
AcDbEntity
  8
SIZE
100
AcDbLine
 10
-318.4738273683397
 20
135.0
 30
0.0
 11
-457.7282960399097
 21
135.0
 31
0.0
  0
LINE
  5
2644
330
1E
100
AcDbEntity
  8
SIZE
100
AcDbLine
 10
-437.7282960399098
 20
10.00000000000006
 30
0.0
 11
-437.7282960399098
 21
125.0
 31
0.0
  0
LINE
  5
2648
330
1E
100
AcDbEntity
  8
SIZE
100
AcDbLine
 10
-236.0
 20
0.0000000000000057
 30
0.0
 11
-350.7316519376618
 21
0.0000000000000382
 31
0.0
  0
LINE
  5
2649
330
1E
100
AcDbEntity
  8
SIZE
100
AcDbLine
 10
-280.6169765996674
 20
25.0
 30
0.0
 11
-350.7316519376618
 21
25.00000000000003
 31
0.0
  0
LINE
  5
264A
330
1E
100
AcDbEntity
  8
SIZE
100
AcDbLine
 10
-330.7316519376618
 20
-9.999999999999968
 30
0.0
 11
-330.7316519376618
 21
-19.99999999999996
 31
0.0
  0
LINE
  5
264B
330
1E
100
AcDbEntity
  8
SIZE
100
AcDbLine
 10
-330.7316519376618
 20
35.00000000000001
 30
0.0
 11
-330.7316519376618
 21
45.00000000000001
 31
0.0
  0
LINE
  5
264C
330
1E
100
AcDbEntity
  8
SIZE
100
AcDbLine
 10
-330.7316519376618
 20
0.0000000000000325
 30
0.0
 11
-330.7316519376618
 21
25.00000000000002
 31
0.0
  0
LINE
  5
2650
330
1E
100
AcDbEntity
  8
SIZE
100
AcDbLine
 10
236.0
 20
-0.0000000000000057
 30
0.0
 11
710.0305152902145
 21
-0.0000000000001399
 31
0.0
  0
LINE
  5
2651
330
1E
100
AcDbEntity
  8
SIZE
100
AcDbLine
 10
236.0
 20
283.0
 30
0.0
 11
710.0305152902146
 21
282.9999999999998
 31
0.0
  0
LINE
  5
2652
330
1E
100
AcDbEntity
  8
SIZE
100
AcDbLine
 10
690.0305152902145
 20
9.999999999999866
 30
0.0
 11
690.0305152902147
 21
272.9999999999998
 31
0.0
  0
LINE
  5
2656
330
1E
100
AcDbEntity
  8
SIZE
100
AcDbLine
 10
236.0
 20
-0.0000000000000057
 30
0.0
 11
609.6815786568622
 21
-0.0000000000001115
 31
0.0
  0
LINE
  5
2657
330
1E
100
AcDbEntity
  8
SIZE
100
AcDbLine
 10
236.0
 20
213.0
 30
0.0
 11
609.6815786568622
 21
212.9999999999999
 31
0.0
  0
LINE
  5
2658
330
1E
100
AcDbEntity
  8
SIZE
100
AcDbLine
 10
589.6815786568622
 20
9.999999999999893
 30
0.0
 11
589.6815786568622
 21
202.9999999999998
 31
0.0
  0
LINE
  5
265C
330
1E
100
AcDbEntity
  8
SIZE
100
AcDbLine
 10
-145.0
 20
220.8923150472664
 30
0.0
 11
-145.0
 21
383.81877291626
 31
0.0
  0
LINE
  5
265D
330
1E
100
AcDbEntity
  8
SIZE
100
AcDbLine
 10
145.0
 20
220.8923150472664
 30
0.0
 11
145.0
 21
383.81877291626
 31
0.0
  0
LINE
  5
265E
330
1E
100
AcDbEntity
  8
SIZE
100
AcDbLine
 10
-135.0
 20
363.81877291626
 30
0.0
 11
135.0
 21
363.81877291626
 31
0.0
  0
LINE
  5
2662
330
1E
100
AcDbEntity
  8
SIZE
100
AcDbLine
 10
204.5993626338805
 20
319.0439134705729
 30
0.0
 11
43.95934740445556
 21
169.8176416516748
 31
0.0
  0
LINE
  5
2663
330
1E
100
AcDbEntity
  8
SIZE
100
AcDbLine
 10
-43.95934740445555
 20
88.14571806040943
 30
0.0
 11
-51.28590530519816
 21
81.33972442780395
 31
0.0
  0
LINE
  5
2665
330
1E
100
AcDbEntity
  8
SIZE
100
AcDbLine
 10
-36.63278950371295
 20
94.95171169301489
 30
0.0
 11
36.63278950371295
 21
163.0116480190693
 31
0.0
  0
LINE
  5
2668
330
1E
100
AcDbEntity
  8
SIZE
100
AcDbLine
 10
223.617179573207
 20
-38.71922329624122
 30
0.0
 11
50.40129622395214
 21
91.18340821638314
 31
0.0
  0
LINE
  5
2669
330
1E
100
AcDbEntity
  8
SIZE
100
AcDbLine
 10
-50.40129622395167
 20
166.7799514957014
 30
0.0
 11
-58.4015019737853
 21
172.7796771527902
 31
0.0
  0
LINE
  5
266B
330
1E
100
AcDbEntity
  8
SIZE
100
AcDbLine
 10
-42.40109047411805
 20
160.7802258386127
 30
0.0
 11
42.40109047411851
 21
97.18313387347189
 31
0.0
  0
LINE
  5
266E
330
1E
100
AcDbEntity
  8
SIZE
100
AcDbLine
 10
236.0
 20
-0.0000000000000057
 30
0.0
 11
487.8562555660245
 21
-0.000000000000077
 31
0.0
  0
LINE
  5
266F
330
1E
100
AcDbEntity
  8
SIZE
100
AcDbLine
 10
188.8000000000001
 20
186.7000000000005
 30
0.0
 11
487.8562555660247
 21
186.7000000000004
 31
0.0
  0
LINE
  5
2670
330
1E
100
AcDbEntity
  8
SIZE
100
AcDbLine
 10
467.8562555660246
 20
9.999999999999928
 30
0.0
 11
467.8562555660246
 21
176.7000000000003
 31
0.0
  0
LINE
  5
2674
330
1E
100
AcDbEntity
  8
SIZE
100
AcDbLine
 10
138.4888360197546
 20
128.9816798560423
 30
0.0
 11
366.9744883778913
 21
128.9816798560422
 31
0.0
  0
LINE
  5
2675
330
1E
100
AcDbEntity
  8
SIZE
100
AcDbLine
 10
236.0
 20
-0.0000000000000057
 30
0.0
 11
366.9744883778912
 21
-0.0000000000000428
 31
0.0
  0
LINE
  5
2676
330
1E
100
AcDbEntity
  8
SIZE
100
AcDbLine
 10
346.9744883778913
 20
138.9816798560422
 30
0.0
 11
346.9744883778913
 21
148.9816798560422
 31
0.0
  0
LINE
  5
2677
330
1E
100
AcDbEntity
  8
SIZE
100
AcDbLine
 10
346.9744883778912
 20
-10.00000000000003
 30
0.0
 11
346.9744883778912
 21
-20.00000000000003
 31
0.0
  0
LINE
  5
2678
330
1E
100
AcDbEntity
  8
SIZE
100
AcDbLine
 10
346.9744883778913
 20
128.9816798560422
 30
0.0
 11
346.9744883778912
 21
-0.0000000000000371
 31
0.0
  0
TEXT
  5
267C
330
1E
100
AcDbEntity
  8
SIZE
100
AcDbText
 10
-447.7282960399097
 20
-1.071428571428583
 30
0.0
 40
64.0
  1
135
 50
90.0
 41
0.9
100
AcDbText
  0
CIRCLE
  5
267D
330
1E
100
AcDbEntity
  8
SIZE
  6
BYBLOCK
100
AcDbCircle
 10
-437.7282960399097
 20
135.0
 30
0.0
 40
5.0
  0
LINE
  5
267E
330
1E
100
AcDbEntity
  8
SIZE
  6
BYBLOCK
100
AcDbLine
 10
-437.7282960399097
 20
135.0
 30
0.0
 11
-437.7282960399097
 21
125.0
 31
0.0
  0
TEXT
  5
267F
330
1E
100
AcDbEntity
  8
SIZE
100
AcDbText
 10
-340.7316519376617
 20
-34.12857142857145
 30
0.0
 40
64.0
  1
25
 50
90.0
 41
0.9
100
AcDbText
  0
CIRCLE
  5
2680
330
1E
100
AcDbEntity
  8
SIZE
  6
BYBLOCK
100
AcDbCircle
 10
-437.7282960399098
 20
0.0000000000000628
 30
0.0
 40
5.0
  0
LINE
  5
2681
330
1E
100
AcDbEntity
  8
SIZE
  6
BYBLOCK
100
AcDbLine
 10
-437.7282960399098
 20
0.0000000000000628
 30
0.0
 11
-437.7282960399098
 21
10.00000000000006
 31
0.0
  0
CIRCLE
  5
2682
330
1E
100
AcDbEntity
  8
SIZE
  6
BYBLOCK
100
AcDbCircle
 10
-330.7316519376618
 20
25.00000000000002
 30
0.0
 40
5.0
  0
LINE
  5
2683
330
1E
100
AcDbEntity
  8
SIZE
  6
BYBLOCK
100
AcDbLine
 10
-330.7316519376618
 20
25.00000000000002
 30
0.0
 11
-330.7316519376618
 21
35.00000000000002
 31
0.0
  0
CIRCLE
  5
2684
330
1E
100
AcDbEntity
  8
SIZE
  6
BYBLOCK
100
AcDbCircle
 10
-330.7316519376618
 20
0.0000000000000325
 30
0.0
 40
5.0
  0
LINE
  5
2685
330
1E
100
AcDbEntity
  8
SIZE
  6
BYBLOCK
100
AcDbLine
 10
-330.7316519376618
 20
0.0000000000000325
 30
0.0
 11
-330.7316519376618
 21
-9.999999999999968
 31
0.0
  0
CIRCLE
  5
2686
330
1E
100
AcDbEntity
  8
SIZE
  6
BYBLOCK
100
AcDbCircle
 10
-216.0
 20
487.6031473533076
 30
0.0
 40
5.0
  0
LINE
  5
2687
330
1E
100
AcDbEntity
  8
SIZE
  6
BYBLOCK
100
AcDbLine
 10
-216.0
 20
487.6031473533076
 30
0.0
 11
-206.0
 21
487.6031473533076
 31
0.0
  0
TEXT
  5
2688
330
1E
100
AcDbEntity
  8
SIZE
100
AcDbText
 10
579.6815786568622
 20
37.92857142857144
 30
0.0
 40
64.0
  1
213
 50
90.0
 41
0.9
100
AcDbText
  0
TEXT
  5
2689
330
1E
100
AcDbEntity
  8
SIZE
100
AcDbText
 10
51.80646957333531
 20
190.7561868176283
 30
0.0
 40
64.0
  1
\U+2205100
 50
42.89049717456009
 41
0.9
100
AcDbText
  0
TEXT
  5
268A
330
1E
100
AcDbEntity
  8
SIZE
100
AcDbText
 10
72.40143338070814
 20
87.18416265203927
 30
0.0
 40
64.0
  1
\U+2205106
 50
323.1320671652588
 41
0.9
100
AcDbText
  0
CIRCLE
  5
268B
330
1E
100
AcDbEntity
  8
SIZE
  6
BYBLOCK
100
AcDbCircle
 10
-36.63278950371295
 20
94.95171169301489
 30
0.0
 40
5.0
  0
LINE
  5
268C
330
1E
100
AcDbEntity
  8
SIZE
  6
BYBLOCK
100
AcDbLine
 10
-36.63278950371295
 20
94.95171169301489
 30
0.0
 11
-43.95934740445556
 21
88.14571806040943
 31
0.0
  0
CIRCLE
  5
268D
330
1E
100
AcDbEntity
  8
SIZE
  6
BYBLOCK
100
AcDbCircle
 10
42.40109047411851
 20
97.18313387347189
 30
0.0
 40
5.0
  0
LINE
  5
268E
330
1E
100
AcDbEntity
  8
SIZE
  6
BYBLOCK
100
AcDbLine
 10
42.40109047411851
 20
97.18313387347189
 30
0.0
 11
50.40129622395214
 21
91.18340821638314
 31
0.0
  0
CIRCLE
  5
268F
330
1E
100
AcDbEntity
  8
SIZE
  6
BYBLOCK
100
AcDbCircle
 10
-42.40109047411805
 20
160.7802258386127
 30
0.0
 40
5.0
  0
LINE
  5
2690
330
1E
100
AcDbEntity
  8
SIZE
  6
BYBLOCK
100
AcDbLine
 10
-42.40109047411805
 20
160.7802258386127
 30
0.0
 11
-50.40129622395167
 21
166.7799514957015
 31
0.0
  0
CIRCLE
  5
2691
330
1E
100
AcDbEntity
  8
SIZE
  6
BYBLOCK
100
AcDbCircle
 10
36.63278950371295
 20
163.0116480190693
 30
0.0
 40
5.0
  0
LINE
  5
2692
330
1E
100
AcDbEntity
  8
SIZE
  6
BYBLOCK
100
AcDbLine
 10
36.63278950371295
 20
163.0116480190693
 30
0.0
 11
43.95934740445556
 21
169.8176416516748
 31
0.0
  0
CIRCLE
  5
2693
330
1E
100
AcDbEntity
  8
SIZE
  6
BYBLOCK
100
AcDbCircle
 10
346.9744883778913
 20
128.9816798560422
 30
0.0
 40
5.0
  0
LINE
  5
2694
330
1E
100
AcDbEntity
  8
SIZE
  6
BYBLOCK
100
AcDbLine
 10
346.9744883778913
 20
128.9816798560422
 30
0.0
 11
346.9744883778913
 21
138.9816798560422
 31
0.0
  0
TEXT
  5
2695
330
1E
100
AcDbEntity
  8
SIZE
100
AcDbText
 10
457.8562555660245
 20
24.77857142857168
 30
0.0
 40
64.0
  1
187
 50
90.0
 41
0.9
100
AcDbText
  0
TEXT
  5
2696
330
1E
100
AcDbEntity
  8
SIZE
100
AcDbText
 10
336.9744883778912
 20
-2.709160071978828
 30
0.0
 40
64.0
  1
129
 50
90.0
 41
0.9
100
AcDbText
  0
CIRCLE
  5
2697
330
1E
100
AcDbEntity
  8
SIZE
  6
BYBLOCK
100
AcDbCircle
 10
346.9744883778912
 20
-0.0000000000000371
 30
0.0
 40
5.0
  0
LINE
  5
2698
330
1E
100
AcDbEntity
  8
SIZE
  6
BYBLOCK
100
AcDbLine
 10
346.9744883778912
 20
-0.0000000000000371
 30
0.0
 11
346.9744883778912
 21
-10.00000000000003
 31
0.0
  0
CIRCLE
  5
2699
330
1E
100
AcDbEntity
  8
SIZE
  6
BYBLOCK
100
AcDbCircle
 10
467.8562555660246
 20
-0.0000000000000713
 30
0.0
 40
5.0
  0
LINE
  5
269A
330
1E
100
AcDbEntity
  8
SIZE
  6
BYBLOCK
100
AcDbLine
 10
467.8562555660246
 20
-0.0000000000000713
 30
0.0
 11
467.8562555660246
 21
9.999999999999928
 31
0.0
  0
CIRCLE
  5
269B
330
1E
100
AcDbEntity
  8
SIZE
  6
BYBLOCK
100
AcDbCircle
 10
467.8562555660246
 20
186.7000000000004
 30
0.0
 40
5.0
  0
LINE
  5
269C
330
1E
100
AcDbEntity
  8
SIZE
  6
BYBLOCK
100
AcDbLine
 10
467.8562555660246
 20
186.7000000000004
 30
0.0
 11
467.8562555660246
 21
176.7000000000003
 31
0.0
  0
TEXT
  5
269D
330
1E
100
AcDbEntity
  8
SIZE
100
AcDbText
 10
-74.05714285714285
 20
497.6031473533075
 30
0.0
 40
64.0
  1
432
 41
0.9
100
AcDbText
  0
TEXT
  5
269E
330
1E
100
AcDbEntity
  8
SIZE
100
AcDbText
 10
-74.05714285714285
 20
373.81877291626
 30
0.0
 40
64.0
  1
290
 41
0.9
100
AcDbText
  0
CIRCLE
  5
269F
330
1E
100
AcDbEntity
  8
SIZE
  6
BYBLOCK
100
AcDbCircle
 10
-145.0
 20
363.81877291626
 30
0.0
 40
5.0
  0
LINE
  5
26A0
330
1E
100
AcDbEntity
  8
SIZE
  6
BYBLOCK
100
AcDbLine
 10
-145.0
 20
363.81877291626
 30
0.0
 11
-135.0
 21
363.81877291626
 31
0.0
  0
CIRCLE
  5
26A1
330
1E
100
AcDbEntity
  8
SIZE
  6
BYBLOCK
100
AcDbCircle
 10
145.0
 20
363.81877291626
 30
0.0
 40
5.0
  0
LINE
  5
26A2
330
1E
100
AcDbEntity
  8
SIZE
  6
BYBLOCK
100
AcDbLine
 10
145.0
 20
363.81877291626
 30
0.0
 11
135.0
 21
363.81877291626
 31
0.0
  0
CIRCLE
  5
26A3
330
1E
100
AcDbEntity
  8
SIZE
  6
BYBLOCK
100
AcDbCircle
 10
216.0
 20
487.6031473533076
 30
0.0
 40
5.0
  0
LINE
  5
26A4
330
1E
100
AcDbEntity
  8
SIZE
  6
BYBLOCK
100
AcDbLine
 10
216.0
 20
487.6031473533076
 30
0.0
 11
206.0
 21
487.6031473533076
 31
0.0
  0
TEXT
  5
26A5
330
1E
100
AcDbEntity
  8
SIZE
100
AcDbText
 10
680.0305152902145
 20
67.44285714285713
 30
0.0
 40
64.0
  1
283
 50
90.0
 41
0.9
100
AcDbText
  0
CIRCLE
  5
26A6
330
1E
100
AcDbEntity
  8
SIZE
  6
BYBLOCK
100
AcDbCircle
 10
589.6815786568622
 20
-0.0000000000001059
 30
0.0
 40
5.0
  0
LINE
  5
26A7
330
1E
100
AcDbEntity
  8
SIZE
  6
BYBLOCK
100
AcDbLine
 10
589.6815786568622
 20
-0.0000000000001059
 30
0.0
 11
589.6815786568622
 21
9.999999999999893
 31
0.0
  0
CIRCLE
  5
26A8
330
1E
100
AcDbEntity
  8
SIZE
  6
BYBLOCK
100
AcDbCircle
 10
690.0305152902145
 20
-0.0000000000001343
 30
0.0
 40
5.0
  0
LINE
  5
26A9
330
1E
100
AcDbEntity
  8
SIZE
  6
BYBLOCK
100
AcDbLine
 10
690.0305152902145
 20
-0.0000000000001343
 30
0.0
 11
690.0305152902145
 21
9.999999999999864
 31
0.0
  0
CIRCLE
  5
26AA
330
1E
100
AcDbEntity
  8
SIZE
  6
BYBLOCK
100
AcDbCircle
 10
589.6815786568622
 20
212.9999999999999
 30
0.0
 40
5.0
  0
LINE
  5
26AB
330
1E
100
AcDbEntity
  8
SIZE
  6
BYBLOCK
100
AcDbLine
 10
589.6815786568622
 20
212.9999999999999
 30
0.0
 11
589.6815786568622
 21
202.9999999999998
 31
0.0
  0
CIRCLE
  5
26AC
330
1E
100
AcDbEntity
  8
SIZE
  6
BYBLOCK
100
AcDbCircle
 10
690.0305152902147
 20
282.9999999999998
 30
0.0
 40
5.0
  0
LINE
  5
26AD
330
1E
100
AcDbEntity
  8
SIZE
  6
BYBLOCK
100
AcDbLine
 10
690.0305152902147
 20
282.9999999999998
 30
0.0
 11
690.0305152902147
 21
272.9999999999998
 31
0.0
  0
LINE
  5
26EA
330
1E
100
AcDbEntity
  8
OUTLINE
100
AcDbLine
 10
-216.0
 20
0.0
 30
0.0
 11
216.0
 21
0.0
 31
0.0
  0
LINE
  5
26EB
330
1E
100
AcDbEntity
  8
OUTLINE
100
AcDbLine
 10
-216.0
 20
283.0
 30
0.0
 11
216.0
 21
283.0
 31
0.0
  0
LINE
  5
26EC
330
1E
100
AcDbEntity
  8
OUTLINE
100
AcDbLine
 10
-285.9999999999997
 20
110.0
 30
0.0
 11
-285.9999999999997
 21
160.0
 31
0.0
  0
LINE
  5
26ED
330
1E
100
AcDbEntity
  8
OUTLINE
100
AcDbLine
 10
-216.0
 20
0.0
 30
0.0
 11
-216.0
 21
110.0
 31
0.0
  0
LINE
  5
26EE
330
1E
100
AcDbEntity
  8
OUTLINE
100
AcDbLine
 10
-252.0
 20
34.8149545762235
 30
0.0
 11
-252.0
 21
15.1850454237765
 31
0.0
  0
LINE
  5
26EF
330
1E
100
AcDbEntity
  8
OUTLINE
100
AcDbLine
 10
-256.0
 20
31.0
 30
0.0
 11
-256.0
 21
19.0
 31
0.0
  0
LINE
  5
26F0
330
1E
100
AcDbEntity
  8
OUTLINE
100
AcDbLine
 10
-241.0
 20
34.8149545762235
 30
0.0
 11
-241.0
 21
15.1850454237765
 31
0.0
  0
LINE
  5
26F1
330
1E
100
AcDbEntity
  8
OUTLINE
100
AcDbLine
 10
-238.7999999999999
 20
32.50555349946489
 30
0.0
 11
-238.7999999999999
 21
17.4944465005351
 31
0.0
  0
LINE
  5
26F2
330
1E
100
AcDbEntity
  8
OUTLINE
100
AcDbLine
 10
-229.7999999999997
 20
32.50555349946489
 30
0.0
 11
-229.7999999999999
 21
17.4944465005351
 31
0.0
  0
LINE
  5
26F3
330
1E
100
AcDbEntity
  8
OUTLINE
100
AcDbLine
 10
-241.0
 20
19.5
 30
0.0
 11
-238.7999999999999
 21
19.5
 31
0.0
  0
LINE
  5
26F4
330
1E
100
AcDbEntity
  8
OUTLINE
100
AcDbLine
 10
-238.7999999999999
 20
17.4944465005351
 30
0.0
 11
-229.7999999999999
 21
17.4944465005351
 31
0.0
  0
LINE
  5
26F5
330
1E
100
AcDbEntity
  8
OUTLINE
100
AcDbLine
 10
-238.8000000000001
 20
21.24722325026778
 30
0.0
 11
-229.7999999999999
 21
21.24722325026778
 31
0.0
  0
LINE
  5
26F6
330
1E
100
AcDbEntity
  8
OUTLINE
  6
DASHDOT
100
AcDbLine
 10
-229.7999999999997
 20
22.0
 30
0.0
 11
-216.0
 21
22.0
 31
0.0
  0
LINE
  5
26F7
330
1E
100
AcDbEntity
  8
OUTLINE
100
AcDbLine
 10
-252.0
 20
17.7315551096035
 30
0.0
 11
-256.0
 21
19.0
 31
0.0
  0
LINE
  5
26F8
330
1E
100
AcDbEntity
  8
OUTLINE
100
AcDbLine
 10
-252.0
 20
20.09252271188825
 30
0.0
 11
-241.0
 21
20.09252271188825
 31
0.0
  0
LINE
  5
26F9
330
1E
100
AcDbEntity
  8
OUTLINE
100
AcDbLine
 10
-252.0
 20
15.1850454237765
 30
0.0
 11
-241.0
 21
15.1850454237765
 31
0.0
  0
LINE
  5
26FA
330
1E
100
AcDbEntity
  8
OUTLINE
100
AcDbLine
 10
-285.9999999999997
 20
110.0
 30
0.0
 11
-216.0
 21
110.0
 31
0.0
  0
LINE
  5
26FB
330
1E
100
AcDbEntity
  8
OUTLINE
100
AcDbLine
 10
-241.0
 20
30.5
 30
0.0
 11
-238.7999999999999
 21
30.5
 31
0.0
  0
LINE
  5
26FC
330
1E
100
AcDbEntity
  8
OUTLINE
100
AcDbLine
 10
-238.7999999999999
 20
32.50555349946489
 30
0.0
 11
-229.7999999999997
 21
32.50555349946489
 31
0.0
  0
LINE
  5
26FD
330
1E
100
AcDbEntity
  8
OUTLINE
100
AcDbLine
 10
-238.8000000000001
 20
28.75277674973222
 30
0.0
 11
-229.7999999999997
 21
28.75277674973222
 31
0.0
  0
LINE
  5
26FE
330
1E
100
AcDbEntity
  8
OUTLINE
  6
DASHDOT
100
AcDbLine
 10
-229.7999999999997
 20
28.0
 30
0.0
 11
-216.0
 21
28.0
 31
0.0
  0
LINE
  5
26FF
330
1E
100
AcDbEntity
  8
OUTLINE
100
AcDbLine
 10
-252.0
 20
32.26844489039649
 30
0.0
 11
-256.0
 21
31.0
 31
0.0
  0
LINE
  5
2700
330
1E
100
AcDbEntity
  8
OUTLINE
100
AcDbLine
 10
-252.0
 20
29.90747728811175
 30
0.0
 11
-241.0
 21
29.90747728811129
 31
0.0
  0
LINE
  5
2701
330
1E
100
AcDbEntity
  8
OUTLINE
100
AcDbLine
 10
-252.0
 20
34.8149545762235
 30
0.0
 11
-241.0
 21
34.8149545762235
 31
0.0
  0
LINE
  5
2702
330
1E
100
AcDbEntity
  8
OUTLINE
100
AcDbLine
 10
-241.0
 20
25.0
 30
0.0
 11
-252.0
 21
25.0
 31
0.0
  0
LINE
  5
2703
330
1E
100
AcDbEntity
  8
OUTLINE
100
AcDbLine
 10
-216.0
 20
160.0
 30
0.0
 11
-216.0
 21
283.0
 31
0.0
  0
LINE
  5
2704
330
1E
100
AcDbEntity
  8
OUTLINE
100
AcDbLine
 10
-285.9999999999997
 20
160.0
 30
0.0
 11
-216.0
 21
160.0
 31
0.0
  0
LINE
  5
2705
330
1E
100
AcDbEntity
  8
OUTLINE
100
AcDbLine
 10
216.0
 20
0.0
 30
0.0
 11
216.0
 21
283.0
 31
0.0
  0
ENDSEC
  0
SECTION
  2
OBJECTS
  0
DICTIONARY
  5
C
330
0
100
AcDbDictionary
  3
ACAD_GROUP
350
D
  3
ACAD_LAYOUT
350
19
  3
ACAD_MLINESTYLE
350
16
  3
ACAD_PLOTSETTINGS
350
18
  3
ACAD_PLOTSTYLENAME
350
E
  3
ACDBHEADERROUNDTRIPXREC
350
270A
  0
DICTIONARY
  5
272D
330
1E
100
AcDbDictionary
280
     1
  3
ACAD_LAYOUTSELFREF
360
272E
  0
DICTIONARY
  5
272B
330
1A
100
AcDbDictionary
280
     1
  3
ACAD_LAYOUTSELFREF
360
272C
  0
DICTIONARY
  5
D
102
{ACAD_REACTORS
330
C
102
}
330
C
100
AcDbDictionary
  0
DICTIONARY
  5
19
102
{ACAD_REACTORS
330
C
102
}
330
C
100
AcDbDictionary
  0
DICTIONARY
  5
16
102
{ACAD_REACTORS
330
C
102
}
330
C
100
AcDbDictionary
  3
STANDARD
350
17
  0
DICTIONARY
  5
18
102
{ACAD_REACTORS
330
C
102
}
330
C
100
AcDbDictionary
  0
ACDBDICTIONARYWDFLT
  5
E
102
{ACAD_REACTORS
330
C
102
}
330
C
100
AcDbDictionary
281
     1
  3
Normal
350
F
100
AcDbDictionaryWithDefault
340
F
  0
DICTIONARY
  5
270A
102
{ACAD_REACTORS
330
C
102
}
330
C
100
AcDbDictionary
  3
CEPSNTYPE
350
2714
  3
DIMSTYLEDATA
350
2718
  3
FINGERPRINTGUID
350
2715
  3
HYPERLINKBASE
350
270D
  3
INSUNITS
350
2713
  3
LAYOUTDICT
350
270F
  3
LWETCUNION
350
2712
  3
PLOTSETDICT
350
2710
  3
PLOTSTYLNAMDICT
350
2711
  3
PSVPSCALE
350
2717
  3
PUCSBASE
350
271B
  3
PUCSORGBACK
350
2721
  3
PUCSORGBOTTOM
350
271D
  3
PUCSORGFRONT
350
2720
  3
PUCSORGLEFT
350
271E
  3
PUCSORGRIGHT
350
271F
  3
PUCSORGTOP
350
271C
  3
PUCSORTHOREF
350
2719
  3
PUCSORTHOVIEW
350
271A
  3
STYLESHEET
350
270E
  3
TSTACKALIGN
350
270B
  3
TSTACKSIZE
350
270C
  3
UCSBASE
350
2724
  3
UCSORGBACK
350
272A
  3
UCSORGBOTTOM
350
2726
  3
UCSORGFRONT
350
2729
  3
UCSORGLEFT
350
2727
  3
UCSORGRIGHT
350
2728
  3
UCSORGTOP
350
2725
  3
UCSORTHOREF
350
2722
  3
UCSORTHOVIEW
350
2723
  3
VERSIONGUID
350
2716
  0
XRECORD
  5
272E
102
{ACAD_REACTORS
330
272D
102
}
330
272D
100
AcDbXrecord
340
1E
  0
XRECORD
  5
272C
102
{ACAD_REACTORS
330
272B
102
}
330
272B
100
AcDbXrecord
340
1A
  0
MLINESTYLE
  5
17
102
{ACAD_REACTORS
330
16
102
}
330
16
100
AcDbMlineStyle
  2
STANDARD
 70
     0
  3

 62
   256
 51
90.0
 52
90.0
 71
     2
 49
0.5
 62
   256
  6
BYLAYER
 49
-0.5
 62
   256
  6
BYLAYER
  0
ACDBPLACEHOLDER
  5
F
102
{ACAD_REACTORS
330
E
102
}
330
E
100
AcDbPlaceHolder
280
     0
  0
XRECORD
  5
2714
102
{ACAD_REACTORS
330
270A
102
}
330
270A
100
AcDbXrecord
 90
        0
  0
XRECORD
  5
2718
102
{ACAD_REACTORS
330
270A
102
}
330
270A
100
AcDbXrecord
1000
DSTYLE
1002
{
1070
   341
340
11EF
1070
   342
340
11EF
1002
}
  0
XRECORD
  5
2715
102
{ACAD_REACTORS
330
270A
102
}
330
270A
100
AcDbXrecord
  1
{BEBD6774-4EB4-49FB-AC28-F81EA5F99D51}
  0
XRECORD
  5
270D
102
{ACAD_REACTORS
330
270A
102
}
330
270A
100
AcDbXrecord
  1

  0
XRECORD
  5
2713
102
{ACAD_REACTORS
330
270A
102
}
330
270A
100
AcDbXrecord
 90
        0
  0
XRECORD
  5
270F
102
{ACAD_REACTORS
330
270A
102
}
330
270A
100
AcDbXrecord
340
19
  0
XRECORD
  5
2712
102
{ACAD_REACTORS
330
270A
102
}
330
270A
100
AcDbXrecord
 90
    10781
  0
XRECORD
  5
2710
102
{ACAD_REACTORS
330
270A
102
}
330
270A
100
AcDbXrecord
340
18
  0
XRECORD
  5
2711
102
{ACAD_REACTORS
330
270A
102
}
330
270A
100
AcDbXrecord
340
E
  0
XRECORD
  5
2717
102
{ACAD_REACTORS
330
270A
102
}
330
270A
100
AcDbXrecord
 40
0.0
  0
XRECORD
  5
271B
102
{ACAD_REACTORS
330
270A
102
}
330
270A
100
AcDbXrecord
340
0
  0
XRECORD
  5
2721
102
{ACAD_REACTORS
330
270A
102
}
330
270A
100
AcDbXrecord
 10
0.0
 20
0.0
 30
0.0
  0
XRECORD
  5
271D
102
{ACAD_REACTORS
330
270A
102
}
330
270A
100
AcDbXrecord
 10
0.0
 20
0.0
 30
0.0
  0
XRECORD
  5
2720
102
{ACAD_REACTORS
330
270A
102
}
330
270A
100
AcDbXrecord
 10
0.0
 20
0.0
 30
0.0
  0
XRECORD
  5
271E
102
{ACAD_REACTORS
330
270A
102
}
330
270A
100
AcDbXrecord
 10
0.0
 20
0.0
 30
0.0
  0
XRECORD
  5
271F
102
{ACAD_REACTORS
330
270A
102
}
330
270A
100
AcDbXrecord
 10
0.0
 20
0.0
 30
0.0
  0
XRECORD
  5
271C
102
{ACAD_REACTORS
330
270A
102
}
330
270A
100
AcDbXrecord
 10
0.0
 20
0.0
 30
0.0
  0
XRECORD
  5
2719
102
{ACAD_REACTORS
330
270A
102
}
330
270A
100
AcDbXrecord
340
0
  0
XRECORD
  5
271A
102
{ACAD_REACTORS
330
270A
102
}
330
270A
100
AcDbXrecord
 70
     0
  0
XRECORD
  5
270E
102
{ACAD_REACTORS
330
270A
102
}
330
270A
100
AcDbXrecord
  1

  0
XRECORD
  5
270B
102
{ACAD_REACTORS
330
270A
102
}
330
270A
100
AcDbXrecord
 90
        1
  0
XRECORD
  5
270C
102
{ACAD_REACTORS
330
270A
102
}
330
270A
100
AcDbXrecord
 90
       70
  0
XRECORD
  5
2724
102
{ACAD_REACTORS
330
270A
102
}
330
270A
100
AcDbXrecord
340
0
  0
XRECORD
  5
272A
102
{ACAD_REACTORS
330
270A
102
}
330
270A
100
AcDbXrecord
 10
0.0
 20
0.0
 30
0.0
  0
XRECORD
  5
2726
102
{ACAD_REACTORS
330
270A
102
}
330
270A
100
AcDbXrecord
 10
0.0
 20
0.0
 30
0.0
  0
XRECORD
  5
2729
102
{ACAD_REACTORS
330
270A
102
}
330
270A
100
AcDbXrecord
 10
0.0
 20
0.0
 30
0.0
  0
XRECORD
  5
2727
102
{ACAD_REACTORS
330
270A
102
}
330
270A
100
AcDbXrecord
 10
0.0
 20
0.0
 30
0.0
  0
XRECORD
  5
2728
102
{ACAD_REACTORS
330
270A
102
}
330
270A
100
AcDbXrecord
 10
0.0
 20
0.0
 30
0.0
  0
XRECORD
  5
2725
102
{ACAD_REACTORS
330
270A
102
}
330
270A
100
AcDbXrecord
 10
0.0
 20
0.0
 30
0.0
  0
XRECORD
  5
2722
102
{ACAD_REACTORS
330
270A
102
}
330
270A
100
AcDbXrecord
340
0
  0
XRECORD
  5
2723
102
{ACAD_REACTORS
330
270A
102
}
330
270A
100
AcDbXrecord
 70
     0
  0
XRECORD
  5
2716
102
{ACAD_REACTORS
330
270A
102
}
330
270A
100
AcDbXrecord
  1
{1C8D2A9B-42F8-47AD-BF10-BDD6E042CD94}
  0
ENDSEC
  0
EOF
