  0
SECTION
  2
HEADER
  9
$ACADVER
  1
AC1014
  9
$ACADMAINTVER
 70
     9
  9
$DWGCODEPAGE
  3
ANSI_932
  9
$INSBASE
 10
0.0
 20
0.0
 30
0.0
  9
$EXTMIN
 10
-1180.065765433497
 20
-1192.152609082979
 30
-0.0015258207003583
  9
$EXTMAX
 10
1355.49566335573
 20
788.5646160222895
 30
0.0000000349246037
  9
$LIMMIN
 10
-1331.472296242082
 20
-1555.680071590126
  9
$LIMMAX
 10
1675.329335857459
 20
1009.752484183856
  9
$ORTHOMODE
 70
     0
  9
$REGENMODE
 70
     0
  9
$FILLMODE
 70
     1
  9
$QTEXTMODE
 70
     0
  9
$MIRRTEXT
 70
     0
  9
$DRAGMODE
 70
     2
  9
$LTSCALE
 40
20.0
  9
$OSMODE
 70
    37
  9
$ATTMODE
 70
     1
  9
$TEXTSIZE
 40
64.0
  9
$TRACEWID
 40
0.05
  9
$TEXTSTYLE
  7
STANDARD
  9
$CLAYER
  8
SIZE
  9
$CELTYPE
  6
CONTINUOUS
  9
$CECOLOR
 62
   256
  9
$CELTSCALE
 40
1.0
  9
$DELOBJ
 70
     1
  9
$DISPSILH
 70
     0
  9
$DIMSCALE
 40
1.0
  9
$DIMASZ
 40
10.0
  9
$DIMEXO
 40
20.0
  9
$DIMDLI
 40
200.0
  9
$DIMRND
 40
0.0
  9
$DIMDLE
 40
0.0
  9
$DIMEXE
 40
30.0
  9
$DIMTP
 40
0.0
  9
$DIMTM
 40
0.0
  9
$DIMTXT
 40
64.0
  9
$DIMCEN
 40
0.09
  9
$DIMTSZ
 40
0.0
  9
$DIMTOL
 70
     0
  9
$DIMLIM
 70
     0
  9
$DIMTIH
 70
     0
  9
$DIMTOH
 70
     0
  9
$DIMSE1
 70
     0
  9
$DIMSE2
 70
     0
  9
$DIMTAD
 70
     1
  9
$DIMZIN
 70
     8
  9
$DIMBLK
  1
ORIGIN
  9
$DIMASO
 70
     1
  9
$DIMSHO
 70
     0
  9
$DIMPOST
  1

  9
$DIMAPOST
  1

  9
$DIMALT
 70
     0
  9
$DIMALTD
 70
     2
  9
$DIMALTF
 40
25.4
  9
$DIMLFAC
 40
1.0
  9
$DIMTOFL
 70
     1
  9
$DIMTVP
 40
0.0
  9
$DIMTIX
 70
     1
  9
$DIMSOXD
 70
     0
  9
$DIMSAH
 70
     0
  9
$DIMBLK1
  1

  9
$DIMBLK2
  1

  9
$DIMSTYLE
  2
STANDARD
  9
$DIMCLRD
 70
     0
  9
$DIMCLRE
 70
     0
  9
$DIMCLRT
 70
     0
  9
$DIMTFAC
 40
1.0
  9
$DIMGAP
 40
20.0
  9
$DIMJUST
 70
     0
  9
$DIMSD1
 70
     0
  9
$DIMSD2
 70
     0
  9
$DIMTOLJ
 70
     1
  9
$DIMTZIN
 70
     0
  9
$DIMALTZ
 70
     0
  9
$DIMALTTZ
 70
     0
  9
$DIMFIT
 70
     3
  9
$DIMUPT
 70
     0
  9
$DIMUNIT
 70
     2
  9
$DIMDEC
 70
     0
  9
$DIMTDEC
 70
     0
  9
$DIMALTU
 70
     2
  9
$DIMALTTD
 70
     2
  9
$DIMTXSTY
  7
STANDARD
  9
$DIMAUNIT
 70
     0
  9
$LUNITS
 70
     2
  9
$LUPREC
 70
     4
  9
$SKETCHINC
 40
0.1
  9
$FILLETRAD
 40
1.0
  9
$AUNITS
 70
     1
  9
$AUPREC
 70
     3
  9
$MENU
  1
ACAD
  9
$ELEVATION
 40
0.0
  9
$PELEVATION
 40
0.0
  9
$THICKNESS
 40
0.0
  9
$LIMCHECK
 70
     1
  9
$BLIPMODE
 70
     0
  9
$CHAMFERA
 40
0.0
  9
$CHAMFERB
 40
0.0
  9
$CHAMFERC
 40
0.0
  9
$CHAMFERD
 40
0.0
  9
$SKPOLY
 70
     0
  9
$TDCREATE
 40
2450322.443299004
  9
$TDUPDATE
 40
2454979.776065173
  9
$TDINDWG
 40
0.8441629282
  9
$TDUSRTIMER
 40
0.8441629282
  9
$USRTIMER
 70
     1
  9
$ANGBASE
 50
0.0
  9
$ANGDIR
 70
     0
  9
$PDMODE
 70
     3
  9
$PDSIZE
 40
-2.0
  9
$PLINEWID
 40
0.0
  9
$COORDS
 70
     1
  9
$SPLFRAME
 70
     0
  9
$SPLINETYPE
 70
     6
  9
$SPLINESEGS
 70
     8
  9
$ATTDIA
 70
     0
  9
$ATTREQ
 70
     1
  9
$HANDLING
 70
-16383
  9
$HANDSEED
  5
1AB42
  9
$SURFTAB1
 70
     6
  9
$SURFTAB2
 70
     6
  9
$SURFTYPE
 70
     6
  9
$SURFU
 70
     6
  9
$SURFV
 70
     6
  9
$UCSNAME
  2

  9
$UCSORG
 10
0.0
 20
0.0
 30
0.0
  9
$UCSXDIR
 10
1.0
 20
0.0
 30
0.0
  9
$UCSYDIR
 10
0.0
 20
1.0
 30
0.0
  9
$PUCSNAME
  2

  9
$PUCSORG
 10
0.0
 20
0.0
 30
0.0
  9
$PUCSXDIR
 10
1.0
 20
0.0
 30
0.0
  9
$PUCSYDIR
 10
0.0
 20
1.0
 30
0.0
  9
$USERI1
 70
     0
  9
$USERI2
 70
     0
  9
$USERI3
 70
     0
  9
$USERI4
 70
     0
  9
$USERI5
 70
     0
  9
$USERR1
 40
20.0
  9
$USERR2
 40
0.0
  9
$USERR3
 40
0.0
  9
$USERR4
 40
0.0
  9
$USERR5
 40
0.0
  9
$WORLDVIEW
 70
     1
  9
$SHADEDGE
 70
     3
  9
$SHADEDIF
 70
    70
  9
$TILEMODE
 70
     1
  9
$MAXACTVP
 70
    64
  9
$PINSBASE
 10
0.0
 20
0.0
 30
0.0
  9
$PLIMCHECK
 70
     0
  9
$PEXTMIN
 10
1.000000000000000E+20
 20
1.000000000000000E+20
 30
1.000000000000000E+20
  9
$PEXTMAX
 10
-1.000000000000000E+20
 20
-1.000000000000000E+20
 30
-1.000000000000000E+20
  9
$PLIMMIN
 10
0.0
 20
0.0
  9
$PLIMMAX
 10
12.0
 20
9.0
  9
$UNITMODE
 70
     0
  9
$VISRETAIN
 70
     1
  9
$PLINEGEN
 70
     0
  9
$PSLTSCALE
 70
     1
  9
$TREEDEPTH
 70
  3020
  9
$PICKSTYLE
 70
     1
  9
$CMLSTYLE
  2
STANDARD
  9
$CMLJUST
 70
     0
  9
$CMLSCALE
 40
1.0
  9
$PROXYGRAPHICS
 70
     1
  9
$MEASUREMENT
 70
     0
  0
ENDSEC
  0
SECTION
  2
CLASSES
  0
CLASS
  1
ACDBDICTIONARYWDFLT
  2
AcDbDictionaryWithDefault
  3
AutoCAD 2000
 90
        0
280
     0
281
     0
  0
CLASS
  1
ACDBPLACEHOLDER
  2
AcDbPlaceHolder
  3
AutoCAD 2000
 90
        0
280
     0
281
     0
  0
CLASS
  1
LAYOUT
  2
AcDbLayout
  3
AutoCAD 2000
 90
        0
280
     0
281
     0
  0
CLASS
  1
LONG_TRANSACTION
  2
AcDbLongTransaction
  3
AutoCAD 2000
 90
        0
280
     0
281
     0
  0
CLASS
  1
LWPOLYLINE
  2
AcDbPolyline
  3
AutoCAD 2000
 90
        0
280
     0
281
     1
  0
CLASS
  1
HATCH
  2
AcDbHatch
  3
AutoCAD 2000
 90
        0
280
     0
281
     1
  0
CLASS
  1
XRECORD
  2
AcDbXrecord
  3
AutoCAD 2000
 90
        0
280
     0
281
     0
  0
ENDSEC
  0
SECTION
  2
TABLES
  0
TABLE
  2
VPORT
  5
8
330
0
100
AcDbSymbolTable
 70
     7
  0
VPORT
  5
1AB1C
330
8
100
AcDbSymbolTableRecord
100
AcDbViewportTableRecord
  2
*ACTIVE
 70
     0
 10
0.0
 20
0.0
 11
1.0
 21
1.0
 12
573.2740282863387
 22
-332.1660735496607
 13
0.0
 23
0.0
 14
400.0
 24
400.0
 15
400.0
 25
400.0
 16
0.0
 26
0.0
 36
1.0
 17
0.0
 27
0.0
 37
0.0
 40
5387.408343720392
 41
1.211491442542787
 42
50.0
 43
0.0
 44
0.0
 50
0.0
 51
0.0
 71
     0
 72
   500
 73
     1
 74
     0
 75
     0
 76
     0
 77
     0
 78
     1
  0
ENDTAB
  0
TABLE
  2
LTYPE
  5
5
330
0
100
AcDbSymbolTable
 70
     2
  0
LTYPE
  5
13
330
5
100
AcDbSymbolTableRecord
100
AcDbLinetypeTableRecord
  2
BYBLOCK
 70
     0
  3

 72
    65
 73
     0
 40
0.0
  0
LTYPE
  5
14
330
5
100
AcDbSymbolTableRecord
100
AcDbLinetypeTableRecord
  2
BYLAYER
 70
     0
  3

 72
    65
 73
     0
 40
0.0
  0
LTYPE
  5
15
330
5
100
AcDbSymbolTableRecord
100
AcDbLinetypeTableRecord
  2
CONTINUOUS
 70
     0
  3
実線
 72
    65
 73
     0
 40
0.0
  0
LTYPE
  5
22
330
5
100
AcDbSymbolTableRecord
100
AcDbLinetypeTableRecord
  2
DASHDOT
 70
     0
  3
____ _ ____ _ ____ _ ____ _ ____ _ ____ _ ____
 72
    65
 73
     4
 40
5.5
 49
4.0
 74
     0
 49
-0.6
 74
     0
 49
0.3
 74
     0
 49
-0.6
 74
     0
  0
ENDTAB
  0
TABLE
  2
LAYER
  5
2
330
0
100
AcDbSymbolTable
 70
    11
  0
LAYER
  5
10
330
2
100
AcDbSymbolTableRecord
100
AcDbLayerTableRecord
  2
0
 70
     0
 62
     7
  6
CONTINUOUS
  0
LAYER
  5
28
330
2
100
AcDbSymbolTableRecord
100
AcDbLayerTableRecord
  2
OUTLINE
 70
     0
 62
     3
  6
CONTINUOUS
  0
LAYER
  5
29
330
2
100
AcDbSymbolTableRecord
100
AcDbLayerTableRecord
  2
DETAIL
 70
     0
 62
     5
  6
CONTINUOUS
  0
LAYER
  5
2A
330
2
100
AcDbSymbolTableRecord
100
AcDbLayerTableRecord
  2
BASIS
 70
     0
 62
     6
  6
CONTINUOUS
  0
LAYER
  5
2B
330
2
100
AcDbSymbolTableRecord
100
AcDbLayerTableRecord
  2
NOTE
 70
     0
 62
     4
  6
CONTINUOUS
  0
LAYER
  5
2C
330
2
100
AcDbSymbolTableRecord
100
AcDbLayerTableRecord
  2
DEFPOINTS
 70
     0
 62
     7
  6
CONTINUOUS
  0
LAYER
  5
2D
330
2
100
AcDbSymbolTableRecord
100
AcDbLayerTableRecord
  2
SIZE
 70
     0
 62
    32
  6
CONTINUOUS
  0
LAYER
  5
2E
330
2
100
AcDbSymbolTableRecord
100
AcDbLayerTableRecord
  2
FIX
 70
     0
 62
   241
  6
CONTINUOUS
  0
LAYER
  5
2F
330
2
100
AcDbSymbolTableRecord
100
AcDbLayerTableRecord
  2
ETC
 70
     0
 62
    83
  6
CONTINUOUS
  0
LAYER
  5
30
330
2
100
AcDbSymbolTableRecord
100
AcDbLayerTableRecord
  2
ARRANGE
 70
     0
 62
     1
  6
CONTINUOUS
  0
ENDTAB
  0
TABLE
  2
STYLE
  5
3
330
0
100
AcDbSymbolTable
 70
     1
  0
STYLE
  5
11
330
3
100
AcDbSymbolTableRecord
100
AcDbTextStyleTableRecord
  2
STANDARD
 70
     0
 40
0.0
 41
0.9
 50
0.0
 71
     0
 42
64.0
  3
SIMPLEX
  4
BIGFONT
  0
ENDTAB
  0
TABLE
  2
VIEW
  5
6
330
0
100
AcDbSymbolTable
 70
     1
  0
VIEW
  5
33
330
6
100
AcDbSymbolTableRecord
100
AcDbViewTableRecord
  2
ALL
 70
     0
 40
4508.021
 10
0.0
 20
41.30990399999999
 41
6252.632
 11
0.0
 21
0.0
 31
1.0
 12
0.0
 22
0.0
 32
0.0
 42
50.0
 43
0.0
 44
0.0
 50
0.0
 71
     0
  0
ENDTAB
  0
TABLE
  2
UCS
  5
7
330
0
100
AcDbSymbolTable
 70
     0
  0
ENDTAB
  0
TABLE
  2
APPID
  5
9
330
0
100
AcDbSymbolTable
 70
     1
  0
APPID
  5
12
330
9
100
AcDbSymbolTableRecord
100
AcDbRegAppTableRecord
  2
ACAD
 70
     0
  0
ENDTAB
  0
TABLE
  2
DIMSTYLE
  5
A
330
0
100
AcDbSymbolTable
 70
     1
  0
DIMSTYLE
105
11F
330
A
100
AcDbSymbolTableRecord
100
AcDbDimStyleTableRecord
  2
STANDARD
 70
     0
  3

  4

  5

  6

  7

 40
1.0
 41
0.18
 42
0.0625
 43
0.38
 44
0.18
 45
0.0
 46
0.0
 47
0.0
 48
0.0
140
0.18
141
0.09
142
0.0
143
25.4
144
1.0
145
0.0
146
1.0
147
0.09
 71
     0
 72
     0
 73
     1
 74
     1
 75
     0
 76
     0
 77
     0
 78
     0
170
     0
171
     2
172
     0
173
     0
174
     0
175
     0
176
     0
177
     0
178
     0
270
     2
271
     4
272
     4
273
     2
274
     2
340
11
275
     0
280
     0
281
     0
282
     0
283
     1
284
     0
285
     0
286
     0
287
     3
288
     0
  0
ENDTAB
  0
TABLE
  2
BLOCK_RECORD
  5
1
330
0
100
AcDbSymbolTable
 70
   123
  0
BLOCK_RECORD
  5
1E
102
{ACAD_XDICTIONARY
360
1AB40
102
}
330
1
100
AcDbSymbolTableRecord
100
AcDbBlockTableRecord
  2
*MODEL_SPACE
  0
BLOCK_RECORD
  5
1A
102
{ACAD_XDICTIONARY
360
1AB3E
102
}
330
1
100
AcDbSymbolTableRecord
100
AcDbBlockTableRecord
  2
*PAPER_SPACE
  0
BLOCK_RECORD
  5
125
330
1
100
AcDbSymbolTableRecord
100
AcDbBlockTableRecord
  2
_ORIGIN
  0
ENDTAB
  0
ENDSEC
  0
SECTION
  2
BLOCKS
  0
BLOCK
  5
1F
330
1E
100
AcDbEntity
  8
0
100
AcDbBlockBegin
  2
*MODEL_SPACE
 70
     0
 10
0.0
 20
0.0
 30
0.0
  3
*MODEL_SPACE
  1

  0
ENDBLK
  5
20
330
1E
100
AcDbEntity
  8
0
100
AcDbBlockEnd
  0
BLOCK
  5
1B
330
1A
100
AcDbEntity
 67
     1
  8
0
100
AcDbBlockBegin
  2
*PAPER_SPACE
 70
     0
 10
0.0
 20
0.0
 30
0.0
  3
*PAPER_SPACE
  1

  0
ENDBLK
  5
1C
330
1A
100
AcDbEntity
 67
     1
  8
0
100
AcDbBlockEnd
  0
BLOCK
  5
128
330
125
100
AcDbEntity
  8
0
100
AcDbBlockBegin
  2
_ORIGIN
 70
     0
 10
0.0
 20
0.0
 30
0.0
  3
_ORIGIN
  1

  0
CIRCLE
  5
126
330
125
100
AcDbEntity
  8
0
  6
BYBLOCK
 62
     0
100
AcDbCircle
 10
0.0
 20
0.0
 30
0.0
 40
0.5
  0
LINE
  5
127
330
125
100
AcDbEntity
  8
0
  6
BYBLOCK
 62
     0
100
AcDbLine
 10
0.0
 20
0.0
 30
0.0
 11
-1.0
 21
0.0
 31
0.0
  0
ENDBLK
  5
129
330
125
100
AcDbEntity
  8
0
100
AcDbBlockEnd
  0
ENDSEC
  0
SECTION
  2
ENTITIES
  0
LINE
  5
1035D
330
1E
100
AcDbEntity
  8
BASIS
100
AcDbLine
 10
0.0
 20
0.0
 30
0.0
 11
0.0
 21
-702.3049067782449
 31
0.0
  0
LINE
  5
1035E
330
1E
100
AcDbEntity
  8
DETAIL
100
AcDbLine
 10
-640.2522900000003
 20
-1.715810000001511
 30
0.0
 11
-640.2522900000022
 21
-455.6424837886461
 31
0.0
  0
LINE
  5
1035F
330
1E
100
AcDbEntity
  8
DETAIL
100
AcDbLine
 10
639.747709999996
 20
-1.715810000001511
 30
0.0
 11
639.7477099999978
 21
-455.6424781380028
 31
0.0
  0
CIRCLE
  5
10360
330
1E
100
AcDbEntity
  8
FIX
  6
CONTINUOUS
100
AcDbCircle
 10
618.5
 20
-80.0
 30
0.0
 40
5.0
  0
LINE
  5
10361
330
1E
100
AcDbEntity
  8
NOTE
  6
CONTINUOUS
100
AcDbLine
 10
618.5
 20
-80.0
 30
0.0
 11
843.2021769999991
 21
79.03988500000014
 31
0.0
  0
LWPOLYLINE
  5
10362
330
1E
100
AcDbEntity
  8
NOTE
  6
CONTINUOUS
100
AcDbPolyline
 90
        3
 70
     0
 43
0.0
 10
644.0260469999993
 20
-49.20355699999982
 10
618.5
 20
-80.0
 10
656.0044269999998
 20
-66.09252199999992
  0
LINE
  5
10363
330
1E
100
AcDbEntity
  8
NOTE
  6
CONTINUOUS
100
AcDbLine
 10
618.5
 20
-60.0
 30
0.0
 11
618.5
 21
-100.0
 31
0.0
  0
LINE
  5
10365
330
1E
100
AcDbEntity
  8
NOTE
  6
CONTINUOUS
100
AcDbLine
 10
468.7477099999959
 20
-184.0
 30
0.0
 11
697.7113233337331
 21
274.3537850229949
 31
0.0
  0
LINE
  5
1036A
330
1E
100
AcDbEntity
  8
NOTE
  6
CONTINUOUS
100
AcDbLine
 10
-618.5522900000014
 20
-80.0
 30
0.0
 11
-769.8807162950488
 21
210.8828240775401
 31
0.0
  0
LINE
  5
1036B
330
1E
100
AcDbEntity
  8
NOTE
  6
CONTINUOUS
100
AcDbLine
 10
-618.5522900000014
 20
-60.0
 30
0.0
 11
-618.5522900000014
 21
-100.0
 31
0.0
  0
CIRCLE
  5
1036C
330
1E
100
AcDbEntity
  8
FIX
  6
CONTINUOUS
100
AcDbCircle
 10
-618.5522900000014
 20
-80.0
 30
0.0
 40
5.0
  0
LWPOLYLINE
  5
1036D
330
1E
100
AcDbEntity
  8
NOTE
  6
CONTINUOUS
100
AcDbPolyline
 90
        3
 70
     0
 43
0.0
 10
-645.1509270000006
 20
-50.12505199999941
 10
-618.5522900000014
 20
-80.0
 10
-626.6499120000007
 20
-40.82821800000056
  0
LINE
  5
1036E
330
1E
100
AcDbEntity
  8
NOTE
  6
CONTINUOUS
100
AcDbLine
 10
-565.2522899999913
 20
-246.0000000000018
 30
0.0
 11
-776.8873167126639
 21
78.90890286925423
 31
0.0
  0
TEXT
  5
1036F
330
1E
100
AcDbEntity
  8
NOTE
  6
CONTINUOUS
100
AcDbText
 10
-989.571719160469
 20
-549.5629520123584
 30
0.0
 40
64.0
  1
吊りボルトピッチ
 50
90.0
 41
0.9
100
AcDbText
  0
POINT
  5
10373
330
1E
100
AcDbEntity
  8
ARRANGE
  6
CONTINUOUS
100
AcDbPoint
 10
0.0
 20
0.0
 30
0.0
  0
LINE
  5
10375
330
1E
100
AcDbEntity
  8
BASIS
100
AcDbLine
 10
-618.5522900000014
 20
-29.1047000000035
 30
0.0
 11
-618.5522900000014
 21
-417.3354700000017
 31
0.0
  0
LINE
  5
10376
330
1E
100
AcDbEntity
  8
BASIS
100
AcDbLine
 10
618.5
 20
-29.1047000000035
 30
0.0
 11
618.5
 21
-417.3354700000017
 31
0.0
  0
LINE
  5
10377
330
1E
100
AcDbEntity
  8
DETAIL
100
AcDbLine
 10
390.6846299999924
 20
-70.5092300000033
 30
0.0
 11
404.6302699999942
 21
-100.4157500000019
 31
0.0
  0
LINE
  5
10378
330
1E
100
AcDbEntity
  8
DETAIL
100
AcDbLine
 10
385.3474099999912
 20
-72.99801999999909
 30
0.0
 11
399.2930399999895
 21
-102.9045399999995
 31
0.0
  0
LINE
  5
10379
330
1E
100
AcDbEntity
  8
DETAIL
100
AcDbLine
 10
427.947710000004
 20
-184.2542300000022
 30
0.0
 11
427.947710000004
 21
-37.5
 31
0.0
  0
LINE
  5
1037A
330
1E
100
AcDbEntity
  8
DETAIL
100
AcDbLine
 10
422.0587300000042
 20
-184.2542300000022
 30
0.0
 11
422.0587300000042
 21
-37.5
 31
0.0
  0
ARC
  5
1037B
330
1E
100
AcDbEntity
  8
DETAIL
100
AcDbCircle
 10
329.7477099999887
 20
-73.00000000000181
 30
0.0
 40
21.33137
100
AcDbArc
 50
270.0
 51
90.0
  0
ARC
  5
1037C
330
1E
100
AcDbEntity
  8
DETAIL
100
AcDbCircle
 10
329.7477099999887
 20
-73.00000000000181
 30
0.0
 40
17.33137
100
AcDbArc
 50
270.0
 51
90.0
  0
ARC
  5
1037D
330
1E
100
AcDbEntity
  8
DETAIL
100
AcDbCircle
 10
-553.2522900000039
 20
-73.00000000000181
 30
0.0
 40
17.33137
100
AcDbArc
 50
90.0
 51
270.0
  0
ARC
  5
1037E
330
1E
100
AcDbEntity
  8
DETAIL
100
AcDbCircle
 10
-553.2522900000039
 20
-73.00000000000181
 30
0.0
 40
21.33137
100
AcDbArc
 50
90.0
 51
270.0
  0
LINE
  5
1037F
330
1E
100
AcDbEntity
  8
DETAIL
100
AcDbLine
 10
439.7477099999887
 20
-37.60000000000218
 30
0.0
 11
439.7477099999887
 21
-147.6000000000022
 31
0.0
  0
LINE
  5
10380
330
1E
100
AcDbEntity
  8
DETAIL
100
AcDbLine
 10
579.7477099999887
 20
-37.60000000000218
 30
0.0
 11
579.7477099999887
 21
-147.6000000000022
 31
0.0
  0
ARC
  5
10381
330
1E
100
AcDbEntity
  8
DETAIL
100
AcDbCircle
 10
529.7477099999887
 20
-72.60000000000218
 30
0.0
 40
20.0
100
AcDbArc
 50
90.0
 51
244.8493369999789
  0
LINE
  5
10382
330
1E
100
AcDbEntity
  8
DETAIL
100
AcDbLine
 10
599.7477099999887
 20
-621.0
 30
0.0
 11
599.7477099999887
 21
0.0
 31
0.0
  0
LINE
  5
10383
330
1E
100
AcDbEntity
  8
DETAIL
100
AcDbLine
 10
-600.2522900000021
 20
0.0
 30
0.0
 11
-600.2522900000021
 21
-621.0
 31
0.0
  0
LINE
  5
10384
330
1E
100
AcDbEntity
  8
DETAIL
100
AcDbLine
 10
-642.2522900000004
 20
-1.715810000001511
 30
0.0
 11
-642.2522900000004
 21
-448.3708800000022
 31
0.0
  0
LINE
  5
10385
330
1E
100
AcDbEntity
  8
DETAIL
100
AcDbLine
 10
-638.7522900000058
 20
-131.9052499999997
 30
0.0
 11
-638.7522900000058
 21
-47.94555000000037
 31
0.0
  0
LINE
  5
10386
330
1E
100
AcDbEntity
  8
DETAIL
100
AcDbLine
 10
638.2477099999923
 20
-131.9052499999997
 30
0.0
 11
638.2477099999923
 21
-47.94555000000037
 31
0.0
  0
LINE
  5
10387
330
1E
100
AcDbEntity
  8
DETAIL
100
AcDbLine
 10
641.747709999996
 20
-1.715810000001511
 30
0.0
 11
641.747709999996
 21
-448.3708800000022
 31
0.0
  0
ARC
  5
10388
330
1E
100
AcDbEntity
  8
DETAIL
100
AcDbCircle
 10
-621.0522900000015
 20
-80.0
 30
0.0
 40
6.0
100
AcDbArc
 50
136.2382569999825
 51
270.0
  0
ARC
  5
10389
330
1E
100
AcDbEntity
  8
DETAIL
100
AcDbCircle
 10
-616.0522900000014
 20
-80.0
 30
0.0
 40
6.0
100
AcDbArc
 50
270.0
 51
43.7617430000175
  0
LINE
  5
1038A
330
1E
100
AcDbEntity
  8
DETAIL
100
AcDbLine
 10
-637.65229
 20
-61.59999999999854
 30
0.0
 11
-637.65229
 21
-130.0
 31
0.0
  0
LINE
  5
1038B
330
1E
100
AcDbEntity
  8
DETAIL
100
AcDbLine
 10
-601.0522900000014
 20
-471.0
 30
0.0
 11
-601.0522900000014
 21
-45.0
 31
0.0
  0
LINE
  5
1038C
330
1E
100
AcDbEntity
  8
DETAIL
100
AcDbLine
 10
601.0
 20
-471.3526900000033
 30
0.0
 11
601.0
 21
-45.35268999999971
 31
0.0
  0
LINE
  5
1038D
330
1E
100
AcDbEntity
  8
DETAIL
100
AcDbLine
 10
637.5999999999985
 20
-61.95269000000189
 30
0.0
 11
637.5999999999985
 21
-130.3526899999997
 31
0.0
  0
ARC
  5
1038E
330
1E
100
AcDbEntity
  8
DETAIL
100
AcDbCircle
 10
609.5000000000036
 20
-74.1277399999999
 30
0.0
 40
3.0
100
AcDbArc
 50
316.2382569999824
 51
0.0
  0
ARC
  5
1038F
330
1E
100
AcDbEntity
  8
DETAIL
100
AcDbCircle
 10
627.4999999999963
 20
-74.1277399999999
 30
0.0
 40
3.0
100
AcDbArc
 50
180.0
 51
223.7617430000175
  0
TEXT
  5
10391
330
1E
100
AcDbEntity
  8
NOTE
  6
CONTINUOUS
100
AcDbText
 10
-218.6389493914885
 20
-904.0543076233726
 30
0.0
 40
64.0
  1
吊りボルトピッチ
 41
0.9
100
AcDbText
  0
LINE
  5
10395
330
1E
100
AcDbEntity
  8
BASIS
  6
DASHDOT
100
AcDbLine
 10
-710.5835161578725
 20
-340.0
 30
0.0
 11
696.2612060306782
 21
-340.0
 31
0.0
  0
ARC
  5
10396
330
1E
100
AcDbEntity
  8
DETAIL
100
AcDbCircle
 10
9.747709999997823
 20
-215.5000000000018
 30
0.0
 40
15.0
100
AcDbArc
 50
180.0
 51
270.0
  0
ARC
  5
10397
330
1E
100
AcDbEntity
  8
DETAIL
100
AcDbCircle
 10
9.747709999997823
 20
-215.5000000000018
 30
0.0
 40
25.2
100
AcDbArc
 50
180.0
 51
270.0
  0
ARC
  5
10398
330
1E
100
AcDbEntity
  8
DETAIL
100
AcDbCircle
 10
9.747709999997823
 20
-142.5
 30
0.0
 40
15.0
100
AcDbArc
 50
90.0
 51
180.0
  0
ARC
  5
10399
330
1E
100
AcDbEntity
  8
DETAIL
100
AcDbCircle
 10
9.747709999997823
 20
-142.5
 30
0.0
 40
25.2
100
AcDbArc
 50
90.0
 51
180.0
  0
LINE
  5
1039A
330
1E
100
AcDbEntity
  8
DETAIL
100
AcDbLine
 10
-553.2522900000039
 20
-94.33136999999987
 30
0.0
 11
329.7477099999887
 21
-94.33136999999987
 31
0.0
  0
LINE
  5
1039B
330
1E
100
AcDbEntity
  8
DETAIL
100
AcDbLine
 10
-553.2522900000039
 20
-90.33136999999987
 30
0.0
 11
329.7477099999887
 21
-90.33136999999987
 31
0.0
  0
ARC
  5
1039C
330
1E
100
AcDbEntity
  8
DETAIL
100
AcDbCircle
 10
9.747709999997823
 20
-505.5999999999985
 30
0.0
 40
4.66863
100
AcDbArc
 50
180.0
 51
0.0
  0
ARC
  5
1039D
330
1E
100
AcDbEntity
  8
DETAIL
100
AcDbCircle
 10
9.747709999997823
 20
-505.5999999999985
 30
0.0
 40
7.668629999999999
100
AcDbArc
 50
180.0
 51
0.0
  0
LINE
  5
1039E
330
1E
100
AcDbEntity
  8
DETAIL
100
AcDbLine
 10
0.0790799999922456
 20
-327.1542700000009
 30
0.0
 11
19.41633000000001
 21
-327.1542700000009
 31
0.0
  0
LINE
  5
1039F
330
1E
100
AcDbEntity
  8
DETAIL
100
AcDbLine
 10
-600.2522900000021
 20
-307.5542800000003
 30
0.0
 11
598.9477099999894
 21
-307.5542800000003
 31
0.0
  0
LINE
  5
103A0
330
1E
100
AcDbEntity
  8
DETAIL
100
AcDbLine
 10
-600.2522900000021
 20
-248.2313700000031
 30
0.0
 11
599.7477099999887
 21
-248.2313700000031
 31
0.0
  0
LINE
  5
103A1
330
1E
100
AcDbEntity
  8
DETAIL
100
AcDbLine
 10
-600.2522900000021
 20
-255.1878000000033
 30
0.0
 11
599.7477099999887
 21
-255.1878000000033
 31
0.0
  0
LINE
  5
103A2
330
1E
100
AcDbEntity
  8
DETAIL
100
AcDbLine
 10
597.7477099999996
 20
-621.8000000000029
 30
0.0
 11
-598.252290000004
 21
-621.8000000000029
 31
0.0
  0
LINE
  5
103A3
330
1E
100
AcDbEntity
  8
DETAIL
100
AcDbLine
 10
594.7477099999887
 20
-633.0000000000018
 30
0.0
 11
-595.2522900000022
 21
-633.0000000000018
 31
0.0
  0
LINE
  5
103A4
330
1E
100
AcDbEntity
  8
DETAIL
100
AcDbLine
 10
-599.0522900000033
 20
-679.8270500000035
 30
0.0
 11
598.5477099999989
 21
-679.8270500000035
 31
0.0
  0
LINE
  5
103A5
330
1E
100
AcDbEntity
  8
DETAIL
100
AcDbLine
 10
-600.2522900000021
 20
-675.0
 30
0.0
 11
599.7477099999887
 21
-675.0
 31
0.0
  0
LINE
  5
103A6
330
1E
100
AcDbEntity
  8
DETAIL
100
AcDbLine
 10
-600.2522900000021
 20
-670.0
 30
0.0
 11
599.7477099999887
 21
-670.0
 31
0.0
  0
LINE
  5
103A7
330
1E
100
AcDbEntity
  8
DETAIL
100
AcDbLine
 10
-599.0522900000033
 20
-633.0000000000018
 30
0.0
 11
598.5477099999989
 21
-633.0000000000018
 31
0.0
  0
LINE
  5
103AC
330
1E
100
AcDbEntity
  8
NOTE
  6
CONTINUOUS
100
AcDbLine
 10
-745.434078000002
 20
-585.8756379999995
 30
0.0
 11
-898.2260030000016
 21
-585.8756379999995
 31
0.0
  0
TEXT
  5
103AD
330
1E
100
AcDbEntity
  8
NOTE
  6
CONTINUOUS
100
AcDbText
 10
-869.9312030000019
 20
-566.0696429999989
 30
0.0
 40
64.0
  1
AH
 41
0.9
100
AcDbText
  0
LINE
  5
103AE
330
1E
100
AcDbEntity
  8
NOTE
  6
CONTINUOUS
100
AcDbLine
 10
-618.5522900000014
 20
-400.0
 30
0.0
 11
-745.434078000002
 21
-585.8756379999995
 31
0.0
  0
LINE
  5
103AF
330
1E
100
AcDbEntity
  8
DETAIL
100
AcDbLine
 10
-601.2522900000058
 20
-629.6259900000004
 30
0.0
 11
-601.2522900000058
 21
-476.4911600000013
 31
0.0
  0
LINE
  5
103B0
330
1E
100
AcDbEntity
  8
DETAIL
100
AcDbLine
 10
-640.2522900000022
 20
-674.2441899999994
 30
0.0
 11
-640.2522900000022
 21
-462.3708799999985
 31
0.0
  0
LINE
  5
103B1
330
1E
100
AcDbEntity
  8
DETAIL
100
AcDbLine
 10
-635.2522900000021
 20
-671.440980000003
 30
0.0
 11
-635.2522900000021
 21
-475.5000000000018
 31
0.0
  0
LINE
  5
103B2
330
1E
100
AcDbEntity
  8
DETAIL
100
AcDbLine
 10
-630.2522900000021
 20
-666.5282500000012
 30
0.0
 11
-630.2522900000021
 21
-497.6291200000014
 31
0.0
  0
LINE
  5
103B3
330
1E
100
AcDbEntity
  8
DETAIL
100
AcDbLine
 10
-600.2522900000021
 20
-635.5000000000018
 30
0.0
 11
-600.2522900000021
 21
-678.6270499999991
 31
0.0
  0
ARC
  5
103B4
330
1E
100
AcDbEntity
  8
DETAIL
100
AcDbCircle
 10
-627.2522900000003
 20
-666.5282500000012
 30
0.0
 40
3.0
100
AcDbArc
 50
180.0
 51
269.0000000000238
  0
ARC
  5
103B5
330
1E
100
AcDbEntity
  8
DETAIL
100
AcDbCircle
 10
-632.2522900000003
 20
-671.440980000003
 30
0.0
 40
3.0
100
AcDbArc
 50
180.0
 51
269.0000000000238
  0
LINE
  5
103B6
330
1E
100
AcDbEntity
  8
DETAIL
100
AcDbLine
 10
-600.2522900000021
 20
-670.0
 30
0.0
 11
-627.30465
 21
-669.5277999999998
 31
0.0
  0
LINE
  5
103B7
330
1E
100
AcDbEntity
  8
DETAIL
100
AcDbLine
 10
-600.2522900000021
 20
-675.0
 30
0.0
 11
-632.30465
 21
-674.4405200000037
 31
0.0
  0
ARC
  5
103B8
330
1E
100
AcDbEntity
  8
DETAIL
100
AcDbCircle
 10
-635.2522900000021
 20
-674.2441899999994
 30
0.0
 40
5.0
100
AcDbArc
 50
180.0
 51
269.0000000000238
  0
LINE
  5
103B9
330
1E
100
AcDbEntity
  8
DETAIL
100
AcDbLine
 10
-600.2522900000021
 20
-679.8558799999991
 30
0.0
 11
-635.3395600000058
 21
-679.2434300000023
 31
0.0
  0
ARC
  5
103BA
330
1E
100
AcDbEntity
  8
DETAIL
100
AcDbCircle
 10
-599.0522900000033
 20
-678.6270499999991
 30
0.0
 40
1.199999999999999
100
AcDbArc
 50
180.0
 51
270.0
  0
LINE
  5
103BB
330
1E
100
AcDbEntity
  8
DETAIL
100
AcDbLine
 10
-598.252290000004
 20
-621.0
 30
0.0
 11
-600.2522900000021
 21
-621.0
 31
0.0
  0
LINE
  5
103BC
330
1E
100
AcDbEntity
  8
DETAIL
100
AcDbLine
 10
-598.252290000004
 20
-630.0
 30
0.0
 11
-598.252290000004
 21
-621.0
 31
0.0
  0
ARC
  5
103BD
330
1E
100
AcDbEntity
  8
DETAIL
100
AcDbCircle
 10
-595.2522900000022
 20
-630.0
 30
0.0
 40
3.0
100
AcDbArc
 50
180.0
 51
270.0
  0
ARC
  5
103BE
330
1E
100
AcDbEntity
  8
DETAIL
100
AcDbCircle
 10
-627.2522900000003
 20
-625.528250000003
 30
0.0
 40
3.0
100
AcDbArc
 50
180.0
 51
269.0000000000238
  0
LINE
  5
103BF
330
1E
100
AcDbEntity
  8
DETAIL
100
AcDbLine
 10
-600.2522900000021
 20
-629.0
 30
0.0
 11
-627.30465
 21
-628.5278000000016
 31
0.0
  0
LINE
  5
103C0
330
1E
100
AcDbEntity
  8
DETAIL
100
AcDbLine
 10
-600.2522900000021
 20
-629.6259900000004
 30
0.0
 11
-601.2522900000058
 21
-629.6259900000004
 31
0.0
  0
LINE
  5
103C1
330
1E
100
AcDbEntity
  8
DETAIL
100
AcDbLine
 10
-599.0522900000033
 20
-625.0
 30
0.0
 11
-599.0522900000033
 21
-635.5000000000018
 31
0.0
  0
ARC
  5
103C2
330
1E
100
AcDbEntity
  8
DETAIL
100
AcDbCircle
 10
-596.0522900000014
 20
-625.0
 30
0.0
 40
3.0
100
AcDbArc
 50
137.1665720000305
 51
180.0
  0
LINE
  5
103C3
330
1E
100
AcDbEntity
  8
DETAIL
100
AcDbLine
 10
-600.2522900000021
 20
-635.5000000000018
 30
0.0
 11
-599.0522900000033
 21
-635.5000000000018
 31
0.0
  0
CIRCLE
  5
103C4
330
1E
100
AcDbEntity
  8
DETAIL
100
AcDbCircle
 10
-558.2522900000039
 20
-627.0000000000036
 30
0.0
 40
1.45
  0
CIRCLE
  5
103C5
330
1E
100
AcDbEntity
  8
DETAIL
100
AcDbCircle
 10
-185.0022900000058
 20
-627.0000000000036
 30
0.0
 40
1.45
  0
CIRCLE
  5
103C6
330
1E
100
AcDbEntity
  8
DETAIL
100
AcDbCircle
 10
-165.5022900000076
 20
-627.0000000000036
 30
0.0
 40
1.45
  0
LINE
  5
103C7
330
1E
100
AcDbEntity
  8
DETAIL
100
AcDbLine
 10
-515.720920000007
 20
-220.8313699999998
 30
0.0
 11
-324.7836700000007
 21
-220.8313699999998
 31
0.0
  0
LINE
  5
103C8
330
1E
100
AcDbEntity
  8
DETAIL
100
AcDbLine
 10
-515.720920000007
 20
-216.8313699999998
 30
0.0
 11
-324.7836700000007
 21
-216.8313699999998
 31
0.0
  0
LINE
  5
103C9
330
1E
100
AcDbEntity
  8
DETAIL
100
AcDbLine
 10
-515.720920000007
 20
-146.1686300000019
 30
0.0
 11
-324.7836700000007
 21
-146.1686300000019
 31
0.0
  0
LINE
  5
103CA
330
1E
100
AcDbEntity
  8
DETAIL
100
AcDbLine
 10
-515.720920000007
 20
-142.1686300000001
 30
0.0
 11
-324.7836700000007
 21
-142.1686300000001
 31
0.0
  0
LINE
  5
103CB
330
1E
100
AcDbEntity
  8
DETAIL
100
AcDbLine
 10
-600.2522900000021
 20
-332.3504200000024
 30
0.0
 11
-329.9209200000077
 21
-332.3504200000024
 31
0.0
  0
LINE
  5
103CC
330
1E
100
AcDbEntity
  8
DETAIL
100
AcDbLine
 10
-633.7522900000058
 20
-311.2242700000024
 30
0.0
 11
-633.7522900000058
 21
-138.256110000002
 31
0.0
  0
LINE
  5
103CD
330
1E
100
AcDbEntity
  8
DETAIL
100
AcDbLine
 10
-631.0522900000014
 20
-310.2427799999986
 30
0.0
 11
-631.0522900000014
 21
-140.0
 31
0.0
  0
LWPOLYLINE
  5
103CE
330
1E
100
AcDbEntity
  8
NOTE
  6
CONTINUOUS
100
AcDbPolyline
 90
        3
 70
     0
 43
0.0
 10
-631.44485110606
 20
-437.8653121340039
 10
-618.5522900000014
 20
-400.0
 10
-648.6502316954629
 20
-426.3460413760003
  0
LINE
  5
103CF
330
1E
100
AcDbEntity
  8
DETAIL
100
AcDbLine
 10
-637.65229
 20
-456.5662400000019
 30
0.0
 11
-637.65229
 21
-381.5999999999985
 31
0.0
  0
LINE
  5
103D0
330
1E
100
AcDbEntity
  8
DETAIL
100
AcDbLine
 10
-613.262260000005
 20
-472.9572399999997
 30
0.0
 11
-637.2522900000003
 21
-459.1065800000032
 31
0.0
  0
ARC
  5
103D1
330
1E
100
AcDbEntity
  8
DETAIL
100
AcDbCircle
 10
-611.7622599999995
 20
-470.3591600000036
 30
0.0
 40
3.0
100
AcDbArc
 50
239.9999999999896
 51
269.0000000000238
  0
ARC
  5
103D2
330
1E
100
AcDbEntity
  8
DETAIL
100
AcDbCircle
 10
-637.2522900000058
 20
-455.6424837886461
 30
0.0
 40
3.0
100
AcDbArc
 50
180.0
 51
239.9999999999896
  0
LINE
  5
103D3
330
1E
100
AcDbEntity
  8
DETAIL
100
AcDbLine
 10
-637.2522900000003
 20
-459.1065800000032
 30
0.0
 11
-638.7522900000058
 21
-458.2405599999983
 31
0.0
  0
ARC
  5
103D4
330
1E
100
AcDbEntity
  8
DETAIL
100
AcDbCircle
 10
-604.2522900000076
 20
-476.4911600000013
 30
0.0
 40
3.0
100
AcDbArc
 50
0.0
 51
89.00000000002384
  0
LINE
  5
103D5
330
1E
100
AcDbEntity
  8
DETAIL
100
AcDbLine
 10
-604.1999400000023
 20
-473.4916200000006
 30
0.0
 11
-611.8146199999991
 21
-473.3586999999988
 31
0.0
  0
LINE
  5
103D6
330
1E
100
AcDbEntity
  8
DETAIL
100
AcDbLine
 10
-633.8284599999988
 20
-479.0595900000007
 30
0.0
 11
-638.676130000007
 21
-466.9404100000028
 31
0.0
  0
ARC
  5
103D7
330
1E
100
AcDbEntity
  8
DETAIL
100
AcDbCircle
 10
-592.2522900000003
 20
-448.3708800000022
 30
0.0
 40
50.0
100
AcDbArc
 50
180.0
 51
201.8013850000064
  0
ARC
  5
103D8
330
1E
100
AcDbEntity
  8
DETAIL
100
AcDbCircle
 10
-680.2522900000021
 20
-497.6291200000014
 30
0.0
 40
50.0
100
AcDbArc
 50
0.0
 51
21.80138399998559
  0
LINE
  5
103D9
330
1E
100
AcDbEntity
  8
DETAIL
100
AcDbLine
 10
-601.0522900000014
 20
-471.0
 30
0.0
 11
-608.372800000001
 21
-471.0
 31
0.0
  0
ARC
  5
103DA
330
1E
100
AcDbEntity
  8
DETAIL
100
AcDbCircle
 10
-608.372800000001
 20
-461.0
 30
0.0
 40
10.0
100
AcDbArc
 50
239.9999999999896
 51
270.0
  0
LINE
  5
103DB
330
1E
100
AcDbEntity
  8
DETAIL
100
AcDbLine
 10
-613.372800000001
 20
-469.6602500000008
 30
0.0
 11
-636.0522900000014
 21
-456.5662400000019
 31
0.0
  0
LINE
  5
103DC
330
1E
100
AcDbEntity
  8
DETAIL
100
AcDbLine
 10
-637.65229
 20
-456.5662400000019
 30
0.0
 11
-636.0522900000014
 21
-456.5662400000019
 31
0.0
  0
LINE
  5
103DD
330
1E
100
AcDbEntity
  8
BASIS
  6
DASHDOT
100
AcDbLine
 10
-634.7412500000009
 20
-400.0
 30
0.0
 11
-604.3033499999856
 21
-400.0
 31
0.0
  0
LINE
  5
103DE
330
1E
100
AcDbEntity
  8
NOTE
  6
CONTINUOUS
100
AcDbLine
 10
-638.5522900000014
 20
-400.0
 30
0.0
 11
-598.5522900000014
 21
-400.0
 31
0.0
  0
CIRCLE
  5
103DF
330
1E
100
AcDbEntity
  8
FIX
  6
CONTINUOUS
100
AcDbCircle
 10
-618.5522900000014
 20
-400.0
 30
0.0
 40
5.0
  0
LINE
  5
103E0
330
1E
100
AcDbEntity
  8
NOTE
  6
CONTINUOUS
100
AcDbLine
 10
-618.5522900000014
 20
-380.0
 30
0.0
 11
-618.5522900000014
 21
-420.0
 31
0.0
  0
LINE
  5
103E1
330
1E
100
AcDbEntity
  8
BASIS
100
AcDbLine
 10
-633.77124
 20
-400.0
 30
0.0
 11
-603.3333400000028
 21
-400.0
 31
0.0
  0
ARC
  5
103E2
330
1E
100
AcDbEntity
  8
DETAIL
100
AcDbCircle
 10
-620.7522900000039
 20
-323.9259799999999
 30
0.0
 40
3.0
100
AcDbArc
 50
0.0
 51
59.99999999998969
  0
ARC
  5
103E3
330
1E
100
AcDbEntity
  8
DETAIL
100
AcDbCircle
 10
-630.752290000004
 20
-311.2242700000024
 30
0.0
 40
3.0
100
AcDbArc
 50
180.0
 51
239.9999999999896
  0
LINE
  5
103E4
330
1E
100
AcDbEntity
  8
DETAIL
100
AcDbLine
 10
-619.2522900000076
 20
-321.3279000000002
 30
0.0
 11
-632.2522900000003
 21
-313.8223500000003
 31
0.0
  0
LINE
  5
103E5
330
1E
100
AcDbEntity
  8
DETAIL
100
AcDbLine
 10
-617.7522900000021
 20
-361.1512000000002
 30
0.0
 11
-617.7522900000021
 21
-323.9259799999999
 31
0.0
  0
ARC
  5
103E6
330
1E
100
AcDbEntity
  8
DETAIL
100
AcDbCircle
 10
-635.752290000004
 20
-367.9455500000003
 30
0.0
 40
3.0
100
AcDbArc
 50
93.0000000000061
 51
180.0
  0
ARC
  5
103E7
330
1E
100
AcDbEntity
  8
DETAIL
100
AcDbCircle
 10
-620.7522900000039
 20
-361.1512000000002
 30
0.0
 40
3.0
100
AcDbArc
 50
273.0000000000061
 51
0.0
  0
LINE
  5
103E8
330
1E
100
AcDbEntity
  8
DETAIL
100
AcDbLine
 10
-635.9093000000066
 20
-364.949660000002
 30
0.0
 11
-620.5952900000047
 21
-364.1470800000024
 31
0.0
  0
ARC
  5
103E9
330
1E
100
AcDbEntity
  8
DETAIL
100
AcDbCircle
 10
-622.5522900000068
 20
-325.7734999999993
 30
0.0
 40
10.0
100
AcDbArc
 50
0.0
 51
59.99999999998969
  0
LINE
  5
103EA
330
1E
100
AcDbEntity
  8
DETAIL
100
AcDbLine
 10
-617.5522900000069
 20
-317.1132500000021
 30
0.0
 11
-629.4522900000028
 21
-310.2427799999986
 31
0.0
  0
LINE
  5
103EB
330
1E
100
AcDbEntity
  8
DETAIL
100
AcDbLine
 10
-629.4522900000028
 20
-310.2427799999986
 30
0.0
 11
-631.0522900000014
 21
-310.2427799999986
 31
0.0
  0
LINE
  5
103EC
330
1E
100
AcDbEntity
  8
DETAIL
100
AcDbLine
 10
-616.0522900000014
 20
-406.0
 30
0.0
 11
-621.0522900000015
 21
-406.0
 31
0.0
  0
ARC
  5
103ED
330
1E
100
AcDbEntity
  8
DETAIL
100
AcDbCircle
 10
-616.0522900000014
 20
-400.0
 30
0.0
 40
6.0
100
AcDbArc
 50
270.0
 51
43.7617430000175
  0
LINE
  5
103EE
330
1E
100
AcDbEntity
  8
DETAIL
100
AcDbLine
 10
-612.5522900000069
 20
-393.7750500000002
 30
0.0
 11
-612.5522900000069
 21
-325.7734999999993
 31
0.0
  0
ARC
  5
103EF
330
1E
100
AcDbEntity
  8
DETAIL
100
AcDbCircle
 10
-609.5522900000051
 20
-393.7750500000002
 30
0.0
 40
3.0
100
AcDbArc
 50
180.0
 51
223.7617430000175
  0
LINE
  5
103F0
330
1E
100
AcDbEntity
  8
DETAIL
100
AcDbLine
 10
-637.65229
 20
-381.5999999999985
 30
0.0
 11
-634.4522900000029
 21
-381.5999999999985
 31
0.0
  0
LINE
  5
103F1
330
1E
100
AcDbEntity
  8
DETAIL
100
AcDbLine
 10
-634.4522900000029
 20
-378.4000000000014
 30
0.0
 11
-624.552290000005
 21
-378.4000000000014
 31
0.0
  0
LINE
  5
103F2
330
1E
100
AcDbEntity
  8
DETAIL
100
AcDbLine
 10
-634.4522900000029
 20
-381.5999999999985
 30
0.0
 11
-634.4522900000029
 21
-378.4000000000014
 31
0.0
  0
LINE
  5
103F3
330
1E
100
AcDbEntity
  8
DETAIL
100
AcDbLine
 10
-624.552290000005
 20
-393.7750500000002
 30
0.0
 11
-624.552290000005
 21
-378.4000000000014
 31
0.0
  0
ARC
  5
103F4
330
1E
100
AcDbEntity
  8
DETAIL
100
AcDbCircle
 10
-627.5522900000069
 20
-393.7750500000002
 30
0.0
 40
3.0
100
AcDbArc
 50
316.2382569999824
 51
0.0
  0
ARC
  5
103F5
330
1E
100
AcDbEntity
  8
DETAIL
100
AcDbCircle
 10
-621.0522900000015
 20
-400.0
 30
0.0
 40
6.0
100
AcDbArc
 50
136.2382569999825
 51
270.0
  0
LWPOLYLINE
  5
103F6
330
1E
100
AcDbEntity
  8
NOTE
  6
CONTINUOUS
100
AcDbPolyline
 90
        3
 70
     0
 43
0.0
 10
-595.0464275332287
 20
-219.3108750404862
 10
-565.2522899999913
 20
-246.0000000000018
 10
-577.7102073616951
 20
-207.9894715019682
  0
LINE
  5
103F7
330
1E
100
AcDbEntity
  8
NOTE
  6
CONTINUOUS
100
AcDbLine
 10
-585.2522899999912
 20
-246.0000000000018
 30
0.0
 11
-545.2522899999912
 21
-246.0000000000018
 31
0.0
  0
LINE
  5
103F8
330
1E
100
AcDbEntity
  8
BASIS
  6
DASHDOT
100
AcDbLine
 10
-634.7412500000009
 20
-80.0
 30
0.0
 11
-604.3033499999856
 21
-80.0
 31
0.0
  0
LINE
  5
103F9
330
1E
100
AcDbEntity
  8
NOTE
  6
CONTINUOUS
100
AcDbLine
 10
-638.5522900000014
 20
-80.0
 30
0.0
 11
-598.5522900000014
 21
-80.0
 31
0.0
  0
LINE
  5
103FA
330
1E
100
AcDbEntity
  8
BASIS
100
AcDbLine
 10
-633.77124
 20
-80.0
 30
0.0
 11
-603.3333400000028
 21
-80.0
 31
0.0
  0
ARC
  5
103FB
330
1E
100
AcDbEntity
  8
DETAIL
100
AcDbCircle
 10
-635.752290000004
 20
-131.9052499999997
 30
0.0
 40
3.0
100
AcDbArc
 50
180.0
 51
239.9999999999896
  0
ARC
  5
103FC
330
1E
100
AcDbEntity
  8
DETAIL
100
AcDbCircle
 10
-636.7522900000076
 20
-138.256110000002
 30
0.0
 40
3.0
100
AcDbArc
 50
0.0
 51
59.99999999998969
  0
LINE
  5
103FD
330
1E
100
AcDbEntity
  8
DETAIL
100
AcDbLine
 10
-635.2522900000021
 20
-135.6580299999986
 30
0.0
 11
-637.2522900000003
 21
-134.5033300000031
 31
0.0
  0
LINE
  5
103FE
330
1E
100
AcDbEntity
  8
DETAIL
100
AcDbLine
 10
-616.0522900000014
 20
-86.0
 30
0.0
 11
-621.0522900000015
 21
-86.0
 31
0.0
  0
LINE
  5
103FF
330
1E
100
AcDbEntity
  8
DETAIL
100
AcDbLine
 10
-629.4522900000028
 20
-140.0
 30
0.0
 11
-631.0522900000014
 21
-140.0
 31
0.0
  0
LINE
  5
10400
330
1E
100
AcDbEntity
  8
DETAIL
100
AcDbLine
 10
-629.4522900000028
 20
-140.0
 30
0.0
 11
-629.4522900000028
 21
-136.6972600000008
 31
0.0
  0
ARC
  5
10401
330
1E
100
AcDbEntity
  8
DETAIL
100
AcDbCircle
 10
-634.4522900000029
 20
-136.6972600000008
 30
0.0
 40
5.0
100
AcDbArc
 50
0.0
 51
59.99999999998969
  0
LINE
  5
10402
330
1E
100
AcDbEntity
  8
DETAIL
100
AcDbLine
 10
-631.9522900000029
 20
-132.3671300000023
 30
0.0
 11
-636.0522900000014
 21
-130.0
 31
0.0
  0
LINE
  5
10403
330
1E
100
AcDbEntity
  8
DETAIL
100
AcDbLine
 10
-636.0522900000014
 20
-130.0
 30
0.0
 11
-637.65229
 21
-130.0
 31
0.0
  0
ARC
  5
10404
330
1E
100
AcDbEntity
  8
DETAIL
100
AcDbCircle
 10
-543.7522900000058
 20
-174.0
 30
0.0
 40
18.7
100
AcDbArc
 50
180.0
 51
0.0
  0
LINE
  5
10405
330
1E
100
AcDbEntity
  8
DETAIL
100
AcDbLine
 10
-525.0522900000069
 20
-211.5
 30
0.0
 11
-525.0522900000069
 21
-174.0
 31
0.0
  0
LINE
  5
10406
330
1E
100
AcDbEntity
  8
DETAIL
100
AcDbLine
 10
-521.0522900000014
 20
-211.5
 30
0.0
 11
-521.0522900000014
 21
-151.5
 31
0.0
  0
LINE
  5
10407
330
1E
100
AcDbEntity
  8
NOTE
  6
CONTINUOUS
100
AcDbLine
 10
-565.2522899999913
 20
-226.0000000000018
 30
0.0
 11
-565.2522899999913
 21
-266.0000000000018
 31
0.0
  0
ARC
  5
10408
330
1E
100
AcDbEntity
  8
DETAIL
100
AcDbCircle
 10
-515.720920000007
 20
-211.5
 30
0.0
 40
9.331370000000001
100
AcDbArc
 50
180.0
 51
270.0
  0
ARC
  5
10409
330
1E
100
AcDbEntity
  8
DETAIL
100
AcDbCircle
 10
-515.720920000007
 20
-211.5
 30
0.0
 40
5.331369999999999
100
AcDbArc
 50
180.0
 51
270.0
  0
ELLIPSE
  5
1040A
330
1E
100
AcDbEntity
  8
DETAIL
100
AcDbEllipse
 10
-565.7522900000039
 20
-266.5673900000001
 30
0.0
 11
1.449999999999995
 21
0.0
 31
0.0
210
0.0
220
0.0
230
1.0
 40
0.9902680000000001
 41
3.180372258128278
 42
6.2444057026411
  0
ELLIPSE
  5
1040B
330
1E
100
AcDbEntity
  8
DETAIL
100
AcDbEllipse
 10
-565.7522900000039
 20
-266.6787300000032
 30
0.0
 11
1.449999999999995
 21
0.0
 31
0.0
210
0.0
220
0.0
230
1.0
 40
0.9902680000000001
 41
0.0
 42
6.283185307179585
  0
ARC
  5
1040C
330
1E
100
AcDbEntity
  8
DETAIL
100
AcDbCircle
 10
-543.7522900000058
 20
-174.0
 30
0.0
 40
8.5
100
AcDbArc
 50
180.0
 51
0.0
  0
LINE
  5
1040D
330
1E
100
AcDbEntity
  8
DETAIL
100
AcDbLine
 10
-525.0522900000069
 20
-151.5
 30
0.0
 11
-525.0522900000069
 21
-146.0
 31
0.0
  0
LINE
  5
1040E
330
1E
100
AcDbEntity
  8
DETAIL
100
AcDbLine
 10
-535.2522900000021
 20
-174.0
 30
0.0
 11
-535.2522900000021
 21
-146.0
 31
0.0
  0
ARC
  5
1040F
330
1E
100
AcDbEntity
  8
DETAIL
100
AcDbCircle
 10
-543.7522900000058
 20
-146.0
 30
0.0
 40
8.5
100
AcDbArc
 50
0.0
 51
180.0
  0
LINE
  5
10410
330
1E
100
AcDbEntity
  8
DETAIL
100
AcDbLine
 10
-552.2522900000003
 20
-174.0
 30
0.0
 11
-552.2522900000003
 21
-146.0
 31
0.0
  0
LINE
  5
10411
330
1E
100
AcDbEntity
  8
DETAIL
100
AcDbLine
 10
-562.4522900000047
 20
-174.0
 30
0.0
 11
-562.4522900000047
 21
-146.0
 31
0.0
  0
ARC
  5
10412
330
1E
100
AcDbEntity
  8
DETAIL
100
AcDbCircle
 10
-543.7522900000058
 20
-146.0
 30
0.0
 40
18.7
100
AcDbArc
 50
0.0
 51
180.0
  0
ARC
  5
10413
330
1E
100
AcDbEntity
  8
DETAIL
100
AcDbCircle
 10
-515.720920000007
 20
-151.5
 30
0.0
 40
5.331369999999999
100
AcDbArc
 50
90.0
 51
180.0
  0
ARC
  5
10414
330
1E
100
AcDbEntity
  8
DETAIL
100
AcDbCircle
 10
-515.720920000007
 20
-151.5
 30
0.0
 40
9.331370000000001
100
AcDbArc
 50
90.0
 51
180.0
  0
CIRCLE
  5
10415
330
1E
100
AcDbEntity
  8
DETAIL
100
AcDbCircle
 10
-542.7522900000021
 20
-160.0
 30
0.0
 40
1.45
  0
LINE
  5
10416
330
1E
100
AcDbEntity
  8
DETAIL
100
AcDbLine
 10
-304.5836700000054
 20
-332.3504200000024
 30
0.0
 11
-2.920920000000478
 21
-332.3504200000024
 31
0.0
  0
LINE
  5
10417
330
1E
100
AcDbEntity
  8
DETAIL
100
AcDbLine
 10
-324.9209200000077
 20
-505.5999999999985
 30
0.0
 11
-324.9209200000077
 21
-337.3504200000025
 31
0.0
  0
LINE
  5
10418
330
1E
100
AcDbEntity
  8
DETAIL
100
AcDbLine
 10
-321.9209200000059
 20
-505.5999999999985
 30
0.0
 11
-321.9209200000059
 21
-332.1542700000009
 31
0.0
  0
LINE
  5
10419
330
1E
100
AcDbEntity
  8
DETAIL
100
AcDbLine
 10
-312.5836700000072
 20
-505.5999999999985
 30
0.0
 11
-312.5836700000072
 21
-332.1542700000009
 31
0.0
  0
LINE
  5
1041A
330
1E
100
AcDbEntity
  8
DETAIL
100
AcDbLine
 10
-309.5836700000054
 20
-505.5999999999985
 30
0.0
 11
-309.5836700000054
 21
-337.3504200000025
 31
0.0
  0
ARC
  5
1041B
330
1E
100
AcDbEntity
  8
DETAIL
100
AcDbCircle
 10
-317.2522900000003
 20
-505.5999999999985
 30
0.0
 40
7.668629999999999
100
AcDbArc
 50
180.0
 51
0.0
  0
ARC
  5
1041C
330
1E
100
AcDbEntity
  8
DETAIL
100
AcDbCircle
 10
-317.2522900000003
 20
-505.5999999999985
 30
0.0
 40
4.66863
100
AcDbArc
 50
180.0
 51
0.0
  0
ARC
  5
1041D
330
1E
100
AcDbEntity
  8
DETAIL
100
AcDbCircle
 10
-329.9209200000077
 20
-337.3504200000025
 30
0.0
 40
5.0
100
AcDbArc
 50
0.0
 51
90.0
  0
ARC
  5
1041E
330
1E
100
AcDbEntity
  8
DETAIL
100
AcDbCircle
 10
-326.9209200000059
 20
-332.1542700000009
 30
0.0
 40
5.0
100
AcDbArc
 50
0.0
 51
90.0
  0
LINE
  5
1041F
330
1E
100
AcDbEntity
  8
DETAIL
100
AcDbLine
 10
-326.9209200000059
 20
-327.1542700000009
 30
0.0
 11
-307.5836700000072
 21
-327.1542700000009
 31
0.0
  0
ARC
  5
10420
330
1E
100
AcDbEntity
  8
DETAIL
100
AcDbCircle
 10
-307.5836700000072
 20
-332.1542700000009
 30
0.0
 40
5.0
100
AcDbArc
 50
90.0
 51
180.0
  0
ARC
  5
10421
330
1E
100
AcDbEntity
  8
DETAIL
100
AcDbCircle
 10
-304.5836700000054
 20
-337.3504200000025
 30
0.0
 40
5.0
100
AcDbArc
 50
90.0
 51
180.0
  0
LINE
  5
10422
330
1E
100
AcDbEntity
  8
DETAIL
100
AcDbLine
 10
5.079079999992245
 20
-505.5999999999985
 30
0.0
 11
5.079079999992245
 21
-332.1542700000009
 31
0.0
  0
LINE
  5
10423
330
1E
100
AcDbEntity
  8
DETAIL
100
AcDbLine
 10
2.079079999999521
 20
-505.5999999999985
 30
0.0
 11
2.079079999999521
 21
-337.3504200000025
 31
0.0
  0
ARC
  5
10424
330
1E
100
AcDbEntity
  8
DETAIL
100
AcDbCircle
 10
0.0790799999922456
 20
-332.1542700000009
 30
0.0
 40
5.0
100
AcDbArc
 50
0.0
 51
90.0
  0
ARC
  5
10425
330
1E
100
AcDbEntity
  8
DETAIL
100
AcDbCircle
 10
-2.920920000000478
 20
-337.3504200000025
 30
0.0
 40
5.0
100
AcDbArc
 50
0.0
 51
90.0
  0
LINE
  5
10426
330
1E
100
AcDbEntity
  8
DETAIL
100
AcDbLine
 10
-215.720920000007
 20
-220.8313699999998
 30
0.0
 11
-24.78367000000071
 21
-220.8313699999998
 31
0.0
  0
LINE
  5
10427
330
1E
100
AcDbEntity
  8
DETAIL
100
AcDbLine
 10
-215.720920000007
 20
-216.8313699999998
 30
0.0
 11
-24.78367000000071
 21
-216.8313699999998
 31
0.0
  0
LINE
  5
10428
330
1E
100
AcDbEntity
  8
DETAIL
100
AcDbLine
 10
-215.720920000007
 20
-146.1686300000019
 30
0.0
 11
-24.78367000000071
 21
-146.1686300000019
 31
0.0
  0
LINE
  5
10429
330
1E
100
AcDbEntity
  8
DETAIL
100
AcDbLine
 10
-215.720920000007
 20
-142.1686300000001
 30
0.0
 11
-24.78367000000071
 21
-142.1686300000001
 31
0.0
  0
LINE
  5
1042A
330
1E
100
AcDbEntity
  8
DETAIL
100
AcDbLine
 10
-319.4522900000029
 20
-211.5
 30
0.0
 11
-319.4522900000029
 21
-151.5
 31
0.0
  0
LINE
  5
1042B
330
1E
100
AcDbEntity
  8
DETAIL
100
AcDbLine
 10
-221.0522900000014
 20
-211.5
 30
0.0
 11
-221.0522900000014
 21
-151.5
 31
0.0
  0
LINE
  5
1042C
330
1E
100
AcDbEntity
  8
DETAIL
100
AcDbLine
 10
-235.2522900000021
 20
-215.5000000000018
 30
0.0
 11
-235.2522900000021
 21
-147.5
 31
0.0
  0
LINE
  5
1042D
330
1E
100
AcDbEntity
  8
DETAIL
100
AcDbLine
 10
-305.2522900000021
 20
-215.5000000000018
 30
0.0
 11
-305.2522900000021
 21
-147.5
 31
0.0
  0
LINE
  5
1042E
330
1E
100
AcDbEntity
  8
DETAIL
100
AcDbLine
 10
-245.2522900000021
 20
-235.7000000000007
 30
0.0
 11
-295.2522900000021
 21
-235.7000000000007
 31
0.0
  0
LINE
  5
1042F
330
1E
100
AcDbEntity
  8
DETAIL
100
AcDbLine
 10
-245.2522900000021
 20
-225.5000000000018
 30
0.0
 11
-295.2522900000021
 21
-225.5000000000018
 31
0.0
  0
ARC
  5
10430
330
1E
100
AcDbEntity
  8
DETAIL
100
AcDbCircle
 10
-295.2522900000021
 20
-215.5000000000018
 30
0.0
 40
10.0
100
AcDbArc
 50
180.0
 51
270.0
  0
ARC
  5
10431
330
1E
100
AcDbEntity
  8
DETAIL
100
AcDbCircle
 10
-295.2522900000021
 20
-215.5000000000018
 30
0.0
 40
20.2
100
AcDbArc
 50
180.0
 51
270.0
  0
ARC
  5
10432
330
1E
100
AcDbEntity
  8
DETAIL
100
AcDbCircle
 10
-324.7836700000007
 20
-211.5
 30
0.0
 40
9.331370000000001
100
AcDbArc
 50
270.0
 51
0.0
  0
ARC
  5
10433
330
1E
100
AcDbEntity
  8
DETAIL
100
AcDbCircle
 10
-324.7836700000007
 20
-211.5
 30
0.0
 40
5.331369999999999
100
AcDbArc
 50
270.0
 51
0.0
  0
ELLIPSE
  5
10434
330
1E
100
AcDbEntity
  8
DETAIL
100
AcDbEllipse
 10
-290.252290000004
 20
-266.5673900000001
 30
0.0
 11
1.449999999999995
 21
0.0
 31
0.0
210
0.0
220
0.0
230
1.0
 40
0.9902680000000001
 41
3.180372258128278
 42
6.244405702641076
  0
ELLIPSE
  5
10435
330
1E
100
AcDbEntity
  8
DETAIL
100
AcDbEllipse
 10
-290.252290000004
 20
-266.6787300000032
 30
0.0
 11
1.449999999999995
 21
0.0
 31
0.0
210
0.0
220
0.0
230
1.0
 40
0.9902680000000001
 41
0.0
 42
6.283185307179585
  0
LINE
  5
10436
330
1E
100
AcDbEntity
  8
DETAIL
100
AcDbLine
 10
-315.4522900000065
 20
-215.5000000000018
 30
0.0
 11
-315.4522900000065
 21
-211.5
 31
0.0
  0
ELLIPSE
  5
10437
330
1E
100
AcDbEntity
  8
DETAIL
100
AcDbEllipse
 10
-268.4442800000106
 20
-278.3806200000035
 30
0.0
 11
1.806
 21
0.0
 31
0.0
210
0.0
220
0.0
230
1.0
 40
0.9903059999999999
 41
0.0
 42
6.283185307179585
  0
ELLIPSE
  5
10438
330
1E
100
AcDbEntity
  8
DETAIL
100
AcDbEllipse
 10
-268.4442800000106
 20
-278.7981399999989
 30
0.0
 11
3.538119784648471
 21
0.0
 31
0.0
210
0.0
220
0.0
230
1.0
 40
0.990268
 41
0.0
 42
6.283185307179585
  0
ARC
  5
10439
330
1E
100
AcDbEntity
  8
DETAIL
100
AcDbCircle
 10
-245.2522900000021
 20
-215.5000000000018
 30
0.0
 40
20.2
100
AcDbArc
 50
270.0
 51
0.0
  0
ARC
  5
1043A
330
1E
100
AcDbEntity
  8
DETAIL
100
AcDbCircle
 10
-245.2522900000021
 20
-215.5000000000018
 30
0.0
 40
10.0
100
AcDbArc
 50
270.0
 51
0.0
  0
LINE
  5
1043B
330
1E
100
AcDbEntity
  8
DETAIL
100
AcDbLine
 10
-244.7522900000003
 20
-258.0595700000012
 30
0.0
 11
-255.7522900000039
 21
-258.0595700000012
 31
0.0
  0
LINE
  5
1043C
330
1E
100
AcDbEntity
  8
DETAIL
100
AcDbLine
 10
-244.7522900000003
 20
-272.9136000000016
 30
0.0
 11
-244.7522900000003
 21
-258.0595700000012
 31
0.0
  0
LINE
  5
1043D
330
1E
100
AcDbEntity
  8
DETAIL
100
AcDbLine
 10
-255.7522900000039
 20
-272.9136000000016
 30
0.0
 11
-255.7522900000039
 21
-258.0595700000012
 31
0.0
  0
LINE
  5
1043E
330
1E
100
AcDbEntity
  8
DETAIL
100
AcDbLine
 10
-244.7522900000003
 20
-272.9136000000016
 30
0.0
 11
-255.7522900000039
 21
-272.9136000000016
 31
0.0
  0
LINE
  5
1043F
330
1E
100
AcDbEntity
  8
DETAIL
100
AcDbLine
 10
-255.7522900000039
 20
-272.8022599999985
 30
0.0
 11
-244.7522900000003
 21
-272.8022599999985
 31
0.0
  0
ARC
  5
10440
330
1E
100
AcDbEntity
  8
DETAIL
100
AcDbCircle
 10
-215.720920000007
 20
-211.5
 30
0.0
 40
5.331369999999999
100
AcDbArc
 50
180.0
 51
270.0
  0
ARC
  5
10441
330
1E
100
AcDbEntity
  8
DETAIL
100
AcDbCircle
 10
-215.720920000007
 20
-211.5
 30
0.0
 40
9.331370000000001
100
AcDbArc
 50
180.0
 51
270.0
  0
CIRCLE
  5
10442
330
1E
100
AcDbEntity
  8
DETAIL
100
AcDbCircle
 10
-271.4522900000011
 20
-214.4000000000014
 30
0.0
 40
1.45
  0
LINE
  5
10443
330
1E
100
AcDbEntity
  8
DETAIL
100
AcDbLine
 10
-225.0522900000069
 20
-215.5000000000018
 30
0.0
 11
-225.0522900000069
 21
-211.5
 31
0.0
  0
LINE
  5
10444
330
1E
100
AcDbEntity
  8
DETAIL
100
AcDbLine
 10
-295.2522900000021
 20
-137.5
 30
0.0
 11
-245.2522900000021
 21
-137.5
 31
0.0
  0
LINE
  5
10445
330
1E
100
AcDbEntity
  8
DETAIL
100
AcDbLine
 10
-295.2522900000021
 20
-127.2999999999992
 30
0.0
 11
-245.2522900000021
 21
-127.2999999999992
 31
0.0
  0
ARC
  5
10446
330
1E
100
AcDbEntity
  8
DETAIL
100
AcDbCircle
 10
-295.2522900000021
 20
-147.5
 30
0.0
 40
10.0
100
AcDbArc
 50
90.0
 51
180.0
  0
ARC
  5
10447
330
1E
100
AcDbEntity
  8
DETAIL
100
AcDbCircle
 10
-295.2522900000021
 20
-147.5
 30
0.0
 40
20.2
100
AcDbArc
 50
90.0
 51
180.0
  0
ARC
  5
10448
330
1E
100
AcDbEntity
  8
DETAIL
100
AcDbCircle
 10
-324.7836700000007
 20
-151.5
 30
0.0
 40
9.331370000000001
100
AcDbArc
 50
0.0
 51
90.0
  0
ARC
  5
10449
330
1E
100
AcDbEntity
  8
DETAIL
100
AcDbCircle
 10
-324.7836700000007
 20
-151.5
 30
0.0
 40
5.331369999999999
100
AcDbArc
 50
0.0
 51
90.0
  0
LINE
  5
1044A
330
1E
100
AcDbEntity
  8
DETAIL
100
AcDbLine
 10
-315.4522900000065
 20
-151.5
 30
0.0
 11
-315.4522900000065
 21
-147.5
 31
0.0
  0
CIRCLE
  5
1044B
330
1E
100
AcDbEntity
  8
DETAIL
100
AcDbCircle
 10
-297.7522900000021
 20
-160.0
 30
0.0
 40
1.45
  0
ARC
  5
1044C
330
1E
100
AcDbEntity
  8
DETAIL
100
AcDbCircle
 10
-245.2522900000021
 20
-147.5
 30
0.0
 40
20.2
100
AcDbArc
 50
0.0
 51
90.0
  0
ARC
  5
1044D
330
1E
100
AcDbEntity
  8
DETAIL
100
AcDbCircle
 10
-245.2522900000021
 20
-147.5
 30
0.0
 40
10.0
100
AcDbArc
 50
0.0
 51
90.0
  0
ARC
  5
1044E
330
1E
100
AcDbEntity
  8
DETAIL
100
AcDbCircle
 10
-215.720920000007
 20
-151.5
 30
0.0
 40
9.331370000000001
100
AcDbArc
 50
90.0
 51
180.0
  0
ARC
  5
1044F
330
1E
100
AcDbEntity
  8
DETAIL
100
AcDbCircle
 10
-215.720920000007
 20
-151.5
 30
0.0
 40
5.331369999999999
100
AcDbArc
 50
90.0
 51
180.0
  0
LINE
  5
10450
330
1E
100
AcDbEntity
  8
DETAIL
100
AcDbLine
 10
-225.0522900000069
 20
-151.5
 30
0.0
 11
-225.0522900000069
 21
-147.5
 31
0.0
  0
CIRCLE
  5
10451
330
1E
100
AcDbEntity
  8
DETAIL
100
AcDbCircle
 10
-271.4522900000011
 20
-145.9000000000014
 30
0.0
 40
1.45
  0
CIRCLE
  5
10452
330
1E
100
AcDbEntity
  8
DETAIL
100
AcDbCircle
 10
-242.7522900000021
 20
-160.0
 30
0.0
 40
1.45
  0
LINE
  5
10453
330
1E
100
AcDbEntity
  8
DETAIL
100
AcDbLine
 10
-19.4522900000029
 20
-211.5
 30
0.0
 11
-19.4522900000029
 21
-151.5
 31
0.0
  0
LINE
  5
10454
330
1E
100
AcDbEntity
  8
DETAIL
100
AcDbLine
 10
-5.252290000002176
 20
-215.5000000000018
 30
0.0
 11
-5.252290000002176
 21
-142.5
 31
0.0
  0
ARC
  5
10455
330
1E
100
AcDbEntity
  8
DETAIL
100
AcDbCircle
 10
-24.78367000000071
 20
-211.5
 30
0.0
 40
9.331370000000001
100
AcDbArc
 50
270.0
 51
0.0
  0
ARC
  5
10456
330
1E
100
AcDbEntity
  8
DETAIL
100
AcDbCircle
 10
-24.78367000000071
 20
-211.5
 30
0.0
 40
5.331369999999999
100
AcDbArc
 50
270.0
 51
0.0
  0
LINE
  5
10457
330
1E
100
AcDbEntity
  8
DETAIL
100
AcDbLine
 10
-15.45229000000654
 20
-215.5000000000018
 30
0.0
 11
-15.45229000000654
 21
-211.5
 31
0.0
  0
ARC
  5
10458
330
1E
100
AcDbEntity
  8
DETAIL
100
AcDbCircle
 10
-24.78367000000071
 20
-151.5
 30
0.0
 40
9.331370000000001
100
AcDbArc
 50
0.0
 51
90.0
  0
ARC
  5
10459
330
1E
100
AcDbEntity
  8
DETAIL
100
AcDbCircle
 10
-24.78367000000071
 20
-151.5
 30
0.0
 40
5.331369999999999
100
AcDbArc
 50
0.0
 51
90.0
  0
LINE
  5
1045A
330
1E
100
AcDbEntity
  8
DETAIL
100
AcDbLine
 10
-15.45229000000654
 20
-151.5
 30
0.0
 11
-15.45229000000654
 21
-142.5
 31
0.0
  0
CIRCLE
  5
1045B
330
1E
100
AcDbEntity
  8
DETAIL
100
AcDbCircle
 10
2.247709999997823
 20
-160.0
 30
0.0
 40
1.45
  0
LINE
  5
10461
330
1E
100
AcDbEntity
  8
NOTE
  6
CONTINUOUS
100
AcDbLine
 10
553.747709999996
 20
-203.0
 30
0.0
 11
856.7277569999969
 21
-366.7835359999989
 31
0.0
  0
LINE
  5
10462
330
1E
100
AcDbEntity
  8
NOTE
  6
CONTINUOUS
100
AcDbLine
 10
501.7477099999978
 20
-246.0000000000018
 30
0.0
 11
891.7442387617883
 21
-471.3742360036794
 31
0.0
  0
LINE
  5
10463
330
1E
100
AcDbEntity
  8
NOTE
  6
CONTINUOUS
100
AcDbLine
 10
618.5
 20
-400.0
 30
0.0
 11
804.9705936152696
 21
-587.4234534567513
 31
0.0
  0
LINE
  5
10465
330
1E
100
AcDbEntity
  8
DETAIL
100
AcDbLine
 10
629.7477099999887
 20
-666.5282500000012
 30
0.0
 11
629.7477099999887
 21
-497.6291200000014
 31
0.0
  0
LINE
  5
10466
330
1E
100
AcDbEntity
  8
DETAIL
100
AcDbLine
 10
634.7477099999887
 20
-671.440980000003
 30
0.0
 11
634.7477099999887
 21
-475.5000000000018
 31
0.0
  0
LINE
  5
10467
330
1E
100
AcDbEntity
  8
DETAIL
100
AcDbLine
 10
639.7477099999887
 20
-674.2441899999994
 30
0.0
 11
639.7477099999887
 21
-462.3708799999985
 31
0.0
  0
LINE
  5
10468
330
1E
100
AcDbEntity
  8
DETAIL
100
AcDbLine
 10
600.7477099999923
 20
-628.9825400000008
 30
0.0
 11
600.7477099999923
 21
-476.4911600000013
 31
0.0
  0
CIRCLE
  5
10469
330
1E
100
AcDbEntity
  8
DETAIL
100
AcDbCircle
 10
184.4977099999923
 20
-627.0000000000036
 30
0.0
 40
1.45
  0
CIRCLE
  5
1046A
330
1E
100
AcDbEntity
  8
DETAIL
100
AcDbCircle
 10
164.9977099999941
 20
-627.0000000000036
 30
0.0
 40
1.45
  0
CIRCLE
  5
1046B
330
1E
100
AcDbEntity
  8
DETAIL
100
AcDbCircle
 10
557.7477099999996
 20
-627.0000000000036
 30
0.0
 40
1.45
  0
CIRCLE
  5
1046C
330
1E
100
AcDbEntity
  8
DETAIL
100
AcDbCircle
 10
494.247709999996
 20
-627.0000000000036
 30
0.0
 40
1.45
  0
CIRCLE
  5
1046D
330
1E
100
AcDbEntity
  8
DETAIL
100
AcDbCircle
 10
557.7477099999996
 20
-627.0000000000036
 30
0.0
 40
1.45
  0
CIRCLE
  5
1046E
330
1E
100
AcDbEntity
  8
DETAIL
100
AcDbCircle
 10
494.247709999996
 20
-627.0000000000036
 30
0.0
 40
1.45
  0
LINE
  5
1046F
330
1E
100
AcDbEntity
  8
DETAIL
100
AcDbLine
 10
599.7477099999887
 20
-679.8558799999991
 30
0.0
 11
599.7477099999887
 21
-629.0
 31
0.0
  0
LINE
  5
10470
330
1E
100
AcDbEntity
  8
DETAIL
100
AcDbLine
 10
599.7477099999887
 20
-635.5000000000018
 30
0.0
 11
599.7477099999887
 21
-678.6270499999991
 31
0.0
  0
LINE
  5
10471
330
1E
100
AcDbEntity
  8
DETAIL
100
AcDbLine
 10
599.7477099999887
 20
-679.8558799999991
 30
0.0
 11
634.8349699999889
 21
-679.2434300000023
 31
0.0
  0
ARC
  5
10472
330
1E
100
AcDbEntity
  8
DETAIL
100
AcDbCircle
 10
634.7477099999887
 20
-674.2441899999994
 30
0.0
 40
5.0
100
AcDbArc
 50
270.9999999999761
 51
0.0
  0
LINE
  5
10473
330
1E
100
AcDbEntity
  8
DETAIL
100
AcDbLine
 10
599.7477099999887
 20
-675.0
 30
0.0
 11
631.8000600000013
 21
-674.4405200000037
 31
0.0
  0
LINE
  5
10474
330
1E
100
AcDbEntity
  8
DETAIL
100
AcDbLine
 10
599.7477099999887
 20
-670.0
 30
0.0
 11
626.8000600000013
 21
-669.5277999999998
 31
0.0
  0
ARC
  5
10475
330
1E
100
AcDbEntity
  8
DETAIL
100
AcDbCircle
 10
631.747709999996
 20
-671.440980000003
 30
0.0
 40
3.0
100
AcDbArc
 50
270.9999999999761
 51
0.0
  0
ARC
  5
10476
330
1E
100
AcDbEntity
  8
DETAIL
100
AcDbCircle
 10
626.7477099999959
 20
-666.5282500000012
 30
0.0
 40
3.0
100
AcDbArc
 50
270.9999999999761
 51
0.0
  0
ARC
  5
10477
330
1E
100
AcDbEntity
  8
DETAIL
100
AcDbCircle
 10
598.5477099999989
 20
-678.6270499999991
 30
0.0
 40
1.199999999999999
100
AcDbArc
 50
270.0
 51
0.0
  0
LINE
  5
10478
330
1E
100
AcDbEntity
  8
DETAIL
100
AcDbLine
 10
597.7477099999996
 20
-621.0
 30
0.0
 11
599.7477099999887
 21
-621.0
 31
0.0
  0
LINE
  5
10479
330
1E
100
AcDbEntity
  8
DETAIL
100
AcDbLine
 10
597.7477099999996
 20
-621.0
 30
0.0
 11
597.7477099999996
 21
-630.0
 31
0.0
  0
ARC
  5
1047A
330
1E
100
AcDbEntity
  8
DETAIL
100
AcDbCircle
 10
594.7477099999887
 20
-630.0
 30
0.0
 40
3.0
100
AcDbArc
 50
270.0
 51
0.0
  0
LINE
  5
1047B
330
1E
100
AcDbEntity
  8
DETAIL
100
AcDbLine
 10
599.7477099999887
 20
-629.0
 30
0.0
 11
626.8000600000013
 21
-628.5278000000016
 31
0.0
  0
ARC
  5
1047C
330
1E
100
AcDbEntity
  8
DETAIL
100
AcDbCircle
 10
626.7477099999959
 20
-625.528250000003
 30
0.0
 40
3.0
100
AcDbArc
 50
270.9999999999761
 51
0.0
  0
ARC
  5
1047D
330
1E
100
AcDbEntity
  8
DETAIL
100
AcDbCircle
 10
595.5477100000061
 20
-625.0
 30
0.0
 40
3.0
100
AcDbArc
 50
0.0
 51
42.83342799996945
  0
LINE
  5
1047E
330
1E
100
AcDbEntity
  8
DETAIL
100
AcDbLine
 10
598.5477099999989
 20
-625.0
 30
0.0
 11
598.5477099999989
 21
-635.5000000000018
 31
0.0
  0
LINE
  5
1047F
330
1E
100
AcDbEntity
  8
DETAIL
100
AcDbLine
 10
599.7477099999887
 20
-635.5000000000018
 30
0.0
 11
598.5477099999989
 21
-635.5000000000018
 31
0.0
  0
ARC
  5
10480
330
1E
100
AcDbEntity
  8
DETAIL
100
AcDbCircle
 10
391.906930000001
 20
-211.3694900000009
 30
0.0
 40
5.461879999999999
100
AcDbArc
 50
270.0
 51
0.0
  0
ARC
  5
10481
330
1E
100
AcDbEntity
  8
DETAIL
100
AcDbCircle
 10
391.2163300000029
 20
-212.3694900000009
 30
0.0
 40
8.461879999999998
100
AcDbArc
 50
270.0
 51
0.0
  0
ARC
  5
10482
330
1E
100
AcDbEntity
  8
DETAIL
100
AcDbCircle
 10
391.2163300000029
 20
-150.6305100000008
 30
0.0
 40
8.461879999999998
100
AcDbArc
 50
0.0
 51
90.0
  0
ARC
  5
10483
330
1E
100
AcDbEntity
  8
DETAIL
100
AcDbCircle
 10
391.906930000001
 20
-151.630509999999
 30
0.0
 40
5.461879999999999
100
AcDbArc
 50
0.0
 51
90.0
  0
LINE
  5
10484
330
1E
100
AcDbEntity
  8
DETAIL
100
AcDbLine
 10
345.4163300000036
 20
-332.3504200000024
 30
0.0
 11
599.7477099999887
 21
-332.3504200000024
 31
0.0
  0
LINE
  5
10485
330
1E
100
AcDbEntity
  8
DETAIL
100
AcDbLine
 10
22.41632999999274
 20
-332.3504200000024
 30
0.0
 11
320.0790799999922
 21
-332.3504200000024
 31
0.0
  0
LINE
  5
10486
330
1E
100
AcDbEntity
  8
DETAIL
100
AcDbLine
 10
17.41632999999274
 20
-505.5999999999985
 30
0.0
 11
17.41632999999274
 21
-337.3504200000025
 31
0.0
  0
LINE
  5
10487
330
1E
100
AcDbEntity
  8
DETAIL
100
AcDbLine
 10
14.41633000000001
 20
-505.5999999999985
 30
0.0
 11
14.41633000000001
 21
-332.1542700000009
 31
0.0
  0
ARC
  5
10488
330
1E
100
AcDbEntity
  8
DETAIL
100
AcDbCircle
 10
22.41632999999274
 20
-337.3504200000025
 30
0.0
 40
5.0
100
AcDbArc
 50
90.0
 51
180.0
  0
ARC
  5
10489
330
1E
100
AcDbEntity
  8
DETAIL
100
AcDbCircle
 10
19.41633000000001
 20
-332.1542700000009
 30
0.0
 40
5.0
100
AcDbArc
 50
90.0
 51
180.0
  0
LINE
  5
1048A
330
1E
100
AcDbEntity
  8
DETAIL
100
AcDbLine
 10
340.4163300000036
 20
-505.5999999999985
 30
0.0
 11
340.4163300000036
 21
-337.3504200000025
 31
0.0
  0
LINE
  5
1048B
330
1E
100
AcDbEntity
  8
DETAIL
100
AcDbLine
 10
337.4163299999927
 20
-505.5999999999985
 30
0.0
 11
337.4163299999927
 21
-332.1542700000009
 31
0.0
  0
LINE
  5
1048C
330
1E
100
AcDbEntity
  8
DETAIL
100
AcDbLine
 10
328.0790800000031
 20
-505.5999999999985
 30
0.0
 11
328.0790800000031
 21
-332.1542700000009
 31
0.0
  0
LINE
  5
1048D
330
1E
100
AcDbEntity
  8
DETAIL
100
AcDbLine
 10
325.0790799999922
 20
-505.5999999999985
 30
0.0
 11
325.0790799999922
 21
-337.3504200000025
 31
0.0
  0
ARC
  5
1048E
330
1E
100
AcDbEntity
  8
DETAIL
100
AcDbCircle
 10
332.7477099999996
 20
-505.5999999999985
 30
0.0
 40
4.66863
100
AcDbArc
 50
180.0
 51
0.0
  0
ARC
  5
1048F
330
1E
100
AcDbEntity
  8
DETAIL
100
AcDbCircle
 10
332.7477099999996
 20
-505.5999999999985
 30
0.0
 40
7.668629999999999
100
AcDbArc
 50
180.0
 51
0.0
  0
ARC
  5
10490
330
1E
100
AcDbEntity
  8
DETAIL
100
AcDbCircle
 10
345.4163300000036
 20
-337.3504200000025
 30
0.0
 40
5.0
100
AcDbArc
 50
90.0
 51
180.0
  0
ARC
  5
10491
330
1E
100
AcDbEntity
  8
DETAIL
100
AcDbCircle
 10
342.4163299999927
 20
-332.1542700000009
 30
0.0
 40
5.0
100
AcDbArc
 50
90.0
 51
180.0
  0
LINE
  5
10492
330
1E
100
AcDbEntity
  8
DETAIL
100
AcDbLine
 10
323.0790800000031
 20
-327.1542700000009
 30
0.0
 11
342.4163299999927
 21
-327.1542700000009
 31
0.0
  0
ARC
  5
10493
330
1E
100
AcDbEntity
  8
DETAIL
100
AcDbCircle
 10
323.0790800000031
 20
-332.1542700000009
 30
0.0
 40
5.0
100
AcDbArc
 50
0.0
 51
90.0
  0
ARC
  5
10494
330
1E
100
AcDbEntity
  8
DETAIL
100
AcDbCircle
 10
320.0790799999922
 20
-337.3504200000025
 30
0.0
 40
5.0
100
AcDbArc
 50
0.0
 51
90.0
  0
LINE
  5
10495
330
1E
100
AcDbEntity
  8
DETAIL
100
AcDbLine
 10
199.2790799999929
 20
-220.8313699999998
 30
0.0
 11
391.2163300000029
 21
-220.8313699999998
 31
0.0
  0
LINE
  5
10496
330
1E
100
AcDbEntity
  8
DETAIL
100
AcDbLine
 10
199.2790799999929
 20
-216.8313699999998
 30
0.0
 11
391.906930000001
 21
-216.8313699999998
 31
0.0
  0
LINE
  5
10497
330
1E
100
AcDbEntity
  8
DETAIL
100
AcDbLine
 10
199.2790799999929
 20
-146.1686300000019
 30
0.0
 11
391.906930000001
 21
-146.1686300000019
 31
0.0
  0
LINE
  5
10498
330
1E
100
AcDbEntity
  8
DETAIL
100
AcDbLine
 10
199.2790799999929
 20
-142.1686300000001
 30
0.0
 11
391.2163300000029
 21
-142.1686300000001
 31
0.0
  0
LINE
  5
10499
330
1E
100
AcDbEntity
  8
DETAIL
100
AcDbLine
 10
193.9477099999894
 20
-211.5
 30
0.0
 11
193.9477099999894
 21
-151.5
 31
0.0
  0
LINE
  5
1049A
330
1E
100
AcDbEntity
  8
DETAIL
100
AcDbLine
 10
179.7477099999978
 20
-215.5000000000018
 30
0.0
 11
179.7477099999978
 21
-142.5
 31
0.0
  0
LINE
  5
1049B
330
1E
100
AcDbEntity
  8
DETAIL
100
AcDbLine
 10
164.7477099999978
 20
-230.5000000000018
 30
0.0
 11
9.747709999997823
 21
-230.5000000000018
 31
0.0
  0
LINE
  5
1049C
330
1E
100
AcDbEntity
  8
DETAIL
100
AcDbLine
 10
164.7477099999978
 20
-240.7000000000007
 30
0.0
 11
9.747709999997823
 21
-240.7000000000007
 31
0.0
  0
ELLIPSE
  5
1049D
330
1E
100
AcDbEntity
  8
DETAIL
100
AcDbEllipse
 10
97.247709999996
 20
-278.3806200000035
 30
0.0
 11
1.805999999999982
 21
0.0
 31
0.0
210
0.0
220
0.0
230
1.0
 40
0.9903059999999999
 41
0.0
 42
6.283185307179585
  0
ELLIPSE
  5
1049E
330
1E
100
AcDbEntity
  8
DETAIL
100
AcDbEllipse
 10
97.247709999996
 20
-278.7981399999989
 30
0.0
 11
3.538119784648471
 21
0.0
 31
0.0
210
0.0
220
0.0
230
1.0
 40
0.990268
 41
0.0
 42
6.283185307179585
  0
CIRCLE
  5
1049F
330
1E
100
AcDbEntity
  8
DETAIL
100
AcDbCircle
 10
54.79770999999892
 20
-215.0
 30
0.0
 40
3.5
  0
ELLIPSE
  5
104A0
330
1E
100
AcDbEntity
  8
DETAIL
100
AcDbEllipse
 10
12.247709999996
 20
-266.5673900000001
 30
0.0
 11
1.44999999999996
 21
0.0
 31
0.0
210
0.0
220
0.0
230
1.0
 40
0.990268
 41
3.180372258128274
 42
6.244405702641076
  0
ELLIPSE
  5
104A1
330
1E
100
AcDbEntity
  8
DETAIL
100
AcDbEllipse
 10
12.247709999996
 20
-266.6787300000032
 30
0.0
 11
1.44999999999996
 21
0.0
 31
0.0
210
0.0
220
0.0
230
1.0
 40
0.990268
 41
0.0
 42
6.283185307179585
  0
ARC
  5
104A2
330
1E
100
AcDbEntity
  8
DETAIL
100
AcDbCircle
 10
164.7477099999978
 20
-215.5000000000018
 30
0.0
 40
25.2
100
AcDbArc
 50
270.0
 51
0.0
  0
ARC
  5
104A3
330
1E
100
AcDbEntity
  8
DETAIL
100
AcDbCircle
 10
164.7477099999978
 20
-215.5000000000018
 30
0.0
 40
15.0
100
AcDbArc
 50
270.0
 51
0.0
  0
ARC
  5
104A4
330
1E
100
AcDbEntity
  8
DETAIL
100
AcDbCircle
 10
199.2790799999929
 20
-211.5
 30
0.0
 40
5.331369999999999
100
AcDbArc
 50
180.0
 51
270.0
  0
ARC
  5
104A5
330
1E
100
AcDbEntity
  8
DETAIL
100
AcDbCircle
 10
199.2790799999929
 20
-211.5
 30
0.0
 40
9.331370000000001
100
AcDbArc
 50
180.0
 51
270.0
  0
ELLIPSE
  5
104A6
330
1E
100
AcDbEntity
  8
DETAIL
100
AcDbEllipse
 10
167.247709999996
 20
-266.5673900000001
 30
0.0
 11
1.450000000000031
 21
0.0
 31
0.0
210
0.0
220
0.0
230
1.0
 40
0.990268
 41
3.180372258128278
 42
6.2444057026411
  0
ELLIPSE
  5
104A7
330
1E
100
AcDbEntity
  8
DETAIL
100
AcDbEllipse
 10
167.247709999996
 20
-266.6787300000032
 30
0.0
 11
1.450000000000031
 21
0.0
 31
0.0
210
0.0
220
0.0
230
1.0
 40
0.990268
 41
0.0
 42
6.283185307179585
  0
LINE
  5
104A8
330
1E
100
AcDbEntity
  8
DETAIL
100
AcDbLine
 10
189.9477099999931
 20
-215.5000000000018
 30
0.0
 11
189.9477099999931
 21
-211.5
 31
0.0
  0
CIRCLE
  5
104A9
330
1E
100
AcDbEntity
  8
DETAIL
100
AcDbCircle
 10
139.6977099999967
 20
-215.0
 30
0.0
 40
3.5
  0
LINE
  5
104AA
330
1E
100
AcDbEntity
  8
DETAIL
100
AcDbLine
 10
9.747709999997823
 20
-127.5
 30
0.0
 11
164.7477099999978
 21
-127.5
 31
0.0
  0
LINE
  5
104AB
330
1E
100
AcDbEntity
  8
DETAIL
100
AcDbLine
 10
9.747709999997823
 20
-117.2999999999992
 30
0.0
 11
164.7477099999978
 21
-117.2999999999992
 31
0.0
  0
CIRCLE
  5
104AC
330
1E
100
AcDbEntity
  8
DETAIL
100
AcDbCircle
 10
54.79770999999892
 20
-145.0
 30
0.0
 40
3.5
  0
CIRCLE
  5
104AD
330
1E
100
AcDbEntity
  8
DETAIL
100
AcDbCircle
 10
54.79770999999892
 20
-180.0
 30
0.0
 40
4.53812
  0
CIRCLE
  5
104AE
330
1E
100
AcDbEntity
  8
DETAIL
100
AcDbCircle
 10
54.79770999999892
 20
-180.0
 30
0.0
 40
3.38342
  0
ARC
  5
104AF
330
1E
100
AcDbEntity
  8
DETAIL
100
AcDbCircle
 10
164.7477099999978
 20
-142.5
 30
0.0
 40
25.2
100
AcDbArc
 50
0.0
 51
90.0
  0
ARC
  5
104B0
330
1E
100
AcDbEntity
  8
DETAIL
100
AcDbCircle
 10
164.7477099999978
 20
-142.5
 30
0.0
 40
15.0
100
AcDbArc
 50
0.0
 51
90.0
  0
ARC
  5
104B1
330
1E
100
AcDbEntity
  8
DETAIL
100
AcDbCircle
 10
199.2790799999929
 20
-151.5
 30
0.0
 40
9.331370000000001
100
AcDbArc
 50
90.0
 51
180.0
  0
ARC
  5
104B2
330
1E
100
AcDbEntity
  8
DETAIL
100
AcDbCircle
 10
199.2790799999929
 20
-151.5
 30
0.0
 40
5.331369999999999
100
AcDbArc
 50
90.0
 51
180.0
  0
LINE
  5
104B3
330
1E
100
AcDbEntity
  8
DETAIL
100
AcDbLine
 10
189.9477099999931
 20
-151.5
 30
0.0
 11
189.9477099999931
 21
-142.5
 31
0.0
  0
CIRCLE
  5
104B4
330
1E
100
AcDbEntity
  8
DETAIL
100
AcDbCircle
 10
172.2477099999978
 20
-160.0
 30
0.0
 40
1.45
  0
CIRCLE
  5
104B5
330
1E
100
AcDbEntity
  8
DETAIL
100
AcDbCircle
 10
139.6977099999967
 20
-145.0
 30
0.0
 40
3.5
  0
CIRCLE
  5
104B6
330
1E
100
AcDbEntity
  8
DETAIL
100
AcDbCircle
 10
139.6977099999967
 20
-180.0
 30
0.0
 40
4.53812
  0
CIRCLE
  5
104B7
330
1E
100
AcDbEntity
  8
DETAIL
100
AcDbCircle
 10
139.6977099999967
 20
-180.0
 30
0.0
 40
3.38342
  0
LINE
  5
104B8
330
1E
100
AcDbEntity
  8
DETAIL
100
AcDbLine
 10
633.2477099999923
 20
-311.2242700000024
 30
0.0
 11
633.2477099999923
 21
-138.256110000002
 31
0.0
  0
LINE
  5
104B9
330
1E
100
AcDbEntity
  8
DETAIL
100
AcDbLine
 10
631.0
 20
-310.5954700000038
 30
0.0
 11
631.0
 21
-140.3526899999997
 31
0.0
  0
LWPOLYLINE
  5
104BA
330
1E
100
AcDbEntity
  8
NOTE
  6
CONTINUOUS
100
AcDbPolyline
 90
        3
 70
     0
 43
0.0
 10
653.3147260000005
 20
-419.6960619999999
 10
618.5
 20
-400.0
 10
638.8024060000007
 20
-434.464653
  0
LINE
  5
104BB
330
1E
100
AcDbEntity
  8
DETAIL
100
AcDbLine
 10
638.2477099999923
 20
-456.5085100000032
 30
0.0
 11
638.2477099999923
 21
-367.9455500000003
 31
0.0
  0
LINE
  5
104BC
330
1E
100
AcDbEntity
  8
DETAIL
100
AcDbLine
 10
637.5999999999985
 20
-456.9189300000016
 30
0.0
 11
637.5999999999985
 21
-381.9526900000019
 31
0.0
  0
ARC
  5
104BD
330
1E
100
AcDbEntity
  8
DETAIL
100
AcDbCircle
 10
679.7477099999887
 20
-497.6291200000014
 30
0.0
 40
50.0
100
AcDbArc
 50
158.1986160000143
 51
180.0
  0
ARC
  5
104BE
330
1E
100
AcDbEntity
  8
DETAIL
100
AcDbCircle
 10
591.747709999996
 20
-448.3708800000022
 30
0.0
 40
50.0
100
AcDbArc
 50
338.1986149999935
 51
0.0
  0
LINE
  5
104BF
330
1E
100
AcDbEntity
  8
DETAIL
100
AcDbLine
 10
633.3238700000001
 20
-479.0595900000007
 30
0.0
 11
638.1715399999993
 21
-466.9404100000028
 31
0.0
  0
LINE
  5
104C0
330
1E
100
AcDbEntity
  8
DETAIL
100
AcDbLine
 10
603.6953499999945
 20
-473.4916200000006
 30
0.0
 11
611.3100300000005
 21
-473.3586999999988
 31
0.0
  0
ARC
  5
104C1
330
1E
100
AcDbEntity
  8
DETAIL
100
AcDbCircle
 10
603.7477100000033
 20
-476.4911600000013
 30
0.0
 40
3.0
100
AcDbArc
 50
90.99999999997615
 51
180.0
  0
LINE
  5
104C2
330
1E
100
AcDbEntity
  8
DETAIL
100
AcDbLine
 10
612.0857600000054
 20
-473.3451599999989
 30
0.0
 11
612.7576700000063
 21
-472.9572399999997
 31
0.0
  0
ARC
  5
104C3
330
1E
100
AcDbEntity
  8
DETAIL
100
AcDbCircle
 10
636.7477099999978
 20
-455.6424781380028
 30
0.0
 40
3.0
100
AcDbArc
 50
300.0000000000103
 51
0.0
  0
ARC
  5
104C4
330
1E
100
AcDbEntity
  8
DETAIL
100
AcDbCircle
 10
611.2576699999918
 20
-470.3591600000036
 30
0.0
 40
3.0
100
AcDbArc
 50
270.9999999999761
 51
300.0000000000103
  0
LINE
  5
104C5
330
1E
100
AcDbEntity
  8
DETAIL
100
AcDbLine
 10
612.7576700000063
 20
-472.9572399999997
 30
0.0
 11
638.2477099999996
 21
-458.2405543493551
 31
0.0
  0
LINE
  5
104C6
330
1E
100
AcDbEntity
  8
DETAIL
100
AcDbLine
 10
611.3100300000005
 20
-473.3586999999988
 30
0.0
 11
612.0857600000054
 21
-473.3451599999989
 31
0.0
  0
LINE
  5
104C7
330
1E
100
AcDbEntity
  8
DETAIL
100
AcDbLine
 10
637.5999999999985
 20
-456.9189300000016
 30
0.0
 11
636.0
 21
-456.9189300000016
 31
0.0
  0
LINE
  5
104C8
330
1E
100
AcDbEntity
  8
DETAIL
100
AcDbLine
 10
613.3205099999904
 20
-470.0129400000005
 30
0.0
 11
636.0
 21
-456.9189300000016
 31
0.0
  0
ARC
  5
104C9
330
1E
100
AcDbEntity
  8
DETAIL
100
AcDbCircle
 10
608.3205099999904
 20
-461.3526900000033
 30
0.0
 40
10.0
100
AcDbArc
 50
270.0
 51
300.0000000000103
  0
LINE
  5
104CA
330
1E
100
AcDbEntity
  8
DETAIL
100
AcDbLine
 10
601.0
 20
-471.3526900000033
 30
0.0
 11
608.3205099999904
 21
-471.3526900000033
 31
0.0
  0
CIRCLE
  5
104CB
330
1E
100
AcDbEntity
  8
FIX
  6
CONTINUOUS
100
AcDbCircle
 10
618.5
 20
-400.0
 30
0.0
 40
5.0
  0
LINE
  5
104CC
330
1E
100
AcDbEntity
  8
NOTE
  6
CONTINUOUS
100
AcDbLine
 10
598.5
 20
-400.0
 30
0.0
 11
638.4999999999999
 21
-400.0
 31
0.0
  0
LINE
  5
104CD
330
1E
100
AcDbEntity
  8
NOTE
  6
CONTINUOUS
100
AcDbLine
 10
618.5
 20
-380.0
 30
0.0
 11
618.5
 21
-420.0
 31
0.0
  0
LINE
  5
104CE
330
1E
100
AcDbEntity
  8
BASIS
100
AcDbLine
 10
603.3006299999997
 20
-400.0
 30
0.0
 11
633.6993700000002
 21
-400.0
 31
0.0
  0
LINE
  5
104CF
330
1E
100
AcDbEntity
  8
DETAIL
100
AcDbLine
 10
635.4047099999989
 20
-364.949660000002
 30
0.0
 11
620.090699999997
 21
-364.1470800000024
 31
0.0
  0
ARC
  5
104D0
330
1E
100
AcDbEntity
  8
DETAIL
100
AcDbCircle
 10
620.2477099999996
 20
-361.1512000000002
 30
0.0
 40
3.0
100
AcDbArc
 50
180.0
 51
266.9999999999938
  0
ARC
  5
104D1
330
1E
100
AcDbEntity
  8
DETAIL
100
AcDbCircle
 10
635.2477099999996
 20
-367.9455500000003
 30
0.0
 40
3.0
100
AcDbArc
 50
0.0
 51
86.99999999999389
  0
LINE
  5
104D2
330
1E
100
AcDbEntity
  8
DETAIL
100
AcDbLine
 10
617.2477099999887
 20
-361.1512000000002
 30
0.0
 11
617.2477099999887
 21
-323.9259799999999
 31
0.0
  0
LINE
  5
104D3
330
1E
100
AcDbEntity
  8
DETAIL
100
AcDbLine
 10
618.7477100000032
 20
-321.3279000000002
 30
0.0
 11
631.747709999996
 21
-313.8223500000003
 31
0.0
  0
ARC
  5
104D4
330
1E
100
AcDbEntity
  8
DETAIL
100
AcDbCircle
 10
630.2477099999996
 20
-311.2242700000024
 30
0.0
 40
3.0
100
AcDbArc
 50
300.0000000000103
 51
0.0
  0
ARC
  5
104D5
330
1E
100
AcDbEntity
  8
DETAIL
100
AcDbCircle
 10
620.2477099999996
 20
-323.9259799999999
 30
0.0
 40
3.0
100
AcDbArc
 50
120.0000000000103
 51
180.0
  0
ARC
  5
104D6
330
1E
100
AcDbEntity
  8
DETAIL
100
AcDbCircle
 10
621.0
 20
-400.3526899999997
 30
0.0
 40
6.0
100
AcDbArc
 50
270.0
 51
43.7617430000175
  0
ARC
  5
104D7
330
1E
100
AcDbEntity
  8
DETAIL
100
AcDbCircle
 10
627.4999999999963
 20
-394.1277399999999
 30
0.0
 40
3.0
100
AcDbArc
 50
180.0
 51
223.7617430000175
  0
LINE
  5
104D8
330
1E
100
AcDbEntity
  8
DETAIL
100
AcDbLine
 10
624.5000000000036
 20
-394.1277399999999
 30
0.0
 11
624.5000000000036
 21
-378.7526900000011
 31
0.0
  0
LINE
  5
104D9
330
1E
100
AcDbEntity
  8
DETAIL
100
AcDbLine
 10
634.4000000000014
 20
-381.9526900000019
 30
0.0
 11
634.4000000000014
 21
-378.7526900000011
 31
0.0
  0
LINE
  5
104DA
330
1E
100
AcDbEntity
  8
DETAIL
100
AcDbLine
 10
634.4000000000014
 20
-378.7526900000011
 30
0.0
 11
624.5000000000036
 21
-378.7526900000011
 31
0.0
  0
LINE
  5
104DB
330
1E
100
AcDbEntity
  8
DETAIL
100
AcDbLine
 10
637.5999999999985
 20
-381.9526900000019
 30
0.0
 11
634.4000000000014
 21
-381.9526900000019
 31
0.0
  0
ARC
  5
104DC
330
1E
100
AcDbEntity
  8
DETAIL
100
AcDbCircle
 10
609.5000000000036
 20
-394.1277399999999
 30
0.0
 40
3.0
100
AcDbArc
 50
316.2382569999824
 51
0.0
  0
LINE
  5
104DD
330
1E
100
AcDbEntity
  8
DETAIL
100
AcDbLine
 10
612.4999999999963
 20
-394.1277399999999
 30
0.0
 11
612.4999999999963
 21
-326.126189999999
 31
0.0
  0
ARC
  5
104DE
330
1E
100
AcDbEntity
  8
DETAIL
100
AcDbCircle
 10
616.0
 20
-400.3526899999997
 30
0.0
 40
6.0
100
AcDbArc
 50
136.2382569999825
 51
270.0
  0
LINE
  5
104DF
330
1E
100
AcDbEntity
  8
DETAIL
100
AcDbLine
 10
616.0
 20
-406.3526900000033
 30
0.0
 11
621.0
 21
-406.3526900000033
 31
0.0
  0
LINE
  5
104E0
330
1E
100
AcDbEntity
  8
DETAIL
100
AcDbLine
 10
629.4000000000014
 20
-310.5954700000038
 30
0.0
 11
631.0
 21
-310.5954700000038
 31
0.0
  0
LINE
  5
104E1
330
1E
100
AcDbEntity
  8
DETAIL
100
AcDbLine
 10
617.4999999999963
 20
-317.4659300000021
 30
0.0
 11
629.4000000000014
 21
-310.5954700000038
 31
0.0
  0
ARC
  5
104E2
330
1E
100
AcDbEntity
  8
DETAIL
100
AcDbCircle
 10
622.4999999999964
 20
-326.126189999999
 30
0.0
 40
10.0
100
AcDbArc
 50
120.0000000000103
 51
180.0
  0
LWPOLYLINE
  5
104E3
330
1E
100
AcDbEntity
  8
NOTE
  6
CONTINUOUS
100
AcDbPolyline
 90
        3
 70
     0
 43
0.0
 10
592.7096829999954
 20
-212.053433
 10
553.747709999996
 20
-203.0
 10
582.9630519999954
 20
-230.3214889999999
  0
LINE
  5
104E4
330
1E
100
AcDbEntity
  8
NOTE
  6
CONTINUOUS
100
AcDbLine
 10
553.747709999996
 20
-183.0
 30
0.0
 11
553.747709999996
 21
-223.0
 31
0.0
  0
LINE
  5
104E5
330
1E
100
AcDbEntity
  8
NOTE
  6
CONTINUOUS
100
AcDbLine
 10
468.7477099999959
 20
-164.0
 30
0.0
 11
468.7477099999959
 21
-204.0
 31
0.0
  0
ARC
  5
104E6
330
1E
100
AcDbEntity
  8
DETAIL
100
AcDbCircle
 10
413.812959999992
 20
-184.2542300000022
 30
0.0
 40
14.13475
100
AcDbArc
 50
180.0
 51
0.0
  0
ARC
  5
104E7
330
1E
100
AcDbEntity
  8
DETAIL
100
AcDbCircle
 10
413.812959999992
 20
-184.2542300000022
 30
0.0
 40
8.24577
100
AcDbArc
 50
180.0
 51
0.0
  0
LINE
  5
104E8
330
1E
100
AcDbEntity
  8
DETAIL
100
AcDbLine
 10
399.6782099999982
 20
-184.2542300000022
 30
0.0
 11
399.6782099999982
 21
-212.3694900000009
 31
0.0
  0
LINE
  5
104E9
330
1E
100
AcDbEntity
  8
DETAIL
100
AcDbLine
 10
397.3688100000035
 20
-211.3694900000009
 30
0.0
 11
397.3688100000035
 21
-151.630509999999
 31
0.0
  0
LINE
  5
104EA
330
1E
100
AcDbEntity
  8
NOTE
  6
CONTINUOUS
100
AcDbLine
 10
481.747709999996
 20
-246.0000000000018
 30
0.0
 11
521.747709999996
 21
-246.0000000000018
 31
0.0
  0
ELLIPSE
  5
104EB
330
1E
100
AcDbEntity
  8
DETAIL
100
AcDbEllipse
 10
422.2477099999959
 20
-266.6787300000032
 30
0.0
 11
1.450000000000102
 21
0.0
 31
0.0
210
0.0
220
0.0
230
1.0
 40
0.990268
 41
0.0
 42
6.283185307179585
  0
ELLIPSE
  5
104EC
330
1E
100
AcDbEntity
  8
DETAIL
100
AcDbEllipse
 10
422.2477099999959
 20
-266.5673900000001
 30
0.0
 11
1.450000000000102
 21
0.0
 31
0.0
210
0.0
220
0.0
230
1.0
 40
0.990268
 41
3.18037225812828
 42
6.244405702641098
  0
LINE
  5
104ED
330
1E
100
AcDbEntity
  8
NOTE
  6
CONTINUOUS
100
AcDbLine
 10
533.747709999996
 20
-203.0
 30
0.0
 11
573.747709999996
 21
-203.0
 31
0.0
  0
LINE
  5
104EE
330
1E
100
AcDbEntity
  8
NOTE
  6
CONTINUOUS
100
AcDbLine
 10
501.7477099999959
 20
-226.0
 30
0.0
 11
501.7477099999959
 21
-266.0
 31
0.0
  0
LWPOLYLINE
  5
104EF
330
1E
100
AcDbEntity
  8
NOTE
  6
CONTINUOUS
100
AcDbPolyline
 90
        3
 70
     0
 43
0.0
 10
540.392774815682
 20
-256.3227412951073
 10
501.7477099999978
 20
-246.0000000000018
 10
530.0539468624574
 20
-274.2622882367522
  0
ELLIPSE
  5
104F0
330
1E
100
AcDbEntity
  8
DETAIL
100
AcDbEllipse
 10
561.247709999996
 20
-266.5673900000001
 30
0.0
 11
1.450000000000102
 21
0.0
 31
0.0
210
0.0
220
0.0
230
1.0
 40
0.990268
 41
3.18037225812828
 42
6.244405702641098
  0
ELLIPSE
  5
104F1
330
1E
100
AcDbEntity
  8
DETAIL
100
AcDbEllipse
 10
561.247709999996
 20
-266.6787300000032
 30
0.0
 11
1.450000000000102
 21
0.0
 31
0.0
210
0.0
220
0.0
230
1.0
 40
0.990268
 41
0.0
 42
6.283185307179585
  0
ELLIPSE
  5
104F2
330
1E
100
AcDbEntity
  8
DETAIL
100
AcDbEllipse
 10
561.247709999996
 20
-266.6787300000032
 30
0.0
 11
1.450000000000102
 21
0.0
 31
0.0
210
0.0
220
0.0
230
1.0
 40
0.990268
 41
0.0
 42
6.283185307179585
  0
LWPOLYLINE
  5
104F3
330
1E
100
AcDbEntity
  8
NOTE
  6
CONTINUOUS
100
AcDbPolyline
 90
        3
 70
     0
 43
0.0
 10
476.4695314779619
 20
-144.7524077483485
 10
468.7477099999959
 20
-184.0
 10
495.0587993232838
 20
-153.8714994749734
  0
LINE
  5
104F4
330
1E
100
AcDbEntity
  8
DETAIL
100
AcDbLine
 10
459.7477099999887
 20
-167.6000000000021
 30
0.0
 11
559.7477099999887
 21
-167.6000000000021
 31
0.0
  0
LINE
  5
104F5
330
1E
100
AcDbEntity
  8
DETAIL
100
AcDbLine
 10
459.7477099999887
 20
-92.60000000000218
 30
0.0
 11
559.7477099999887
 21
-92.60000000000218
 31
0.0
  0
LINE
  5
104F6
330
1E
100
AcDbEntity
  8
NOTE
  6
CONTINUOUS
100
AcDbLine
 10
448.747709999996
 20
-184.0
 30
0.0
 11
488.7477099999959
 21
-184.0
 31
0.0
  0
CIRCLE
  5
104F7
330
1E
100
AcDbEntity
  8
DETAIL
100
AcDbCircle
 10
415.7477099999923
 20
-90.0
 30
0.0
 40
2.399999999999999
  0
ARC
  5
104F8
330
1E
100
AcDbEntity
  8
DETAIL
100
AcDbCircle
 10
395.5671899999979
 20
-104.6419300000015
 30
0.0
 40
10.0
100
AcDbArc
 50
0.0
 51
24.99999999997613
  0
ARC
  5
104F9
330
1E
100
AcDbEntity
  8
DETAIL
100
AcDbCircle
 10
395.5671899999979
 20
-104.6419300000015
 30
0.0
 40
9.538120000000001
100
AcDbArc
 50
0.0
 51
24.99999999997613
  0
ARC
  5
104FA
330
1E
100
AcDbEntity
  8
DETAIL
100
AcDbCircle
 10
395.5671899999979
 20
-104.6419300000015
 30
0.0
 40
3.649149999999999
100
AcDbArc
 50
0.0
 51
24.99999999997613
  0
ARC
  5
104FB
330
1E
100
AcDbEntity
  8
DETAIL
100
AcDbCircle
 10
395.5671899999979
 20
-104.6419300000015
 30
0.0
 40
4.111029999999999
100
AcDbArc
 50
0.0
 51
24.99999999997613
  0
LINE
  5
104FC
330
1E
100
AcDbEntity
  8
DETAIL
100
AcDbLine
 10
399.6782099999982
 20
-150.6305100000008
 30
0.0
 11
399.6782099999982
 21
-104.6419300000015
 31
0.0
  0
LINE
  5
104FD
330
1E
100
AcDbEntity
  8
DETAIL
100
AcDbLine
 10
405.5671899999979
 20
-184.2542300000022
 30
0.0
 11
405.5671899999979
 21
-104.6419300000015
 31
0.0
  0
CIRCLE
  5
104FE
330
1E
100
AcDbEntity
  8
DETAIL
100
AcDbCircle
 10
417.2477099999887
 20
-160.0
 30
0.0
 40
1.45
  0
ARC
  5
104FF
330
1E
100
AcDbEntity
  8
DETAIL
100
AcDbCircle
 10
459.7477099999887
 20
-147.6000000000022
 30
0.0
 40
20.0
100
AcDbArc
 50
180.0
 51
270.0
  0
LINE
  5
10500
330
1E
100
AcDbEntity
  8
DETAIL
100
AcDbLine
 10
441.6438399999933
 20
-104.0999999999985
 30
0.0
 11
439.7477099999887
 21
-104.0999999999985
 31
0.0
  0
ARC
  5
10501
330
1E
100
AcDbEntity
  8
DETAIL
100
AcDbCircle
 10
459.7477099999887
 20
-112.6000000000021
 30
0.0
 40
20.0
100
AcDbArc
 50
90.0
 51
154.8493369999789
  0
ARC
  5
10502
330
1E
100
AcDbEntity
  8
DETAIL
100
AcDbCircle
 10
559.7477099999887
 20
-147.6000000000022
 30
0.0
 40
20.0
100
AcDbArc
 50
270.0
 51
0.0
  0
LINE
  5
10503
330
1E
100
AcDbEntity
  8
DETAIL
100
AcDbLine
 10
521.2477100000032
 20
-92.60000000000218
 30
0.0
 11
521.2477100000032
 21
-90.70387000000119
 31
0.0
  0
ARC
  5
10504
330
1E
100
AcDbEntity
  8
DETAIL
100
AcDbCircle
 10
559.7477099999887
 20
-112.6000000000021
 30
0.0
 40
20.0
100
AcDbArc
 50
25.15066300002102
 51
90.0
  0
LINE
  5
10505
330
1E
100
AcDbEntity
  8
DETAIL
100
AcDbLine
 10
577.8515699999989
 20
-104.0999999999985
 30
0.0
 11
579.7477099999887
 21
-104.0999999999985
 31
0.0
  0
LINE
  5
10506
330
1E
100
AcDbEntity
  8
NOTE
  6
CONTINUOUS
100
AcDbLine
 10
598.5
 20
-80.0
 30
0.0
 11
638.4999999999999
 21
-80.0
 31
0.0
  0
LINE
  5
10507
330
1E
100
AcDbEntity
  8
BASIS
100
AcDbLine
 10
603.3006299999997
 20
-80.0
 30
0.0
 11
633.6993700000002
 21
-80.0
 31
0.0
  0
LINE
  5
10508
330
1E
100
AcDbEntity
  8
DETAIL
100
AcDbLine
 10
634.7477099999887
 20
-135.6580299999986
 30
0.0
 11
636.747709999996
 21
-134.5033300000031
 31
0.0
  0
ARC
  5
10509
330
1E
100
AcDbEntity
  8
DETAIL
100
AcDbCircle
 10
636.2477100000033
 20
-138.256110000002
 30
0.0
 40
3.0
100
AcDbArc
 50
120.0000000000103
 51
180.0
  0
ARC
  5
1050A
330
1E
100
AcDbEntity
  8
DETAIL
100
AcDbCircle
 10
635.2477099999996
 20
-131.9052499999997
 30
0.0
 40
3.0
100
AcDbArc
 50
300.0000000000103
 51
0.0
  0
LINE
  5
1050B
330
1E
100
AcDbEntity
  8
DETAIL
100
AcDbLine
 10
636.0
 20
-130.3526899999997
 30
0.0
 11
637.5999999999985
 21
-130.3526899999997
 31
0.0
  0
LINE
  5
1050C
330
1E
100
AcDbEntity
  8
DETAIL
100
AcDbLine
 10
631.9000000000015
 20
-132.719820000002
 30
0.0
 11
636.0
 21
-130.3526899999997
 31
0.0
  0
ARC
  5
1050D
330
1E
100
AcDbEntity
  8
DETAIL
100
AcDbCircle
 10
634.4000000000014
 20
-137.0499500000005
 30
0.0
 40
5.0
100
AcDbArc
 50
120.0000000000103
 51
180.0
  0
LINE
  5
1050E
330
1E
100
AcDbEntity
  8
DETAIL
100
AcDbLine
 10
629.4000000000014
 20
-140.3526899999997
 30
0.0
 11
629.4000000000014
 21
-137.0499500000005
 31
0.0
  0
LINE
  5
1050F
330
1E
100
AcDbEntity
  8
DETAIL
100
AcDbLine
 10
629.4000000000014
 20
-140.3526899999997
 30
0.0
 11
631.0
 21
-140.3526899999997
 31
0.0
  0
ARC
  5
10510
330
1E
100
AcDbEntity
  8
DETAIL
100
AcDbCircle
 10
616.0
 20
-80.35268999999971
 30
0.0
 40
6.0
100
AcDbArc
 50
136.2382569999825
 51
270.0
  0
LINE
  5
10511
330
1E
100
AcDbEntity
  8
DETAIL
100
AcDbLine
 10
616.0
 20
-86.35269000000334
 30
0.0
 11
621.0
 21
-86.35269000000334
 31
0.0
  0
ARC
  5
10512
330
1E
100
AcDbEntity
  8
DETAIL
100
AcDbCircle
 10
621.0
 20
-80.35268999999971
 30
0.0
 40
6.0
100
AcDbArc
 50
270.0
 51
43.7617430000175
  0
TEXT
  5
10513
330
1E
100
AcDbEntity
  8
NOTE
  6
CONTINUOUS
100
AcDbText
 10
817.0943167205333
 20
-564.7880314567519
 30
0.0
 40
64.0
  1
AH
 41
0.9
100
AcDbText
  0
LINE
  5
10514
330
1E
100
AcDbEntity
  8
NOTE
  6
CONTINUOUS
100
AcDbLine
 10
804.9705936152696
 20
-587.4234534567513
 30
0.0
 11
949.3210431643237
 21
-587.4234534567513
 31
0.0
  0
TEXT
  5
10515
330
1E
100
AcDbEntity
  8
NOTE
  6
CONTINUOUS
100
AcDbText
 10
884.0415979999962
 20
-352.4304310000006
 30
0.0
 40
64.0
  1
RG φ12.7
 41
0.9
100
AcDbText
  0
LINE
  5
10516
330
1E
100
AcDbEntity
  8
NOTE
  6
CONTINUOUS
100
AcDbLine
 10
891.7442387617883
 20
-471.3742360036794
 30
0.0
 11
1203.309001712974
 21
-471.3742360036776
 31
0.0
  0
LINE
  5
10517
330
1E
100
AcDbEntity
  8
NOTE
  6
CONTINUOUS
100
AcDbLine
 10
856.7277569999969
 20
-366.7835359999989
 30
0.0
 11
1265.717709999997
 21
-366.7835359999989
 31
0.0
  0
TEXT
  5
10518
330
1E
100
AcDbEntity
  8
NOTE
  6
CONTINUOUS
100
AcDbText
 10
912.6729468646281
 20
-448.2234760036772
 30
0.0
 40
64.0
  1
D φ26
 41
0.9
100
AcDbText
  0
TEXT
  5
10519
330
1E
100
AcDbEntity
  8
NOTE
  6
CONTINUOUS
100
AcDbText
 10
-268.5296123271582
 20
381.3825729725722
 30
0.0
 40
64.0
  1
EL 2-φ26
 41
0.9
100
AcDbText
  0
CIRCLE
  5
1051A
330
1E
100
AcDbEntity
  8
ARRANGE
  6
CONTINUOUS
100
AcDbCircle
 10
-1.299999999999272
 20
0.0
 30
0.0
 40
40.0
  0
TEXT
  5
1051B
330
1E
100
AcDbEntity
  8
NOTE
  6
CONTINUOUS
100
AcDbText
 10
-299.7311216381094
 20
253.8270280322394
 30
0.0
 40
64.0
  1
EL 2-φ22.2
 41
0.9
100
AcDbText
  0
LINE
  5
1051C
330
1E
100
AcDbEntity
  8
NOTE
  6
CONTINUOUS
100
AcDbLine
 10
226.7262278307807
 20
225.2821210322399
 30
0.0
 11
-343.2910072557424
 21
225.0722802485652
 31
0.0
  0
LINE
  5
1051D
330
1E
100
AcDbEntity
  8
NOTE
  6
CONTINUOUS
100
AcDbLine
 10
219.1895381628564
 20
352.8376659725727
 30
0.0
 11
-303.6644733271586
 21
352.8376659725727
 31
0.0
  0
LINE
  5
1051E
330
1E
100
AcDbEntity
  8
DETAIL
100
AcDbLine
 10
-221.6522900000054
 20
-51.66863000000012
 30
0.0
 11
139.0477100000007
 21
-51.66863000000012
 31
0.0
  0
LINE
  5
1051F
330
1E
100
AcDbEntity
  8
DETAIL
100
AcDbLine
 10
-553.2522900000039
 20
-55.66863000000012
 30
0.0
 11
329.7477099999887
 21
-55.66863000000012
 31
0.0
  0
LINE
  5
10520
330
1E
100
AcDbEntity
  8
DETAIL
100
AcDbLine
 10
601.2999999999956
 20
0.0
 30
0.0
 11
-601.2999999999975
 21
0.0
 31
0.0
  0
TEXT
  5
10521
330
1E
100
AcDbEntity
  8
NOTE
  6
CONTINUOUS
100
AcDbText
 10
-1067.871454582447
 20
102.0596628692546
 30
0.0
 40
64.0
  1
D φ26
 41
0.9
100
AcDbText
  0
LINE
  5
10522
330
1E
100
AcDbEntity
  8
NOTE
  6
CONTINUOUS
100
AcDbLine
 10
-1088.800162685287
 20
78.90890286925241
 30
0.0
 11
-776.8873167126639
 21
78.90890286925423
 31
0.0
  0
TEXT
  5
10523
330
1E
100
AcDbEntity
  8
NOTE
  6
CONTINUOUS
100
AcDbText
 10
-898.9763812772453
 20
230.6888180775422
 30
0.0
 40
64.0
  1
AH
 41
0.9
100
AcDbText
  0
LINE
  5
10524
330
1E
100
AcDbEntity
  8
NOTE
  6
CONTINUOUS
100
AcDbLine
 10
-769.8807162950488
 20
210.8828240775401
 30
0.0
 11
-921.6122222772465
 21
210.8828240775401
 31
0.0
  0
LINE
  5
10525
330
1E
100
AcDbEntity
  8
DETAIL
100
AcDbLine
 10
-553.2522900000039
 20
-51.66863000000012
 30
0.0
 11
-233.6522900000036
 21
-51.66863000000012
 31
0.0
  0
ARC
  5
10526
330
1E
100
AcDbEntity
  8
DETAIL
100
AcDbCircle
 10
-641.2522900000058
 20
-1.715810000001511
 30
0.0
 40
1.0
100
AcDbArc
 50
90.99999999997615
 51
180.0
  0
LINE
  5
10527
330
1E
100
AcDbEntity
  8
DETAIL
100
AcDbLine
 10
-600.2522900000021
 20
0.0
 30
0.0
 11
-641.2697500000049
 21
-0.7159600000013598
 31
0.0
  0
ARC
  5
10528
330
1E
100
AcDbEntity
  8
DETAIL
100
AcDbCircle
 10
-635.752290000004
 20
-47.94555000000037
 30
0.0
 40
3.0
100
AcDbArc
 50
93.0000000000061
 51
180.0
  0
LINE
  5
10529
330
1E
100
AcDbEntity
  8
DETAIL
100
AcDbLine
 10
-614.5109700000048
 20
-43.80200999999942
 30
0.0
 11
-636.4092999999993
 21
-44.94966000000204
 31
0.0
  0
ARC
  5
1052A
330
1E
100
AcDbEntity
  8
DETAIL
100
AcDbCircle
 10
-614.667970000004
 20
-40.80613000000084
 30
0.0
 40
3.0
100
AcDbArc
 50
273.0000000000061
 51
337.1274960000296
  0
LINE
  5
1052B
330
1E
100
AcDbEntity
  8
DETAIL
100
AcDbLine
 10
-611.9038600000058
 20
-41.97216999999909
 30
0.0
 11
-608.8551700000007
 21
-34.74524999999994
 31
0.0
  0
LINE
  5
1052C
330
1E
100
AcDbEntity
  8
DETAIL
100
AcDbLine
 10
-602.8522900000043
 20
-28.66770000000178
 30
0.0
 11
-602.8522900000043
 21
-0.0349099999984901
 31
0.0
  0
ARC
  5
1052D
330
1E
100
AcDbEntity
  8
DETAIL
100
AcDbCircle
 10
-605.8522900000061
 20
-28.66770000000178
 30
0.0
 40
3.0
100
AcDbArc
 50
284.9999999999944
 51
0.0
  0
ARC
  5
1052E
330
1E
100
AcDbEntity
  8
DETAIL
100
AcDbCircle
 10
-604.1731999999992
 20
-36.5
 30
0.0
 40
5.0
100
AcDbArc
 50
104.9999999999944
 51
159.4545429999974
  0
LINE
  5
1052F
330
1E
100
AcDbEntity
  8
DETAIL
100
AcDbLine
 10
-605.4673000000039
 20
-31.67037000000163
 30
0.0
 11
-605.0758400000031
 21
-31.56547999999929
 31
0.0
  0
ARC
  5
10530
330
1E
100
AcDbEntity
  8
DETAIL
100
AcDbCircle
 10
-627.5522900000069
 20
-73.77505000000019
 30
0.0
 40
3.0
100
AcDbArc
 50
316.2382569999824
 51
0.0
  0
ARC
  5
10531
330
1E
100
AcDbEntity
  8
DETAIL
100
AcDbCircle
 10
-609.5522900000051
 20
-73.77505000000019
 30
0.0
 40
3.0
100
AcDbArc
 50
180.0
 51
223.7617430000175
  0
LINE
  5
10532
330
1E
100
AcDbEntity
  8
DETAIL
100
AcDbLine
 10
-612.5522900000069
 20
-73.77505000000019
 30
0.0
 11
-612.5522900000069
 21
-61.14868000000206
 31
0.0
  0
ARC
  5
10533
330
1E
100
AcDbEntity
  8
DETAIL
100
AcDbCircle
 10
-607.5522900000069
 20
-61.14868000000206
 30
0.0
 40
5.0
100
AcDbArc
 50
154.1231529999975
 51
180.0
  0
LINE
  5
10534
330
1E
100
AcDbEntity
  8
DETAIL
100
AcDbLine
 10
-604.1731999999992
 20
-45.0
 30
0.0
 11
-601.0522900000014
 21
-45.0
 31
0.0
  0
LINE
  5
10535
330
1E
100
AcDbEntity
  8
DETAIL
100
AcDbLine
 10
-612.0509700000038
 20
-58.96649000000252
 30
0.0
 11
-606.8724000000056
 21
-46.69068000000152
 31
0.0
  0
ARC
  5
10536
330
1E
100
AcDbEntity
  8
DETAIL
100
AcDbCircle
 10
-604.1731999999992
 20
-48.00000000000181
 30
0.0
 40
3.0
100
AcDbArc
 50
90.0
 51
154.1231529999975
  0
LINE
  5
10537
330
1E
100
AcDbEntity
  8
DETAIL
100
AcDbLine
 10
-634.4522900000029
 20
-58.40000000000145
 30
0.0
 11
-624.552290000005
 21
-58.40000000000145
 31
0.0
  0
LINE
  5
10538
330
1E
100
AcDbEntity
  8
DETAIL
100
AcDbLine
 10
-624.552290000005
 20
-73.77505000000019
 30
0.0
 11
-624.552290000005
 21
-58.40000000000145
 31
0.0
  0
LINE
  5
10539
330
1E
100
AcDbEntity
  8
DETAIL
100
AcDbLine
 10
-637.65229
 20
-61.59999999999854
 30
0.0
 11
-634.4522900000029
 21
-61.59999999999854
 31
0.0
  0
LINE
  5
1053A
330
1E
100
AcDbEntity
  8
DETAIL
100
AcDbLine
 10
-634.4522900000029
 20
-58.40000000000145
 30
0.0
 11
-634.4522900000029
 21
-61.59999999999854
 31
0.0
  0
LINE
  5
1053B
330
1E
100
AcDbEntity
  8
DETAIL
100
AcDbLine
 10
-221.6522900000054
 20
-19.2686300000023
 30
0.0
 11
-233.6522900000036
 21
-19.2686300000023
 31
0.0
  0
CIRCLE
  5
1053C
330
1E
100
AcDbEntity
  8
DETAIL
100
AcDbCircle
 10
-227.6522899999999
 20
-37.60000000000218
 30
0.0
 40
1.45
  0
LINE
  5
1053D
330
1E
100
AcDbEntity
  8
DETAIL
100
AcDbLine
 10
-222.6522899999999
 20
-44.46863000000121
 30
0.0
 11
-232.65229
 21
-44.46863000000121
 31
0.0
  0
ARC
  5
1053E
330
1E
100
AcDbEntity
  8
DETAIL
100
AcDbCircle
 10
-222.6522899999999
 20
-39.46863000000121
 30
0.0
 40
5.0
100
AcDbArc
 50
270.0
 51
0.0
  0
ARC
  5
1053F
330
1E
100
AcDbEntity
  8
DETAIL
100
AcDbCircle
 10
-221.6522900000054
 20
-40.46862999999939
 30
0.0
 40
11.2
100
AcDbArc
 50
270.0
 51
0.0
  0
ARC
  5
10540
330
1E
100
AcDbEntity
  8
DETAIL
100
AcDbCircle
 10
-232.65229
 20
-39.46863000000121
 30
0.0
 40
5.0
100
AcDbArc
 50
180.0
 51
270.0
  0
LINE
  5
10541
330
1E
100
AcDbEntity
  8
DETAIL
100
AcDbLine
 10
-237.6522899999999
 20
-39.46863000000121
 30
0.0
 11
-237.6522899999999
 21
-31.46862999999939
 31
0.0
  0
LINE
  5
10542
330
1E
100
AcDbEntity
  8
DETAIL
100
AcDbLine
 10
-244.8522900000025
 20
-40.46862999999939
 30
0.0
 11
-244.8522900000025
 21
-30.46862999999939
 31
0.0
  0
ARC
  5
10543
330
1E
100
AcDbEntity
  8
DETAIL
100
AcDbCircle
 10
-233.6522900000036
 20
-40.46862999999939
 30
0.0
 40
11.2
100
AcDbArc
 50
180.0
 51
270.0
  0
ARC
  5
10544
330
1E
100
AcDbEntity
  8
DETAIL
100
AcDbCircle
 10
-233.6522900000036
 20
-30.46862999999939
 30
0.0
 40
11.2
100
AcDbArc
 50
90.0
 51
180.0
  0
LINE
  5
10545
330
1E
100
AcDbEntity
  8
DETAIL
100
AcDbLine
 10
-217.65229
 20
-31.46862999999939
 30
0.0
 11
-217.65229
 21
-39.46863000000121
 31
0.0
  0
ARC
  5
10546
330
1E
100
AcDbEntity
  8
DETAIL
100
AcDbCircle
 10
-222.6522899999999
 20
-31.46862999999939
 30
0.0
 40
5.0
100
AcDbArc
 50
0.0
 51
90.0
  0
LINE
  5
10547
330
1E
100
AcDbEntity
  8
DETAIL
100
AcDbLine
 10
-222.6522899999999
 20
-26.46862999999939
 30
0.0
 11
-232.65229
 21
-26.46862999999939
 31
0.0
  0
ARC
  5
10548
330
1E
100
AcDbEntity
  8
DETAIL
100
AcDbCircle
 10
-232.65229
 20
-31.46862999999939
 30
0.0
 40
5.0
100
AcDbArc
 50
90.0
 51
180.0
  0
ARC
  5
10549
330
1E
100
AcDbEntity
  8
DETAIL
100
AcDbCircle
 10
-221.6522900000054
 20
-30.46862999999939
 30
0.0
 40
11.2
100
AcDbArc
 50
0.0
 51
90.0
  0
LINE
  5
1054A
330
1E
100
AcDbEntity
  8
DETAIL
100
AcDbLine
 10
-210.4522900000065
 20
-40.46862999999939
 30
0.0
 11
-210.4522900000065
 21
-30.46862999999939
 31
0.0
  0
LINE
  5
1054C
330
1E
100
AcDbEntity
  8
NOTE
  6
CONTINUOUS
100
AcDbLine
 10
1122.349269248514
 20
274.3537850229949
 30
0.0
 11
697.7113233337331
 21
274.3537850229949
 31
0.0
  0
TEXT
  5
1054D
330
1E
100
AcDbEntity
  8
NOTE
  6
CONTINUOUS
100
AcDbText
 10
730.9148562485152
 20
295.2134050229961
 30
0.0
 40
64.0
  1
RL φ6.35
 41
0.9
100
AcDbText
  0
ARC
  5
10551
330
1E
100
AcDbEntity
  8
DETAIL
100
AcDbCircle
 10
399.7477099999887
 20
-37.5
 30
0.0
 40
15.88897
100
AcDbArc
 50
90.0
 51
180.0
  0
ARC
  5
10552
330
1E
100
AcDbEntity
  8
DETAIL
100
AcDbCircle
 10
399.7477099999887
 20
-37.5
 30
0.0
 40
10.0
100
AcDbArc
 50
90.0
 51
180.0
  0
LINE
  5
10553
330
1E
100
AcDbEntity
  8
NOTE
  6
CONTINUOUS
100
AcDbLine
 10
317.7477099999959
 20
0.0
 30
0.0
 11
226.7262278307807
 21
225.2821210322399
 31
0.0
  0
LINE
  5
10554
330
1E
100
AcDbEntity
  8
NOTE
  6
CONTINUOUS
100
AcDbLine
 10
361.7477099999959
 20
0.0
 30
0.0
 11
219.1895381628564
 21
352.8376659725727
 31
0.0
  0
LINE
  5
10556
330
1E
100
AcDbEntity
  8
DETAIL
100
AcDbLine
 10
151.0477099999989
 20
-51.66863000000012
 30
0.0
 11
329.7477099999887
 21
-51.66863000000012
 31
0.0
  0
LINE
  5
10557
330
1E
100
AcDbEntity
  8
DETAIL
100
AcDbLine
 10
139.0477100000007
 20
-19.2686300000023
 30
0.0
 11
151.0477099999989
 21
-19.2686300000023
 31
0.0
  0
CIRCLE
  5
10558
330
1E
100
AcDbEntity
  8
DETAIL
100
AcDbCircle
 10
145.0477099999952
 20
-37.60000000000218
 30
0.0
 40
1.45
  0
ARC
  5
10559
330
1E
100
AcDbEntity
  8
DETAIL
100
AcDbCircle
 10
150.0477099999952
 20
-39.46863000000121
 30
0.0
 40
5.0
100
AcDbArc
 50
270.0
 51
0.0
  0
LINE
  5
1055A
330
1E
100
AcDbEntity
  8
DETAIL
100
AcDbLine
 10
140.0477099999952
 20
-44.46863000000121
 30
0.0
 11
150.0477099999952
 21
-44.46863000000121
 31
0.0
  0
LINE
  5
1055B
330
1E
100
AcDbEntity
  8
DETAIL
100
AcDbLine
 10
155.0477099999952
 20
-39.46863000000121
 30
0.0
 11
155.0477099999952
 21
-31.46862999999939
 31
0.0
  0
LINE
  5
1055C
330
1E
100
AcDbEntity
  8
DETAIL
100
AcDbLine
 10
140.0477099999952
 20
-26.46862999999939
 30
0.0
 11
150.0477099999952
 21
-26.46862999999939
 31
0.0
  0
ARC
  5
1055D
330
1E
100
AcDbEntity
  8
DETAIL
100
AcDbCircle
 10
150.0477099999952
 20
-31.46862999999939
 30
0.0
 40
5.0
100
AcDbArc
 50
0.0
 51
90.0
  0
ARC
  5
1055E
330
1E
100
AcDbEntity
  8
DETAIL
100
AcDbCircle
 10
151.0477099999989
 20
-30.46862999999939
 30
0.0
 40
11.2
100
AcDbArc
 50
0.0
 51
90.0
  0
LINE
  5
1055F
330
1E
100
AcDbEntity
  8
DETAIL
100
AcDbLine
 10
162.2477099999978
 20
-40.46862999999939
 30
0.0
 11
162.2477099999978
 21
-30.46862999999939
 31
0.0
  0
ARC
  5
10560
330
1E
100
AcDbEntity
  8
DETAIL
100
AcDbCircle
 10
151.0477099999989
 20
-40.46862999999939
 30
0.0
 40
11.2
100
AcDbArc
 50
270.0
 51
0.0
  0
ARC
  5
10561
330
1E
100
AcDbEntity
  8
DETAIL
100
AcDbCircle
 10
140.0477099999952
 20
-39.46863000000121
 30
0.0
 40
5.0
100
AcDbArc
 50
180.0
 51
270.0
  0
LINE
  5
10562
330
1E
100
AcDbEntity
  8
DETAIL
100
AcDbLine
 10
135.0477099999952
 20
-31.46862999999939
 30
0.0
 11
135.0477099999952
 21
-39.46863000000121
 31
0.0
  0
ARC
  5
10563
330
1E
100
AcDbEntity
  8
DETAIL
100
AcDbCircle
 10
140.0477099999952
 20
-31.46862999999939
 30
0.0
 40
5.0
100
AcDbArc
 50
90.0
 51
180.0
  0
ARC
  5
10564
330
1E
100
AcDbEntity
  8
DETAIL
100
AcDbCircle
 10
139.0477100000007
 20
-30.46862999999939
 30
0.0
 40
11.2
100
AcDbArc
 50
90.0
 51
180.0
  0
LINE
  5
10565
330
1E
100
AcDbEntity
  8
DETAIL
100
AcDbLine
 10
127.8477100000018
 20
-40.46862999999939
 30
0.0
 11
127.8477100000018
 21
-30.46862999999939
 31
0.0
  0
ARC
  5
10566
330
1E
100
AcDbEntity
  8
DETAIL
100
AcDbCircle
 10
139.0477100000007
 20
-40.46862999999939
 30
0.0
 40
11.2
100
AcDbArc
 50
180.0
 51
270.0
  0
LWPOLYLINE
  5
10567
330
1E
100
AcDbEntity
  8
NOTE
  6
CONTINUOUS
100
AcDbPolyline
 90
        3
 70
     0
 43
0.0
 10
293.5773559999961
 20
31.87152299999979
 10
317.7477099999959
 20
0.0
 10
312.7513299999955
 20
39.6867259999999
  0
LWPOLYLINE
  5
10568
330
1E
100
AcDbEntity
  8
NOTE
  6
CONTINUOUS
100
AcDbPolyline
 90
        3
 70
     0
 43
0.0
 10
337.5773559999961
 20
31.87152299999979
 10
361.7477099999959
 20
0.0
 10
356.7513299999955
 20
39.6867259999999
  0
LINE
  5
10569
330
1E
100
AcDbEntity
  8
NOTE
  6
CONTINUOUS
100
AcDbLine
 10
297.747709999996
 20
0.0
 30
0.0
 11
337.747709999996
 21
0.0
 31
0.0
  0
LINE
  5
1056A
330
1E
100
AcDbEntity
  8
NOTE
  6
CONTINUOUS
100
AcDbLine
 10
355.747709999996
 20
20.0
 30
0.0
 11
355.747709999996
 21
-20.0
 31
0.0
  0
LINE
  5
1056B
330
1E
100
AcDbEntity
  8
NOTE
  6
CONTINUOUS
100
AcDbLine
 10
335.747709999996
 20
0.0
 30
0.0
 11
375.747709999996
 21
0.0
 31
0.0
  0
LINE
  5
1056C
330
1E
100
AcDbEntity
  8
NOTE
  6
CONTINUOUS
100
AcDbLine
 10
361.7477099999959
 20
20.0
 30
0.0
 11
361.7477099999959
 21
-20.0
 31
0.0
  0
LINE
  5
1056D
330
1E
100
AcDbEntity
  8
NOTE
  6
CONTINUOUS
100
AcDbLine
 10
341.747709999996
 20
0.0
 30
0.0
 11
381.747709999996
 21
0.0
 31
0.0
  0
LINE
  5
1056E
330
1E
100
AcDbEntity
  8
NOTE
  6
CONTINUOUS
100
AcDbLine
 10
323.747709999996
 20
20.0
 30
0.0
 11
323.747709999996
 21
-20.0
 31
0.0
  0
LINE
  5
1056F
330
1E
100
AcDbEntity
  8
NOTE
  6
CONTINUOUS
100
AcDbLine
 10
303.747709999996
 20
0.0
 30
0.0
 11
343.747709999996
 21
0.0
 31
0.0
  0
LINE
  5
10570
330
1E
100
AcDbEntity
  8
NOTE
  6
CONTINUOUS
100
AcDbLine
 10
317.7477099999959
 20
20.0
 30
0.0
 11
317.7477099999959
 21
-20.0
 31
0.0
  0
LINE
  5
10571
330
1E
100
AcDbEntity
  8
DETAIL
100
AcDbLine
 10
389.7477099999887
 20
-66.28305000000182
 30
0.0
 11
389.7477099999887
 21
-37.5
 31
0.0
  0
LINE
  5
10572
330
1E
100
AcDbEntity
  8
DETAIL
100
AcDbLine
 10
383.858729999989
 20
-66.28305000000182
 30
0.0
 11
383.858729999989
 21
-37.5
 31
0.0
  0
ARC
  5
10573
330
1E
100
AcDbEntity
  8
DETAIL
100
AcDbCircle
 10
399.7477099999887
 20
-66.28305000000182
 30
0.0
 40
10.0
100
AcDbArc
 50
180.0
 51
204.9999999999761
  0
ARC
  5
10574
330
1E
100
AcDbEntity
  8
DETAIL
100
AcDbCircle
 10
399.7477099999887
 20
-66.28305000000182
 30
0.0
 40
15.88897
100
AcDbArc
 50
180.0
 51
204.9999999999761
  0
LINE
  5
10575
330
1E
100
AcDbEntity
  8
DETAIL
100
AcDbLine
 10
559.7477099999887
 20
-17.60000000000218
 30
0.0
 11
459.7477099999887
 21
-17.60000000000218
 31
0.0
  0
ARC
  5
10576
330
1E
100
AcDbEntity
  8
DETAIL
100
AcDbCircle
 10
412.0587300000043
 20
-37.5
 30
0.0
 40
10.0
100
AcDbArc
 50
0.0
 51
90.0
  0
ARC
  5
10577
330
1E
100
AcDbEntity
  8
DETAIL
100
AcDbCircle
 10
412.0587300000043
 20
-37.5
 30
0.0
 40
15.88897
100
AcDbArc
 50
0.0
 51
90.0
  0
LINE
  5
10578
330
1E
100
AcDbEntity
  8
DETAIL
100
AcDbLine
 10
399.7477099999887
 20
-21.61103000000002
 30
0.0
 11
412.0587300000043
 21
-21.61103000000002
 31
0.0
  0
LINE
  5
10579
330
1E
100
AcDbEntity
  8
DETAIL
100
AcDbLine
 10
399.7477099999887
 20
-27.5
 30
0.0
 11
412.0587300000043
 21
-27.5
 31
0.0
  0
CIRCLE
  5
1057A
330
1E
100
AcDbEntity
  8
DETAIL
100
AcDbCircle
 10
398.7477100000032
 20
-59.0
 30
0.0
 40
1.45
  0
CIRCLE
  5
1057B
330
1E
100
AcDbEntity
  8
DETAIL
100
AcDbCircle
 10
403.7477100000033
 20
-48.00000000000181
 30
0.0
 40
1.3155
  0
CIRCLE
  5
1057C
330
1E
100
AcDbEntity
  8
DETAIL
100
AcDbCircle
 10
403.7477100000033
 20
-48.00000000000181
 30
0.0
 40
2.515499999999999
  0
CIRCLE
  5
1057D
330
1E
100
AcDbEntity
  8
DETAIL
100
AcDbCircle
 10
398.7477100000032
 20
-37.00000000000363
 30
0.0
 40
1.45
  0
ARC
  5
1057E
330
1E
100
AcDbEntity
  8
DETAIL
100
AcDbCircle
 10
459.7477099999887
 20
-37.60000000000218
 30
0.0
 40
20.0
100
AcDbArc
 50
90.0
 51
180.0
  0
ARC
  5
1057F
330
1E
100
AcDbEntity
  8
DETAIL
100
AcDbCircle
 10
559.7477099999887
 20
-37.60000000000218
 30
0.0
 40
20.0
100
AcDbArc
 50
0.0
 51
90.0
  0
LINE
  5
10580
330
1E
100
AcDbEntity
  8
DETAIL
100
AcDbLine
 10
559.7477099999887
 20
-52.60000000000218
 30
0.0
 11
529.7477099999887
 21
-52.60000000000218
 31
0.0
  0
ARC
  5
10581
330
1E
100
AcDbEntity
  8
DETAIL
100
AcDbCircle
 10
559.7477099999887
 20
-72.60000000000218
 30
0.0
 40
20.0
100
AcDbArc
 50
25.15066300002102
 51
90.0
  0
LINE
  5
10582
330
1E
100
AcDbEntity
  8
DETAIL
100
AcDbLine
 10
579.7477099999887
 20
-64.09999999999854
 30
0.0
 11
577.8515699999989
 21
-64.09999999999854
 31
0.0
  0
LINE
  5
10583
330
1E
100
AcDbEntity
  8
DETAIL
100
AcDbLine
 10
604.9627099999961
 20
-31.67037000000163
 30
0.0
 11
604.5712500000044
 21
-31.56547999999929
 31
0.0
  0
ARC
  5
10584
330
1E
100
AcDbEntity
  8
DETAIL
100
AcDbCircle
 10
603.6686100000006
 20
-36.5
 30
0.0
 40
5.0
100
AcDbArc
 50
20.54545700000259
 51
75.00000000000555
  0
ARC
  5
10585
330
1E
100
AcDbEntity
  8
DETAIL
100
AcDbCircle
 10
605.3477100000018
 20
-28.66770000000178
 30
0.0
 40
3.0
100
AcDbArc
 50
180.0
 51
255.0000000000055
  0
LINE
  5
10586
330
1E
100
AcDbEntity
  8
DETAIL
100
AcDbLine
 10
602.3477099999909
 20
-28.66770000000178
 30
0.0
 11
602.3477099999909
 21
-0.0349099999984901
 31
0.0
  0
LINE
  5
10587
330
1E
100
AcDbEntity
  8
DETAIL
100
AcDbLine
 10
611.3992699999981
 20
-41.97216999999909
 30
0.0
 11
608.350580000002
 21
-34.74524999999994
 31
0.0
  0
ARC
  5
10588
330
1E
100
AcDbEntity
  8
DETAIL
100
AcDbCircle
 10
614.1633800000054
 20
-40.80613000000084
 30
0.0
 40
3.0
100
AcDbArc
 50
202.8725039999703
 51
266.9999999999938
  0
LINE
  5
10589
330
1E
100
AcDbEntity
  8
DETAIL
100
AcDbLine
 10
614.0063800000062
 20
-43.80200999999942
 30
0.0
 11
635.9047099999916
 21
-44.94966000000204
 31
0.0
  0
ARC
  5
1058A
330
1E
100
AcDbEntity
  8
DETAIL
100
AcDbCircle
 10
635.2477099999996
 20
-47.94555000000037
 30
0.0
 40
3.0
100
AcDbArc
 50
0.0
 51
86.99999999999389
  0
LINE
  5
1058B
330
1E
100
AcDbEntity
  8
DETAIL
100
AcDbLine
 10
599.7477099999887
 20
0.0
 30
0.0
 11
640.7651599999881
 21
-0.7159600000013598
 31
0.0
  0
ARC
  5
1058C
330
1E
100
AcDbEntity
  8
DETAIL
100
AcDbCircle
 10
640.7477099999923
 20
-1.715810000001511
 30
0.0
 40
1.0
100
AcDbArc
 50
0.0
 51
89.00000000002384
  0
LINE
  5
1058D
330
1E
100
AcDbEntity
  8
DETAIL
100
AcDbLine
 10
634.4000000000014
 20
-58.75269000000116
 30
0.0
 11
634.4000000000014
 21
-61.95269000000189
 31
0.0
  0
LINE
  5
1058E
330
1E
100
AcDbEntity
  8
DETAIL
100
AcDbLine
 10
637.5999999999985
 20
-61.95269000000189
 30
0.0
 11
634.4000000000014
 21
-61.95269000000189
 31
0.0
  0
LINE
  5
1058F
330
1E
100
AcDbEntity
  8
DETAIL
100
AcDbLine
 10
624.5000000000036
 20
-74.1277399999999
 30
0.0
 11
624.5000000000036
 21
-58.75269000000116
 31
0.0
  0
LINE
  5
10590
330
1E
100
AcDbEntity
  8
DETAIL
100
AcDbLine
 10
634.4000000000014
 20
-58.75269000000116
 30
0.0
 11
624.5000000000036
 21
-58.75269000000116
 31
0.0
  0
ARC
  5
10591
330
1E
100
AcDbEntity
  8
DETAIL
100
AcDbCircle
 10
604.1209099999978
 20
-48.35269000000153
 30
0.0
 40
3.0
100
AcDbArc
 50
25.87684700000243
 51
90.0
  0
LINE
  5
10592
330
1E
100
AcDbEntity
  8
DETAIL
100
AcDbLine
 10
611.9986699999899
 20
-59.31918000000223
 30
0.0
 11
606.8201100000042
 21
-47.04337000000123
 31
0.0
  0
LINE
  5
10593
330
1E
100
AcDbEntity
  8
DETAIL
100
AcDbLine
 10
604.1209099999978
 20
-45.35268999999971
 30
0.0
 11
601.0
 21
-45.35268999999971
 31
0.0
  0
ARC
  5
10594
330
1E
100
AcDbEntity
  8
DETAIL
100
AcDbCircle
 10
607.4999999999963
 20
-61.50137000000177
 30
0.0
 40
5.0
100
AcDbArc
 50
0.0
 51
25.87684700000243
  0
LINE
  5
10595
330
1E
100
AcDbEntity
  8
DETAIL
100
AcDbLine
 10
612.4999999999963
 20
-74.1277399999999
 30
0.0
 11
612.4999999999963
 21
-61.50137000000177
 31
0.0
  0
TEXT
  5
10596
330
1E
100
AcDbEntity
  8
NOTE
  6
CONTINUOUS
100
AcDbText
 10
860.1790570000012
 20
101.6753069999995
 30
0.0
 40
64.0
  1
AH
 41
0.9
100
AcDbText
  0
LINE
  5
10597
330
1E
100
AcDbEntity
  8
NOTE
  6
CONTINUOUS
100
AcDbLine
 10
843.2021769999991
 20
79.03988500000014
 30
0.0
 11
973.3582610000011
 21
79.03988500000014
 31
0.0
  0
TEXT
  5
110F3
330
1E
100
AcDbEntity
  8
ETC
  6
CONTINUOUS
100
AcDbText
 10
957.0579372235789
 20
724.2056748390877
 30
0.0
 40
64.0
  1
PAC別売
 41
0.9
100
AcDbText
  0
TEXT
  5
110F4
330
1E
100
AcDbEntity
  8
ETC
  6
CONTINUOUS
100
AcDbText
 10
957.0579372235789
 20
584.3704638390882
 30
0.0
 40
64.0
  1
SPAC5161
 41
0.9
100
AcDbText
  0
LINE
  5
1A83C
330
1E
100
AcDbEntity
  8
SIZE
  6
CONTINUOUS
100
AcDbLine
 10
641.747709999996
 20
18.28418999999485
 30
0.0
 11
641.747709999996
 21
128.9884906005136
 31
0.0
  0
LINE
  5
1A83D
330
1E
100
AcDbEntity
  8
SIZE
  6
CONTINUOUS
100
AcDbLine
 10
553.747709999996
 20
-163.0
 30
0.0
 11
553.747709999996
 21
128.9884906005136
 31
0.0
  0
LINE
  5
1A83E
330
1E
100
AcDbEntity
  8
SIZE
  6
CONTINUOUS
100
AcDbLine
 10
563.7477099999959
 20
98.98849060051361
 30
0.0
 11
631.747709999996
 21
98.98849060051361
 31
0.0
  0
LINE
  5
1A83F
330
1E
100
AcDbEntity
  8
SIZE
  6
CONTINUOUS
100
AcDbLine
 10
641.747709999996
 20
98.98849060051361
 30
0.0
 11
785.0048528571388
 21
98.98849060051361
 31
0.0
  0
LINE
  5
1A843
330
1E
100
AcDbEntity
  8
SIZE
  6
CONTINUOUS
100
AcDbLine
 10
553.747709999996
 20
-163.0
 30
0.0
 11
553.747709999996
 21
128.9884906005136
 31
0.0
  0
LINE
  5
1A844
330
1E
100
AcDbEntity
  8
SIZE
  6
CONTINUOUS
100
AcDbLine
 10
468.7477099999959
 20
-144.0
 30
0.0
 11
468.7477099999959
 21
128.9884906005136
 31
0.0
  0
LINE
  5
1A845
330
1E
100
AcDbEntity
  8
SIZE
  6
CONTINUOUS
100
AcDbLine
 10
543.7477099999959
 20
98.98849060051361
 30
0.0
 11
478.747709999996
 21
98.98849060051361
 31
0.0
  0
LINE
  5
1A849
330
1E
100
AcDbEntity
  8
SIZE
  6
CONTINUOUS
100
AcDbLine
 10
619.7477099999887
 20
-0.0000000000000057
 30
0.0
 11
1013.333921091718
 21
-0.0000000000001172
 31
0.0
  0
LINE
  5
1A84A
330
1E
100
AcDbEntity
  8
SIZE
  6
CONTINUOUS
100
AcDbLine
 10
593.7477099999959
 20
-203.0
 30
0.0
 11
1013.333921091718
 21
-203.0000000000001
 31
0.0
  0
LINE
  5
1A84B
330
1E
100
AcDbEntity
  8
SIZE
  6
CONTINUOUS
100
AcDbLine
 10
983.3339210917184
 20
-10.0000000000001
 30
0.0
 11
983.3339210917184
 21
-193.0000000000001
 31
0.0
  0
LINE
  5
1A84F
330
1E
100
AcDbEntity
  8
SIZE
  6
CONTINUOUS
100
AcDbLine
 10
619.7477099999887
 20
-0.0000000000000057
 30
0.0
 11
859.7228568514109
 21
-0.0000000000000736
 31
0.0
  0
LINE
  5
1A850
330
1E
100
AcDbEntity
  8
SIZE
  6
CONTINUOUS
100
AcDbLine
 10
508.747709999996
 20
-184.0
 30
0.0
 11
859.7228568514109
 21
-184.0000000000001
 31
0.0
  0
LINE
  5
1A851
330
1E
100
AcDbEntity
  8
SIZE
  6
CONTINUOUS
100
AcDbLine
 10
829.722856851411
 20
-10.00000000000006
 30
0.0
 11
829.722856851411
 21
-174.0
 31
0.0
  0
LINE
  5
1A855
330
1E
100
AcDbEntity
  8
SIZE
  6
CONTINUOUS
100
AcDbLine
 10
619.7477099999887
 20
-0.0000000000000057
 30
0.0
 11
1165.800795702234
 21
-0.0000000000001603
 31
0.0
  0
LINE
  5
1A856
330
1E
100
AcDbEntity
  8
SIZE
  6
CONTINUOUS
100
AcDbLine
 10
543.7477099999959
 20
-246.0
 30
0.0
 11
1165.800795702234
 21
-246.0000000000001
 31
0.0
  0
LINE
  5
1A857
330
1E
100
AcDbEntity
  8
SIZE
  6
CONTINUOUS
100
AcDbLine
 10
1135.800795702234
 20
-10.00000000000015
 30
0.0
 11
1135.800795702234
 21
-236.0000000000001
 31
0.0
  0
LINE
  5
1A85B
330
1E
100
AcDbEntity
  8
SIZE
  6
CONTINUOUS
100
AcDbLine
 10
-657.65229
 20
-80.0
 30
0.0
 11
-910.9234326280766
 21
-79.99999999999992
 31
0.0
  0
LINE
  5
1A85C
330
1E
100
AcDbEntity
  8
SIZE
  6
CONTINUOUS
100
AcDbLine
 10
-658.5522900000015
 20
-399.9999999999999
 30
0.0
 11
-910.9234326280768
 21
-399.9999999999999
 31
0.0
  0
LINE
  5
1A85D
330
1E
100
AcDbEntity
  8
SIZE
  6
CONTINUOUS
100
AcDbLine
 10
-880.9234326280765
 20
-89.99999999999992
 30
0.0
 11
-880.9234326280767
 21
-389.9999999999999
 31
0.0
  0
LINE
  5
1A861
330
1E
100
AcDbEntity
  8
SIZE
  6
CONTINUOUS
100
AcDbLine
 10
-620.2522900000022
 20
0.0000000000000057
 30
0.0
 11
-910.9234326280766
 21
0.000000000000088
 31
0.0
  0
LINE
  5
1A862
330
1E
100
AcDbEntity
  8
SIZE
  6
CONTINUOUS
100
AcDbLine
 10
-658.5522900000015
 20
-80.0
 30
0.0
 11
-910.9234326280766
 21
-79.99999999999992
 31
0.0
  0
LINE
  5
1A863
330
1E
100
AcDbEntity
  8
SIZE
  6
CONTINUOUS
100
AcDbLine
 10
-880.9234326280765
 20
10.00000000000007
 30
0.0
 11
-880.9234326280765
 21
20.00000000000007
 31
0.0
  0
LINE
  5
1A864
330
1E
100
AcDbEntity
  8
SIZE
  6
CONTINUOUS
100
AcDbLine
 10
-880.9234326280765
 20
-89.99999999999992
 30
0.0
 11
-880.9234326280765
 21
-99.99999999999992
 31
0.0
  0
LINE
  5
1A865
330
1E
100
AcDbEntity
  8
SIZE
  6
CONTINUOUS
100
AcDbLine
 10
-880.9234326280765
 20
0.0000000000000795
 30
0.0
 11
-880.9234326280765
 21
-79.99999999999992
 31
0.0
  0
LINE
  5
1A869
330
1E
100
AcDbEntity
  8
SIZE
  6
CONTINUOUS
100
AcDbLine
 10
-620.2522900000022
 20
0.0000000000000057
 30
0.0
 11
-777.7960987088718
 21
0.0000000000000503
 31
0.0
  0
LINE
  5
1A86A
330
1E
100
AcDbEntity
  8
SIZE
  6
CONTINUOUS
100
AcDbLine
 10
-605.2522899999912
 20
-246.0000000000018
 30
0.0
 11
-777.7960987088718
 21
-246.0000000000018
 31
0.0
  0
LINE
  5
1A86B
330
1E
100
AcDbEntity
  8
SIZE
  6
CONTINUOUS
100
AcDbLine
 10
-747.7960987088717
 20
-9.999999999999959
 30
0.0
 11
-747.7960987088717
 21
-236.0000000000018
 31
0.0
  0
LINE
  5
1A86F
330
1E
100
AcDbEntity
  8
SIZE
  6
CONTINUOUS
100
AcDbLine
 10
-620.2522900000022
 20
0.0000000000000057
 30
0.0
 11
-1126.047573776644
 21
0.0000000000001489
 31
0.0
  0
LINE
  5
1A870
330
1E
100
AcDbEntity
  8
SIZE
  6
CONTINUOUS
100
AcDbLine
 10
-619.0522899999941
 20
-680.0
 30
0.0
 11
-1126.047573776644
 21
-679.9999999999998
 31
0.0
  0
LINE
  5
1A871
330
1E
100
AcDbEntity
  8
SIZE
  6
CONTINUOUS
100
AcDbLine
 10
-1096.047573776644
 20
-9.999999999999859
 30
0.0
 11
-1096.047573776644
 21
-669.9999999999999
 31
0.0
  0
LINE
  5
1A875
330
1E
100
AcDbEntity
  8
SIZE
  6
CONTINUOUS
100
AcDbLine
 10
-640.2522899999858
 20
-475.6424777769971
 30
0.0
 11
-640.2522899999858
 21
-1044.8739188772
 31
0.0
  0
LINE
  5
1A876
330
1E
100
AcDbEntity
  8
SIZE
  6
CONTINUOUS
100
AcDbLine
 10
639.7477099999978
 20
-475.6424781380028
 30
0.0
 11
639.7477099999978
 21
-1044.8739188772
 31
0.0
  0
LINE
  5
1A877
330
1E
100
AcDbEntity
  8
SIZE
  6
CONTINUOUS
100
AcDbLine
 10
-630.2522899999858
 20
-1014.8739188772
 30
0.0
 11
629.7477099999978
 21
-1014.8739188772
 31
0.0
  0
LINE
  5
1A87B
330
1E
100
AcDbEntity
  8
SIZE
  6
CONTINUOUS
100
AcDbLine
 10
-642.2522899999912
 20
-468.3708799999976
 30
0.0
 11
-642.2522899999912
 21
-1192.020870538063
 31
0.0
  0
LINE
  5
1A87C
330
1E
100
AcDbEntity
  8
SIZE
  6
CONTINUOUS
100
AcDbLine
 10
641.7477099999977
 20
-468.3708800000021
 30
0.0
 11
641.7477099999977
 21
-1192.020870538063
 31
0.0
  0
LINE
  5
1A87D
330
1E
100
AcDbEntity
  8
SIZE
  6
CONTINUOUS
100
AcDbLine
 10
-632.2522899999913
 20
-1162.020870538063
 30
0.0
 11
631.7477099999978
 21
-1162.020870538063
 31
0.0
  0
LINE
  5
1A881
330
1E
100
AcDbEntity
  8
SIZE
  6
CONTINUOUS
100
AcDbLine
 10
-618.5522900000014
 20
-456.2454205512176
 30
0.0
 11
-618.5522900000014
 21
-855.5660957479403
 31
0.0
  0
LINE
  5
1A882
330
1E
100
AcDbEntity
  8
SIZE
  6
CONTINUOUS
100
AcDbLine
 10
618.5
 20
-437.3354700000027
 30
0.0
 11
618.5
 21
-855.5660957479403
 31
0.0
  0
LINE
  5
1A883
330
1E
100
AcDbEntity
  8
SIZE
  6
CONTINUOUS
100
AcDbLine
 10
-608.5522900000015
 20
-825.5660957479403
 30
0.0
 11
608.4999999999999
 21
-825.5660957479403
 31
0.0
  0
LINE
  5
1A887
330
1E
100
AcDbEntity
  8
SIZE
  6
CONTINUOUS
100
AcDbLine
 10
-640.2522899999858
 20
-475.6424777769971
 30
0.0
 11
-640.2522899999858
 21
-1044.8739188772
 31
0.0
  0
LINE
  5
1A888
330
1E
100
AcDbEntity
  8
SIZE
  6
CONTINUOUS
100
AcDbLine
 10
-642.2522899999912
 20
-468.3708799999976
 30
0.0
 11
-642.2522899999912
 21
-1044.8739188772
 31
0.0
  0
LINE
  5
1A889
330
1E
100
AcDbEntity
  8
SIZE
  6
CONTINUOUS
100
AcDbLine
 10
-630.2522899999858
 20
-1014.8739188772
 30
0.0
 11
-620.2522899999857
 21
-1014.8739188772
 31
0.0
  0
LINE
  5
1A88A
330
1E
100
AcDbEntity
  8
SIZE
  6
CONTINUOUS
100
AcDbLine
 10
-652.2522899999913
 20
-1014.8739188772
 30
0.0
 11
-744.0949221117271
 21
-1014.8739188772
 31
0.0
  0
LINE
  5
1A88B
330
1E
100
AcDbEntity
  8
SIZE
  6
CONTINUOUS
100
AcDbLine
 10
-640.2522899999858
 20
-1014.8739188772
 30
0.0
 11
-642.2522899999912
 21
-1014.8739188772
 31
0.0
  0
LINE
  5
1A88F
330
1E
100
AcDbEntity
  8
SIZE
  6
CONTINUOUS
100
AcDbLine
 10
-642.2522899999912
 20
-266.0000000000018
 30
0.0
 11
-642.2522899999912
 21
-386.9788704039783
 31
0.0
  0
LINE
  5
1A890
330
1E
100
AcDbEntity
  8
SIZE
  6
CONTINUOUS
100
AcDbLine
 10
-565.2522899999913
 20
-285.3309101330887
 30
0.0
 11
-565.2522899999913
 21
-386.9788704039783
 31
0.0
  0
LINE
  5
1A891
330
1E
100
AcDbEntity
  8
SIZE
  6
CONTINUOUS
100
AcDbLine
 10
-575.2522899999912
 20
-356.9788704039783
 30
0.0
 11
-632.2522899999913
 21
-356.9788704039783
 31
0.0
  0
LINE
  5
1A892
330
1E
100
AcDbEntity
  8
SIZE
  6
CONTINUOUS
100
AcDbLine
 10
-642.2522899999912
 20
-356.9788704039783
 30
0.0
 11
-842.4889943920026
 21
-356.9788704039783
 31
0.0
  0
LINE
  5
1A896
330
1E
100
AcDbEntity
  8
SIZE
  6
CONTINUOUS
100
AcDbLine
 10
639.7477099999978
 20
-475.6424781380028
 30
0.0
 11
639.7477099999978
 21
-1044.8739188772
 31
0.0
  0
LINE
  5
1A897
330
1E
100
AcDbEntity
  8
SIZE
  6
CONTINUOUS
100
AcDbLine
 10
641.7477099999977
 20
-468.3708800000021
 30
0.0
 11
641.7477099999977
 21
-1044.8739188772
 31
0.0
  0
LINE
  5
1A898
330
1E
100
AcDbEntity
  8
SIZE
  6
CONTINUOUS
100
AcDbLine
 10
629.7477099999978
 20
-1014.8739188772
 30
0.0
 11
619.7477099999978
 21
-1014.8739188772
 31
0.0
  0
LINE
  5
1A899
330
1E
100
AcDbEntity
  8
SIZE
  6
CONTINUOUS
100
AcDbLine
 10
651.7477099999978
 20
-1014.8739188772
 30
0.0
 11
741.5191385714271
 21
-1014.8739188772
 31
0.0
  0
LINE
  5
1A89A
330
1E
100
AcDbEntity
  8
SIZE
  6
CONTINUOUS
100
AcDbLine
 10
639.7477099999978
 20
-1014.8739188772
 30
0.0
 11
641.7477099999977
 21
-1014.8739188772
 31
0.0
  0
LINE
  5
1A89E
330
1E
100
AcDbEntity
  8
SIZE
  6
CONTINUOUS
100
AcDbLine
 10
501.7477099999959
 20
-286.0
 30
0.0
 11
501.7477099999959
 21
-540.3365018461081
 31
0.0
  0
LINE
  5
1A89F
330
1E
100
AcDbEntity
  8
SIZE
  6
CONTINUOUS
100
AcDbLine
 10
641.747709999996
 20
-245.0433450000037
 30
0.0
 11
641.747709999996
 21
-540.3365018461081
 31
0.0
  0
LINE
  5
1A8A0
330
1E
100
AcDbEntity
  8
SIZE
  6
CONTINUOUS
100
AcDbLine
 10
631.747709999996
 20
-510.3365018461081
 30
0.0
 11
511.747709999996
 21
-510.3365018461081
 31
0.0
  0
LINE
  5
1A8A1
330
1E
100
AcDbEntity
  8
SIZE
  6
CONTINUOUS
100
AcDbLine
 10
501.7477099999959
 20
-510.3365018461081
 30
0.0
 11
314.604852857138
 21
-510.3365018461081
 31
0.0
  0
LINE
  5
1A8A5
330
1E
100
AcDbEntity
  8
SIZE
  6
CONTINUOUS
100
AcDbLine
 10
355.747709999996
 20
40.0
 30
0.0
 11
355.747709999996
 21
384.5549252475284
 31
0.0
  0
LINE
  5
1A8A6
330
1E
100
AcDbEntity
  8
SIZE
  6
CONTINUOUS
100
AcDbLine
 10
641.747709999996
 20
18.28418999999485
 30
0.0
 11
641.747709999996
 21
384.5549252475284
 31
0.0
  0
LINE
  5
1A8A7
330
1E
100
AcDbEntity
  8
SIZE
  6
CONTINUOUS
100
AcDbLine
 10
365.7477099999959
 20
354.5549252475284
 30
0.0
 11
631.747709999996
 21
354.5549252475284
 31
0.0
  0
LINE
  5
1A8AB
330
1E
100
AcDbEntity
  8
SIZE
  6
CONTINUOUS
100
AcDbLine
 10
317.7477099999959
 20
40.0
 30
0.0
 11
317.7477099999959
 21
384.5549252475284
 31
0.0
  0
LINE
  5
1A8AC
330
1E
100
AcDbEntity
  8
SIZE
  6
CONTINUOUS
100
AcDbLine
 10
355.747709999996
 20
40.0
 30
0.0
 11
355.747709999996
 21
384.5549252475284
 31
0.0
  0
LINE
  5
1A8AD
330
1E
100
AcDbEntity
  8
SIZE
  6
CONTINUOUS
100
AcDbLine
 10
307.747709999996
 20
354.5549252475284
 30
0.0
 11
297.747709999996
 21
354.5549252475284
 31
0.0
  0
LINE
  5
1A8AE
330
1E
100
AcDbEntity
  8
SIZE
  6
CONTINUOUS
100
AcDbLine
 10
365.7477099999959
 20
354.5549252475284
 30
0.0
 11
375.747709999996
 21
354.5549252475284
 31
0.0
  0
LINE
  5
1A8AF
330
1E
100
AcDbEntity
  8
SIZE
  6
CONTINUOUS
100
AcDbLine
 10
317.7477099999959
 20
354.5549252475284
 30
0.0
 11
355.747709999996
 21
354.5549252475284
 31
0.0
  0
LINE
  5
1A8B3
330
1E
100
AcDbEntity
  8
SIZE
  6
CONTINUOUS
100
AcDbLine
 10
641.7477099999923
 20
18.28418999999485
 30
0.0
 11
641.7477099999923
 21
271.168449249013
 31
0.0
  0
LINE
  5
1A8B4
330
1E
100
AcDbEntity
  8
SIZE
  6
CONTINUOUS
100
AcDbLine
 10
361.7477099999959
 20
40.0
 30
0.0
 11
361.7477099999959
 21
271.168449249013
 31
0.0
  0
LINE
  5
1A8B5
330
1E
100
AcDbEntity
  8
SIZE
  6
CONTINUOUS
100
AcDbLine
 10
631.7477099999924
 20
241.168449249013
 30
0.0
 11
371.747709999996
 21
241.168449249013
 31
0.0
  0
LINE
  5
1A8B9
330
1E
100
AcDbEntity
  8
SIZE
  6
CONTINUOUS
100
AcDbLine
 10
361.7477099999959
 20
40.0
 30
0.0
 11
361.7477099999959
 21
271.168449249013
 31
0.0
  0
LINE
  5
1A8BA
330
1E
100
AcDbEntity
  8
SIZE
  6
CONTINUOUS
100
AcDbLine
 10
323.747709999996
 20
40.0
 30
0.0
 11
323.747709999996
 21
271.168449249013
 31
0.0
  0
LINE
  5
1A8BB
330
1E
100
AcDbEntity
  8
SIZE
  6
CONTINUOUS
100
AcDbLine
 10
371.747709999996
 20
241.168449249013
 30
0.0
 11
381.747709999996
 21
241.168449249013
 31
0.0
  0
LINE
  5
1A8BC
330
1E
100
AcDbEntity
  8
SIZE
  6
CONTINUOUS
100
AcDbLine
 10
313.7477099999959
 20
241.168449249013
 30
0.0
 11
303.747709999996
 21
241.168449249013
 31
0.0
  0
LINE
  5
1A8BD
330
1E
100
AcDbEntity
  8
SIZE
  6
CONTINUOUS
100
AcDbLine
 10
361.7477099999959
 20
241.168449249013
 30
0.0
 11
323.747709999996
 21
241.168449249013
 31
0.0
  0
TEXT
  5
1A8C1
330
1E
100
AcDbEntity
  8
SIZE
  6
CONTINUOUS
100
AcDbText
 10
-767.7960987088717
 20
-195.6857142857152
 30
0.0
 40
64.0
  1
246
 50
90.0
 41
0.9
100
AcDbText
  0
TEXT
  5
1A8C2
330
1E
100
AcDbEntity
  8
SIZE
  6
CONTINUOUS
100
AcDbText
 10
-900.9234326280767
 20
-86.6285714285715
 30
0.0
 40
64.0
  1
80
 50
90.0
 41
0.9
100
AcDbText
  0
CIRCLE
  5
1A8C3
330
1E
100
AcDbEntity
  8
SIZE
  6
BYBLOCK
100
AcDbCircle
 10
-880.9234326280765
 20
-79.99999999999992
 30
0.0
 40
5.0
  0
LINE
  5
1A8C4
330
1E
100
AcDbEntity
  8
SIZE
  6
BYBLOCK
100
AcDbLine
 10
-880.9234326280765
 20
-79.99999999999992
 30
0.0
 11
-880.9234326280765
 21
-89.99999999999992
 31
0.0
  0
CIRCLE
  5
1A8C5
330
1E
100
AcDbEntity
  8
SIZE
  6
BYBLOCK
100
AcDbCircle
 10
-880.9234326280765
 20
-79.99999999999992
 30
0.0
 40
5.0
  0
LINE
  5
1A8C6
330
1E
100
AcDbEntity
  8
SIZE
  6
BYBLOCK
100
AcDbLine
 10
-880.9234326280765
 20
-79.99999999999992
 30
0.0
 11
-880.9234326280765
 21
-89.99999999999992
 31
0.0
  0
TEXT
  5
1A8C7
330
1E
100
AcDbEntity
  8
SIZE
  6
CONTINUOUS
100
AcDbText
 10
1115.800795702234
 20
-195.6857142857142
 30
0.0
 40
64.0
  1
246
 50
90.0
 41
0.9
100
AcDbText
  0
TEXT
  5
1A8C8
330
1E
100
AcDbEntity
  8
SIZE
  6
CONTINUOUS
100
AcDbText
 10
809.7228568514109
 20
-161.942857142857
 30
0.0
 40
64.0
  1
184
 50
90.0
 41
0.9
100
AcDbText
  0
TEXT
  5
1A8C9
330
1E
100
AcDbEntity
  8
SIZE
  6
CONTINUOUS
100
AcDbText
 10
963.3339210917183
 20
-175.5571428571427
 30
0.0
 40
64.0
  1
203
 50
90.0
 41
0.9
100
AcDbText
  0
TEXT
  5
1A8CA
330
1E
100
AcDbEntity
  8
SIZE
  6
CONTINUOUS
100
AcDbText
 10
-96.02614499999981
 20
-805.5660957479403
 30
0.0
 40
64.0
  1
1237
 41
0.9
100
AcDbText
  0
TEXT
  5
1A8CB
330
1E
100
AcDbEntity
  8
SIZE
  6
CONTINUOUS
100
AcDbText
 10
-97.62371857142529
 20
-1142.020870538063
 30
0.0
 40
64.0
  1
1284
 41
0.9
100
AcDbText
  0
TEXT
  5
1A8CC
330
1E
100
AcDbEntity
  8
SIZE
  6
CONTINUOUS
100
AcDbText
 10
-96.252289999994
 20
-994.8739188772005
 30
0.0
 40
64.0
  1
1280
 41
0.9
100
AcDbText
  0
CIRCLE
  5
1A8CD
330
1E
100
AcDbEntity
  8
SIZE
  6
BYBLOCK
100
AcDbCircle
 10
-642.2522899999912
 20
-1162.020870538063
 30
0.0
 40
5.0
  0
LINE
  5
1A8CE
330
1E
100
AcDbEntity
  8
SIZE
  6
BYBLOCK
100
AcDbLine
 10
-642.2522899999912
 20
-1162.020870538063
 30
0.0
 11
-632.2522899999913
 21
-1162.020870538063
 31
0.0
  0
CIRCLE
  5
1A8CF
330
1E
100
AcDbEntity
  8
SIZE
  6
BYBLOCK
100
AcDbCircle
 10
-642.2522899999912
 20
-1014.8739188772
 30
0.0
 40
5.0
  0
LINE
  5
1A8D0
330
1E
100
AcDbEntity
  8
SIZE
  6
BYBLOCK
100
AcDbLine
 10
-642.2522899999912
 20
-1014.8739188772
 30
0.0
 11
-652.2522899999913
 21
-1014.8739188772
 31
0.0
  0
CIRCLE
  5
1A8D1
330
1E
100
AcDbEntity
  8
SIZE
  6
BYBLOCK
100
AcDbCircle
 10
-640.2522899999858
 20
-1014.8739188772
 30
0.0
 40
5.0
  0
LINE
  5
1A8D2
330
1E
100
AcDbEntity
  8
SIZE
  6
BYBLOCK
100
AcDbLine
 10
-640.2522899999858
 20
-1014.8739188772
 30
0.0
 11
-630.2522899999858
 21
-1014.8739188772
 31
0.0
  0
CIRCLE
  5
1A8D3
330
1E
100
AcDbEntity
  8
SIZE
  6
BYBLOCK
100
AcDbCircle
 10
-640.2522899999858
 20
-1014.8739188772
 30
0.0
 40
5.0
  0
LINE
  5
1A8D4
330
1E
100
AcDbEntity
  8
SIZE
  6
BYBLOCK
100
AcDbLine
 10
-640.2522899999858
 20
-1014.8739188772
 30
0.0
 11
-630.2522899999858
 21
-1014.8739188772
 31
0.0
  0
TEXT
  5
1A8D5
330
1E
100
AcDbEntity
  8
SIZE
  6
CONTINUOUS
100
AcDbText
 10
-822.4889943920025
 20
-336.9788704039783
 30
0.0
 40
64.0
  1
77
 41
0.9
100
AcDbText
  0
CIRCLE
  5
1A8D6
330
1E
100
AcDbEntity
  8
SIZE
  6
BYBLOCK
100
AcDbCircle
 10
-1096.047573776644
 20
-679.9999999999998
 30
0.0
 40
5.0
  0
LINE
  5
1A8D7
330
1E
100
AcDbEntity
  8
SIZE
  6
BYBLOCK
100
AcDbLine
 10
-1096.047573776644
 20
-679.9999999999998
 30
0.0
 11
-1096.047573776644
 21
-669.9999999999999
 31
0.0
  0
TEXT
  5
1A8D8
330
1E
100
AcDbEntity
  8
SIZE
  6
CONTINUOUS
100
AcDbText
 10
-1116.047573776644
 20
-414.0571428571428
 30
0.0
 40
64.0
  1
680
 50
90.0
 41
0.9
100
AcDbText
  0
TEXT
  5
1A8D9
330
1E
100
AcDbEntity
  8
SIZE
  6
CONTINUOUS
100
AcDbText
 10
-900.9234326280767
 20
-314.0571428571409
 30
0.0
 40
64.0
  1
320
 50
90.0
 41
0.9
100
AcDbText
  0
CIRCLE
  5
1A8DA
330
1E
100
AcDbEntity
  8
SIZE
  6
BYBLOCK
100
AcDbCircle
 10
-880.9234326280767
 20
-399.9999999999999
 30
0.0
 40
5.0
  0
LINE
  5
1A8DB
330
1E
100
AcDbEntity
  8
SIZE
  6
BYBLOCK
100
AcDbLine
 10
-880.9234326280767
 20
-399.9999999999999
 30
0.0
 11
-880.9234326280767
 21
-389.9999999999999
 31
0.0
  0
TEXT
  5
1A8DC
330
1E
100
AcDbEntity
  8
SIZE
  6
CONTINUOUS
100
AcDbText
 10
-724.0949221117273
 20
-994.8739188772005
 30
0.0
 40
64.0
  1
2
 41
0.9
100
AcDbText
  0
CIRCLE
  5
1A8DD
330
1E
100
AcDbEntity
  8
SIZE
  6
BYBLOCK
100
AcDbCircle
 10
-618.5522900000014
 20
-825.5660957479403
 30
0.0
 40
5.0
  0
LINE
  5
1A8DE
330
1E
100
AcDbEntity
  8
SIZE
  6
BYBLOCK
100
AcDbLine
 10
-618.5522900000014
 20
-825.5660957479403
 30
0.0
 11
-608.5522900000015
 21
-825.5660957479403
 31
0.0
  0
CIRCLE
  5
1A8DF
330
1E
100
AcDbEntity
  8
SIZE
  6
BYBLOCK
100
AcDbCircle
 10
-565.2522899999913
 20
-356.9788704039783
 30
0.0
 40
5.0
  0
LINE
  5
1A8E0
330
1E
100
AcDbEntity
  8
SIZE
  6
BYBLOCK
100
AcDbLine
 10
-565.2522899999913
 20
-356.9788704039783
 30
0.0
 11
-575.2522899999912
 21
-356.9788704039783
 31
0.0
  0
CIRCLE
  5
1A8E1
330
1E
100
AcDbEntity
  8
SIZE
  6
BYBLOCK
100
AcDbCircle
 10
-642.2522899999912
 20
-356.9788704039783
 30
0.0
 40
5.0
  0
LINE
  5
1A8E2
330
1E
100
AcDbEntity
  8
SIZE
  6
BYBLOCK
100
AcDbLine
 10
-642.2522899999912
 20
-356.9788704039783
 30
0.0
 11
-632.2522899999913
 21
-356.9788704039783
 31
0.0
  0
CIRCLE
  5
1A8E3
330
1E
100
AcDbEntity
  8
SIZE
  6
BYBLOCK
100
AcDbCircle
 10
-747.7960987088717
 20
-246.0000000000018
 30
0.0
 40
5.0
  0
LINE
  5
1A8E4
330
1E
100
AcDbEntity
  8
SIZE
  6
BYBLOCK
100
AcDbLine
 10
-747.7960987088717
 20
-246.0000000000018
 30
0.0
 11
-747.7960987088717
 21
-236.0000000000018
 31
0.0
  0
CIRCLE
  5
1A8E5
330
1E
100
AcDbEntity
  8
SIZE
  6
BYBLOCK
100
AcDbCircle
 10
641.7477099999977
 20
-1162.020870538063
 30
0.0
 40
5.0
  0
LINE
  5
1A8E6
330
1E
100
AcDbEntity
  8
SIZE
  6
BYBLOCK
100
AcDbLine
 10
641.7477099999977
 20
-1162.020870538063
 30
0.0
 11
631.7477099999978
 21
-1162.020870538063
 31
0.0
  0
CIRCLE
  5
1A8E7
330
1E
100
AcDbEntity
  8
SIZE
  6
BYBLOCK
100
AcDbCircle
 10
641.7477099999977
 20
-1014.8739188772
 30
0.0
 40
5.0
  0
LINE
  5
1A8E8
330
1E
100
AcDbEntity
  8
SIZE
  6
BYBLOCK
100
AcDbLine
 10
641.7477099999977
 20
-1014.8739188772
 30
0.0
 11
651.7477099999978
 21
-1014.8739188772
 31
0.0
  0
CIRCLE
  5
1A8E9
330
1E
100
AcDbEntity
  8
SIZE
  6
BYBLOCK
100
AcDbCircle
 10
639.7477099999978
 20
-1014.8739188772
 30
0.0
 40
5.0
  0
LINE
  5
1A8EA
330
1E
100
AcDbEntity
  8
SIZE
  6
BYBLOCK
100
AcDbLine
 10
639.7477099999978
 20
-1014.8739188772
 30
0.0
 11
629.7477099999978
 21
-1014.8739188772
 31
0.0
  0
CIRCLE
  5
1A8EB
330
1E
100
AcDbEntity
  8
SIZE
  6
BYBLOCK
100
AcDbCircle
 10
639.7477099999978
 20
-1014.8739188772
 30
0.0
 40
5.0
  0
LINE
  5
1A8EC
330
1E
100
AcDbEntity
  8
SIZE
  6
BYBLOCK
100
AcDbLine
 10
639.7477099999978
 20
-1014.8739188772
 30
0.0
 11
629.7477099999978
 21
-1014.8739188772
 31
0.0
  0
TEXT
  5
1A8ED
330
1E
100
AcDbEntity
  8
SIZE
  6
CONTINUOUS
100
AcDbText
 10
683.1191385714271
 20
-994.8739188772005
 30
0.0
 40
64.0
  1
2
 41
0.9
100
AcDbText
  0
CIRCLE
  5
1A8EE
330
1E
100
AcDbEntity
  8
SIZE
  6
BYBLOCK
100
AcDbCircle
 10
618.5
 20
-825.5660957479403
 30
0.0
 40
5.0
  0
LINE
  5
1A8EF
330
1E
100
AcDbEntity
  8
SIZE
  6
BYBLOCK
100
AcDbLine
 10
618.5
 20
-825.5660957479403
 30
0.0
 11
608.4999999999999
 21
-825.5660957479403
 31
0.0
  0
TEXT
  5
1A8F0
330
1E
100
AcDbEntity
  8
SIZE
  6
CONTINUOUS
100
AcDbText
 10
334.6048528571381
 20
-490.3365018461081
 30
0.0
 40
64.0
  1
140
 41
0.9
100
AcDbText
  0
CIRCLE
  5
1A8F1
330
1E
100
AcDbEntity
  8
SIZE
  6
BYBLOCK
100
AcDbCircle
 10
501.7477099999959
 20
-510.3365018461081
 30
0.0
 40
5.0
  0
LINE
  5
1A8F2
330
1E
100
AcDbEntity
  8
SIZE
  6
BYBLOCK
100
AcDbLine
 10
501.7477099999959
 20
-510.3365018461081
 30
0.0
 11
511.747709999996
 21
-510.3365018461081
 31
0.0
  0
CIRCLE
  5
1A8F3
330
1E
100
AcDbEntity
  8
SIZE
  6
BYBLOCK
100
AcDbCircle
 10
641.747709999996
 20
-510.3365018461081
 30
0.0
 40
5.0
  0
LINE
  5
1A8F4
330
1E
100
AcDbEntity
  8
SIZE
  6
BYBLOCK
100
AcDbLine
 10
641.747709999996
 20
-510.3365018461081
 30
0.0
 11
631.747709999996
 21
-510.3365018461081
 31
0.0
  0
CIRCLE
  5
1A8F5
330
1E
100
AcDbEntity
  8
SIZE
  6
BYBLOCK
100
AcDbCircle
 10
829.722856851411
 20
-184.0
 30
0.0
 40
5.0
  0
LINE
  5
1A8F6
330
1E
100
AcDbEntity
  8
SIZE
  6
BYBLOCK
100
AcDbLine
 10
829.722856851411
 20
-184.0
 30
0.0
 11
829.722856851411
 21
-174.0
 31
0.0
  0
CIRCLE
  5
1A8F7
330
1E
100
AcDbEntity
  8
SIZE
  6
BYBLOCK
100
AcDbCircle
 10
983.3339210917184
 20
-203.0000000000001
 30
0.0
 40
5.0
  0
LINE
  5
1A8F8
330
1E
100
AcDbEntity
  8
SIZE
  6
BYBLOCK
100
AcDbLine
 10
983.3339210917184
 20
-203.0000000000001
 30
0.0
 11
983.3339210917184
 21
-193.0000000000001
 31
0.0
  0
CIRCLE
  5
1A8F9
330
1E
100
AcDbEntity
  8
SIZE
  6
BYBLOCK
100
AcDbCircle
 10
1135.800795702234
 20
-246.0000000000001
 30
0.0
 40
5.0
  0
LINE
  5
1A8FA
330
1E
100
AcDbEntity
  8
SIZE
  6
BYBLOCK
100
AcDbLine
 10
1135.800795702234
 20
-246.0000000000001
 30
0.0
 11
1135.800795702234
 21
-236.0000000000001
 31
0.0
  0
CIRCLE
  5
1A8FB
330
1E
100
AcDbEntity
  8
SIZE
  6
BYBLOCK
100
AcDbCircle
 10
-1096.047573776644
 20
0.0000000000001404
 30
0.0
 40
5.0
  0
LINE
  5
1A8FC
330
1E
100
AcDbEntity
  8
SIZE
  6
BYBLOCK
100
AcDbLine
 10
-1096.047573776644
 20
0.0000000000001404
 30
0.0
 11
-1096.047573776644
 21
-9.999999999999859
 31
0.0
  0
CIRCLE
  5
1A8FD
330
1E
100
AcDbEntity
  8
SIZE
  6
BYBLOCK
100
AcDbCircle
 10
-880.9234326280765
 20
0.0000000000000795
 30
0.0
 40
5.0
  0
LINE
  5
1A8FE
330
1E
100
AcDbEntity
  8
SIZE
  6
BYBLOCK
100
AcDbLine
 10
-880.9234326280765
 20
0.0000000000000795
 30
0.0
 11
-880.9234326280765
 21
10.00000000000007
 31
0.0
  0
CIRCLE
  5
1A8FF
330
1E
100
AcDbEntity
  8
SIZE
  6
BYBLOCK
100
AcDbCircle
 10
-747.7960987088717
 20
0.0000000000000418
 30
0.0
 40
5.0
  0
LINE
  5
1A900
330
1E
100
AcDbEntity
  8
SIZE
  6
BYBLOCK
100
AcDbLine
 10
-747.7960987088717
 20
0.0000000000000418
 30
0.0
 11
-747.7960987088717
 21
-9.999999999999957
 31
0.0
  0
TEXT
  5
1A901
330
1E
100
AcDbEntity
  8
SIZE
  6
CONTINUOUS
100
AcDbText
 10
290.1191385714246
 20
374.5549252475284
 30
0.0
 40
64.0
  1
38
 41
0.9
100
AcDbText
  0
TEXT
  5
1A902
330
1E
100
AcDbEntity
  8
SIZE
  6
CONTINUOUS
100
AcDbText
 10
426.0619957142817
 20
374.5549252475284
 30
0.0
 40
64.0
  1
286
 41
0.9
100
AcDbText
  0
TEXT
  5
1A903
330
1E
100
AcDbEntity
  8
SIZE
  6
CONTINUOUS
100
AcDbText
 10
296.1191385714246
 20
261.168449249013
 30
0.0
 40
64.0
  1
38
 41
0.9
100
AcDbText
  0
CIRCLE
  5
1A904
330
1E
100
AcDbEntity
  8
SIZE
  6
BYBLOCK
100
AcDbCircle
 10
323.747709999996
 20
241.168449249013
 30
0.0
 40
5.0
  0
LINE
  5
1A905
330
1E
100
AcDbEntity
  8
SIZE
  6
BYBLOCK
100
AcDbLine
 10
323.747709999996
 20
241.168449249013
 30
0.0
 11
313.7477099999959
 21
241.168449249013
 31
0.0
  0
CIRCLE
  5
1A906
330
1E
100
AcDbEntity
  8
SIZE
  6
BYBLOCK
100
AcDbCircle
 10
361.7477099999959
 20
241.168449249013
 30
0.0
 40
5.0
  0
LINE
  5
1A907
330
1E
100
AcDbEntity
  8
SIZE
  6
BYBLOCK
100
AcDbLine
 10
361.7477099999959
 20
241.168449249013
 30
0.0
 11
371.747709999996
 21
241.168449249013
 31
0.0
  0
CIRCLE
  5
1A908
330
1E
100
AcDbEntity
  8
SIZE
  6
BYBLOCK
100
AcDbCircle
 10
361.7477099999959
 20
241.168449249013
 30
0.0
 40
5.0
  0
LINE
  5
1A909
330
1E
100
AcDbEntity
  8
SIZE
  6
BYBLOCK
100
AcDbLine
 10
361.7477099999959
 20
241.168449249013
 30
0.0
 11
371.747709999996
 21
241.168449249013
 31
0.0
  0
CIRCLE
  5
1A90A
330
1E
100
AcDbEntity
  8
SIZE
  6
BYBLOCK
100
AcDbCircle
 10
355.747709999996
 20
354.5549252475284
 30
0.0
 40
5.0
  0
LINE
  5
1A90B
330
1E
100
AcDbEntity
  8
SIZE
  6
BYBLOCK
100
AcDbLine
 10
355.747709999996
 20
354.5549252475284
 30
0.0
 11
365.7477099999959
 21
354.5549252475284
 31
0.0
  0
CIRCLE
  5
1A90C
330
1E
100
AcDbEntity
  8
SIZE
  6
BYBLOCK
100
AcDbCircle
 10
317.7477099999959
 20
354.5549252475284
 30
0.0
 40
5.0
  0
LINE
  5
1A90D
330
1E
100
AcDbEntity
  8
SIZE
  6
BYBLOCK
100
AcDbLine
 10
317.7477099999959
 20
354.5549252475284
 30
0.0
 11
307.747709999996
 21
354.5549252475284
 31
0.0
  0
CIRCLE
  5
1A90E
330
1E
100
AcDbEntity
  8
SIZE
  6
BYBLOCK
100
AcDbCircle
 10
355.747709999996
 20
354.5549252475284
 30
0.0
 40
5.0
  0
LINE
  5
1A90F
330
1E
100
AcDbEntity
  8
SIZE
  6
BYBLOCK
100
AcDbLine
 10
355.747709999996
 20
354.5549252475284
 30
0.0
 11
365.7477099999959
 21
354.5549252475284
 31
0.0
  0
TEXT
  5
1A910
330
1E
100
AcDbEntity
  8
SIZE
  6
CONTINUOUS
100
AcDbText
 10
464.6191385714245
 20
118.9884906005136
 30
0.0
 40
64.0
  1
85
 41
0.9
100
AcDbText
  0
TEXT
  5
1A911
330
1E
100
AcDbEntity
  8
SIZE
  6
CONTINUOUS
100
AcDbText
 10
671.747709999996
 20
118.9884906005136
 30
0.0
 40
64.0
  1
88
 41
0.9
100
AcDbText
  0
CIRCLE
  5
1A912
330
1E
100
AcDbEntity
  8
SIZE
  6
BYBLOCK
100
AcDbCircle
 10
468.7477099999959
 20
98.98849060051361
 30
0.0
 40
5.0
  0
LINE
  5
1A913
330
1E
100
AcDbEntity
  8
SIZE
  6
BYBLOCK
100
AcDbLine
 10
468.7477099999959
 20
98.98849060051361
 30
0.0
 11
478.747709999996
 21
98.98849060051361
 31
0.0
  0
CIRCLE
  5
1A914
330
1E
100
AcDbEntity
  8
SIZE
  6
BYBLOCK
100
AcDbCircle
 10
553.747709999996
 20
98.98849060051361
 30
0.0
 40
5.0
  0
LINE
  5
1A915
330
1E
100
AcDbEntity
  8
SIZE
  6
BYBLOCK
100
AcDbLine
 10
553.747709999996
 20
98.98849060051361
 30
0.0
 11
543.7477099999959
 21
98.98849060051361
 31
0.0
  0
CIRCLE
  5
1A916
330
1E
100
AcDbEntity
  8
SIZE
  6
BYBLOCK
100
AcDbCircle
 10
553.747709999996
 20
98.98849060051361
 30
0.0
 40
5.0
  0
LINE
  5
1A917
330
1E
100
AcDbEntity
  8
SIZE
  6
BYBLOCK
100
AcDbLine
 10
553.747709999996
 20
98.98849060051361
 30
0.0
 11
563.7477099999959
 21
98.98849060051361
 31
0.0
  0
CIRCLE
  5
1A918
330
1E
100
AcDbEntity
  8
SIZE
  6
BYBLOCK
100
AcDbCircle
 10
641.747709999996
 20
98.98849060051361
 30
0.0
 40
5.0
  0
LINE
  5
1A919
330
1E
100
AcDbEntity
  8
SIZE
  6
BYBLOCK
100
AcDbLine
 10
641.747709999996
 20
98.98849060051361
 30
0.0
 11
631.747709999996
 21
98.98849060051361
 31
0.0
  0
TEXT
  5
1A91A
330
1E
100
AcDbEntity
  8
SIZE
  6
CONTINUOUS
100
AcDbText
 10
427.6905671428513
 20
261.168449249013
 30
0.0
 40
64.0
  1
280
 41
0.9
100
AcDbText
  0
CIRCLE
  5
1A91B
330
1E
100
AcDbEntity
  8
SIZE
  6
BYBLOCK
100
AcDbCircle
 10
641.7477099999923
 20
241.168449249013
 30
0.0
 40
5.0
  0
LINE
  5
1A91C
330
1E
100
AcDbEntity
  8
SIZE
  6
BYBLOCK
100
AcDbLine
 10
641.7477099999923
 20
241.168449249013
 30
0.0
 11
631.7477099999924
 21
241.168449249013
 31
0.0
  0
CIRCLE
  5
1A91D
330
1E
100
AcDbEntity
  8
SIZE
  6
BYBLOCK
100
AcDbCircle
 10
641.747709999996
 20
354.5549252475284
 30
0.0
 40
5.0
  0
LINE
  5
1A91E
330
1E
100
AcDbEntity
  8
SIZE
  6
BYBLOCK
100
AcDbLine
 10
641.747709999996
 20
354.5549252475284
 30
0.0
 11
631.747709999996
 21
354.5549252475284
 31
0.0
  0
CIRCLE
  5
1A91F
330
1E
100
AcDbEntity
  8
SIZE
  6
BYBLOCK
100
AcDbCircle
 10
829.722856851411
 20
-0.0000000000000651
 30
0.0
 40
5.0
  0
LINE
  5
1A920
330
1E
100
AcDbEntity
  8
SIZE
  6
BYBLOCK
100
AcDbLine
 10
829.722856851411
 20
-0.0000000000000651
 30
0.0
 11
829.722856851411
 21
-10.00000000000006
 31
0.0
  0
CIRCLE
  5
1A921
330
1E
100
AcDbEntity
  8
SIZE
  6
BYBLOCK
100
AcDbCircle
 10
983.3339210917184
 20
-0.0000000000001087
 30
0.0
 40
5.0
  0
LINE
  5
1A922
330
1E
100
AcDbEntity
  8
SIZE
  6
BYBLOCK
100
AcDbLine
 10
983.3339210917184
 20
-0.0000000000001087
 30
0.0
 11
983.3339210917184
 21
-10.0000000000001
 31
0.0
  0
CIRCLE
  5
1A923
330
1E
100
AcDbEntity
  8
SIZE
  6
BYBLOCK
100
AcDbCircle
 10
1135.800795702234
 20
-0.0000000000001519
 30
0.0
 40
5.0
  0
LINE
  5
1A924
330
1E
100
AcDbEntity
  8
SIZE
  6
BYBLOCK
100
AcDbLine
 10
1135.800795702234
 20
-0.0000000000001519
 30
0.0
 11
1135.800795702234
 21
-10.00000000000015
 31
0.0
  0
LINE
  5
1A934
330
1E
100
AcDbEntity
  8
OUTLINE
100
AcDbLine
 10
-642.2522900000004
 20
-1.715810000001511
 30
0.0
 11
-642.2522900000004
 21
-448.3708800000022
 31
0.0
  0
LINE
  5
1A937
330
1E
100
AcDbEntity
  8
OUTLINE
100
AcDbLine
 10
641.7477099999959
 20
-1.715810000001511
 30
0.0
 11
641.7477099999959
 21
-448.3708800000022
 31
0.0
  0
LINE
  5
1A94E
330
1E
100
AcDbEntity
  8
OUTLINE
100
AcDbLine
 10
-599.0522900000033
 20
-679.8270500000035
 30
0.0
 11
598.5477099999988
 21
-679.8270500000035
 31
0.0
  0
LINE
  5
1A953
330
1E
100
AcDbEntity
  8
OUTLINE
100
AcDbLine
 10
-640.2522900000022
 20
-674.2441899999994
 30
0.0
 11
-640.2522900000022
 21
-462.3708799999985
 31
0.0
  0
LINE
  5
1A956
330
1E
100
AcDbEntity
  8
OUTLINE
100
AcDbLine
 10
-600.2522900000022
 20
-678.6270499999991
 30
0.0
 11
-600.2522900000021
 21
-679.8558799999991
 31
0.0
  0
ARC
  5
1A95B
330
1E
100
AcDbEntity
  8
OUTLINE
100
AcDbCircle
 10
-635.2522900000021
 20
-674.2441899999994
 30
0.0
 40
5.0
100
AcDbArc
 50
180.0
 51
269.0000000000238
  0
LINE
  5
1A95C
330
1E
100
AcDbEntity
  8
OUTLINE
100
AcDbLine
 10
-600.2522900000021
 20
-679.8558799999991
 30
0.0
 11
-635.3395600000058
 21
-679.2434300000023
 31
0.0
  0
ARC
  5
1A95D
330
1E
100
AcDbEntity
  8
OUTLINE
100
AcDbCircle
 10
-599.0522900000033
 20
-678.6270499999991
 30
0.0
 40
1.199999999999999
100
AcDbArc
 50
180.0
 51
270.0
  0
ARC
  5
1A979
330
1E
100
AcDbEntity
  8
OUTLINE
100
AcDbCircle
 10
-592.252289999949
 20
-448.3708799999972
 30
0.0
 40
50.00000000005127
100
AcDbArc
 50
180.0000000000055
 51
196.2602047082962
  0
LINE
  5
1A9F9
330
1E
100
AcDbEntity
  8
OUTLINE
100
AcDbLine
 10
639.7477099999886
 20
-674.2441899999994
 30
0.0
 11
639.7477099999886
 21
-462.3708799999985
 31
0.0
  0
LINE
  5
1AA01
330
1E
100
AcDbEntity
  8
OUTLINE
100
AcDbLine
 10
599.7477099999886
 20
-679.8558799999991
 30
0.0
 11
599.7477099999986
 21
-678.6270499999991
 31
0.0
  0
LINE
  5
1AA03
330
1E
100
AcDbEntity
  8
OUTLINE
100
AcDbLine
 10
599.7477099999886
 20
-679.8558799999991
 30
0.0
 11
634.8349699999888
 21
-679.2434300000023
 31
0.0
  0
ARC
  5
1AA04
330
1E
100
AcDbEntity
  8
OUTLINE
100
AcDbCircle
 10
634.7477099999886
 20
-674.2441899999994
 30
0.0
 40
5.0
100
AcDbArc
 50
270.9999999999761
 51
0.0
  0
ARC
  5
1AA09
330
1E
100
AcDbEntity
  8
OUTLINE
100
AcDbCircle
 10
598.5477099999988
 20
-678.6270499999991
 30
0.0
 40
1.199999999999999
100
AcDbArc
 50
270.0
 51
0.0
  0
ARC
  5
1AA4B
330
1E
100
AcDbEntity
  8
OUTLINE
100
AcDbCircle
 10
591.7477100005779
 20
-448.3708800000567
 30
0.0
 40
49.99999999941795
100
AcDbArc
 50
343.7397952915628
 51
0.0000000000624671
  0
LINE
  5
1AA91
330
1E
100
AcDbEntity
  8
OUTLINE
100
AcDbLine
 10
601.2999999999955
 20
0.0
 30
0.0
 11
-601.2999999999975
 21
0.0
 31
0.0
  0
ARC
  5
1AA93
330
1E
100
AcDbEntity
  8
OUTLINE
100
AcDbCircle
 10
-641.2522900000058
 20
-1.715810000001511
 30
0.0
 40
1.0
100
AcDbArc
 50
90.99999999997615
 51
180.0
  0
LINE
  5
1AA94
330
1E
100
AcDbEntity
  8
OUTLINE
100
AcDbLine
 10
-600.2522900000021
 20
0.0
 30
0.0
 11
-641.2697500000049
 21
-0.7159600000013598
 31
0.0
  0
LINE
  5
1AAE7
330
1E
100
AcDbEntity
  8
OUTLINE
100
AcDbLine
 10
599.7477099999886
 20
0.0
 30
0.0
 11
640.765159999988
 21
-0.7159600000013598
 31
0.0
  0
ARC
  5
1AAE8
330
1E
100
AcDbEntity
  8
OUTLINE
100
AcDbCircle
 10
640.7477099999923
 20
-1.715810000001511
 30
0.0
 40
1.0
100
AcDbArc
 50
0.0
 51
89.00000000002384
  0
ENDSEC
  0
SECTION
  2
OBJECTS
  0
DICTIONARY
  5
C
330
0
100
AcDbDictionary
  3
ACAD_GROUP
350
D
  3
ACAD_LAYOUT
350
19
  3
ACAD_MLINESTYLE
350
16
  3
ACAD_PLOTSETTINGS
350
18
  3
ACAD_PLOTSTYLENAME
350
E
  3
ACDBHEADERROUNDTRIPXREC
350
1AB1D
  0
DICTIONARY
  5
1AB40
330
1E
100
AcDbDictionary
280
     1
  3
ACAD_LAYOUTSELFREF
360
1AB41
  0
DICTIONARY
  5
1AB3E
330
1A
100
AcDbDictionary
280
     1
  3
ACAD_LAYOUTSELFREF
360
1AB3F
  0
DICTIONARY
  5
D
102
{ACAD_REACTORS
330
C
102
}
330
C
100
AcDbDictionary
  0
DICTIONARY
  5
19
102
{ACAD_REACTORS
330
C
102
}
330
C
100
AcDbDictionary
  0
DICTIONARY
  5
16
102
{ACAD_REACTORS
330
C
102
}
330
C
100
AcDbDictionary
  3
STANDARD
350
17
  0
DICTIONARY
  5
18
102
{ACAD_REACTORS
330
C
102
}
330
C
100
AcDbDictionary
  0
ACDBDICTIONARYWDFLT
  5
E
102
{ACAD_REACTORS
330
C
102
}
330
C
100
AcDbDictionary
281
     1
  3
Normal
350
F
100
AcDbDictionaryWithDefault
340
F
  0
DICTIONARY
  5
1AB1D
102
{ACAD_REACTORS
330
C
102
}
330
C
100
AcDbDictionary
  3
CEPSNTYPE
350
1AB27
  3
DIMSTYLEDATA
350
1AB2B
  3
FINGERPRINTGUID
350
1AB28
  3
HYPERLINKBASE
350
1AB20
  3
INSUNITS
350
1AB26
  3
LAYOUTDICT
350
1AB22
  3
LWETCUNION
350
1AB25
  3
PLOTSETDICT
350
1AB23
  3
PLOTSTYLNAMDICT
350
1AB24
  3
PSVPSCALE
350
1AB2A
  3
PUCSBASE
350
1AB2E
  3
PUCSORGBACK
350
1AB34
  3
PUCSORGBOTTOM
350
1AB30
  3
PUCSORGFRONT
350
1AB33
  3
PUCSORGLEFT
350
1AB31
  3
PUCSORGRIGHT
350
1AB32
  3
PUCSORGTOP
350
1AB2F
  3
PUCSORTHOREF
350
1AB2C
  3
PUCSORTHOVIEW
350
1AB2D
  3
STYLESHEET
350
1AB21
  3
TSTACKALIGN
350
1AB1E
  3
TSTACKSIZE
350
1AB1F
  3
UCSBASE
350
1AB37
  3
UCSORGBACK
350
1AB3D
  3
UCSORGBOTTOM
350
1AB39
  3
UCSORGFRONT
350
1AB3C
  3
UCSORGLEFT
350
1AB3A
  3
UCSORGRIGHT
350
1AB3B
  3
UCSORGTOP
350
1AB38
  3
UCSORTHOREF
350
1AB35
  3
UCSORTHOVIEW
350
1AB36
  3
VERSIONGUID
350
1AB29
  0
XRECORD
  5
1AB41
102
{ACAD_REACTORS
330
1AB40
102
}
330
1AB40
100
AcDbXrecord
340
1E
  0
XRECORD
  5
1AB3F
102
{ACAD_REACTORS
330
1AB3E
102
}
330
1AB3E
100
AcDbXrecord
340
1A
  0
MLINESTYLE
  5
17
102
{ACAD_REACTORS
330
16
102
}
330
16
100
AcDbMlineStyle
  2
STANDARD
 70
     0
  3

 62
   256
 51
90.0
 52
90.0
 71
     2
 49
0.5
 62
   256
  6
BYLAYER
 49
-0.5
 62
   256
  6
BYLAYER
  0
ACDBPLACEHOLDER
  5
F
102
{ACAD_REACTORS
330
E
102
}
330
E
100
AcDbPlaceHolder
280
     0
  0
XRECORD
  5
1AB27
102
{ACAD_REACTORS
330
1AB1D
102
}
330
1AB1D
100
AcDbXrecord
 90
        0
  0
XRECORD
  5
1AB2B
102
{ACAD_REACTORS
330
1AB1D
102
}
330
1AB1D
100
AcDbXrecord
1000
DSTYLE
1002
{
1070
   341
340
125
1070
   342
340
125
1002
}
  0
XRECORD
  5
1AB28
102
{ACAD_REACTORS
330
1AB1D
102
}
330
1AB1D
100
AcDbXrecord
  1
{A6FF70D2-A361-4CC0-B5C4-66635CB0F7A7}
  0
XRECORD
  5
1AB20
102
{ACAD_REACTORS
330
1AB1D
102
}
330
1AB1D
100
AcDbXrecord
  1

  0
XRECORD
  5
1AB26
102
{ACAD_REACTORS
330
1AB1D
102
}
330
1AB1D
100
AcDbXrecord
 90
        0
  0
XRECORD
  5
1AB22
102
{ACAD_REACTORS
330
1AB1D
102
}
330
1AB1D
100
AcDbXrecord
340
19
  0
XRECORD
  5
1AB25
102
{ACAD_REACTORS
330
1AB1D
102
}
330
1AB1D
100
AcDbXrecord
 90
     2589
  0
XRECORD
  5
1AB23
102
{ACAD_REACTORS
330
1AB1D
102
}
330
1AB1D
100
AcDbXrecord
340
18
  0
XRECORD
  5
1AB24
102
{ACAD_REACTORS
330
1AB1D
102
}
330
1AB1D
100
AcDbXrecord
340
E
  0
XRECORD
  5
1AB2A
102
{ACAD_REACTORS
330
1AB1D
102
}
330
1AB1D
100
AcDbXrecord
 40
0.0
  0
XRECORD
  5
1AB2E
102
{ACAD_REACTORS
330
1AB1D
102
}
330
1AB1D
100
AcDbXrecord
340
0
  0
XRECORD
  5
1AB34
102
{ACAD_REACTORS
330
1AB1D
102
}
330
1AB1D
100
AcDbXrecord
 10
0.0
 20
0.0
 30
0.0
  0
XRECORD
  5
1AB30
102
{ACAD_REACTORS
330
1AB1D
102
}
330
1AB1D
100
AcDbXrecord
 10
0.0
 20
0.0
 30
0.0
  0
XRECORD
  5
1AB33
102
{ACAD_REACTORS
330
1AB1D
102
}
330
1AB1D
100
AcDbXrecord
 10
0.0
 20
0.0
 30
0.0
  0
XRECORD
  5
1AB31
102
{ACAD_REACTORS
330
1AB1D
102
}
330
1AB1D
100
AcDbXrecord
 10
0.0
 20
0.0
 30
0.0
  0
XRECORD
  5
1AB32
102
{ACAD_REACTORS
330
1AB1D
102
}
330
1AB1D
100
AcDbXrecord
 10
0.0
 20
0.0
 30
0.0
  0
XRECORD
  5
1AB2F
102
{ACAD_REACTORS
330
1AB1D
102
}
330
1AB1D
100
AcDbXrecord
 10
0.0
 20
0.0
 30
0.0
  0
XRECORD
  5
1AB2C
102
{ACAD_REACTORS
330
1AB1D
102
}
330
1AB1D
100
AcDbXrecord
340
0
  0
XRECORD
  5
1AB2D
102
{ACAD_REACTORS
330
1AB1D
102
}
330
1AB1D
100
AcDbXrecord
 70
     0
  0
XRECORD
  5
1AB21
102
{ACAD_REACTORS
330
1AB1D
102
}
330
1AB1D
100
AcDbXrecord
  1

  0
XRECORD
  5
1AB1E
102
{ACAD_REACTORS
330
1AB1D
102
}
330
1AB1D
100
AcDbXrecord
 90
        1
  0
XRECORD
  5
1AB1F
102
{ACAD_REACTORS
330
1AB1D
102
}
330
1AB1D
100
AcDbXrecord
 90
       70
  0
XRECORD
  5
1AB37
102
{ACAD_REACTORS
330
1AB1D
102
}
330
1AB1D
100
AcDbXrecord
340
0
  0
XRECORD
  5
1AB3D
102
{ACAD_REACTORS
330
1AB1D
102
}
330
1AB1D
100
AcDbXrecord
 10
0.0
 20
0.0
 30
0.0
  0
XRECORD
  5
1AB39
102
{ACAD_REACTORS
330
1AB1D
102
}
330
1AB1D
100
AcDbXrecord
 10
0.0
 20
0.0
 30
0.0
  0
XRECORD
  5
1AB3C
102
{ACAD_REACTORS
330
1AB1D
102
}
330
1AB1D
100
AcDbXrecord
 10
0.0
 20
0.0
 30
0.0
  0
XRECORD
  5
1AB3A
102
{ACAD_REACTORS
330
1AB1D
102
}
330
1AB1D
100
AcDbXrecord
 10
0.0
 20
0.0
 30
0.0
  0
XRECORD
  5
1AB3B
102
{ACAD_REACTORS
330
1AB1D
102
}
330
1AB1D
100
AcDbXrecord
 10
0.0
 20
0.0
 30
0.0
  0
XRECORD
  5
1AB38
102
{ACAD_REACTORS
330
1AB1D
102
}
330
1AB1D
100
AcDbXrecord
 10
0.0
 20
0.0
 30
0.0
  0
XRECORD
  5
1AB35
102
{ACAD_REACTORS
330
1AB1D
102
}
330
1AB1D
100
AcDbXrecord
340
0
  0
XRECORD
  5
1AB36
102
{ACAD_REACTORS
330
1AB1D
102
}
330
1AB1D
100
AcDbXrecord
 70
     0
  0
XRECORD
  5
1AB29
102
{ACAD_REACTORS
330
1AB1D
102
}
330
1AB1D
100
AcDbXrecord
  1
{9EE9CA9E-6B3F-4695-A797-CDE28D280B96}
  0
ENDSEC
  0
EOF
