  0
SECTION
  2
HEADER
  9
$ACADVER
  1
AC1014
  9
$ACADMAINTVER
 70
     9
  9
$DWGCODEPAGE
  3
ANSI_932
  9
$INSBASE
 10
0.0
 20
0.0
 30
0.0
  9
$EXTMIN
 10
-1182.328312822221
 20
-821.8367794800233
 30
-0.0015258207003583
  9
$EXTMAX
 10
1148.849668518902
 20
1011.744022441565
 30
0.0000000349246037
  9
$LIMMIN
 10
-1323.837137692691
 20
-1082.342154167552
  9
$LIMMAX
 10
1516.959887128807
 20
1177.372270038835
  9
$ORTHOMODE
 70
     0
  9
$REGENMODE
 70
     0
  9
$FILLMODE
 70
     1
  9
$QTEXTMODE
 70
     0
  9
$MIRRTEXT
 70
     0
  9
$DRAGMODE
 70
     2
  9
$LTSCALE
 40
20.0
  9
$OSMODE
 70
    37
  9
$ATTMODE
 70
     1
  9
$TEXTSIZE
 40
64.0
  9
$TRACEWID
 40
0.05
  9
$TEXTSTYLE
  7
STANDARD
  9
$CLAYER
  8
SIZE
  9
$CELTYPE
  6
CONTINUOUS
  9
$CECOLOR
 62
   256
  9
$CELTSCALE
 40
1.0
  9
$DELOBJ
 70
     1
  9
$DISPSILH
 70
     0
  9
$DIMSCALE
 40
1.0
  9
$DIMASZ
 40
10.0
  9
$DIMEXO
 40
20.0
  9
$DIMDLI
 40
200.0
  9
$DIMRND
 40
0.0
  9
$DIMDLE
 40
0.0
  9
$DIMEXE
 40
30.0
  9
$DIMTP
 40
0.0
  9
$DIMTM
 40
0.0
  9
$DIMTXT
 40
64.0
  9
$DIMCEN
 40
0.09
  9
$DIMTSZ
 40
0.0
  9
$DIMTOL
 70
     0
  9
$DIMLIM
 70
     0
  9
$DIMTIH
 70
     0
  9
$DIMTOH
 70
     0
  9
$DIMSE1
 70
     0
  9
$DIMSE2
 70
     0
  9
$DIMTAD
 70
     1
  9
$DIMZIN
 70
     8
  9
$DIMBLK
  1
ORIGIN
  9
$DIMASO
 70
     1
  9
$DIMSHO
 70
     0
  9
$DIMPOST
  1

  9
$DIMAPOST
  1

  9
$DIMALT
 70
     0
  9
$DIMALTD
 70
     2
  9
$DIMALTF
 40
25.4
  9
$DIMLFAC
 40
1.0
  9
$DIMTOFL
 70
     1
  9
$DIMTVP
 40
0.0
  9
$DIMTIX
 70
     1
  9
$DIMSOXD
 70
     0
  9
$DIMSAH
 70
     0
  9
$DIMBLK1
  1

  9
$DIMBLK2
  1

  9
$DIMSTYLE
  2
STANDARD
  9
$DIMCLRD
 70
     0
  9
$DIMCLRE
 70
     0
  9
$DIMCLRT
 70
     0
  9
$DIMTFAC
 40
1.0
  9
$DIMGAP
 40
20.0
  9
$DIMJUST
 70
     0
  9
$DIMSD1
 70
     0
  9
$DIMSD2
 70
     0
  9
$DIMTOLJ
 70
     1
  9
$DIMTZIN
 70
     0
  9
$DIMALTZ
 70
     0
  9
$DIMALTTZ
 70
     0
  9
$DIMFIT
 70
     3
  9
$DIMUPT
 70
     0
  9
$DIMUNIT
 70
     2
  9
$DIMDEC
 70
     0
  9
$DIMTDEC
 70
     0
  9
$DIMALTU
 70
     2
  9
$DIMALTTD
 70
     2
  9
$DIMTXSTY
  7
STANDARD
  9
$DIMAUNIT
 70
     0
  9
$LUNITS
 70
     2
  9
$LUPREC
 70
     4
  9
$SKETCHINC
 40
0.1
  9
$FILLETRAD
 40
1.0
  9
$AUNITS
 70
     1
  9
$AUPREC
 70
     3
  9
$MENU
  1
ACAD
  9
$ELEVATION
 40
0.0
  9
$PELEVATION
 40
0.0
  9
$THICKNESS
 40
0.0
  9
$LIMCHECK
 70
     1
  9
$BLIPMODE
 70
     0
  9
$CHAMFERA
 40
0.0
  9
$CHAMFERB
 40
0.0
  9
$CHAMFERC
 40
0.0
  9
$CHAMFERD
 40
0.0
  9
$SKPOLY
 70
     0
  9
$TDCREATE
 40
2450322.443299004
  9
$TDUPDATE
 40
2454979.776555266
  9
$TDINDWG
 40
0.8507180208
  9
$TDUSRTIMER
 40
0.8507180208
  9
$USRTIMER
 70
     1
  9
$ANGBASE
 50
0.0
  9
$ANGDIR
 70
     0
  9
$PDMODE
 70
     3
  9
$PDSIZE
 40
-2.0
  9
$PLINEWID
 40
0.0
  9
$COORDS
 70
     1
  9
$SPLFRAME
 70
     0
  9
$SPLINETYPE
 70
     6
  9
$SPLINESEGS
 70
     8
  9
$ATTDIA
 70
     0
  9
$ATTREQ
 70
     1
  9
$HANDLING
 70
-16383
  9
$HANDSEED
  5
1AADF
  9
$SURFTAB1
 70
     6
  9
$SURFTAB2
 70
     6
  9
$SURFTYPE
 70
     6
  9
$SURFU
 70
     6
  9
$SURFV
 70
     6
  9
$UCSNAME
  2

  9
$UCSORG
 10
0.0
 20
0.0
 30
0.0
  9
$UCSXDIR
 10
1.0
 20
0.0
 30
0.0
  9
$UCSYDIR
 10
0.0
 20
1.0
 30
0.0
  9
$PUCSNAME
  2

  9
$PUCSORG
 10
0.0
 20
0.0
 30
0.0
  9
$PUCSXDIR
 10
1.0
 20
0.0
 30
0.0
  9
$PUCSYDIR
 10
0.0
 20
1.0
 30
0.0
  9
$USERI1
 70
     0
  9
$USERI2
 70
     0
  9
$USERI3
 70
     0
  9
$USERI4
 70
     0
  9
$USERI5
 70
     0
  9
$USERR1
 40
20.0
  9
$USERR2
 40
0.0
  9
$USERR3
 40
0.0
  9
$USERR4
 40
0.0
  9
$USERR5
 40
0.0
  9
$WORLDVIEW
 70
     1
  9
$SHADEDGE
 70
     3
  9
$SHADEDIF
 70
    70
  9
$TILEMODE
 70
     1
  9
$MAXACTVP
 70
    64
  9
$PINSBASE
 10
0.0
 20
0.0
 30
0.0
  9
$PLIMCHECK
 70
     0
  9
$PEXTMIN
 10
1.000000000000000E+20
 20
1.000000000000000E+20
 30
1.000000000000000E+20
  9
$PEXTMAX
 10
-1.000000000000000E+20
 20
-1.000000000000000E+20
 30
-1.000000000000000E+20
  9
$PLIMMIN
 10
0.0
 20
0.0
  9
$PLIMMAX
 10
12.0
 20
9.0
  9
$UNITMODE
 70
     0
  9
$VISRETAIN
 70
     1
  9
$PLINEGEN
 70
     0
  9
$PSLTSCALE
 70
     1
  9
$TREEDEPTH
 70
  3020
  9
$PICKSTYLE
 70
     1
  9
$CMLSTYLE
  2
STANDARD
  9
$CMLJUST
 70
     0
  9
$CMLSCALE
 40
1.0
  9
$PROXYGRAPHICS
 70
     1
  9
$MEASUREMENT
 70
     0
  0
ENDSEC
  0
SECTION
  2
CLASSES
  0
CLASS
  1
ACDBDICTIONARYWDFLT
  2
AcDbDictionaryWithDefault
  3
AutoCAD 2000
 90
        0
280
     0
281
     0
  0
CLASS
  1
ACDBPLACEHOLDER
  2
AcDbPlaceHolder
  3
AutoCAD 2000
 90
        0
280
     0
281
     0
  0
CLASS
  1
LAYOUT
  2
AcDbLayout
  3
AutoCAD 2000
 90
        0
280
     0
281
     0
  0
CLASS
  1
LONG_TRANSACTION
  2
AcDbLongTransaction
  3
AutoCAD 2000
 90
        0
280
     0
281
     0
  0
CLASS
  1
LWPOLYLINE
  2
AcDbPolyline
  3
AutoCAD 2000
 90
        0
280
     0
281
     1
  0
CLASS
  1
HATCH
  2
AcDbHatch
  3
AutoCAD 2000
 90
        0
280
     0
281
     1
  0
CLASS
  1
XRECORD
  2
AcDbXrecord
  3
AutoCAD 2000
 90
        0
280
     0
281
     0
  0
ENDSEC
  0
SECTION
  2
TABLES
  0
TABLE
  2
VPORT
  5
8
330
0
100
AcDbSymbolTable
 70
     6
  0
VPORT
  5
1AAB9
330
8
100
AcDbSymbolTableRecord
100
AcDbViewportTableRecord
  2
*ACTIVE
 70
     0
 10
0.0
 20
0.0
 11
1.0
 21
1.0
 12
270.2232290307329
 22
-164.9810233470925
 13
0.0
 23
0.0
 14
400.0
 24
400.0
 15
400.0
 25
400.0
 16
0.0
 26
0.0
 36
1.0
 17
0.0
 27
0.0
 37
0.0
 40
4244.738713770383
 41
1.211491442542787
 42
50.0
 43
0.0
 44
0.0
 50
0.0
 51
0.0
 71
     0
 72
   500
 73
     1
 74
     0
 75
     0
 76
     0
 77
     0
 78
     1
  0
ENDTAB
  0
TABLE
  2
LTYPE
  5
5
330
0
100
AcDbSymbolTable
 70
     2
  0
LTYPE
  5
13
330
5
100
AcDbSymbolTableRecord
100
AcDbLinetypeTableRecord
  2
BYBLOCK
 70
     0
  3

 72
    65
 73
     0
 40
0.0
  0
LTYPE
  5
14
330
5
100
AcDbSymbolTableRecord
100
AcDbLinetypeTableRecord
  2
BYLAYER
 70
     0
  3

 72
    65
 73
     0
 40
0.0
  0
LTYPE
  5
15
330
5
100
AcDbSymbolTableRecord
100
AcDbLinetypeTableRecord
  2
CONTINUOUS
 70
     0
  3
実線
 72
    65
 73
     0
 40
0.0
  0
LTYPE
  5
22
330
5
100
AcDbSymbolTableRecord
100
AcDbLinetypeTableRecord
  2
DASHDOT
 70
     0
  3
____ _ ____ _ ____ _ ____ _ ____ _ ____ _ ____
 72
    65
 73
     4
 40
5.5
 49
4.0
 74
     0
 49
-0.6
 74
     0
 49
0.3
 74
     0
 49
-0.6
 74
     0
  0
ENDTAB
  0
TABLE
  2
LAYER
  5
2
330
0
100
AcDbSymbolTable
 70
    11
  0
LAYER
  5
10
330
2
100
AcDbSymbolTableRecord
100
AcDbLayerTableRecord
  2
0
 70
     0
 62
     7
  6
CONTINUOUS
  0
LAYER
  5
28
330
2
100
AcDbSymbolTableRecord
100
AcDbLayerTableRecord
  2
OUTLINE
 70
     0
 62
     3
  6
CONTINUOUS
  0
LAYER
  5
29
330
2
100
AcDbSymbolTableRecord
100
AcDbLayerTableRecord
  2
DETAIL
 70
     0
 62
     5
  6
CONTINUOUS
  0
LAYER
  5
2A
330
2
100
AcDbSymbolTableRecord
100
AcDbLayerTableRecord
  2
BASIS
 70
     0
 62
     6
  6
CONTINUOUS
  0
LAYER
  5
2B
330
2
100
AcDbSymbolTableRecord
100
AcDbLayerTableRecord
  2
NOTE
 70
     0
 62
     4
  6
CONTINUOUS
  0
LAYER
  5
2C
330
2
100
AcDbSymbolTableRecord
100
AcDbLayerTableRecord
  2
DEFPOINTS
 70
     0
 62
     7
  6
CONTINUOUS
  0
LAYER
  5
2D
330
2
100
AcDbSymbolTableRecord
100
AcDbLayerTableRecord
  2
SIZE
 70
     0
 62
    32
  6
CONTINUOUS
  0
LAYER
  5
2E
330
2
100
AcDbSymbolTableRecord
100
AcDbLayerTableRecord
  2
FIX
 70
     0
 62
   241
  6
CONTINUOUS
  0
LAYER
  5
2F
330
2
100
AcDbSymbolTableRecord
100
AcDbLayerTableRecord
  2
ETC
 70
     0
 62
    83
  6
CONTINUOUS
  0
LAYER
  5
30
330
2
100
AcDbSymbolTableRecord
100
AcDbLayerTableRecord
  2
ARRANGE
 70
     0
 62
     1
  6
CONTINUOUS
  0
LAYER
  5
17583
330
2
100
AcDbSymbolTableRecord
100
AcDbLayerTableRecord
  2
SERVICE_SPACE
 70
     0
 62
     2
  6
CONTINUOUS
  0
ENDTAB
  0
TABLE
  2
STYLE
  5
3
330
0
100
AcDbSymbolTable
 70
     1
  0
STYLE
  5
11
330
3
100
AcDbSymbolTableRecord
100
AcDbTextStyleTableRecord
  2
STANDARD
 70
     0
 40
0.0
 41
0.9
 50
0.0
 71
     0
 42
64.0
  3
SIMPLEX
  4
BIGFONT
  0
ENDTAB
  0
TABLE
  2
VIEW
  5
6
330
0
100
AcDbSymbolTable
 70
     1
  0
VIEW
  5
33
330
6
100
AcDbSymbolTableRecord
100
AcDbViewTableRecord
  2
ALL
 70
     0
 40
4508.021
 10
0.0
 20
41.30990399999999
 41
6252.632
 11
0.0
 21
0.0
 31
1.0
 12
0.0
 22
0.0
 32
0.0
 42
50.0
 43
0.0
 44
0.0
 50
0.0
 71
     0
  0
ENDTAB
  0
TABLE
  2
UCS
  5
7
330
0
100
AcDbSymbolTable
 70
     0
  0
ENDTAB
  0
TABLE
  2
APPID
  5
9
330
0
100
AcDbSymbolTable
 70
     1
  0
APPID
  5
12
330
9
100
AcDbSymbolTableRecord
100
AcDbRegAppTableRecord
  2
ACAD
 70
     0
  0
ENDTAB
  0
TABLE
  2
DIMSTYLE
  5
A
330
0
100
AcDbSymbolTable
 70
     1
  0
DIMSTYLE
105
11F
330
A
100
AcDbSymbolTableRecord
100
AcDbDimStyleTableRecord
  2
STANDARD
 70
     0
  3

  4

  5

  6

  7

 40
1.0
 41
0.18
 42
0.0625
 43
0.38
 44
0.18
 45
0.0
 46
0.0
 47
0.0
 48
0.0
140
0.18
141
0.09
142
0.0
143
25.4
144
1.0
145
0.0
146
1.0
147
0.09
 71
     0
 72
     0
 73
     1
 74
     1
 75
     0
 76
     0
 77
     0
 78
     0
170
     0
171
     2
172
     0
173
     0
174
     0
175
     0
176
     0
177
     0
178
     0
270
     2
271
     4
272
     4
273
     2
274
     2
340
11
275
     0
280
     0
281
     0
282
     0
283
     1
284
     0
285
     0
286
     0
287
     3
288
     0
  0
ENDTAB
  0
TABLE
  2
BLOCK_RECORD
  5
1
330
0
100
AcDbSymbolTable
 70
   123
  0
BLOCK_RECORD
  5
1E
102
{ACAD_XDICTIONARY
360
1AADD
102
}
330
1
100
AcDbSymbolTableRecord
100
AcDbBlockTableRecord
  2
*MODEL_SPACE
  0
BLOCK_RECORD
  5
1A
102
{ACAD_XDICTIONARY
360
1AADB
102
}
330
1
100
AcDbSymbolTableRecord
100
AcDbBlockTableRecord
  2
*PAPER_SPACE
  0
BLOCK_RECORD
  5
125
330
1
100
AcDbSymbolTableRecord
100
AcDbBlockTableRecord
  2
_ORIGIN
  0
ENDTAB
  0
ENDSEC
  0
SECTION
  2
BLOCKS
  0
BLOCK
  5
1F
330
1E
100
AcDbEntity
  8
0
100
AcDbBlockBegin
  2
*MODEL_SPACE
 70
     0
 10
0.0
 20
0.0
 30
0.0
  3
*MODEL_SPACE
  1

  0
ENDBLK
  5
20
330
1E
100
AcDbEntity
  8
0
100
AcDbBlockEnd
  0
BLOCK
  5
1B
330
1A
100
AcDbEntity
 67
     1
  8
0
100
AcDbBlockBegin
  2
*PAPER_SPACE
 70
     0
 10
0.0
 20
0.0
 30
0.0
  3
*PAPER_SPACE
  1

  0
ENDBLK
  5
1C
330
1A
100
AcDbEntity
 67
     1
  8
0
100
AcDbBlockEnd
  0
BLOCK
  5
128
330
125
100
AcDbEntity
  8
0
100
AcDbBlockBegin
  2
_ORIGIN
 70
     0
 10
0.0
 20
0.0
 30
0.0
  3
_ORIGIN
  1

  0
CIRCLE
  5
126
330
125
100
AcDbEntity
  8
0
  6
BYBLOCK
 62
     0
100
AcDbCircle
 10
0.0
 20
0.0
 30
0.0
 40
0.5
  0
LINE
  5
127
330
125
100
AcDbEntity
  8
0
  6
BYBLOCK
 62
     0
100
AcDbLine
 10
0.0
 20
0.0
 30
0.0
 11
-1.0
 21
0.0
 31
0.0
  0
ENDBLK
  5
129
330
125
100
AcDbEntity
  8
0
100
AcDbBlockEnd
  0
ENDSEC
  0
SECTION
  2
ENTITIES
  0
LINE
  5
1059B
330
1E
100
AcDbEntity
  8
NOTE
  6
CONTINUOUS
100
AcDbLine
 10
618.5
 20
0.0
 30
0.0
 11
748.8359770000024
 21
118.4295409999995
 31
0.0
  0
LINE
  5
1059D
330
1E
100
AcDbEntity
  8
NOTE
  6
CONTINUOUS
100
AcDbLine
 10
-318.5000000000236
 20
-29.99999422648034
 30
0.0
 11
-246.0684891975524
 21
136.5896735503138
 31
0.0
  0
LINE
  5
1059F
330
1E
100
AcDbEntity
  8
NOTE
  6
CONTINUOUS
100
AcDbLine
 10
-618.5000000000018
 20
0.0000000000027285
 30
0.0
 11
-704.2532941119479
 21
126.9075791151945
 31
0.0
  0
POINT
  5
105A1
330
1E
100
AcDbEntity
  8
ARRANGE
  6
CONTINUOUS
100
AcDbPoint
 10
0.0
 20
0.0
 30
0.0
  0
LINE
  5
105B3
330
1E
100
AcDbEntity
  8
NOTE
  6
CONTINUOUS
100
AcDbLine
 10
-469.0000000000455
 20
-125.9999942264848
 30
0.0
 11
-742.0700432420107
 21
-469.5909798410848
 31
0.0
  0
LINE
  5
105B4
330
1E
100
AcDbEntity
  8
BASIS
100
AcDbLine
 10
-453.5000000000127
 20
-125.9999942264894
 30
0.0
 11
-484.5000000000164
 21
-125.9999942264894
 31
0.0
  0
LWPOLYLINE
  5
105B5
330
1E
100
AcDbEntity
  8
NOTE
  6
CONTINUOUS
100
AcDbPolyline
 90
        3
 70
     0
 43
0.0
 10
-485.688601377542
 20
-162.3523064917799
 10
-469.0000000000455
 20
-125.9999942264848
 10
-501.6289090145528
 20
-149.1377194905198
  0
LINE
  5
105B7
330
1E
100
AcDbEntity
  8
NOTE
  6
CONTINUOUS
100
AcDbLine
 10
-489.0000000000163
 20
-125.9999942264894
 30
0.0
 11
-449.0000000000163
 21
-125.9999942264894
 31
0.0
  0
LINE
  5
105BA
330
1E
100
AcDbEntity
  8
DETAIL
100
AcDbLine
 10
-451.9999999999981
 20
-176.5000000000018
 30
0.0
 11
-481.9999999999981
 21
-176.5000000000018
 31
0.0
  0
LINE
  5
105BB
330
1E
100
AcDbEntity
  8
DETAIL
100
AcDbLine
 10
-477.5
 20
-175.0
 30
0.0
 11
-501.9999999999981
 21
-175.0
 31
0.0
  0
LINE
  5
105BC
330
1E
100
AcDbEntity
  8
DETAIL
100
AcDbLine
 10
-465.2499999999963
 20
-145.0
 30
0.0
 11
-487.7499999999963
 21
-145.0
 31
0.0
  0
ARC
  5
105BD
330
1E
100
AcDbEntity
  8
DETAIL
100
AcDbCircle
 10
-476.9999999999981
 20
-151.9999999999981
 30
0.0
 40
5.5
100
AcDbArc
 50
90.0
 51
180.0
  0
ARC
  5
105BE
330
1E
100
AcDbEntity
  8
DETAIL
100
AcDbCircle
 10
-476.9999999999981
 20
-151.9999999999981
 30
0.0
 40
6.5
100
AcDbArc
 50
90.0
 51
180.0
  0
LINE
  5
105BF
330
1E
100
AcDbEntity
  8
DETAIL
100
AcDbLine
 10
-460.8693200000016
 20
-143.5
 30
0.0
 11
-569.3716700000004
 21
-143.5
 31
0.0
  0
LINE
  5
105C0
330
1E
100
AcDbEntity
  8
DETAIL
100
AcDbLine
 10
-453.5000000000036
 20
-126.0
 30
0.0
 11
-484.4999999999981
 21
-126.0
 31
0.0
  0
LINE
  5
105C1
330
1E
100
AcDbEntity
  8
DETAIL
100
AcDbLine
 10
-546.0000000000036
 20
-85.0
 30
0.0
 11
-480.5000000000018
 21
-85.0
 31
0.0
  0
LINE
  5
105C2
330
1E
100
AcDbEntity
  8
DETAIL
100
AcDbLine
 10
-546.0000000000036
 20
-84.20000000000072
 30
0.0
 11
-480.5000000000018
 21
-84.20000000000072
 31
0.0
  0
ARC
  5
105C3
330
1E
100
AcDbEntity
  8
DETAIL
100
AcDbCircle
 10
-475.0
 20
-154.0000000000018
 30
0.0
 40
6.2
100
AcDbArc
 50
90.0
 51
180.0
  0
ARC
  5
105C4
330
1E
100
AcDbEntity
  8
DETAIL
100
AcDbCircle
 10
-475.0
 20
-154.0000000000018
 30
0.0
 40
7.0
100
AcDbArc
 50
90.0
 51
180.0
  0
ARC
  5
105C5
330
1E
100
AcDbEntity
  8
DETAIL
100
AcDbCircle
 10
-503.0000000000018
 20
-194.0000000000018
 30
0.0
 40
21.8
100
AcDbArc
 50
269.9941909999734
 51
0.0
  0
ARC
  5
105C6
330
1E
100
AcDbEntity
  8
DETAIL
100
AcDbCircle
 10
-503.0000000000018
 20
-194.0000000000018
 30
0.0
 40
21.0
100
AcDbArc
 50
269.9941909999734
 51
0.0
  0
LINE
  5
105C7
330
1E
100
AcDbEntity
  8
DETAIL
100
AcDbLine
 10
600.0
 20
-236.0
 30
0.0
 11
-600.0
 21
-236.0
 31
0.0
  0
LINE
  5
105C8
330
1E
100
AcDbEntity
  8
DETAIL
100
AcDbLine
 10
600.0
 20
-6.0
 30
0.0
 11
-600.0
 21
-6.0
 31
0.0
  0
LINE
  5
10682
330
1E
100
AcDbEntity
  8
NOTE
  6
CONTINUOUS
100
AcDbLine
 10
-502.0000000000491
 20
-189.9999942265876
 30
0.0
 11
-767.6327005511575
 21
-597.5485853194732
 31
0.0
  0
LINE
  5
10683
330
1E
100
AcDbEntity
  8
NOTE
  6
CONTINUOUS
100
AcDbLine
 10
-742.0700432420107
 20
-469.5909798410848
 30
0.0
 11
-1158.099337432477
 21
-469.5909798410848
 31
0.0
  0
TEXT
  5
10684
330
1E
100
AcDbEntity
  8
NOTE
  6
CONTINUOUS
100
AcDbText
 10
-1152.119768838025
 20
-452.5087984324873
 30
0.0
 40
64.0
  1
RL φ6.35
 41
0.9
100
AcDbText
  0
LINE
  5
10685
330
1E
100
AcDbEntity
  8
NOTE
  6
CONTINUOUS
100
AcDbLine
 10
-1067.413685773377
 20
-597.5485853194732
 30
0.0
 11
-767.6327005511575
 21
-597.5485853194732
 31
0.0
  0
TEXT
  5
10686
330
1E
100
AcDbEntity
  8
NOTE
  6
CONTINUOUS
100
AcDbText
 10
-1045.245865911667
 20
-580.9162235769808
 30
0.0
 40
64.0
  1
D φ26
 41
0.9
100
AcDbText
  0
TEXT
  5
10687
330
1E
100
AcDbEntity
  8
NOTE
  6
CONTINUOUS
100
AcDbText
 10
-1173.284234927485
 20
-325.7514508092081
 30
0.0
 40
64.0
  1
RG φ12.7
 41
0.9
100
AcDbText
  0
LINE
  5
10688
330
1E
100
AcDbEntity
  8
NOTE
  6
CONTINUOUS
100
AcDbLine
 10
-751.6604464887514
 20
-347.1268278092074
 30
0.0
 11
-1182.290613449562
 21
-347.1268278092093
 31
0.0
  0
LINE
  5
1068A
330
1E
100
AcDbEntity
  8
NOTE
  6
CONTINUOUS
100
AcDbLine
 10
-554.0000000000564
 20
-125.9999942265649
 30
0.0
 11
-751.6604464887514
 21
-347.1268278092074
 31
0.0
  0
LWPOLYLINE
  5
1068B
330
1E
100
AcDbEntity
  8
NOTE
  6
CONTINUOUS
100
AcDbPolyline
 90
        3
 70
     0
 43
0.0
 10
-572.7638724167499
 20
-161.3258645612158
 10
-554.0000000000564
 20
-125.9999942265649
 10
-587.9129254912895
 20
-147.2111591756483
  0
LINE
  5
1068C
330
1E
100
AcDbEntity
  8
DETAIL
100
AcDbLine
 10
-640.0
 20
-47.11240999999972
 30
0.0
 11
-640.0
 21
-230.0
 31
0.0
  0
LINE
  5
1068D
330
1E
100
AcDbEntity
  8
DETAIL
100
AcDbLine
 10
-483.5000000000036
 20
-168.0000000000018
 30
0.0
 11
-483.5000000000036
 21
-151.9999999999981
 31
0.0
  0
LINE
  5
1068E
330
1E
100
AcDbEntity
  8
DETAIL
100
AcDbLine
 10
-482.5
 20
-151.9999999999981
 30
0.0
 11
-482.5
 21
-168.0000000000018
 31
0.0
  0
LINE
  5
1068F
330
1E
100
AcDbEntity
  8
DETAIL
100
AcDbLine
 10
-574.4999999999982
 20
-143.5
 30
0.0
 11
-574.4999999999982
 21
-201.9999999999981
 31
0.0
  0
ARC
  5
10690
330
1E
100
AcDbEntity
  8
DETAIL
100
AcDbCircle
 10
-546.0000000000036
 20
-134.6250099999997
 30
0.0
 40
23.5
100
AcDbArc
 50
207.5657040000082
 51
244.0555199999982
  0
ARC
  5
10691
330
1E
100
AcDbEntity
  8
DETAIL
100
AcDbCircle
 10
-546.0000000000036
 20
-134.6250099999997
 30
0.0
 40
24.5
100
AcDbArc
 50
206.3515189999923
 51
244.0555199999982
  0
ARC
  5
10692
330
1E
100
AcDbEntity
  8
DETAIL
100
AcDbCircle
 10
-560.0
 20
-163.4000000000014
 30
0.0
 40
8.5
100
AcDbArc
 50
0.0
 51
64.05551999999821
  0
ARC
  5
10693
330
1E
100
AcDbEntity
  8
DETAIL
100
AcDbCircle
 10
-546.0000000000036
 20
-134.6250099999997
 30
0.0
 40
25.8
100
AcDbArc
 50
180.0
 51
244.0555199999982
  0
ARC
  5
10694
330
1E
100
AcDbEntity
  8
DETAIL
100
AcDbCircle
 10
-546.0000000000036
 20
-134.6250099999997
 30
0.0
 40
25.0
100
AcDbArc
 50
180.0
 51
244.0555199999982
  0
LINE
  5
10695
330
1E
100
AcDbEntity
  8
DETAIL
100
AcDbLine
 10
-481.9999999999981
 20
-156.0
 30
0.0
 11
-481.9999999999981
 21
-154.0000000000018
 31
0.0
  0
LINE
  5
10696
330
1E
100
AcDbEntity
  8
DETAIL
100
AcDbLine
 10
-481.1999999999989
 20
-156.0
 30
0.0
 11
-481.1999999999989
 21
-154.0000000000018
 31
0.0
  0
LINE
  5
10697
330
1E
100
AcDbEntity
  8
DETAIL
100
AcDbLine
 10
-639.1801399999986
 20
-230.1501400000015
 30
0.0
 11
-608.0806800000027
 21
-235.845580000001
 31
0.0
  0
ARC
  5
10698
330
1E
100
AcDbEntity
  8
DETAIL
100
AcDbCircle
 10
-607.9005400000005
 20
-234.8619400000007
 30
0.0
 40
1.0
100
AcDbArc
 50
259.6220679999945
 51
269.0000000000238
  0
ARC
  5
10699
330
1E
100
AcDbEntity
  8
DETAIL
100
AcDbCircle
 10
-638.9999999999964
 20
-229.1665000000012
 30
0.0
 40
1.0
100
AcDbArc
 50
180.0
 51
259.6220679999945
  0
LINE
  5
1069A
330
1E
100
AcDbEntity
  8
DETAIL
100
AcDbLine
 10
-600.0
 20
-236.0
 30
0.0
 11
-607.9179999999996
 21
-235.861789999999
 31
0.0
  0
LWPOLYLINE
  5
1069B
330
1E
100
AcDbEntity
  8
NOTE
  6
CONTINUOUS
100
AcDbPolyline
 90
        3
 70
     0
 43
0.0
 10
-515.2063571986381
 20
-227.7570088399506
 10
-502.0000000000491
 20
-189.9999942265876
 10
-532.3155482626861
 20
-216.0953495107496
  0
LINE
  5
1069C
330
1E
100
AcDbEntity
  8
BASIS
100
AcDbLine
 10
-521.0000000000127
 20
-189.9999942264948
 30
0.0
 11
-483.0000000000018
 21
-189.9999942264948
 31
0.0
  0
LINE
  5
1069D
330
1E
100
AcDbEntity
  8
BASIS
100
AcDbLine
 10
-502.0000000000163
 20
-170.9999942264894
 30
0.0
 11
-502.0000000000163
 21
-208.9999942264912
 31
0.0
  0
LINE
  5
1069E
330
1E
100
AcDbEntity
  8
NOTE
  6
CONTINUOUS
100
AcDbLine
 10
-502.0000000000091
 20
-169.9999942264948
 30
0.0
 11
-502.0000000000091
 21
-209.9999942264949
 31
0.0
  0
LINE
  5
1069F
330
1E
100
AcDbEntity
  8
NOTE
  6
CONTINUOUS
100
AcDbLine
 10
-522.0000000000091
 20
-189.9999942264948
 30
0.0
 11
-482.000000000009
 21
-189.9999942264948
 31
0.0
  0
ARC
  5
106A0
330
1E
100
AcDbEntity
  8
DETAIL
100
AcDbCircle
 10
-503.0000000000018
 20
-194.0000000000018
 30
0.0
 40
17.5
100
AcDbArc
 50
90.0
 51
180.0
  0
LINE
  5
106A1
330
1E
100
AcDbEntity
  8
DETAIL
100
AcDbLine
 10
-520.5000000000018
 20
-219.4999999999982
 30
0.0
 11
-520.5000000000018
 21
-214.119099999998
 31
0.0
  0
ARC
  5
106A2
330
1E
100
AcDbEntity
  8
DETAIL
100
AcDbCircle
 10
-503.0000000000018
 20
-194.0000000000018
 30
0.0
 40
19.0
100
AcDbArc
 50
93.01696100001517
 51
176.9830390000368
  0
LINE
  5
106A3
330
1E
100
AcDbEntity
  8
DETAIL
100
AcDbLine
 10
-521.9999999999981
 20
-219.4999999999982
 30
0.0
 11
-521.9999999999981
 21
-195.0
 31
0.0
  0
LINE
  5
106A4
330
1E
100
AcDbEntity
  8
DETAIL
100
AcDbLine
 10
-503.5000000000036
 20
-174.5064099999999
 30
0.0
 11
-503.5000000000036
 21
-174.6999999999989
 31
0.0
  0
LINE
  5
106A5
330
1E
100
AcDbEntity
  8
DETAIL
100
AcDbLine
 10
-502.5
 20
-174.4999999999981
 30
0.0
 11
-502.5
 21
-174.6999999999989
 31
0.0
  0
LINE
  5
106A6
330
1E
100
AcDbEntity
  8
DETAIL
100
AcDbLine
 10
-550.5000000000018
 20
-179.9499999999989
 30
0.0
 11
-550.5000000000018
 21
-180.9499999999989
 31
0.0
  0
LINE
  5
106A7
330
1E
100
AcDbEntity
  8
DETAIL
100
AcDbLine
 10
-551.4999999999964
 20
-180.9499999999989
 30
0.0
 11
-550.5000000000018
 21
-180.9499999999989
 31
0.0
  0
LINE
  5
106A8
330
1E
100
AcDbEntity
  8
DETAIL
100
AcDbLine
 10
-551.4999999999964
 20
-179.9499999999989
 30
0.0
 11
-550.5000000000018
 21
-179.9499999999989
 31
0.0
  0
LINE
  5
106A9
330
1E
100
AcDbEntity
  8
DETAIL
100
AcDbLine
 10
-551.4999999999964
 20
-184.4500000000025
 30
0.0
 11
-553.9999999999963
 21
-184.4500000000025
 31
0.0
  0
LINE
  5
106AA
330
1E
100
AcDbEntity
  8
DETAIL
100
AcDbLine
 10
-551.4999999999964
 20
-176.4500000000007
 30
0.0
 11
-553.9999999999963
 21
-176.4500000000007
 31
0.0
  0
LINE
  5
106AB
330
1E
100
AcDbEntity
  8
DETAIL
100
AcDbLine
 10
-521.9736699999976
 20
-193.0000000000018
 30
0.0
 11
-520.4714100000001
 21
-193.0000000000018
 31
0.0
  0
LINE
  5
106AC
330
1E
100
AcDbEntity
  8
DETAIL
100
AcDbLine
 10
-503.9999999999963
 20
-176.528589999998
 30
0.0
 11
-503.9999999999963
 21
-175.0263300000006
 31
0.0
  0
LINE
  5
106AD
330
1E
100
AcDbEntity
  8
DETAIL
100
AcDbLine
 10
-553.9999999999963
 20
-176.4500000000007
 30
0.0
 11
-553.9999999999963
 21
-184.4500000000025
 31
0.0
  0
LINE
  5
106AE
330
1E
100
AcDbEntity
  8
DETAIL
100
AcDbLine
 10
-531.9999999999981
 20
-203.0000000000018
 30
0.0
 11
-531.9999999999981
 21
-204.0000000000018
 31
0.0
  0
LINE
  5
106AF
330
1E
100
AcDbEntity
  8
DETAIL
100
AcDbLine
 10
-531.9999999999981
 20
-203.0000000000018
 30
0.0
 11
-528.9999999999963
 21
-203.0000000000018
 31
0.0
  0
LINE
  5
106B0
330
1E
100
AcDbEntity
  8
DETAIL
100
AcDbLine
 10
-531.9999999999981
 20
-204.0000000000018
 30
0.0
 11
-528.9999999999963
 21
-204.0000000000018
 31
0.0
  0
LINE
  5
106B1
330
1E
100
AcDbEntity
  8
DETAIL
100
AcDbLine
 10
-523.5000000000036
 20
-194.0000000000018
 30
0.0
 11
-523.5000000000036
 21
-197.5
 31
0.0
  0
LINE
  5
106B2
330
1E
100
AcDbEntity
  8
DETAIL
100
AcDbLine
 10
-522.5
 20
-194.0000000000018
 30
0.0
 11
-522.5
 21
-197.5
 31
0.0
  0
LINE
  5
106B3
330
1E
100
AcDbEntity
  8
DETAIL
100
AcDbLine
 10
-534.5807400000012
 20
-204.0000000000018
 30
0.0
 11
-534.5807400000012
 21
-204.4999999999981
 31
0.0
  0
LINE
  5
106B4
330
1E
100
AcDbEntity
  8
DETAIL
100
AcDbLine
 10
-488.9999999999964
 20
-173.5
 30
0.0
 11
-503.0000000000018
 21
-173.5
 31
0.0
  0
LINE
  5
106B5
330
1E
100
AcDbEntity
  8
DETAIL
100
AcDbLine
 10
-488.9999999999964
 20
-174.4999999999981
 30
0.0
 11
-503.0000000000018
 21
-174.4999999999981
 31
0.0
  0
LINE
  5
106B6
330
1E
100
AcDbEntity
  8
DETAIL
100
AcDbLine
 10
-483.5000000000036
 20
-164.0000000000018
 30
0.0
 11
-481.0000000000036
 21
-164.0000000000018
 31
0.0
  0
LINE
  5
106B7
330
1E
100
AcDbEntity
  8
DETAIL
100
AcDbLine
 10
-552.5
 20
-163.4000000000014
 30
0.0
 11
-552.5
 21
-197.5
 31
0.0
  0
LINE
  5
106B8
330
1E
100
AcDbEntity
  8
DETAIL
100
AcDbLine
 10
-521.9999999999981
 20
-195.0
 30
0.0
 11
-520.5000000000018
 21
-195.0
 31
0.0
  0
LINE
  5
106B9
330
1E
100
AcDbEntity
  8
DETAIL
100
AcDbLine
 10
-551.4999999999964
 20
-163.4000000000014
 30
0.0
 11
-551.4999999999964
 21
-197.5
 31
0.0
  0
LINE
  5
106BA
330
1E
100
AcDbEntity
  8
DETAIL
100
AcDbLine
 10
-481.0000000000036
 20
-156.0
 30
0.0
 11
-481.0000000000036
 21
-164.0000000000018
 31
0.0
  0
LINE
  5
106BB
330
1E
100
AcDbEntity
  8
DETAIL
100
AcDbLine
 10
-501.9999999999981
 20
-176.5000000000018
 30
0.0
 11
-501.9999999999981
 21
-175.0
 31
0.0
  0
LINE
  5
106BC
330
1E
100
AcDbEntity
  8
DETAIL
100
AcDbLine
 10
-543.0000000000018
 20
-203.0000000000018
 30
0.0
 11
-543.0000000000018
 21
-205.5000000000018
 31
0.0
  0
LINE
  5
106BD
330
1E
100
AcDbEntity
  8
DETAIL
100
AcDbLine
 10
-484.4999999999981
 20
-159.4999999999981
 30
0.0
 11
-483.5000000000036
 21
-159.4999999999981
 31
0.0
  0
LINE
  5
106BE
330
1E
100
AcDbEntity
  8
DETAIL
100
AcDbLine
 10
-543.4192700000039
 20
-204.0000000000018
 30
0.0
 11
-543.4192700000039
 21
-204.4999999999981
 31
0.0
  0
LINE
  5
106BF
330
1E
100
AcDbEntity
  8
DETAIL
100
AcDbLine
 10
-484.4999999999981
 20
-160.5000000000018
 30
0.0
 11
-484.4999999999981
 21
-159.4999999999981
 31
0.0
  0
LINE
  5
106C0
330
1E
100
AcDbEntity
  8
DETAIL
100
AcDbLine
 10
-483.5000000000036
 20
-156.0
 30
0.0
 11
-481.0000000000036
 21
-156.0
 31
0.0
  0
LINE
  5
106C1
330
1E
100
AcDbEntity
  8
DETAIL
100
AcDbLine
 10
-544.4192699999985
 20
-209.0000000000018
 30
0.0
 11
-567.4999999999999
 21
-209.0000000000018
 31
0.0
  0
LINE
  5
106C2
330
1E
100
AcDbEntity
  8
DETAIL
100
AcDbLine
 10
-546.0000000000036
 20
-203.0000000000018
 30
0.0
 11
-546.0000000000036
 21
-204.0000000000018
 31
0.0
  0
LINE
  5
106C3
330
1E
100
AcDbEntity
  8
DETAIL
100
AcDbLine
 10
-534.5807400000012
 20
-204.0000000000018
 30
0.0
 11
-543.4192700000039
 21
-204.0000000000018
 31
0.0
  0
LINE
  5
106C4
330
1E
100
AcDbEntity
  8
DETAIL
100
AcDbLine
 10
-543.0000000000018
 20
-203.0000000000018
 30
0.0
 11
-535.0
 21
-203.0000000000018
 31
0.0
  0
LINE
  5
106C5
330
1E
100
AcDbEntity
  8
DETAIL
100
AcDbLine
 10
-520.5000000000018
 20
-219.4999999999982
 30
0.0
 11
-533.5807399999976
 21
-219.4999999999982
 31
0.0
  0
LINE
  5
106C6
330
1E
100
AcDbEntity
  8
DETAIL
100
AcDbLine
 10
-534.5807400000012
 20
-214.4999999999981
 30
0.0
 11
-534.5807400000012
 21
-218.5
 31
0.0
  0
LINE
  5
106C7
330
1E
100
AcDbEntity
  8
DETAIL
100
AcDbLine
 10
-538.5000000000036
 20
-201.9999999999981
 30
0.0
 11
-539.4999999999981
 21
-201.9999999999981
 31
0.0
  0
LINE
  5
106C8
330
1E
100
AcDbEntity
  8
DETAIL
100
AcDbLine
 10
-535.0
 20
-203.0000000000018
 30
0.0
 11
-535.0
 21
-205.5000000000018
 31
0.0
  0
LINE
  5
106C9
330
1E
100
AcDbEntity
  8
DETAIL
100
AcDbLine
 10
-538.5000000000036
 20
-201.9999999999981
 30
0.0
 11
-538.5000000000036
 21
-203.0000000000018
 31
0.0
  0
LINE
  5
106CA
330
1E
100
AcDbEntity
  8
DETAIL
100
AcDbLine
 10
-539.4999999999981
 20
-201.9999999999981
 30
0.0
 11
-539.4999999999981
 21
-203.0000000000018
 31
0.0
  0
LINE
  5
106CB
330
1E
100
AcDbEntity
  8
DETAIL
100
AcDbLine
 10
-535.0
 20
-205.5000000000018
 30
0.0
 11
-543.0000000000018
 21
-205.5000000000018
 31
0.0
  0
LINE
  5
106CC
330
1E
100
AcDbEntity
  8
DETAIL
100
AcDbLine
 10
-484.4999999999981
 20
-160.5000000000018
 30
0.0
 11
-483.5000000000036
 21
-160.5000000000018
 31
0.0
  0
ARC
  5
106CD
330
1E
100
AcDbEntity
  8
DETAIL
100
AcDbCircle
 10
-488.9999999999964
 20
-168.0000000000018
 30
0.0
 40
5.5
100
AcDbArc
 50
270.0
 51
0.0
  0
ARC
  5
106CE
330
1E
100
AcDbEntity
  8
DETAIL
100
AcDbCircle
 10
-488.9999999999964
 20
-168.0000000000018
 30
0.0
 40
6.5
100
AcDbArc
 50
270.0
 51
0.0
  0
ARC
  5
106CF
330
1E
100
AcDbEntity
  8
DETAIL
100
AcDbCircle
 10
-503.0000000000018
 20
-194.0000000000018
 30
0.0
 40
19.5
100
AcDbArc
 50
90.0
 51
180.0
  0
ARC
  5
106D0
330
1E
100
AcDbEntity
  8
DETAIL
100
AcDbCircle
 10
-503.0000000000018
 20
-194.0000000000018
 30
0.0
 40
20.5
100
AcDbArc
 50
90.0
 51
180.0
  0
ARC
  5
106D1
330
1E
100
AcDbEntity
  8
DETAIL
100
AcDbCircle
 10
-528.9999999999963
 20
-197.5
 30
0.0
 40
5.5
100
AcDbArc
 50
270.0
 51
0.0
  0
ARC
  5
106D2
330
1E
100
AcDbEntity
  8
DETAIL
100
AcDbCircle
 10
-528.9999999999963
 20
-197.5
 30
0.0
 40
6.5
100
AcDbArc
 50
270.0
 51
0.0
  0
ARC
  5
106D3
330
1E
100
AcDbEntity
  8
DETAIL
100
AcDbCircle
 10
-533.5807399999976
 20
-218.5
 30
0.0
 40
1.0
100
AcDbArc
 50
180.0
 51
270.0
  0
ARC
  5
106D4
330
1E
100
AcDbEntity
  8
DETAIL
100
AcDbCircle
 10
-546.0000000000036
 20
-197.5
 30
0.0
 40
5.5
100
AcDbArc
 50
180.0
 51
270.0
  0
ARC
  5
106D5
330
1E
100
AcDbEntity
  8
DETAIL
100
AcDbCircle
 10
-546.0000000000036
 20
-197.5
 30
0.0
 40
6.5
100
AcDbArc
 50
180.0
 51
270.0
  0
ARC
  5
106D6
330
1E
100
AcDbEntity
  8
DETAIL
100
AcDbCircle
 10
-567.4999999999999
 20
-201.9999999999981
 30
0.0
 40
7.0
100
AcDbArc
 50
180.0
 51
270.0
  0
ARC
  5
106D7
330
1E
100
AcDbEntity
  8
DETAIL
100
AcDbCircle
 10
-544.4192699999985
 20
-208.0000000000018
 30
0.0
 40
1.0
100
AcDbArc
 50
270.0
 51
0.0
  0
ARC
  5
106D8
330
1E
100
AcDbEntity
  8
DETAIL
100
AcDbCircle
 10
-560.0
 20
-163.4000000000014
 30
0.0
 40
7.5
100
AcDbArc
 50
0.0
 51
64.05551999999821
  0
ARC
  5
106D9
330
1E
100
AcDbEntity
  8
DETAIL
100
AcDbCircle
 10
-503.0000000000018
 20
-174.6999999999989
 30
0.0
 40
0.5
100
AcDbArc
 50
180.0
 51
0.0
  0
LINE
  5
106DA
330
1E
100
AcDbEntity
  8
DETAIL
100
AcDbLine
 10
-481.9999999999981
 20
-176.5000000000018
 30
0.0
 11
-503.0000000000018
 21
-176.5000000000018
 31
0.0
  0
LINE
  5
106DB
330
1E
100
AcDbEntity
  8
DETAIL
100
AcDbLine
 10
-543.4192700000039
 20
-204.4999999999981
 30
0.0
 11
-543.4192700000039
 21
-208.0000000000018
 31
0.0
  0
LINE
  5
106DC
330
1E
100
AcDbEntity
  8
DETAIL
100
AcDbLine
 10
-534.5807400000012
 20
-204.4999999999981
 30
0.0
 11
-534.5807400000012
 21
-218.5
 31
0.0
  0
LINE
  5
106DD
330
1E
100
AcDbEntity
  8
DETAIL
100
AcDbLine
 10
-520.5000000000018
 20
-214.119099999998
 30
0.0
 11
-520.5000000000018
 21
-194.0000000000018
 31
0.0
  0
CIRCLE
  5
106DE
330
1E
100
AcDbEntity
  8
DETAIL
100
AcDbCircle
 10
-501.9999999999981
 20
-190.0
 30
0.0
 40
14.0
  0
CIRCLE
  5
106DF
330
1E
100
AcDbEntity
  8
DETAIL
100
AcDbCircle
 10
-501.9999999999981
 20
-190.0
 30
0.0
 40
11.39999999999999
  0
LINE
  5
106E0
330
1E
100
AcDbEntity
  8
DETAIL
100
AcDbLine
 10
-501.9999999999981
 20
-171.0
 30
0.0
 11
-501.9999999999981
 21
-209.0000000000018
 31
0.0
  0
LINE
  5
106E1
330
1E
100
AcDbEntity
  8
DETAIL
100
AcDbLine
 10
-521.0000000000036
 20
-190.0
 30
0.0
 11
-483.0000000000018
 21
-190.0
 31
0.0
  0
LINE
  5
106E2
330
1E
100
AcDbEntity
  8
DETAIL
100
AcDbLine
 10
-522.0502599999963
 20
-212.9497499999979
 30
0.0
 11
-528.4497499999997
 21
-206.5502500000002
 31
0.0
  0
LINE
  5
106E3
330
1E
100
AcDbEntity
  8
DETAIL
100
AcDbLine
 10
-522.615939999996
 20
-213.5154300000031
 30
0.0
 11
-529.0154400000028
 21
-207.1159399999996
 31
0.0
  0
LINE
  5
106E4
330
1E
100
AcDbEntity
  8
DETAIL
100
AcDbLine
 10
-533.3994999999958
 20
-204.4999999999981
 30
0.0
 11
-535.0
 21
-204.4999999999981
 31
0.0
  0
LINE
  5
106E5
330
1E
100
AcDbEntity
  8
DETAIL
100
AcDbLine
 10
-533.3994999999958
 20
-205.3000000000029
 30
0.0
 11
-535.0
 21
-205.3000000000029
 31
0.0
  0
LINE
  5
106E6
330
1E
100
AcDbEntity
  8
DETAIL
100
AcDbLine
 10
-553.0000000000018
 20
-163.4000000000014
 30
0.0
 11
-553.0000000000018
 21
-176.4500000000007
 31
0.0
  0
LINE
  5
106E7
330
1E
100
AcDbEntity
  8
DETAIL
100
AcDbLine
 10
-502.9978699999992
 20
-215.0
 30
0.0
 11
-517.1005100000002
 21
-215.0
 31
0.0
  0
LINE
  5
106E8
330
1E
100
AcDbEntity
  8
DETAIL
100
AcDbLine
 10
-503.0000000000018
 20
-215.7999999999992
 30
0.0
 11
-517.1005100000002
 21
-215.7999999999992
 31
0.0
  0
LINE
  5
106E9
330
1E
100
AcDbEntity
  8
DETAIL
100
AcDbLine
 10
-553.800000000001
 20
-163.4000000000014
 30
0.0
 11
-553.800000000001
 21
-176.4500000000007
 31
0.0
  0
LINE
  5
106EA
330
1E
100
AcDbEntity
  8
DETAIL
100
AcDbLine
 10
-481.9999999999981
 20
-194.0000000000018
 30
0.0
 11
-481.9999999999981
 21
-164.0000000000018
 31
0.0
  0
LINE
  5
106EB
330
1E
100
AcDbEntity
  8
DETAIL
100
AcDbLine
 10
-481.1999999999989
 20
-194.0000000000018
 30
0.0
 11
-481.1999999999989
 21
-164.0000000000018
 31
0.0
  0
ARC
  5
106EC
330
1E
100
AcDbEntity
  8
DETAIL
100
AcDbCircle
 10
-560.0
 20
-163.4000000000014
 30
0.0
 40
6.2
100
AcDbArc
 50
0.0
 51
64.05551999999821
  0
ARC
  5
106ED
330
1E
100
AcDbEntity
  8
DETAIL
100
AcDbCircle
 10
-560.0
 20
-163.4000000000014
 30
0.0
 40
7.0
100
AcDbArc
 50
0.0
 51
64.05551999999821
  0
ARC
  5
106EE
330
1E
100
AcDbEntity
  8
DETAIL
100
AcDbCircle
 10
-546.0000000000036
 20
-197.5
 30
0.0
 40
7.0
100
AcDbArc
 50
180.0
 51
270.0
  0
ARC
  5
106EF
330
1E
100
AcDbEntity
  8
DETAIL
100
AcDbCircle
 10
-546.0000000000036
 20
-197.5
 30
0.0
 40
7.8
100
AcDbArc
 50
180.0
 51
270.0
  0
ARC
  5
106F0
330
1E
100
AcDbEntity
  8
DETAIL
100
AcDbCircle
 10
-533.3994999999958
 20
-211.5000000000018
 30
0.0
 40
7.0
100
AcDbArc
 50
45.0
 51
90.0
  0
ARC
  5
106F1
330
1E
100
AcDbEntity
  8
DETAIL
100
AcDbCircle
 10
-533.3994999999958
 20
-211.5000000000018
 30
0.0
 40
6.2
100
AcDbArc
 50
45.0
 51
90.0
  0
ARC
  5
106F2
330
1E
100
AcDbEntity
  8
DETAIL
100
AcDbCircle
 10
-517.1005100000002
 20
-208.0000000000018
 30
0.0
 40
7.0
100
AcDbArc
 50
225.0
 51
270.0
  0
ARC
  5
106F3
330
1E
100
AcDbEntity
  8
DETAIL
100
AcDbCircle
 10
-517.1005100000002
 20
-208.0000000000018
 30
0.0
 40
7.8
100
AcDbArc
 50
225.0
 51
270.0
  0
LINE
  5
106F4
330
1E
100
AcDbEntity
  8
DETAIL
100
AcDbLine
 10
-543.0000000000018
 20
-204.4999999999981
 30
0.0
 11
-546.0000000000036
 21
-204.4999999999981
 31
0.0
  0
LINE
  5
106F5
330
1E
100
AcDbEntity
  8
DETAIL
100
AcDbLine
 10
-543.0000000000018
 20
-205.3000000000029
 30
0.0
 11
-546.0000000000036
 21
-205.3000000000029
 31
0.0
  0
LINE
  5
106F6
330
1E
100
AcDbEntity
  8
DETAIL
100
AcDbLine
 10
-553.800000000001
 20
-184.4500000000025
 30
0.0
 11
-553.800000000001
 21
-197.5
 31
0.0
  0
LINE
  5
106F7
330
1E
100
AcDbEntity
  8
DETAIL
100
AcDbLine
 10
-553.0000000000018
 20
-184.4500000000025
 30
0.0
 11
-553.0000000000018
 21
-197.5
 31
0.0
  0
LINE
  5
106F9
330
1E
100
AcDbEntity
  8
DETAIL
100
AcDbLine
 10
-630.0
 20
-14.08113999999841
 30
0.0
 11
-630.0
 21
-41.52364999999917
 31
0.0
  0
LINE
  5
106FA
330
1E
100
AcDbEntity
  8
DETAIL
100
AcDbLine
 10
-630.0
 20
-41.52364999999917
 30
0.0
 11
-634.5072100000016
 21
-41.60232000000178
 31
0.0
  0
LINE
  5
106FB
330
1E
100
AcDbEntity
  8
DETAIL
100
AcDbLine
 10
-639.7071099999993
 20
-46.40531000000009
 30
0.0
 11
-635.1968699999997
 21
-41.89507000000048
 31
0.0
  0
ARC
  5
106FC
330
1E
100
AcDbEntity
  8
DETAIL
100
AcDbCircle
 10
-634.4897599999967
 20
-42.60217000000011
 30
0.0
 40
1.0
100
AcDbArc
 50
90.99999999997615
 51
135.0
  0
ARC
  5
106FD
330
1E
100
AcDbEntity
  8
DETAIL
100
AcDbCircle
 10
-638.9999999999964
 20
-47.11240999999972
 30
0.0
 40
1.0
100
AcDbArc
 50
135.0
 51
180.0
  0
LINE
  5
106FE
330
1E
100
AcDbEntity
  8
BASIS
100
AcDbLine
 10
-531.0000000000127
 20
-125.9999942264894
 30
0.0
 11
-577.0000000000163
 21
-125.9999942264894
 31
0.0
  0
LINE
  5
106FF
330
1E
100
AcDbEntity
  8
NOTE
  6
CONTINUOUS
100
AcDbLine
 10
-574.0000000000054
 20
-125.9999942264894
 30
0.0
 11
-534.0000000000054
 21
-125.9999942264894
 31
0.0
  0
LINE
  5
10700
330
1E
100
AcDbEntity
  8
BASIS
100
AcDbLine
 10
-554.0000000000055
 20
-102.9999942264876
 30
0.0
 11
-554.0000000000055
 21
-148.9999942264912
 31
0.0
  0
LINE
  5
10701
330
1E
100
AcDbEntity
  8
NOTE
  6
CONTINUOUS
100
AcDbLine
 10
-554.0000000000055
 20
-105.9999942264894
 30
0.0
 11
-554.0000000000055
 21
-145.9999942264894
 31
0.0
  0
LINE
  5
10702
330
1E
100
AcDbEntity
  8
DETAIL
100
AcDbLine
 10
-566.8322999999964
 20
-145.5000000000018
 30
0.0
 11
-567.954150000005
 21
-145.5000000000018
 31
0.0
  0
LINE
  5
10703
330
1E
100
AcDbEntity
  8
DETAIL
100
AcDbLine
 10
-563.2499999999981
 20
-145.0
 30
0.0
 11
-574.4999999999982
 21
-145.0
 31
0.0
  0
LINE
  5
10704
330
1E
100
AcDbEntity
  8
DETAIL
100
AcDbLine
 10
-514.2500000000018
 20
-145.0
 30
0.0
 11
-536.7500000000018
 21
-145.0
 31
0.0
  0
LINE
  5
10705
330
1E
100
AcDbEntity
  8
DETAIL
100
AcDbLine
 10
-514.2500000000018
 20
-143.5
 30
0.0
 11
-514.2500000000018
 21
-145.0
 31
0.0
  0
LINE
  5
10706
330
1E
100
AcDbEntity
  8
DETAIL
100
AcDbLine
 10
-538.75
 20
-145.0
 30
0.0
 11
-561.2499999999999
 21
-145.0
 31
0.0
  0
LINE
  5
10707
330
1E
100
AcDbEntity
  8
DETAIL
100
AcDbLine
 10
-561.2499999999999
 20
-143.5
 30
0.0
 11
-561.2499999999999
 21
-145.0
 31
0.0
  0
LINE
  5
10708
330
1E
100
AcDbEntity
  8
DETAIL
100
AcDbLine
 10
-563.2499999999981
 20
-143.5
 30
0.0
 11
-563.2499999999981
 21
-145.0
 31
0.0
  0
LINE
  5
10709
330
1E
100
AcDbEntity
  8
DETAIL
100
AcDbLine
 10
-489.7500000000036
 20
-145.0
 30
0.0
 11
-512.2500000000036
 21
-145.0
 31
0.0
  0
LINE
  5
1070A
330
1E
100
AcDbEntity
  8
DETAIL
100
AcDbLine
 10
-512.2500000000036
 20
-143.5
 30
0.0
 11
-512.2500000000036
 21
-145.0
 31
0.0
  0
LINE
  5
1070B
330
1E
100
AcDbEntity
  8
DETAIL
100
AcDbLine
 10
-536.7500000000018
 20
-143.5
 30
0.0
 11
-536.7500000000018
 21
-145.0
 31
0.0
  0
LINE
  5
1070C
330
1E
100
AcDbEntity
  8
DETAIL
100
AcDbLine
 10
-538.75
 20
-143.5
 30
0.0
 11
-538.75
 21
-145.0
 31
0.0
  0
LINE
  5
1070D
330
1E
100
AcDbEntity
  8
DETAIL
100
AcDbLine
 10
-487.7499999999963
 20
-143.5
 30
0.0
 11
-487.7499999999963
 21
-145.0
 31
0.0
  0
LINE
  5
1070E
330
1E
100
AcDbEntity
  8
DETAIL
100
AcDbLine
 10
-489.7500000000036
 20
-143.5
 30
0.0
 11
-489.7500000000036
 21
-145.0
 31
0.0
  0
LINE
  5
1070F
330
1E
100
AcDbEntity
  8
DETAIL
100
AcDbLine
 10
-569.3716700000004
 20
-143.5
 30
0.0
 11
-574.4999999999982
 21
-143.5
 31
0.0
  0
LINE
  5
10710
330
1E
100
AcDbEntity
  8
DETAIL
100
AcDbLine
 10
-568.5000000000036
 20
-134.3715800000027
 30
0.0
 11
-568.5000000000036
 21
-117.6284200000009
 31
0.0
  0
LINE
  5
10711
330
1E
100
AcDbEntity
  8
DETAIL
100
AcDbLine
 10
-531.0000000000036
 20
-126.0
 30
0.0
 11
-576.9999999999981
 21
-126.0
 31
0.0
  0
LINE
  5
10712
330
1E
100
AcDbEntity
  8
DETAIL
100
AcDbLine
 10
-553.9999999999963
 20
-103.0000000000018
 30
0.0
 11
-553.9999999999963
 21
-149.0000000000018
 31
0.0
  0
LINE
  5
10713
330
1E
100
AcDbEntity
  8
DETAIL
100
AcDbLine
 10
-539.4999999999981
 20
-134.3715800000027
 30
0.0
 11
-553.9999999999963
 21
-142.74316
 31
0.0
  0
LINE
  5
10714
330
1E
100
AcDbEntity
  8
DETAIL
100
AcDbLine
 10
-539.4999999999981
 20
-117.6284200000009
 30
0.0
 11
-553.9999999999963
 21
-109.2568399999982
 31
0.0
  0
LINE
  5
10715
330
1E
100
AcDbEntity
  8
DETAIL
100
AcDbLine
 10
-539.4999999999981
 20
-134.3715800000027
 30
0.0
 11
-539.4999999999981
 21
-117.6284200000009
 31
0.0
  0
LINE
  5
10716
330
1E
100
AcDbEntity
  8
DETAIL
100
AcDbLine
 10
-568.5000000000036
 20
-117.6284200000009
 30
0.0
 11
-553.9999999999963
 21
-109.2568399999982
 31
0.0
  0
LINE
  5
10717
330
1E
100
AcDbEntity
  8
DETAIL
100
AcDbLine
 10
-568.5000000000036
 20
-134.3715800000027
 30
0.0
 11
-553.9999999999963
 21
-142.74316
 31
0.0
  0
CIRCLE
  5
10718
330
1E
100
AcDbEntity
  8
DETAIL
100
AcDbCircle
 10
-553.9999999999963
 20
-126.0
 30
0.0
 40
12.5
  0
CIRCLE
  5
10719
330
1E
100
AcDbEntity
  8
DETAIL
100
AcDbCircle
 10
-553.9999999999963
 20
-126.0
 30
0.0
 40
8.0
  0
CIRCLE
  5
1071A
330
1E
100
AcDbEntity
  8
DETAIL
100
AcDbCircle
 10
-553.9999999999963
 20
-126.0
 30
0.0
 40
7.5
  0
CIRCLE
  5
1071B
330
1E
100
AcDbEntity
  8
DETAIL
100
AcDbCircle
 10
-553.9999999999963
 20
-126.0
 30
0.0
 40
14.5
  0
LINE
  5
1071C
330
1E
100
AcDbEntity
  8
DETAIL
100
AcDbLine
 10
-571.0000000000036
 20
-110.0
 30
0.0
 11
-571.0000000000036
 21
-134.6250099999997
 31
0.0
  0
LINE
  5
1071D
330
1E
100
AcDbEntity
  8
DETAIL
100
AcDbLine
 10
-571.8000000000029
 20
-110.0
 30
0.0
 11
-571.8000000000029
 21
-134.6250099999997
 31
0.0
  0
ARC
  5
1071E
330
1E
100
AcDbEntity
  8
DETAIL
100
AcDbCircle
 10
-546.0000000000036
 20
-110.0
 30
0.0
 40
25.8
100
AcDbArc
 50
90.0
 51
180.0
  0
ARC
  5
1071F
330
1E
100
AcDbEntity
  8
DETAIL
100
AcDbCircle
 10
-546.0000000000036
 20
-110.0
 30
0.0
 40
25.0
100
AcDbArc
 50
90.0
 51
180.0
  0
LWPOLYLINE
  5
10720
330
1E
100
AcDbEntity
  8
NOTE
  6
CONTINUOUS
100
AcDbPolyline
 90
        3
 70
     0
 43
0.0
 10
-648.065832000002
 20
26.94181800000114
 10
-618.5000000000018
 20
0.000000000001819
 10
-630.6338530000012
 20
38.11521500000162
  0
LINE
  5
10721
330
1E
100
AcDbEntity
  8
NOTE
  6
CONTINUOUS
100
AcDbLine
 10
-618.5000000000018
 20
20.00000000000273
 30
0.0
 11
-618.5000000000018
 21
-19.99999999999727
 31
0.0
  0
CIRCLE
  5
10722
330
1E
100
AcDbEntity
  8
FIX
  6
CONTINUOUS
100
AcDbCircle
 10
-618.5000000000018
 20
0.0000000000027285
 30
0.0
 40
5.0
  0
LINE
  5
10723
330
1E
100
AcDbEntity
  8
NOTE
  6
CONTINUOUS
100
AcDbLine
 10
-638.5000000000018
 20
0.0000000000027285
 30
0.0
 11
-598.5000000000018
 21
0.0000000000027285
 31
0.0
  0
ARC
  5
10724
330
1E
100
AcDbEntity
  8
DETAIL
100
AcDbCircle
 10
-640.9999999999963
 20
-1.0
 30
0.0
 40
1.0
100
AcDbArc
 50
90.0
 51
180.0
  0
LINE
  5
10725
330
1E
100
AcDbEntity
  8
DETAIL
100
AcDbLine
 10
-600.0
 20
0.0
 30
0.0
 11
-640.9999999999963
 21
0.0
 31
0.0
  0
LINE
  5
10726
330
1E
100
AcDbEntity
  8
DETAIL
100
AcDbLine
 10
-641.9999999999963
 20
-1.0
 30
0.0
 11
-641.9999999999982
 21
-7.918859999999767
 31
0.0
  0
LINE
  5
10727
330
1E
100
AcDbEntity
  8
DETAIL
100
AcDbLine
 10
-631.0256599999957
 20
-12.65810999999848
 30
0.0
 11
-640.9743400000024
 21
-9.341880000001765
 31
0.0
  0
ARC
  5
10728
330
1E
100
AcDbEntity
  8
DETAIL
100
AcDbCircle
 10
-640.5000000000018
 20
-7.918859999999767
 30
0.0
 40
1.5
100
AcDbArc
 50
180.0
 51
251.5650509999979
  0
ARC
  5
10729
330
1E
100
AcDbEntity
  8
DETAIL
100
AcDbCircle
 10
-631.4999999999963
 20
-14.08113999999841
 30
0.0
 40
1.5
100
AcDbArc
 50
0.0
 51
71.56505099999794
  0
LINE
  5
1072A
330
1E
100
AcDbEntity
  8
DETAIL
100
AcDbLine
 10
-600.0
 20
0.0
 30
0.0
 11
-600.0
 21
-6.0
 31
0.0
  0
LINE
  5
1072C
330
1E
100
AcDbEntity
  8
NOTE
  6
CONTINUOUS
100
AcDbLine
 10
-324.5000000000163
 20
-198.9999942264912
 30
0.0
 11
-160.9940731878196
 21
-589.9598703665779
 31
0.0
  0
LINE
  5
1072D
330
1E
100
AcDbEntity
  8
NOTE
  6
CONTINUOUS
100
AcDbLine
 10
286.845154188295
 20
-589.9598703665779
 30
0.0
 11
-160.9940731878196
 21
-589.9598703665779
 31
0.0
  0
TEXT
  5
1072E
330
1E
100
AcDbEntity
  8
NOTE
  6
CONTINUOUS
100
AcDbText
 10
-139.635086331842
 20
-565.5210554390669
 30
0.0
 40
64.0
  1
EL 2-φ26
 41
0.9
100
AcDbText
  0
LINE
  5
1072F
330
1E
100
AcDbEntity
  8
DETAIL
100
AcDbLine
 10
207.3999999999978
 20
-81.50000000000181
 30
0.0
 11
-253.100000000004
 21
-81.50000000000181
 31
0.0
  0
LINE
  5
10730
330
1E
100
AcDbEntity
  8
DETAIL
100
AcDbLine
 10
207.3999999999978
 20
-205.5000000000018
 30
0.0
 11
-253.100000000004
 21
-205.5000000000018
 31
0.0
  0
LINE
  5
10731
330
1E
100
AcDbEntity
  8
BASIS
100
AcDbLine
 10
-380.5000000000018
 20
-180.9999942264894
 30
0.0
 11
-380.5000000000018
 21
-48.99999422649125
 31
0.0
  0
LINE
  5
10733
330
1E
100
AcDbEntity
  8
DETAIL
100
AcDbLine
 10
-451.9999999999981
 20
-176.5000000000018
 30
0.0
 11
-451.9999999999981
 21
-143.5
 31
0.0
  0
LINE
  5
10734
330
1E
100
AcDbEntity
  8
DETAIL
100
AcDbLine
 10
-380.5000000000018
 20
-181.0
 30
0.0
 11
-380.5000000000018
 21
-49.00000000000182
 31
0.0
  0
CIRCLE
  5
10735
330
1E
100
AcDbEntity
  8
DETAIL
100
AcDbCircle
 10
-380.5000000000018
 20
-115.0
 30
0.0
 40
50.0
  0
LINE
  5
10736
330
1E
100
AcDbEntity
  8
DETAIL
100
AcDbLine
 10
-227.9500000000007
 20
-175.6261600000016
 30
0.0
 11
-227.9500000000007
 21
-138.2042899999996
 31
0.0
  0
LINE
  5
10737
330
1E
100
AcDbEntity
  8
DETAIL
100
AcDbLine
 10
-196.4500000000043
 20
-175.6261600000016
 30
0.0
 11
-196.4500000000043
 21
-138.2042899999996
 31
0.0
  0
LINE
  5
10738
330
1E
100
AcDbEntity
  8
DETAIL
100
AcDbLine
 10
-194.4499999999971
 20
-176.6522200000017
 30
0.0
 11
-194.4499999999971
 21
-136.3249099999993
 31
0.0
  0
LINE
  5
10739
330
1E
100
AcDbEntity
  8
DETAIL
100
AcDbLine
 10
-150.4500000000007
 20
-176.6522200000017
 30
0.0
 11
-150.4500000000007
 21
-136.3249099999993
 31
0.0
  0
LINE
  5
1073A
330
1E
100
AcDbEntity
  8
DETAIL
100
AcDbLine
 10
-253.100000000004
 20
-205.5000000000018
 30
0.0
 11
-253.100000000004
 21
-81.50000000000181
 31
0.0
  0
LINE
  5
1073B
330
1E
100
AcDbEntity
  8
BASIS
100
AcDbLine
 10
-386.1000000000149
 20
-198.9999942264912
 30
0.0
 11
-305.5000000000018
 21
-198.9999942264912
 31
0.0
  0
ARC
  5
1073C
330
1E
100
AcDbEntity
  8
DETAIL
100
AcDbCircle
 10
-380.5000000000018
 20
-115.0
 30
0.0
 40
62.5
100
AcDbArc
 50
255.0000000000055
 51
284.9999999999944
  0
LINE
  5
1073D
330
1E
100
AcDbEntity
  8
DETAIL
100
AcDbLine
 10
-386.0999999999967
 20
-199.0000000000018
 30
0.0
 11
-305.5000000000018
 21
-199.0000000000018
 31
0.0
  0
LINE
  5
1073E
330
1E
100
AcDbEntity
  8
DETAIL
100
AcDbLine
 10
-451.9999999999981
 20
-175.0
 30
0.0
 11
-475.5000000000018
 21
-175.0
 31
0.0
  0
LINE
  5
1073F
330
1E
100
AcDbEntity
  8
DETAIL
100
AcDbLine
 10
-475.5000000000018
 20
-175.0
 30
0.0
 11
-475.5000000000018
 21
-176.5000000000018
 31
0.0
  0
LINE
  5
10740
330
1E
100
AcDbEntity
  8
DETAIL
100
AcDbLine
 10
-477.5
 20
-175.0
 30
0.0
 11
-477.5
 21
-176.5000000000018
 31
0.0
  0
LINE
  5
10741
330
1E
100
AcDbEntity
  8
DETAIL
100
AcDbLine
 10
-451.9999999999981
 20
-161.9773099999983
 30
0.0
 11
-451.9999999999981
 21
-159.6773100000027
 31
0.0
  0
LINE
  5
10742
330
1E
100
AcDbEntity
  8
NOTE
  6
CONTINUOUS
100
AcDbLine
 10
-382.5000000000091
 20
-198.9999942264912
 30
0.0
 11
-342.500000000009
 21
-198.9999942264912
 31
0.0
  0
LINE
  5
10743
330
1E
100
AcDbEntity
  8
BASIS
100
AcDbLine
 10
-362.5000000000091
 20
-175.4999942264876
 30
0.0
 11
-362.5000000000091
 21
-222.4999942264949
 31
0.0
  0
LINE
  5
10744
330
1E
100
AcDbEntity
  8
NOTE
  6
CONTINUOUS
100
AcDbLine
 10
-362.5000000000091
 20
-178.9999942264912
 30
0.0
 11
-362.5000000000091
 21
-218.9999942264912
 31
0.0
  0
LWPOLYLINE
  5
10745
330
1E
100
AcDbEntity
  8
NOTE
  6
CONTINUOUS
100
AcDbPolyline
 90
        3
 70
     0
 43
0.0
 10
-299.9048601488502
 20
-230.5448683984686
 10
-324.5000000000163
 20
-198.9999942264912
 10
-318.9724202421202
 20
-238.6162269565665
  0
LINE
  5
10746
330
1E
100
AcDbEntity
  8
BASIS
100
AcDbLine
 10
-324.5000000000163
 20
-175.4999942264876
 30
0.0
 11
-324.5000000000163
 21
-222.4999942264949
 31
0.0
  0
LINE
  5
10747
330
1E
100
AcDbEntity
  8
NOTE
  6
CONTINUOUS
100
AcDbLine
 10
-324.5000000000163
 20
-178.9999942264912
 30
0.0
 11
-324.5000000000163
 21
-218.9999942264912
 31
0.0
  0
LINE
  5
10748
330
1E
100
AcDbEntity
  8
NOTE
  6
CONTINUOUS
100
AcDbLine
 10
-344.5000000000163
 20
-198.9999942264912
 30
0.0
 11
-304.5000000000163
 21
-198.9999942264912
 31
0.0
  0
CIRCLE
  5
10749
330
1E
100
AcDbEntity
  8
DETAIL
100
AcDbCircle
 10
-362.5
 20
-199.0000000000018
 30
0.0
 40
13.0
  0
CIRCLE
  5
1074A
330
1E
100
AcDbEntity
  8
DETAIL
100
AcDbCircle
 10
-324.4999999999981
 20
-199.0000000000018
 30
0.0
 40
13.0
  0
LINE
  5
1074B
330
1E
100
AcDbEntity
  8
DETAIL
100
AcDbLine
 10
-324.4999999999981
 20
-175.5000000000018
 30
0.0
 11
-324.4999999999981
 21
-222.5
 31
0.0
  0
LINE
  5
1074C
330
1E
100
AcDbEntity
  8
DETAIL
100
AcDbLine
 10
-362.5
 20
-175.5000000000018
 30
0.0
 11
-362.5
 21
-222.5
 31
0.0
  0
CIRCLE
  5
1074D
330
1E
100
AcDbEntity
  8
DETAIL
100
AcDbCircle
 10
-380.5000000000018
 20
-177.5
 30
0.0
 40
1.4
  0
LINE
  5
1074E
330
1E
100
AcDbEntity
  8
DETAIL
100
AcDbLine
 10
-194.4499999999971
 20
-176.6522200000017
 30
0.0
 11
-150.4500000000007
 21
-176.6522200000017
 31
0.0
  0
LINE
  5
1074F
330
1E
100
AcDbEntity
  8
DETAIL
100
AcDbLine
 10
-194.4499999999971
 20
-170.153839999999
 30
0.0
 11
-150.4500000000007
 21
-170.153839999999
 31
0.0
  0
LINE
  5
10750
330
1E
100
AcDbEntity
  8
DETAIL
100
AcDbLine
 10
-227.9500000000007
 20
-175.6261600000016
 30
0.0
 11
-196.4500000000043
 21
-175.6261600000016
 31
0.0
  0
LINE
  5
10751
330
1E
100
AcDbEntity
  8
DETAIL
100
AcDbLine
 10
-227.9500000000007
 20
-170.153839999999
 30
0.0
 11
-196.4500000000043
 21
-170.153839999999
 31
0.0
  0
LINE
  5
10752
330
1E
100
AcDbEntity
  8
BASIS
100
AcDbLine
 10
-356.5000000000054
 20
-6.499994226491253
 30
0.0
 11
-356.5000000000054
 21
-53.49999422648943
 31
0.0
  0
LINE
  5
10753
330
1E
100
AcDbEntity
  8
NOTE
  6
CONTINUOUS
100
AcDbLine
 10
-356.5000000000054
 20
-9.999994226491253
 30
0.0
 11
-356.5000000000054
 21
-49.99999422649034
 31
0.0
  0
LINE
  5
10754
330
1E
100
AcDbEntity
  8
BASIS
100
AcDbLine
 10
-318.5000000000127
 20
-6.499994226491253
 30
0.0
 11
-318.5000000000127
 21
-53.49999422648943
 31
0.0
  0
LINE
  5
10755
330
1E
100
AcDbEntity
  8
NOTE
  6
CONTINUOUS
100
AcDbLine
 10
-318.5000000000127
 20
-9.999994226491253
 30
0.0
 11
-318.5000000000127
 21
-49.99999422649034
 31
0.0
  0
CIRCLE
  5
10756
330
1E
100
AcDbEntity
  8
DETAIL
100
AcDbCircle
 10
-356.4999999999963
 20
-30.0
 30
0.0
 40
11.1
  0
CIRCLE
  5
10757
330
1E
100
AcDbEntity
  8
DETAIL
100
AcDbCircle
 10
-318.5000000000036
 20
-30.0
 30
0.0
 40
11.1
  0
LINE
  5
10758
330
1E
100
AcDbEntity
  8
DETAIL
100
AcDbLine
 10
-318.5000000000036
 20
-6.500000000001818
 30
0.0
 11
-318.5000000000036
 21
-53.5
 31
0.0
  0
LINE
  5
10759
330
1E
100
AcDbEntity
  8
DETAIL
100
AcDbLine
 10
-356.4999999999963
 20
-6.500000000001818
 30
0.0
 11
-356.4999999999963
 21
-53.5
 31
0.0
  0
LINE
  5
1075A
330
1E
100
AcDbEntity
  8
BASIS
100
AcDbLine
 10
-446.5000000000054
 20
-114.9999942264948
 30
0.0
 11
-314.5000000000163
 21
-114.9999942264948
 31
0.0
  0
LINE
  5
1075B
330
1E
100
AcDbEntity
  8
DETAIL
100
AcDbLine
 10
-446.4999999999963
 20
-115.0
 30
0.0
 11
-314.4999999999981
 21
-115.0
 31
0.0
  0
LINE
  5
1075C
330
1E
100
AcDbEntity
  8
DETAIL
100
AcDbLine
 10
-437.657680000002
 20
-81.99999999999818
 30
0.0
 11
-332.8686100000049
 21
-142.5
 31
0.0
  0
LINE
  5
1075D
330
1E
100
AcDbEntity
  8
DETAIL
100
AcDbLine
 10
-323.3423299999958
 20
-81.99999999999818
 30
0.0
 11
-428.131400000002
 21
-142.5
 31
0.0
  0
LINE
  5
1075E
330
1E
100
AcDbEntity
  8
BASIS
100
AcDbLine
 10
-469.0000000000054
 20
-110.4999942264876
 30
0.0
 11
-469.0000000000054
 21
-141.4999942264912
 31
0.0
  0
LINE
  5
1075F
330
1E
100
AcDbEntity
  8
NOTE
  6
CONTINUOUS
100
AcDbLine
 10
-469.0000000000163
 20
-105.9999942264894
 30
0.0
 11
-469.0000000000163
 21
-145.9999942264894
 31
0.0
  0
ARC
  5
10760
330
1E
100
AcDbEntity
  8
DETAIL
100
AcDbCircle
 10
-380.5000000000018
 20
-115.0
 30
0.0
 40
62.5
100
AcDbArc
 50
135.0
 51
165.0000000000055
  0
CIRCLE
  5
10761
330
1E
100
AcDbEntity
  8
DETAIL
100
AcDbCircle
 10
-434.626589999998
 20
-83.75
 30
0.0
 40
1.4
  0
LINE
  5
10762
330
1E
100
AcDbEntity
  8
DETAIL
100
AcDbLine
 10
-451.9999999999981
 20
-143.5
 30
0.0
 11
-460.8693200000016
 21
-143.5
 31
0.0
  0
LINE
  5
10763
330
1E
100
AcDbEntity
  8
DETAIL
100
AcDbLine
 10
-463.2499999999981
 20
-145.0
 30
0.0
 11
-451.9999999999981
 21
-145.0
 31
0.0
  0
LINE
  5
10764
330
1E
100
AcDbEntity
  8
DETAIL
100
AcDbLine
 10
-463.2499999999981
 20
-143.5
 30
0.0
 11
-463.2499999999981
 21
-145.0
 31
0.0
  0
LINE
  5
10765
330
1E
100
AcDbEntity
  8
DETAIL
100
AcDbLine
 10
-465.2499999999963
 20
-143.5
 30
0.0
 11
-465.2499999999963
 21
-145.0
 31
0.0
  0
LINE
  5
10766
330
1E
100
AcDbEntity
  8
DETAIL
100
AcDbLine
 10
-466.7500000000018
 20
-145.5000000000018
 30
0.0
 11
-466.7500000000018
 21
-146.0066900000001
 31
0.0
  0
LINE
  5
10767
330
1E
100
AcDbEntity
  8
DETAIL
100
AcDbLine
 10
-466.7500000000018
 20
-145.5000000000018
 30
0.0
 11
-476.9999999999981
 21
-145.5000000000018
 31
0.0
  0
LINE
  5
10768
330
1E
100
AcDbEntity
  8
DETAIL
100
AcDbLine
 10
-470.5000000000018
 20
-146.5000000000018
 30
0.0
 11
-476.9999999999981
 21
-146.5000000000018
 31
0.0
  0
ARC
  5
10769
330
1E
100
AcDbEntity
  8
DETAIL
100
AcDbCircle
 10
-470.5000000000018
 20
-131.9999999999981
 30
0.0
 40
14.5
100
AcDbArc
 50
270.0
 51
284.9882340000096
  0
LINE
  5
1076A
330
1E
100
AcDbEntity
  8
DETAIL
100
AcDbLine
 10
-468.9999999999963
 20
-135.8149499999999
 30
0.0
 11
-477.5
 21
-130.9074800000016
 31
0.0
  0
LINE
  5
1076B
330
1E
100
AcDbEntity
  8
DETAIL
100
AcDbLine
 10
-460.5000000000018
 20
-130.9074800000016
 30
0.0
 11
-468.9999999999963
 21
-135.8149499999999
 31
0.0
  0
LINE
  5
1076C
330
1E
100
AcDbEntity
  8
DETAIL
100
AcDbLine
 10
-477.5
 20
-121.0925199999983
 30
0.0
 11
-477.5
 21
-130.9074800000016
 31
0.0
  0
LINE
  5
1076D
330
1E
100
AcDbEntity
  8
DETAIL
100
AcDbLine
 10
-468.9999999999963
 20
-116.1850400000002
 30
0.0
 11
-477.5
 21
-121.0925199999983
 31
0.0
  0
LINE
  5
1076E
330
1E
100
AcDbEntity
  8
DETAIL
100
AcDbLine
 10
-460.5000000000018
 20
-130.9074800000016
 30
0.0
 11
-460.5000000000018
 21
-121.0925199999983
 31
0.0
  0
LINE
  5
1076F
330
1E
100
AcDbEntity
  8
DETAIL
100
AcDbLine
 10
-460.5000000000018
 20
-121.0925199999983
 30
0.0
 11
-468.9999999999963
 21
-116.1850400000002
 31
0.0
  0
LINE
  5
10770
330
1E
100
AcDbEntity
  8
DETAIL
100
AcDbLine
 10
-468.9999999999963
 20
-110.5000000000018
 30
0.0
 11
-468.9999999999963
 21
-141.5000000000018
 31
0.0
  0
CIRCLE
  5
10771
330
1E
100
AcDbEntity
  8
DETAIL
100
AcDbCircle
 10
-468.9999999999963
 20
-126.0
 30
0.0
 40
7.349999999999999
  0
CIRCLE
  5
10772
330
1E
100
AcDbEntity
  8
DETAIL
100
AcDbCircle
 10
-468.9999999999963
 20
-126.0
 30
0.0
 40
3.599999999999999
  0
CIRCLE
  5
10773
330
1E
100
AcDbEntity
  8
DETAIL
100
AcDbCircle
 10
-468.9999999999963
 20
-126.0
 30
0.0
 40
6.349999999999999
  0
LINE
  5
10774
330
1E
100
AcDbEntity
  8
DETAIL
100
AcDbLine
 10
-470.5000000000018
 20
-146.9999999999981
 30
0.0
 11
-475.0
 21
-146.9999999999981
 31
0.0
  0
LINE
  5
10775
330
1E
100
AcDbEntity
  8
DETAIL
100
AcDbLine
 10
-455.5000000000018
 20
-131.9999999999981
 30
0.0
 11
-455.5000000000018
 21
-110.0
 31
0.0
  0
LINE
  5
10776
330
1E
100
AcDbEntity
  8
DETAIL
100
AcDbLine
 10
-454.7000000000025
 20
-131.9999999999981
 30
0.0
 11
-454.7000000000025
 21
-110.0
 31
0.0
  0
LINE
  5
10777
330
1E
100
AcDbEntity
  8
DETAIL
100
AcDbLine
 10
-470.5000000000018
 20
-147.8000000000029
 30
0.0
 11
-475.0
 21
-147.8000000000029
 31
0.0
  0
ARC
  5
10778
330
1E
100
AcDbEntity
  8
DETAIL
100
AcDbCircle
 10
-470.5000000000018
 20
-131.9999999999981
 30
0.0
 40
15.8
100
AcDbArc
 50
270.0
 51
0.0
  0
ARC
  5
10779
330
1E
100
AcDbEntity
  8
DETAIL
100
AcDbCircle
 10
-480.5000000000018
 20
-110.0
 30
0.0
 40
25.8
100
AcDbArc
 50
0.0
 51
90.0
  0
ARC
  5
1077A
330
1E
100
AcDbEntity
  8
DETAIL
100
AcDbCircle
 10
-480.5000000000018
 20
-110.0
 30
0.0
 40
25.0
100
AcDbArc
 50
0.0
 51
90.0
  0
ARC
  5
1077B
330
1E
100
AcDbEntity
  8
DETAIL
100
AcDbCircle
 10
-470.5000000000018
 20
-131.9999999999981
 30
0.0
 40
15.0
100
AcDbArc
 50
270.0
 51
0.0
  0
ARC
  5
1077C
330
1E
100
AcDbEntity
  8
DETAIL
100
AcDbCircle
 10
-380.5000000000018
 20
-115.0
 30
0.0
 40
62.5
100
AcDbArc
 50
14.99999999999445
 51
45.0
  0
CIRCLE
  5
1077D
330
1E
100
AcDbEntity
  8
DETAIL
100
AcDbCircle
 10
-326.3734199999999
 20
-83.75
 30
0.0
 40
1.4
  0
LINE
  5
1077E
330
1E
100
AcDbEntity
  8
BASIS
100
AcDbLine
 10
-378.2000000000061
 20
-29.99999422649489
 30
0.0
 11
-295.1000000000112
 21
-29.99999422649489
 31
0.0
  0
LINE
  5
1077F
330
1E
100
AcDbEntity
  8
NOTE
  6
CONTINUOUS
100
AcDbLine
 10
-376.5000000000054
 20
-29.99999422649125
 30
0.0
 11
-336.5000000000054
 21
-29.99999422649125
 31
0.0
  0
LINE
  5
10780
330
1E
100
AcDbEntity
  8
NOTE
  6
CONTINUOUS
100
AcDbLine
 10
-338.5000000000127
 20
-29.99999422649125
 30
0.0
 11
-298.5000000000127
 21
-29.99999422649125
 31
0.0
  0
LWPOLYLINE
  5
10781
330
1E
100
AcDbEntity
  8
NOTE
  6
CONTINUOUS
100
AcDbPolyline
 90
        3
 70
     0
 43
0.0
 10
-312.7093526777625
 20
9.578641354023602
 10
-318.5000000000236
 20
-29.99999422648034
 10
-293.6958348645439
 20
1.38078692433919
  0
LINE
  5
10782
330
1E
100
AcDbEntity
  8
DETAIL
100
AcDbLine
 10
-378.1999999999971
 20
-30.0
 30
0.0
 11
-295.1000000000021
 21
-30.0
 31
0.0
  0
LINE
  5
10783
330
1E
100
AcDbEntity
  8
DETAIL
100
AcDbLine
 10
-194.4499999999971
 20
-142.823290000002
 30
0.0
 11
-150.4500000000007
 21
-142.823290000002
 31
0.0
  0
LINE
  5
10784
330
1E
100
AcDbEntity
  8
DETAIL
100
AcDbLine
 10
-194.4499999999971
 20
-136.3249099999993
 30
0.0
 11
-150.4500000000007
 21
-136.3249099999993
 31
0.0
  0
LINE
  5
10785
330
1E
100
AcDbEntity
  8
DETAIL
100
AcDbLine
 10
-227.9500000000007
 20
-138.2042899999996
 30
0.0
 11
-196.4500000000043
 21
-138.2042899999996
 31
0.0
  0
LINE
  5
10786
330
1E
100
AcDbEntity
  8
DETAIL
100
AcDbLine
 10
-227.9500000000007
 20
-143.6766099999986
 30
0.0
 11
-196.4500000000043
 21
-143.6766099999986
 31
0.0
  0
LINE
  5
10787
330
1E
100
AcDbEntity
  8
BASIS
  6
DASHDOT
100
AcDbLine
 10
0.0
 20
0.0
 30
0.0
 11
0.0
 21
-316.0285291815198
 31
0.0
  0
LINE
  5
10788
330
1E
100
AcDbEntity
  8
DETAIL
100
AcDbLine
 10
-89.60000000000036
 20
-200.0
 30
0.0
 11
-89.60000000000036
 21
-95.0
 31
0.0
  0
LINE
  5
10789
330
1E
100
AcDbEntity
  8
DETAIL
100
AcDbLine
 10
200.3999999999996
 20
-200.0
 30
0.0
 11
200.3999999999996
 21
-100.0
 31
0.0
  0
LINE
  5
1078A
330
1E
100
AcDbEntity
  8
DETAIL
100
AcDbLine
 10
207.3999999999978
 20
-205.5000000000018
 30
0.0
 11
207.3999999999978
 21
-81.50000000000181
 31
0.0
  0
LINE
  5
1078B
330
1E
100
AcDbEntity
  8
DETAIL
100
AcDbLine
 10
200.3999999999996
 20
-200.0
 30
0.0
 11
-89.60000000000036
 21
-200.0
 31
0.0
  0
LINE
  5
1078C
330
1E
100
AcDbEntity
  8
DETAIL
100
AcDbLine
 10
100.3999999999996
 20
-95.0
 30
0.0
 11
-89.60000000000036
 21
-95.0
 31
0.0
  0
CIRCLE
  5
1078D
330
1E
100
AcDbEntity
  8
ARRANGE
  6
CONTINUOUS
100
AcDbCircle
 10
0.0
 20
0.0
 30
0.0
 40
40.0
  0
LINE
  5
1078E
330
1E
100
AcDbEntity
  8
DETAIL
100
AcDbLine
 10
200.3999999999996
 20
-100.0
 30
0.0
 11
100.3999999999996
 21
-100.0
 31
0.0
  0
LINE
  5
1078F
330
1E
100
AcDbEntity
  8
DETAIL
100
AcDbLine
 10
100.3999999999996
 20
-100.0
 30
0.0
 11
100.3999999999996
 21
-95.0
 31
0.0
  0
LINE
  5
10791
330
1E
100
AcDbEntity
  8
NOTE
  6
CONTINUOUS
100
AcDbLine
 10
564.9999999999891
 20
-189.9999999999995
 30
0.0
 11
774.5258736866926
 21
-450.688167631677
 31
0.0
  0
LINE
  5
10794
330
1E
100
AcDbEntity
  8
DETAIL
100
AcDbLine
 10
640.0
 20
-47.11240999999972
 30
0.0
 11
640.0
 21
-230.0
 31
0.0
  0
LWPOLYLINE
  5
10795
330
1E
100
AcDbEntity
  8
NOTE
  6
CONTINUOUS
100
AcDbPolyline
 90
        3
 70
     0
 43
0.0
 10
597.3760646292376
 20
-213.490219878648
 10
564.9999999999891
 20
-189.9999999999995
 10
581.2933855054434
 20
-226.5311596103124
  0
LINE
  5
10796
330
1E
100
AcDbEntity
  8
NOTE
  6
CONTINUOUS
100
AcDbLine
 10
544.999999999989
 20
-190.0
 30
0.0
 11
584.9999999999891
 21
-190.0
 31
0.0
  0
LINE
  5
10797
330
1E
100
AcDbEntity
  8
BASIS
100
AcDbLine
 10
537.1367423337487
 20
-190.0
 30
0.0
 11
592.8632576662294
 21
-190.0
 31
0.0
  0
LINE
  5
10798
330
1E
100
AcDbEntity
  8
DETAIL
100
AcDbLine
 10
546.0000000000036
 20
-190.0
 30
0.0
 11
583.9999999999963
 21
-190.0
 31
0.0
  0
ARC
  5
10799
330
1E
100
AcDbEntity
  8
DETAIL
100
AcDbCircle
 10
571.0000000000036
 20
-198.0000000000018
 30
0.0
 40
15.0
100
AcDbArc
 50
270.0
 51
0.0
  0
ARC
  5
1079A
330
1E
100
AcDbEntity
  8
DETAIL
100
AcDbCircle
 10
576.0000000000036
 20
-185.0
 30
0.0
 40
10.0
100
AcDbArc
 50
0.0
 51
90.0
  0
LINE
  5
1079B
330
1E
100
AcDbEntity
  8
NOTE
  6
CONTINUOUS
100
AcDbLine
 10
564.9999999999891
 20
-170.0
 30
0.0
 11
564.9999999999891
 21
-210.0
 31
0.0
  0
LINE
  5
1079C
330
1E
100
AcDbEntity
  8
BASIS
100
AcDbLine
 10
564.9999999999891
 20
-161.8329686232282
 30
0.0
 11
564.9999999999891
 21
-218.1670313767699
 31
0.0
  0
CIRCLE
  5
1079D
330
1E
100
AcDbEntity
  8
DETAIL
100
AcDbCircle
 10
565.0
 20
-190.0
 30
0.0
 40
11.39999999999999
  0
LINE
  5
1079E
330
1E
100
AcDbEntity
  8
DETAIL
100
AcDbLine
 10
565.0
 20
-171.0
 30
0.0
 11
565.0
 21
-209.0000000000018
 31
0.0
  0
CIRCLE
  5
1079F
330
1E
100
AcDbEntity
  8
DETAIL
100
AcDbCircle
 10
565.0
 20
-190.0
 30
0.0
 40
14.0
  0
LINE
  5
107A0
330
1E
100
AcDbEntity
  8
DETAIL
100
AcDbLine
 10
535.6583599999976
 20
-201.8291800000006
 30
0.0
 11
557.3665600000004
 21
-212.683280000001
 31
0.0
  0
LINE
  5
107A1
330
1E
100
AcDbEntity
  8
DETAIL
100
AcDbLine
 10
533.9999999999963
 20
-199.1458999999995
 30
0.0
 11
533.9999999999963
 21
-185.0
 31
0.0
  0
LINE
  5
107A2
330
1E
100
AcDbEntity
  8
DETAIL
100
AcDbLine
 10
543.9999999999963
 20
-175.0
 30
0.0
 11
576.0000000000036
 21
-175.0
 31
0.0
  0
LINE
  5
107A3
330
1E
100
AcDbEntity
  8
DETAIL
100
AcDbLine
 10
558.7082000000009
 20
-213.0000000000018
 30
0.0
 11
571.0000000000036
 21
-213.0000000000018
 31
0.0
  0
ARC
  5
107A4
330
1E
100
AcDbEntity
  8
DETAIL
100
AcDbCircle
 10
558.7082000000009
 20
-210.0
 30
0.0
 40
3.0
100
AcDbArc
 50
243.4349490000121
 51
270.0
  0
ARC
  5
107A5
330
1E
100
AcDbEntity
  8
DETAIL
100
AcDbCircle
 10
536.9999999999982
 20
-199.1458999999995
 30
0.0
 40
3.0
100
AcDbArc
 50
180.0
 51
243.4349490000121
  0
ARC
  5
107A6
330
1E
100
AcDbEntity
  8
DETAIL
100
AcDbCircle
 10
543.9999999999963
 20
-185.0
 30
0.0
 40
10.0
100
AcDbArc
 50
90.0
 51
180.0
  0
LINE
  5
107A7
330
1E
100
AcDbEntity
  8
DETAIL
100
AcDbLine
 10
639.1801399999986
 20
-230.1501400000015
 30
0.0
 11
608.0806800000027
 21
-235.845580000001
 31
0.0
  0
LINE
  5
107A8
330
1E
100
AcDbEntity
  8
DETAIL
100
AcDbLine
 10
600.0
 20
-236.0
 30
0.0
 11
607.9179899999963
 21
-235.861789999999
 31
0.0
  0
ARC
  5
107A9
330
1E
100
AcDbEntity
  8
DETAIL
100
AcDbCircle
 10
607.9005400000005
 20
-234.8619400000007
 30
0.0
 40
1.0
100
AcDbArc
 50
270.9999999999761
 51
280.3779320000054
  0
ARC
  5
107AA
330
1E
100
AcDbEntity
  8
DETAIL
100
AcDbCircle
 10
638.9999999999964
 20
-229.1665000000012
 30
0.0
 40
1.0
100
AcDbArc
 50
280.3779320000054
 51
0.0
  0
LINE
  5
107AB
330
1E
100
AcDbEntity
  8
DETAIL
100
AcDbLine
 10
586.0000000000036
 20
-198.0000000000018
 30
0.0
 11
586.0000000000036
 21
-185.0
 31
0.0
  0
LINE
  5
107AC
330
1E
100
AcDbEntity
  8
DETAIL
100
AcDbLine
 10
630.0
 20
-14.08113999999841
 30
0.0
 11
630.0
 21
-41.52364999999917
 31
0.0
  0
LINE
  5
107AD
330
1E
100
AcDbEntity
  8
DETAIL
100
AcDbLine
 10
630.0
 20
-41.52364999999917
 30
0.0
 11
634.5072100000016
 21
-41.60232000000178
 31
0.0
  0
LINE
  5
107AE
330
1E
100
AcDbEntity
  8
DETAIL
100
AcDbLine
 10
639.707099999996
 20
-46.40531000000009
 30
0.0
 11
635.1968599999963
 21
-41.89507000000048
 31
0.0
  0
ARC
  5
107AF
330
1E
100
AcDbEntity
  8
DETAIL
100
AcDbCircle
 10
634.4897500000024
 20
-42.60217000000011
 30
0.0
 40
1.0
100
AcDbArc
 50
45.0
 51
89.00000000002384
  0
ARC
  5
107B0
330
1E
100
AcDbEntity
  8
DETAIL
100
AcDbCircle
 10
638.9999999999964
 20
-47.11240999999972
 30
0.0
 40
1.0
100
AcDbArc
 50
0.0
 51
45.0
  0
LWPOLYLINE
  5
107B1
330
1E
100
AcDbEntity
  8
NOTE
  6
CONTINUOUS
100
AcDbPolyline
 90
        3
 70
     0
 43
0.0
 10
640.0874957898631
 20
33.67461956432134
 10
618.5
 20
0.0000000000004547
 10
654.0326295488557
 20
18.36932764409766
  0
LINE
  5
107B2
330
1E
100
AcDbEntity
  8
NOTE
  6
CONTINUOUS
100
AcDbLine
 10
598.5
 20
0.0
 30
0.0
 11
638.4999999999999
 21
0.0
 31
0.0
  0
CIRCLE
  5
107B3
330
1E
100
AcDbEntity
  8
FIX
  6
CONTINUOUS
100
AcDbCircle
 10
618.5
 20
-0.3229176850327349
 30
0.0
 40
5.0
  0
LINE
  5
107B4
330
1E
100
AcDbEntity
  8
NOTE
  6
CONTINUOUS
100
AcDbLine
 10
618.5
 20
20.0
 30
0.0
 11
618.5
 21
-20.0
 31
0.0
  0
ARC
  5
107B5
330
1E
100
AcDbEntity
  8
DETAIL
100
AcDbCircle
 10
641.0
 20
-1.0
 30
0.0
 40
1.0
100
AcDbArc
 50
0.0
 51
90.0
  0
LINE
  5
107B6
330
1E
100
AcDbEntity
  8
DETAIL
100
AcDbLine
 10
641.0
 20
0.0
 30
0.0
 11
600.0000000000018
 21
0.0
 31
0.0
  0
LINE
  5
107B7
330
1E
100
AcDbEntity
  8
DETAIL
100
AcDbLine
 10
600.0000000000018
 20
0.0
 30
0.0
 11
600.0
 21
-6.0
 31
0.0
  0
LINE
  5
107B8
330
1E
100
AcDbEntity
  8
DETAIL
100
AcDbLine
 10
642.0
 20
-1.0
 30
0.0
 11
641.9999999999982
 21
-7.918859999999767
 31
0.0
  0
LINE
  5
107B9
330
1E
100
AcDbEntity
  8
DETAIL
100
AcDbLine
 10
631.0256500000014
 20
-12.65810999999848
 30
0.0
 11
640.9743400000024
 21
-9.341880000001765
 31
0.0
  0
ARC
  5
107BA
330
1E
100
AcDbEntity
  8
DETAIL
100
AcDbCircle
 10
640.5000000000018
 20
-7.918859999999767
 30
0.0
 40
1.5
100
AcDbArc
 50
288.434949000002
 51
0.0
  0
ARC
  5
107BB
330
1E
100
AcDbEntity
  8
DETAIL
100
AcDbCircle
 10
631.4999999999963
 20
-14.08113999999841
 30
0.0
 40
1.5
100
AcDbArc
 50
108.434949000002
 51
180.0
  0
LINE
  5
107BC
330
1E
100
AcDbEntity
  8
NOTE
  6
CONTINUOUS
100
AcDbLine
 10
774.5258736866926
 20
-450.688167631677
 30
0.0
 11
1072.057496489247
 21
-450.688167631677
 31
0.0
  0
TEXT
  5
107BD
330
1E
100
AcDbEntity
  8
NOTE
  6
CONTINUOUS
100
AcDbText
 10
796.6936935484027
 20
-430.9918445830589
 30
0.0
 40
64.0
  1
D φ26
 41
0.9
100
AcDbText
  0
LINE
  5
107C7
330
1E
100
AcDbEntity
  8
NOTE
  6
CONTINUOUS
100
AcDbLine
 10
-704.2532941119479
 20
126.9075791151945
 30
0.0
 11
-872.3053519651166
 21
126.9075791151945
 31
0.0
  0
TEXT
  5
107C8
330
1E
100
AcDbEntity
  8
NOTE
  6
CONTINUOUS
100
AcDbText
 10
-840.1542703739524
 20
142.9432728707424
 30
0.0
 40
64.0
  1
AH
 41
0.9
100
AcDbText
  0
TEXT
  5
107CA
330
1E
100
AcDbEntity
  8
NOTE
  6
CONTINUOUS
100
AcDbText
 10
-242.6970382973377
 20
520.7335782251666
 30
0.0
 40
64.0
  1
吊りボルトピッチ
 41
0.9
100
AcDbText
  0
LINE
  5
107CB
330
1E
100
AcDbEntity
  8
NOTE
  6
CONTINUOUS
100
AcDbLine
 10
-246.0684891975524
 20
136.5896735503138
 30
0.0
 11
287.0167154487917
 21
136.5896735503138
 31
0.0
  0
TEXT
  5
107CC
330
1E
100
AcDbEntity
  8
NOTE
  6
CONTINUOUS
100
AcDbText
 10
-241.0288765307723
 20
161.2129801576411
 30
0.0
 40
64.0
  1
EL 2-φ22.2
 41
0.9
100
AcDbText
  0
TEXT
  5
107CD
330
1E
100
AcDbEntity
  8
NOTE
  6
CONTINUOUS
100
AcDbText
 10
776.3190506814062
 20
140.0818833149678
 30
0.0
 40
64.0
  1
AH
 41
0.9
100
AcDbText
  0
LINE
  5
107CE
330
1E
100
AcDbEntity
  8
NOTE
  6
CONTINUOUS
100
AcDbLine
 10
748.8359770000024
 20
118.1066233149667
 30
0.0
 11
914.6282441251823
 21
118.1066233149667
 31
0.0
  0
TEXT
  5
110F7
330
1E
100
AcDbEntity
  8
ETC
  6
CONTINUOUS
100
AcDbText
 10
627.5924464908439
 20
807.777988347636
 30
0.0
 40
64.0
  1
SPAC5163
 41
0.9
100
AcDbText
  0
TEXT
  5
110F8
330
1E
100
AcDbEntity
  8
ETC
  6
CONTINUOUS
100
AcDbText
 10
627.5924464908439
 20
947.6131993476355
 30
0.0
 40
64.0
  1
PAC別売
 41
0.9
100
AcDbText
  0
LINE
  5
11357
330
1E
100
AcDbEntity
  8
NOTE
  6
CONTINUOUS
100
AcDbLine
 10
677.4668561143762
 20
-620.7771816281901
 30
0.0
 11
1148.419397600129
 21
-620.7771816281901
 31
0.0
  0
LINE
  5
11359
330
1E
100
AcDbEntity
  8
NOTE
  6
CONTINUOUS
100
AcDbLine
 10
386.6146381553699
 20
-300.9632307950769
 30
0.0
 11
677.4668561143762
 21
-620.7771816281901
 31
0.0
  0
LINE
  5
1135A
330
1E
100
AcDbEntity
  8
DETAIL
  6
CONTINUOUS
100
AcDbLine
 10
-600.0499572753906
 20
-300.9868164062491
 30
0.0
 11
600.0499572753906
 21
-300.9868164062491
 31
0.0
  0
LINE
  5
1135B
330
1E
100
AcDbEntity
  8
DETAIL
  6
CONTINUOUS
100
AcDbLine
 10
-600.0499572753906
 20
-291.3652343749991
 30
0.0
 11
600.0499572753906
 21
-291.3652343749991
 31
0.0
  0
LWPOLYLINE
  5
1135C
330
1E
100
AcDbEntity
  8
NOTE
  6
CONTINUOUS
100
AcDbPolyline
 90
        3
 70
     0
 43
0.0
 10
420.2892577196908
 20
-322.5507265849401
 10
386.6146381553699
 20
-300.9632307950769
 10
404.9839657994671
 20
-336.4958603439327
  0
ARC
  5
1135D
330
1E
100
AcDbEntity
  8
DETAIL
  6
CONTINUOUS
100
AcDbCircle
 10
-600.9598741878617
 20
-294.1993696863091
 30
0.0
 40
7.298672638378725
100
AcDbArc
 50
182.8894694311342
 51
277.1616310189471
  0
ARC
  5
1135E
330
1E
100
AcDbEntity
  8
DETAIL
  6
CONTINUOUS
100
AcDbCircle
 10
-601.4427008116618
 20
-283.6327705758021
 30
0.0
 40
8.203723808895182
100
AcDbArc
 50
211.4350111747316
 51
279.7744278302862
  0
LINE
  5
1135F
330
1E
100
AcDbEntity
  8
DETAIL
  6
CONTINUOUS
100
AcDbLine
 10
-600.8804321289062
 20
-291.673828124999
 30
0.0
 11
-601.6190073873258
 21
-301.4682186809977
 31
0.0
  0
LINE
  5
11360
330
1E
100
AcDbEntity
  8
DETAIL
  6
CONTINUOUS
100
AcDbLine
 10
-600.0499572753906
 20
-291.7174072265615
 30
0.0
 11
-600.0499572753906
 21
-301.4411010742178
 31
0.0
  0
LINE
  5
11362
330
1E
100
AcDbEntity
  8
DETAIL
  6
CONTINUOUS
100
AcDbLine
 10
-610.0
 20
-234.2254791259756
 30
0.0
 11
-608.2492675781249
 21
-294.5672912597647
 31
0.0
  0
LINE
  5
11363
330
1E
100
AcDbEntity
  8
DETAIL
  6
CONTINUOUS
100
AcDbLine
 10
-602.5464172363281
 20
-233.7068939208975
 30
0.0
 11
-600.8804321289062
 21
-291.673828124999
 31
0.0
  0
LINE
  5
11364
330
1E
100
AcDbEntity
  8
DETAIL
  6
CONTINUOUS
100
AcDbLine
 10
-600.0499572753906
 20
-233.5654602050772
 30
0.0
 11
-600.0499572753906
 21
-291.7174072265615
 31
0.0
  0
ARC
  5
11366
330
1E
100
AcDbEntity
  8
DETAIL
  6
CONTINUOUS
100
AcDbCircle
 10
-609.4367525568468
 20
-234.0175134567735
 30
0.0
 40
0.5558684264385195
100
AcDbArc
 50
101.0191128147808
 51
142.9665023241636
  0
ARC
  5
11367
330
1E
100
AcDbEntity
  8
DETAIL
  6
CONTINUOUS
100
AcDbCircle
 10
-609.1667235065687
 20
-234.1244201660147
 30
0.0
 40
0.8393822894803422
100
AcDbArc
 50
148.2498780667439
 51
186.9150048400321
  0
LINE
  5
11368
330
1E
100
AcDbEntity
  8
DETAIL
  6
CONTINUOUS
100
AcDbLine
 10
-610.0
 20
-234.2254791259756
 30
0.0
 11
-600.0499572753906
 21
-233.5654602050772
 31
0.0
  0
ARC
  5
11369
330
1E
100
AcDbEntity
  8
DETAIL
  6
CONTINUOUS
100
AcDbCircle
 10
-604.9588604937234
 20
-254.825685717883
 30
0.0
 40
21.84030170289809
100
AcDbArc
 50
93.71080451880933
 51
102.1161149267416
  0
LINE
  5
1136A
330
1E
100
AcDbEntity
  8
DETAIL
  6
CONTINUOUS
100
AcDbLine
 10
-602.5457240593732
 20
-233.7310125896419
 30
0.0
 11
-602.557178484556
 21
-232.7545878083019
 31
0.0
  0
ARC
  5
1136B
330
1E
100
AcDbEntity
  8
DETAIL
  6
CONTINUOUS
100
AcDbCircle
 10
-587.6345326666105
 20
-465.0475141740326
 30
0.0
 40
232.7717530065937
100
AcDbArc
 50
93.05746246765069
 51
94.61723636192038
  0
LINE
  5
1136C
330
1E
100
AcDbEntity
  8
DETAIL
  6
CONTINUOUS
100
AcDbLine
 10
-600.0499572753906
 20
-233.2242279052734
 30
0.0
 11
600.0499572753906
 21
-233.2242279052725
 31
0.0
  0
LINE
  5
1136D
330
1E
100
AcDbEntity
  8
DETAIL
  6
CONTINUOUS
100
AcDbLine
 10
600.0499572753906
 20
-232.4742279052725
 30
0.0
 11
-600.0499572753906
 21
-232.4742279052725
 31
0.0
  0
LINE
  5
1136E
330
1E
100
AcDbEntity
  8
DETAIL
  6
CONTINUOUS
100
AcDbLine
 10
-600.0499572753906
 20
-233.0264892578115
 30
0.0
 11
-600.0499572753906
 21
-232.4742279052725
 31
0.0
  0
LINE
  5
1136F
330
1E
100
AcDbEntity
  8
DETAIL
  6
CONTINUOUS
100
AcDbLine
 10
-600.0499572753906
 20
-233.5654602050772
 30
0.0
 11
-600.0499572753906
 21
-232.4742279052725
 31
0.0
  0
ARC
  5
11371
330
1E
100
AcDbEntity
  8
DETAIL
  6
CONTINUOUS
100
AcDbCircle
 10
601.4427008116618
 20
-283.6327705758021
 30
0.0
 40
8.203723808895182
100
AcDbArc
 50
260.2255721697137
 51
328.5649888252683
  0
ARC
  5
11372
330
1E
100
AcDbEntity
  8
DETAIL
  6
CONTINUOUS
100
AcDbCircle
 10
600.9598741878617
 20
-294.1993696863091
 30
0.0
 40
7.298672638378725
100
AcDbArc
 50
262.8383689810529
 51
357.1105305688657
  0
LINE
  5
11373
330
1E
100
AcDbEntity
  8
DETAIL
  6
CONTINUOUS
100
AcDbLine
 10
600.0499572753906
 20
-291.7174072265615
 30
0.0
 11
600.0499572753906
 21
-301.4411010742178
 31
0.0
  0
LINE
  5
11374
330
1E
100
AcDbEntity
  8
DETAIL
  6
CONTINUOUS
100
AcDbLine
 10
600.8804321289062
 20
-291.673828124999
 30
0.0
 11
601.6190073873258
 21
-301.4682186809977
 31
0.0
  0
LINE
  5
11375
330
1E
100
AcDbEntity
  8
DETAIL
  6
CONTINUOUS
100
AcDbLine
 10
602.5464172363281
 20
-233.7068939208975
 30
0.0
 11
600.8804321289062
 21
-291.673828124999
 31
0.0
  0
LINE
  5
11376
330
1E
100
AcDbEntity
  8
DETAIL
  6
CONTINUOUS
100
AcDbLine
 10
600.0499572753906
 20
-233.5654602050772
 30
0.0
 11
600.0499572753906
 21
-291.7174072265615
 31
0.0
  0
LINE
  5
11377
330
1E
100
AcDbEntity
  8
DETAIL
  6
CONTINUOUS
100
AcDbLine
 10
610.0
 20
-234.2254791259756
 30
0.0
 11
608.2492675781249
 21
-294.5672912597647
 31
0.0
  0
ARC
  5
11378
330
1E
100
AcDbEntity
  8
DETAIL
  6
CONTINUOUS
100
AcDbCircle
 10
609.1667235065687
 20
-234.1244201660147
 30
0.0
 40
0.8393822894803422
100
AcDbArc
 50
353.0849951599678
 51
31.75012193325605
  0
ARC
  5
11379
330
1E
100
AcDbEntity
  8
DETAIL
  6
CONTINUOUS
100
AcDbCircle
 10
609.4367525568468
 20
-234.0175134567735
 30
0.0
 40
0.5558684264385195
100
AcDbArc
 50
37.03349767583637
 51
78.98088718521917
  0
LINE
  5
1137A
330
1E
100
AcDbEntity
  8
DETAIL
  6
CONTINUOUS
100
AcDbLine
 10
610.0
 20
-234.2254791259756
 30
0.0
 11
600.0499572753906
 21
-233.5654602050772
 31
0.0
  0
ARC
  5
1137B
330
1E
100
AcDbEntity
  8
DETAIL
  6
CONTINUOUS
100
AcDbCircle
 10
604.9588604937234
 20
-254.825685717883
 30
0.0
 40
21.84030170289809
100
AcDbArc
 50
77.88388507325837
 51
86.28919548119068
  0
ARC
  5
1137C
330
1E
100
AcDbEntity
  8
DETAIL
  6
CONTINUOUS
100
AcDbCircle
 10
587.6345326666105
 20
-465.0475141740326
 30
0.0
 40
232.7717530065937
100
AcDbArc
 50
85.38276363807964
 51
86.94253753234931
  0
LINE
  5
1137D
330
1E
100
AcDbEntity
  8
DETAIL
  6
CONTINUOUS
100
AcDbLine
 10
602.5457240593732
 20
-233.7310125896419
 30
0.0
 11
602.557178484556
 21
-232.7545878083019
 31
0.0
  0
LINE
  5
1137E
330
1E
100
AcDbEntity
  8
DETAIL
  6
CONTINUOUS
100
AcDbLine
 10
600.0499572753906
 20
-233.0264892578115
 30
0.0
 11
600.0499572753906
 21
-232.4742279052725
 31
0.0
  0
LINE
  5
1137F
330
1E
100
AcDbEntity
  8
DETAIL
  6
CONTINUOUS
100
AcDbLine
 10
600.0499572753906
 20
-233.5654602050772
 30
0.0
 11
600.0499572753906
 21
-232.4742279052725
 31
0.0
  0
LINE
  5
1A720
330
1E
100
AcDbEntity
  8
SERVICE_SPACE
  6
CONTINUOUS
100
AcDbLine
 10
-609.9999999999981
 20
-301.4411010742178
 30
0.0
 11
610.0
 21
-801.4411010742177
 31
0.0
  0
LINE
  5
1A721
330
1E
100
AcDbEntity
  8
SERVICE_SPACE
  6
CONTINUOUS
100
AcDbLine
 10
-610.0
 20
-801.4411010742177
 30
0.0
 11
610.0
 21
-801.4411010742177
 31
0.0
  0
TEXT
  5
1A722
330
1E
100
AcDbEntity
  8
NOTE
  6
CONTINUOUS
100
AcDbText
 10
23.12487752966626
 20
-796.7340727749651
 30
0.0
 40
64.0
  1
スペ－ス
 41
0.9
100
AcDbText
  0
LINE
  5
1A723
330
1E
100
AcDbEntity
  8
SERVICE_SPACE
  6
CONTINUOUS
100
AcDbLine
 10
610.0
 20
-301.4411010742178
 30
0.0
 11
610.0
 21
-801.4411010742177
 31
0.0
  0
LINE
  5
1A724
330
1E
100
AcDbEntity
  8
SERVICE_SPACE
  6
CONTINUOUS
100
AcDbLine
 10
-610.0
 20
-801.4411010742177
 30
0.0
 11
610.0000000000018
 21
-301.4411010742178
 31
0.0
  0
LINE
  5
1A725
330
1E
100
AcDbEntity
  8
SERVICE_SPACE
  6
CONTINUOUS
100
AcDbLine
 10
-610.0
 20
-301.4411010742178
 30
0.0
 11
-610.0
 21
-801.4411010742177
 31
0.0
  0
LINE
  5
1A727
330
1E
100
AcDbEntity
  8
SERVICE_SPACE
  6
CONTINUOUS
100
AcDbLine
 10
-610.0
 20
-301.4411010742178
 30
0.0
 11
610.0
 21
-301.4411010742178
 31
0.0
  0
TEXT
  5
1A746
330
1E
100
AcDbEntity
  8
NOTE
  6
CONTINUOUS
100
AcDbText
 10
-249.6755152845326
 20
-797.3726948203776
 30
0.0
 40
64.0
  1
サ－ビス
 41
0.9
100
AcDbText
  0
TEXT
  5
1A75D
330
1E
100
AcDbEntity
  8
NOTE
  6
CONTINUOUS
100
AcDbText
 10
714.7565855543671
 20
-609.9924572294139
 30
0.0
 40
64.0
  1
ケ－スメント
 41
0.9
100
AcDbText
  0
TEXT
  5
1A75E
330
1E
100
AcDbEntity
  8
NOTE
  6
CONTINUOUS
100
AcDbText
 10
722.4047695902499
 20
-541.552986945021
 30
0.0
 40
64.0
  1
フィルタ－
 41
0.9
100
AcDbText
  0
LINE
  5
1A85B
330
1E
100
AcDbEntity
  8
SIZE
  6
CONTINUOUS
100
AcDbLine
 10
612.8632576662294
 20
-190.0
 30
0.0
 11
826.2390839491162
 21
-190.0
 31
0.0
  0
LINE
  5
1A85C
330
1E
100
AcDbEntity
  8
SIZE
  6
CONTINUOUS
100
AcDbLine
 10
658.499999999989
 20
0.0000000000004491
 30
0.0
 11
826.2390839491162
 21
0.0000000000004016
 31
0.0
  0
LINE
  5
1A85D
330
1E
100
AcDbEntity
  8
SIZE
  6
CONTINUOUS
100
AcDbLine
 10
796.2390839491163
 20
-200.0
 30
0.0
 11
796.2390839491163
 21
-210.0
 31
0.0
  0
LINE
  5
1A85E
330
1E
100
AcDbEntity
  8
SIZE
  6
CONTINUOUS
100
AcDbLine
 10
796.2390839491163
 20
10.0000000000004
 30
0.0
 11
796.2390839491163
 21
20.0000000000004
 31
0.0
  0
LINE
  5
1A85F
330
1E
100
AcDbEntity
  8
SIZE
  6
CONTINUOUS
100
AcDbLine
 10
796.2390839491163
 20
-190.0
 30
0.0
 11
796.2390839491163
 21
0.0000000000004101
 31
0.0
  0
LINE
  5
1A863
330
1E
100
AcDbEntity
  8
SIZE
  6
CONTINUOUS
100
AcDbLine
 10
661.0
 20
0.0000000000004491
 30
0.0
 11
977.072299508687
 21
0.0000000000003595
 31
0.0
  0
LINE
  5
1A864
330
1E
100
AcDbEntity
  8
SIZE
  6
CONTINUOUS
100
AcDbLine
 10
619.999999999989
 20
-235.9999999999945
 30
0.0
 11
977.072299508687
 21
-235.9999999999946
 31
0.0
  0
LINE
  5
1A865
330
1E
100
AcDbEntity
  8
SIZE
  6
CONTINUOUS
100
AcDbLine
 10
947.0722995086871
 20
-9.99999999999963
 30
0.0
 11
947.0722995086871
 21
-225.9999999999946
 31
0.0
  0
LINE
  5
1A869
330
1E
100
AcDbEntity
  8
SIZE
  6
CONTINUOUS
100
AcDbLine
 10
564.9999999999891
 20
-238.1670313767699
 30
0.0
 11
564.9999999999891
 21
-440.9646762075499
 31
0.0
  0
LINE
  5
1A86A
330
1E
100
AcDbEntity
  8
SIZE
  6
CONTINUOUS
100
AcDbLine
 10
641.9999999999982
 20
-24.45942999999488
 30
0.0
 11
641.9999999999982
 21
-440.9646762075499
 31
0.0
  0
LINE
  5
1A86B
330
1E
100
AcDbEntity
  8
SIZE
  6
CONTINUOUS
100
AcDbLine
 10
554.999999999989
 20
-410.9646762075499
 30
0.0
 11
544.999999999989
 21
-410.9646762075499
 31
0.0
  0
LINE
  5
1A86C
330
1E
100
AcDbEntity
  8
SIZE
  6
CONTINUOUS
100
AcDbLine
 10
651.9999999999981
 20
-410.9646762075499
 30
0.0
 11
661.9999999999982
 21
-410.9646762075499
 31
0.0
  0
LINE
  5
1A86D
330
1E
100
AcDbEntity
  8
SIZE
  6
CONTINUOUS
100
AcDbLine
 10
564.9999999999891
 20
-410.9646762075499
 30
0.0
 11
641.9999999999982
 21
-410.9646762075499
 31
0.0
  0
LINE
  5
1A871
330
1E
100
AcDbEntity
  8
SIZE
  6
CONTINUOUS
100
AcDbLine
 10
-284.5000000000163
 20
-198.9999942264912
 30
0.0
 11
-183.9269242078972
 21
-198.9999942264912
 31
0.0
  0
LINE
  5
1A872
330
1E
100
AcDbEntity
  8
SIZE
  6
CONTINUOUS
100
AcDbLine
 10
-275.1000000000112
 20
-29.99999422649489
 30
0.0
 11
-183.9269242078971
 21
-29.99999422649492
 31
0.0
  0
LINE
  5
1A873
330
1E
100
AcDbEntity
  8
SIZE
  6
CONTINUOUS
100
AcDbLine
 10
-213.9269242078972
 20
-188.9999942264912
 30
0.0
 11
-213.9269242078971
 21
-39.99999422649491
 31
0.0
  0
LINE
  5
1A877
330
1E
100
AcDbEntity
  8
SIZE
  6
CONTINUOUS
100
AcDbLine
 10
-658.5522900000196
 20
0.0000057735042048
 30
0.0
 11
-775.226131390149
 21
0.0000057735042379
 31
0.0
  0
LINE
  5
1A878
330
1E
100
AcDbEntity
  8
SIZE
  6
CONTINUOUS
100
AcDbLine
 10
-597.0000000000164
 20
-125.9999942264894
 30
0.0
 11
-775.226131390149
 21
-125.9999942264893
 31
0.0
  0
LINE
  5
1A879
330
1E
100
AcDbEntity
  8
SIZE
  6
CONTINUOUS
100
AcDbLine
 10
-745.226131390149
 20
10.00000577350423
 30
0.0
 11
-745.226131390149
 21
20.00000577350423
 31
0.0
  0
LINE
  5
1A87A
330
1E
100
AcDbEntity
  8
SIZE
  6
CONTINUOUS
100
AcDbLine
 10
-745.226131390149
 20
-135.9999942264893
 30
0.0
 11
-745.226131390149
 21
-145.9999942264893
 31
0.0
  0
LINE
  5
1A87B
330
1E
100
AcDbEntity
  8
SIZE
  6
CONTINUOUS
100
AcDbLine
 10
-745.226131390149
 20
0.0000057735042294
 30
0.0
 11
-745.226131390149
 21
-125.9999942264893
 31
0.0
  0
LINE
  5
1A87F
330
1E
100
AcDbEntity
  8
SIZE
  6
CONTINUOUS
100
AcDbLine
 10
-658.5522900000196
 20
0.0000057735042048
 30
0.0
 11
-923.3547201553101
 21
0.0000057735042798
 31
0.0
  0
LINE
  5
1A880
330
1E
100
AcDbEntity
  8
SIZE
  6
CONTINUOUS
100
AcDbLine
 10
-542.0000000000091
 20
-189.9999942264948
 30
0.0
 11
-923.3547201553101
 21
-189.9999942264947
 31
0.0
  0
LINE
  5
1A881
330
1E
100
AcDbEntity
  8
SIZE
  6
CONTINUOUS
100
AcDbLine
 10
-893.3547201553102
 20
-9.999994226495728
 30
0.0
 11
-893.3547201553102
 21
-179.9999942264947
 31
0.0
  0
LINE
  5
1A885
330
1E
100
AcDbEntity
  8
SIZE
  6
CONTINUOUS
100
AcDbLine
 10
-642.0000000000164
 20
-20.9999942264958
 30
0.0
 11
-642.0000000000164
 21
-414.682046128717
 31
0.0
  0
LINE
  5
1A886
330
1E
100
AcDbEntity
  8
SIZE
  6
CONTINUOUS
100
AcDbLine
 10
-502.0000000000091
 20
-229.9999942264948
 30
0.0
 11
-502.0000000000091
 21
-414.682046128717
 31
0.0
  0
LINE
  5
1A887
330
1E
100
AcDbEntity
  8
SIZE
  6
CONTINUOUS
100
AcDbLine
 10
-632.0000000000163
 20
-384.682046128717
 30
0.0
 11
-512.000000000009
 21
-384.682046128717
 31
0.0
  0
LINE
  5
1A888
330
1E
100
AcDbEntity
  8
SIZE
  6
CONTINUOUS
100
AcDbLine
 10
-502.0000000000091
 20
-384.682046128717
 30
0.0
 11
-314.8571428571512
 21
-384.682046128717
 31
0.0
  0
LINE
  5
1A88C
330
1E
100
AcDbEntity
  8
SIZE
  6
CONTINUOUS
100
AcDbLine
 10
-642.0000000000164
 20
-20.9999942264958
 30
0.0
 11
-642.0000000000164
 21
-557.6613006879524
 31
0.0
  0
LINE
  5
1A88D
330
1E
100
AcDbEntity
  8
SIZE
  6
CONTINUOUS
100
AcDbLine
 10
-362.5000000000091
 20
-242.4999942264948
 30
0.0
 11
-362.5000000000091
 21
-557.6613006879524
 31
0.0
  0
LINE
  5
1A88E
330
1E
100
AcDbEntity
  8
SIZE
  6
CONTINUOUS
100
AcDbLine
 10
-632.0000000000163
 20
-527.6613006879524
 30
0.0
 11
-372.5000000000091
 21
-527.6613006879524
 31
0.0
  0
LINE
  5
1A892
330
1E
100
AcDbEntity
  8
SIZE
  6
CONTINUOUS
100
AcDbLine
 10
-642.0000000000164
 20
19.0000057735042
 30
0.0
 11
-642.0000000000164
 21
173.0152408087997
 31
0.0
  0
LINE
  5
1A893
330
1E
100
AcDbEntity
  8
SIZE
  6
CONTINUOUS
100
AcDbLine
 10
-554.0000000000055
 20
-82.99999422648761
 30
0.0
 11
-554.0000000000055
 21
173.0152408087997
 31
0.0
  0
LINE
  5
1A894
330
1E
100
AcDbEntity
  8
SIZE
  6
CONTINUOUS
100
AcDbLine
 10
-652.0000000000163
 20
143.0152408087997
 30
0.0
 11
-662.0000000000163
 21
143.0152408087997
 31
0.0
  0
LINE
  5
1A895
330
1E
100
AcDbEntity
  8
SIZE
  6
CONTINUOUS
100
AcDbLine
 10
-544.0000000000054
 20
143.0152408087997
 30
0.0
 11
-534.0000000000054
 21
143.0152408087997
 31
0.0
  0
LINE
  5
1A896
330
1E
100
AcDbEntity
  8
SIZE
  6
CONTINUOUS
100
AcDbLine
 10
-642.0000000000164
 20
143.0152408087997
 30
0.0
 11
-554.0000000000055
 21
143.0152408087997
 31
0.0
  0
LINE
  5
1A89A
330
1E
100
AcDbEntity
  8
SIZE
  6
CONTINUOUS
100
AcDbLine
 10
-554.0000000000055
 20
-82.99999422648761
 30
0.0
 11
-554.0000000000055
 21
173.0152408087997
 31
0.0
  0
LINE
  5
1A89B
330
1E
100
AcDbEntity
  8
SIZE
  6
CONTINUOUS
100
AcDbLine
 10
-469.0000000000163
 20
-85.99999422648943
 30
0.0
 11
-469.0000000000163
 21
173.0152408087997
 31
0.0
  0
LINE
  5
1A89C
330
1E
100
AcDbEntity
  8
SIZE
  6
CONTINUOUS
100
AcDbLine
 10
-544.0000000000054
 20
143.0152408087997
 30
0.0
 11
-479.0000000000163
 21
143.0152408087997
 31
0.0
  0
LINE
  5
1A89D
330
1E
100
AcDbEntity
  8
SIZE
  6
CONTINUOUS
100
AcDbLine
 10
-469.0000000000163
 20
143.0152408087997
 30
0.0
 11
-325.7428571428717
 21
143.0152408087997
 31
0.0
  0
LINE
  5
1A8A1
330
1E
100
AcDbEntity
  8
SIZE
  6
CONTINUOUS
100
AcDbLine
 10
-610.0000000000018
 20
-254.225479125961
 30
0.0
 11
-610.0000000000018
 21
-738.6533459111924
 31
0.0
  0
LINE
  5
1A8A2
330
1E
100
AcDbEntity
  8
SIZE
  6
CONTINUOUS
100
AcDbLine
 10
609.9999999999981
 20
-254.2254791259829
 30
0.0
 11
609.9999999999981
 21
-738.6533459111924
 31
0.0
  0
LINE
  5
1A8A3
330
1E
100
AcDbEntity
  8
SIZE
  6
CONTINUOUS
100
AcDbLine
 10
-600.0000000000018
 20
-708.6533459111924
 30
0.0
 11
599.9999999999982
 21
-708.6533459111924
 31
0.0
  0
LINE
  5
1A8A7
330
1E
100
AcDbEntity
  8
SIZE
  6
CONTINUOUS
100
AcDbLine
 10
-362.5000000000091
 20
-238.9999942264912
 30
0.0
 11
-362.5000000000091
 21
-557.6613006879524
 31
0.0
  0
LINE
  5
1A8A8
330
1E
100
AcDbEntity
  8
SIZE
  6
CONTINUOUS
100
AcDbLine
 10
-324.5000000000163
 20
-238.9999942264912
 30
0.0
 11
-324.5000000000163
 21
-557.6613006879524
 31
0.0
  0
LINE
  5
1A8A9
330
1E
100
AcDbEntity
  8
SIZE
  6
CONTINUOUS
100
AcDbLine
 10
-372.5000000000091
 20
-527.6613006879524
 30
0.0
 11
-382.5000000000091
 21
-527.6613006879524
 31
0.0
  0
LINE
  5
1A8AA
330
1E
100
AcDbEntity
  8
SIZE
  6
CONTINUOUS
100
AcDbLine
 10
-314.5000000000163
 20
-527.6613006879524
 30
0.0
 11
-304.5000000000163
 21
-527.6613006879524
 31
0.0
  0
LINE
  5
1A8AB
330
1E
100
AcDbEntity
  8
SIZE
  6
CONTINUOUS
100
AcDbLine
 10
-362.5000000000091
 20
-527.6613006879524
 30
0.0
 11
-324.5000000000163
 21
-527.6613006879524
 31
0.0
  0
LINE
  5
1A8AF
330
1E
100
AcDbEntity
  8
SIZE
  6
CONTINUOUS
100
AcDbLine
 10
-470.0
 20
-301.4411010742178
 30
0.0
 11
-686.4760347489355
 21
-301.4411010742177
 31
0.0
  0
LINE
  5
1A8B0
330
1E
100
AcDbEntity
  8
SIZE
  6
CONTINUOUS
100
AcDbLine
 10
-470.0
 20
-801.4411010742177
 30
0.0
 11
-686.4760347489357
 21
-801.4411010742177
 31
0.0
  0
LINE
  5
1A8B1
330
1E
100
AcDbEntity
  8
SIZE
  6
CONTINUOUS
100
AcDbLine
 10
-656.4760347489356
 20
-291.4411010742177
 30
0.0
 11
-656.4760347489356
 21
-281.4411010742178
 31
0.0
  0
LINE
  5
1A8B2
330
1E
100
AcDbEntity
  8
SIZE
  6
CONTINUOUS
100
AcDbLine
 10
-656.4760347489356
 20
-811.4411010742179
 30
0.0
 11
-656.4760347489356
 21
-821.4411010742178
 31
0.0
  0
LINE
  5
1A8B3
330
1E
100
AcDbEntity
  8
SIZE
  6
CONTINUOUS
100
AcDbLine
 10
-656.4760347489356
 20
-301.4411010742177
 30
0.0
 11
-656.4760347489356
 21
-801.4411010742177
 31
0.0
  0
LINE
  5
1A8B7
330
1E
100
AcDbEntity
  8
SIZE
  6
CONTINUOUS
100
AcDbLine
 10
-580.0000000000091
 20
-235.9999942264894
 30
0.0
 11
-183.9269242078972
 21
-235.9999942264895
 31
0.0
  0
LINE
  5
1A8B8
330
1E
100
AcDbEntity
  8
SIZE
  6
CONTINUOUS
100
AcDbLine
 10
-284.5000000000163
 20
-198.9999942264912
 30
0.0
 11
-183.9269242078971
 21
-198.9999942264912
 31
0.0
  0
LINE
  5
1A8B9
330
1E
100
AcDbEntity
  8
SIZE
  6
CONTINUOUS
100
AcDbLine
 10
-213.9269242078971
 20
-188.9999942264912
 30
0.0
 11
-213.9269242078971
 21
-178.9999942264912
 31
0.0
  0
LINE
  5
1A8BA
330
1E
100
AcDbEntity
  8
SIZE
  6
CONTINUOUS
100
AcDbLine
 10
-213.9269242078972
 20
-245.9999942264895
 30
0.0
 11
-213.9269242078972
 21
-395.1876314789823
 31
0.0
  0
LINE
  5
1A8BB
330
1E
100
AcDbEntity
  8
SIZE
  6
CONTINUOUS
100
AcDbLine
 10
-213.9269242078972
 20
-198.9999942264912
 30
0.0
 11
-213.9269242078972
 21
-235.9999942264895
 31
0.0
  0
LINE
  5
1A8BF
330
1E
100
AcDbEntity
  8
SIZE
  6
CONTINUOUS
100
AcDbLine
 10
628.0000000000073
 20
-235.999999999999
 30
0.0
 11
977.072299508687
 21
-235.9999999999991
 31
0.0
  0
LINE
  5
1A8C0
330
1E
100
AcDbEntity
  8
SIZE
  6
CONTINUOUS
100
AcDbLine
 10
620.0499572753906
 20
-301.4411010742178
 30
0.0
 11
977.072299508687
 21
-301.4411010742179
 31
0.0
  0
LINE
  5
1A8C1
330
1E
100
AcDbEntity
  8
SIZE
  6
CONTINUOUS
100
AcDbLine
 10
947.0722995086871
 20
-245.9999999999991
 30
0.0
 11
947.072299508687
 21
-291.4411010742179
 31
0.0
  0
LINE
  5
1A8C5
330
1E
100
AcDbEntity
  8
SIZE
  6
CONTINUOUS
100
AcDbLine
 10
-618.5000000000018
 20
40.00000000000272
 30
0.0
 11
-618.5000000000018
 21
431.7798103879831
 31
0.0
  0
LINE
  5
1A8C6
330
1E
100
AcDbEntity
  8
SIZE
  6
CONTINUOUS
100
AcDbLine
 10
618.4999999999891
 20
40.00000000000045
 30
0.0
 11
618.4999999999891
 21
431.7798103879831
 31
0.0
  0
LINE
  5
1A8C7
330
1E
100
AcDbEntity
  8
SIZE
  6
CONTINUOUS
100
AcDbLine
 10
-608.5000000000018
 20
401.7798103879831
 30
0.0
 11
608.499999999989
 21
401.7798103879831
 31
0.0
  0
LINE
  5
1A8CB
330
1E
100
AcDbEntity
  8
SIZE
  6
CONTINUOUS
100
AcDbLine
 10
-641.9999999999963
 20
19.00000000000045
 30
0.0
 11
-641.9999999999963
 21
637.7704195153856
 31
0.0
  0
LINE
  5
1A8CC
330
1E
100
AcDbEntity
  8
SIZE
  6
CONTINUOUS
100
AcDbLine
 10
642.0
 20
19.00000000000045
 30
0.0
 11
642.0
 21
637.7704195153856
 31
0.0
  0
LINE
  5
1A8CD
330
1E
100
AcDbEntity
  8
SIZE
  6
CONTINUOUS
100
AcDbLine
 10
-631.9999999999963
 20
607.7704195153856
 30
0.0
 11
632.0
 21
607.7704195153856
 31
0.0
  0
LINE
  5
1A8D1
330
1E
100
AcDbEntity
  8
SIZE
  6
CONTINUOUS
100
AcDbLine
 10
-639.9999999999963
 20
-27.11240999999972
 30
0.0
 11
-639.9999999999963
 21
388.6686737967684
 31
0.0
  0
LINE
  5
1A8D2
330
1E
100
AcDbEntity
  8
SIZE
  6
CONTINUOUS
100
AcDbLine
 10
-641.9999999999963
 20
19.00000000000045
 30
0.0
 11
-641.9999999999963
 21
388.6686737967684
 31
0.0
  0
LINE
  5
1A8D3
330
1E
100
AcDbEntity
  8
SIZE
  6
CONTINUOUS
100
AcDbLine
 10
-629.9999999999963
 20
358.6686737967684
 30
0.0
 11
-619.9999999999963
 21
358.6686737967684
 31
0.0
  0
LINE
  5
1A8D4
330
1E
100
AcDbEntity
  8
SIZE
  6
CONTINUOUS
100
AcDbLine
 10
-651.9999999999964
 20
358.6686737967684
 30
0.0
 11
-740.399999999997
 21
358.6686737967684
 31
0.0
  0
LINE
  5
1A8D5
330
1E
100
AcDbEntity
  8
SIZE
  6
CONTINUOUS
100
AcDbLine
 10
-639.9999999999963
 20
358.6686737967684
 30
0.0
 11
-641.9999999999963
 21
358.6686737967684
 31
0.0
  0
LINE
  5
1A8D9
330
1E
100
AcDbEntity
  8
SIZE
  6
CONTINUOUS
100
AcDbLine
 10
-356.5000000000054
 20
13.50000577350874
 30
0.0
 11
-356.5000000000054
 21
301.8164656889384
 31
0.0
  0
LINE
  5
1A8DA
330
1E
100
AcDbEntity
  8
SIZE
  6
CONTINUOUS
100
AcDbLine
 10
-318.5000000000127
 20
13.50000577350874
 30
0.0
 11
-318.5000000000127
 21
301.8164656889384
 31
0.0
  0
LINE
  5
1A8DB
330
1E
100
AcDbEntity
  8
SIZE
  6
CONTINUOUS
100
AcDbLine
 10
-366.5000000000054
 20
271.8164656889384
 30
0.0
 11
-376.5000000000054
 21
271.8164656889384
 31
0.0
  0
LINE
  5
1A8DC
330
1E
100
AcDbEntity
  8
SIZE
  6
CONTINUOUS
100
AcDbLine
 10
-308.5000000000127
 20
271.8164656889384
 30
0.0
 11
-298.5000000000127
 21
271.8164656889384
 31
0.0
  0
LINE
  5
1A8DD
330
1E
100
AcDbEntity
  8
SIZE
  6
CONTINUOUS
100
AcDbLine
 10
-356.5000000000054
 20
271.8164656889384
 30
0.0
 11
-318.5000000000127
 21
271.8164656889384
 31
0.0
  0
LINE
  5
1A8E1
330
1E
100
AcDbEntity
  8
SIZE
  6
CONTINUOUS
100
AcDbLine
 10
-642.0000000000164
 20
19.0000057735042
 30
0.0
 11
-642.0000000000164
 21
301.8164656889384
 31
0.0
  0
LINE
  5
1A8E2
330
1E
100
AcDbEntity
  8
SIZE
  6
CONTINUOUS
100
AcDbLine
 10
-356.5000000000054
 20
13.50000577350874
 30
0.0
 11
-356.5000000000054
 21
301.8164656889384
 31
0.0
  0
LINE
  5
1A8E3
330
1E
100
AcDbEntity
  8
SIZE
  6
CONTINUOUS
100
AcDbLine
 10
-632.0000000000163
 20
271.8164656889384
 30
0.0
 11
-366.5000000000054
 21
271.8164656889384
 31
0.0
  0
LINE
  5
1A8E7
330
1E
100
AcDbEntity
  8
SIZE
  6
CONTINUOUS
100
AcDbLine
 10
639.9999999999963
 20
-27.11240999999972
 30
0.0
 11
639.9999999999963
 21
348.4457977186248
 31
0.0
  0
LINE
  5
1A8E8
330
1E
100
AcDbEntity
  8
SIZE
  6
CONTINUOUS
100
AcDbLine
 10
642.0
 20
19.0
 30
0.0
 11
642.0
 21
348.4457977186248
 31
0.0
  0
LINE
  5
1A8E9
330
1E
100
AcDbEntity
  8
SIZE
  6
CONTINUOUS
100
AcDbLine
 10
629.9999999999963
 20
318.4457977186248
 30
0.0
 11
619.9999999999963
 21
318.4457977186248
 31
0.0
  0
LINE
  5
1A8EA
330
1E
100
AcDbEntity
  8
SIZE
  6
CONTINUOUS
100
AcDbLine
 10
652.0
 20
318.4457977186248
 30
0.0
 11
740.4000000000007
 21
318.4457977186248
 31
0.0
  0
LINE
  5
1A8EB
330
1E
100
AcDbEntity
  8
SIZE
  6
CONTINUOUS
100
AcDbLine
 10
639.9999999999963
 20
318.4457977186248
 30
0.0
 11
642.0
 21
318.4457977186248
 31
0.0
  0
LINE
  5
1A8EF
330
1E
100
AcDbEntity
  8
SIZE
  6
CONTINUOUS
100
AcDbLine
 10
579.999999999989
 20
-5.999999999994082
 30
0.0
 11
504.9972248640588
 21
-5.99999999999406
 31
0.0
  0
LINE
  5
1A8F0
330
1E
100
AcDbEntity
  8
SIZE
  6
CONTINUOUS
100
AcDbLine
 10
578.499999999989
 20
0.0000000000004604
 30
0.0
 11
504.9972248640588
 21
0.0000000000004812
 31
0.0
  0
LINE
  5
1A8F1
330
1E
100
AcDbEntity
  8
SIZE
  6
CONTINUOUS
100
AcDbLine
 10
534.9972248640588
 20
-15.99999999999407
 30
0.0
 11
534.9972248640588
 21
-25.99999999999407
 31
0.0
  0
LINE
  5
1A8F2
330
1E
100
AcDbEntity
  8
SIZE
  6
CONTINUOUS
100
AcDbLine
 10
534.9972248640588
 20
10.00000000000047
 30
0.0
 11
534.9972248640588
 21
95.65714285714664
 31
0.0
  0
LINE
  5
1A8F3
330
1E
100
AcDbEntity
  8
SIZE
  6
CONTINUOUS
100
AcDbLine
 10
534.9972248640588
 20
-5.99999999999407
 30
0.0
 11
534.9972248640588
 21
0.0000000000004727
 31
0.0
  0
TEXT
  5
1A8F7
330
1E
100
AcDbEntity
  8
SIZE
  6
CONTINUOUS
100
AcDbText
 10
-913.3547201553101
 20
-163.5714227979239
 30
0.0
 40
64.0
  1
190
 50
90.0
 41
0.9
100
AcDbText
  0
TEXT
  5
1A8F8
330
1E
100
AcDbEntity
  8
SIZE
  6
CONTINUOUS
100
AcDbText
 10
-765.226131390149
 20
-130.1999942264927
 30
0.0
 40
64.0
  1
126
 50
90.0
 41
0.9
100
AcDbText
  0
TEXT
  5
1A8F9
330
1E
100
AcDbEntity
  8
SIZE
  6
CONTINUOUS
100
AcDbText
 10
-233.9269242078971
 20
-181.6999942264931
 30
0.0
 40
64.0
  1
169
 50
90.0
 41
0.9
100
AcDbText
  0
TEXT
  5
1A8FA
330
1E
100
AcDbEntity
  8
SIZE
  6
CONTINUOUS
100
AcDbText
 10
927.072299508687
 20
-190.6857142857088
 30
0.0
 40
64.0
  1
236
 50
90.0
 41
0.9
100
AcDbText
  0
TEXT
  5
1A8FB
330
1E
100
AcDbEntity
  8
SIZE
  6
CONTINUOUS
100
AcDbText
 10
776.2390839491163
 20
-163.5714285714258
 30
0.0
 40
64.0
  1
190
 50
90.0
 41
0.9
100
AcDbText
  0
TEXT
  5
1A8FC
330
1E
100
AcDbEntity
  8
SIZE
  6
CONTINUOUS
100
AcDbText
 10
-92.38551964457656
 20
-688.6533459111924
 30
0.0
 40
64.0
  1
1220
 41
0.9
100
AcDbText
  0
CIRCLE
  5
1A8FD
330
1E
100
AcDbEntity
  8
SIZE
  6
BYBLOCK
100
AcDbCircle
 10
-893.3547201553102
 20
-189.9999942264947
 30
0.0
 40
5.0
  0
LINE
  5
1A8FE
330
1E
100
AcDbEntity
  8
SIZE
  6
BYBLOCK
100
AcDbLine
 10
-893.3547201553102
 20
-189.9999942264947
 30
0.0
 11
-893.3547201553102
 21
-179.9999942264947
 31
0.0
  0
TEXT
  5
1A8FF
330
1E
100
AcDbEntity
  8
SIZE
  6
CONTINUOUS
100
AcDbText
 10
-676.4760347489355
 20
-778.884486343644
 30
0.0
 40
64.0
  1
500以上
 50
90.0
 41
0.9
100
AcDbText
  0
CIRCLE
  5
1A900
330
1E
100
AcDbEntity
  8
SIZE
  6
BYBLOCK
100
AcDbCircle
 10
-656.4760347489356
 20
-801.4411010742177
 30
0.0
 40
5.0
  0
LINE
  5
1A901
330
1E
100
AcDbEntity
  8
SIZE
  6
BYBLOCK
100
AcDbLine
 10
-656.4760347489356
 20
-801.4411010742177
 30
0.0
 11
-656.4760347489356
 21
-811.4411010742179
 31
0.0
  0
CIRCLE
  5
1A902
330
1E
100
AcDbEntity
  8
SIZE
  6
BYBLOCK
100
AcDbCircle
 10
-610.0000000000018
 20
-708.6533459111924
 30
0.0
 40
5.0
  0
LINE
  5
1A903
330
1E
100
AcDbEntity
  8
SIZE
  6
BYBLOCK
100
AcDbLine
 10
-610.0000000000018
 20
-708.6533459111924
 30
0.0
 11
-600.0000000000018
 21
-708.6533459111924
 31
0.0
  0
TEXT
  5
1A904
330
1E
100
AcDbEntity
  8
SIZE
  6
CONTINUOUS
100
AcDbText
 10
-390.1285714285841
 20
-507.6613006879524
 30
0.0
 40
64.0
  1
38
 41
0.9
100
AcDbText
  0
TEXT
  5
1A905
330
1E
100
AcDbEntity
  8
SIZE
  6
CONTINUOUS
100
AcDbText
 10
-472.0000000000083
 20
-364.682046128717
 30
0.0
 40
64.0
  1
140
 41
0.9
100
AcDbText
  0
TEXT
  5
1A906
330
1E
100
AcDbEntity
  8
SIZE
  6
CONTINUOUS
100
AcDbText
 10
-576.3071428571556
 20
-507.6613006879524
 30
0.0
 40
64.0
  1
280
 41
0.9
100
AcDbText
  0
CIRCLE
  5
1A907
330
1E
100
AcDbEntity
  8
SIZE
  6
BYBLOCK
100
AcDbCircle
 10
-642.0000000000164
 20
-527.6613006879524
 30
0.0
 40
5.0
  0
LINE
  5
1A908
330
1E
100
AcDbEntity
  8
SIZE
  6
BYBLOCK
100
AcDbLine
 10
-642.0000000000164
 20
-527.6613006879524
 30
0.0
 11
-632.0000000000163
 21
-527.6613006879524
 31
0.0
  0
CIRCLE
  5
1A909
330
1E
100
AcDbEntity
  8
SIZE
  6
BYBLOCK
100
AcDbCircle
 10
-642.0000000000164
 20
-384.682046128717
 30
0.0
 40
5.0
  0
LINE
  5
1A90A
330
1E
100
AcDbEntity
  8
SIZE
  6
BYBLOCK
100
AcDbLine
 10
-642.0000000000164
 20
-384.682046128717
 30
0.0
 11
-632.0000000000163
 21
-384.682046128717
 31
0.0
  0
CIRCLE
  5
1A90B
330
1E
100
AcDbEntity
  8
SIZE
  6
BYBLOCK
100
AcDbCircle
 10
-502.0000000000091
 20
-384.682046128717
 30
0.0
 40
5.0
  0
LINE
  5
1A90C
330
1E
100
AcDbEntity
  8
SIZE
  6
BYBLOCK
100
AcDbLine
 10
-502.0000000000091
 20
-384.682046128717
 30
0.0
 11
-512.000000000009
 21
-384.682046128717
 31
0.0
  0
CIRCLE
  5
1A90D
330
1E
100
AcDbEntity
  8
SIZE
  6
BYBLOCK
100
AcDbCircle
 10
-656.4760347489356
 20
-301.4411010742177
 30
0.0
 40
5.0
  0
LINE
  5
1A90E
330
1E
100
AcDbEntity
  8
SIZE
  6
BYBLOCK
100
AcDbLine
 10
-656.4760347489356
 20
-301.4411010742177
 30
0.0
 11
-656.4760347489356
 21
-291.4411010742177
 31
0.0
  0
CIRCLE
  5
1A90F
330
1E
100
AcDbEntity
  8
SIZE
  6
BYBLOCK
100
AcDbCircle
 10
-745.226131390149
 20
-125.9999942264893
 30
0.0
 40
5.0
  0
LINE
  5
1A910
330
1E
100
AcDbEntity
  8
SIZE
  6
BYBLOCK
100
AcDbLine
 10
-745.226131390149
 20
-125.9999942264893
 30
0.0
 11
-745.226131390149
 21
-135.9999942264893
 31
0.0
  0
TEXT
  5
1A911
330
1E
100
AcDbEntity
  8
SIZE
  6
CONTINUOUS
100
AcDbText
 10
-233.9269242078971
 20
-375.1876314789825
 30
0.0
 40
64.0
  1
37
 50
90.0
 41
0.9
100
AcDbText
  0
CIRCLE
  5
1A912
330
1E
100
AcDbEntity
  8
SIZE
  6
BYBLOCK
100
AcDbCircle
 10
-324.5000000000163
 20
-527.6613006879524
 30
0.0
 40
5.0
  0
LINE
  5
1A913
330
1E
100
AcDbEntity
  8
SIZE
  6
BYBLOCK
100
AcDbLine
 10
-324.5000000000163
 20
-527.6613006879524
 30
0.0
 11
-314.5000000000163
 21
-527.6613006879524
 31
0.0
  0
CIRCLE
  5
1A914
330
1E
100
AcDbEntity
  8
SIZE
  6
BYBLOCK
100
AcDbCircle
 10
-362.5000000000091
 20
-527.6613006879524
 30
0.0
 40
5.0
  0
LINE
  5
1A915
330
1E
100
AcDbEntity
  8
SIZE
  6
BYBLOCK
100
AcDbLine
 10
-362.5000000000091
 20
-527.6613006879524
 30
0.0
 11
-372.5000000000091
 21
-527.6613006879524
 31
0.0
  0
CIRCLE
  5
1A916
330
1E
100
AcDbEntity
  8
SIZE
  6
BYBLOCK
100
AcDbCircle
 10
-362.5000000000091
 20
-527.6613006879524
 30
0.0
 40
5.0
  0
LINE
  5
1A917
330
1E
100
AcDbEntity
  8
SIZE
  6
BYBLOCK
100
AcDbLine
 10
-362.5000000000091
 20
-527.6613006879524
 30
0.0
 11
-372.5000000000091
 21
-527.6613006879524
 31
0.0
  0
CIRCLE
  5
1A918
330
1E
100
AcDbEntity
  8
SIZE
  6
BYBLOCK
100
AcDbCircle
 10
-213.9269242078972
 20
-198.9999942264912
 30
0.0
 40
5.0
  0
LINE
  5
1A919
330
1E
100
AcDbEntity
  8
SIZE
  6
BYBLOCK
100
AcDbLine
 10
-213.9269242078972
 20
-198.9999942264912
 30
0.0
 11
-213.9269242078972
 21
-188.9999942264912
 31
0.0
  0
CIRCLE
  5
1A91A
330
1E
100
AcDbEntity
  8
SIZE
  6
BYBLOCK
100
AcDbCircle
 10
-213.9269242078972
 20
-198.9999942264912
 30
0.0
 40
5.0
  0
LINE
  5
1A91B
330
1E
100
AcDbEntity
  8
SIZE
  6
BYBLOCK
100
AcDbLine
 10
-213.9269242078972
 20
-198.9999942264912
 30
0.0
 11
-213.9269242078972
 21
-188.9999942264912
 31
0.0
  0
CIRCLE
  5
1A91C
330
1E
100
AcDbEntity
  8
SIZE
  6
BYBLOCK
100
AcDbCircle
 10
-213.9269242078972
 20
-235.9999942264895
 30
0.0
 40
5.0
  0
LINE
  5
1A91D
330
1E
100
AcDbEntity
  8
SIZE
  6
BYBLOCK
100
AcDbLine
 10
-213.9269242078972
 20
-235.9999942264895
 30
0.0
 11
-213.9269242078972
 21
-245.9999942264895
 31
0.0
  0
CIRCLE
  5
1A91E
330
1E
100
AcDbEntity
  8
SIZE
  6
BYBLOCK
100
AcDbCircle
 10
609.9999999999981
 20
-708.6533459111924
 30
0.0
 40
5.0
  0
LINE
  5
1A91F
330
1E
100
AcDbEntity
  8
SIZE
  6
BYBLOCK
100
AcDbLine
 10
609.9999999999981
 20
-708.6533459111924
 30
0.0
 11
599.9999999999982
 21
-708.6533459111924
 31
0.0
  0
TEXT
  5
1A920
330
1E
100
AcDbEntity
  8
SIZE
  6
CONTINUOUS
100
AcDbText
 10
556.8714285714222
 20
-390.9646762075499
 30
0.0
 40
64.0
  1
77
 41
0.9
100
AcDbText
  0
CIRCLE
  5
1A921
330
1E
100
AcDbEntity
  8
SIZE
  6
BYBLOCK
100
AcDbCircle
 10
564.9999999999891
 20
-410.9646762075499
 30
0.0
 40
5.0
  0
LINE
  5
1A922
330
1E
100
AcDbEntity
  8
SIZE
  6
BYBLOCK
100
AcDbLine
 10
564.9999999999891
 20
-410.9646762075499
 30
0.0
 11
554.999999999989
 21
-410.9646762075499
 31
0.0
  0
CIRCLE
  5
1A923
330
1E
100
AcDbEntity
  8
SIZE
  6
BYBLOCK
100
AcDbCircle
 10
641.9999999999982
 20
-410.9646762075499
 30
0.0
 40
5.0
  0
LINE
  5
1A924
330
1E
100
AcDbEntity
  8
SIZE
  6
BYBLOCK
100
AcDbLine
 10
641.9999999999982
 20
-410.9646762075499
 30
0.0
 11
651.9999999999981
 21
-410.9646762075499
 31
0.0
  0
TEXT
  5
1A925
330
1E
100
AcDbEntity
  8
SIZE
  6
CONTINUOUS
100
AcDbText
 10
927.072299508687
 20
-315.3491219656798
 30
0.0
 40
64.0
  1
65
 50
90.0
 41
0.9
100
AcDbText
  0
CIRCLE
  5
1A926
330
1E
100
AcDbEntity
  8
SIZE
  6
BYBLOCK
100
AcDbCircle
 10
796.2390839491163
 20
-190.0
 30
0.0
 40
5.0
  0
LINE
  5
1A927
330
1E
100
AcDbEntity
  8
SIZE
  6
BYBLOCK
100
AcDbLine
 10
796.2390839491163
 20
-190.0
 30
0.0
 11
796.2390839491163
 21
-200.0
 31
0.0
  0
CIRCLE
  5
1A928
330
1E
100
AcDbEntity
  8
SIZE
  6
BYBLOCK
100
AcDbCircle
 10
947.072299508687
 20
-301.4411010742179
 30
0.0
 40
5.0
  0
LINE
  5
1A929
330
1E
100
AcDbEntity
  8
SIZE
  6
BYBLOCK
100
AcDbLine
 10
947.072299508687
 20
-301.4411010742179
 30
0.0
 11
947.072299508687
 21
-291.4411010742179
 31
0.0
  0
CIRCLE
  5
1A92A
330
1E
100
AcDbEntity
  8
SIZE
  6
BYBLOCK
100
AcDbCircle
 10
947.0722995086871
 20
-235.9999999999991
 30
0.0
 40
5.0
  0
LINE
  5
1A92B
330
1E
100
AcDbEntity
  8
SIZE
  6
BYBLOCK
100
AcDbLine
 10
947.0722995086871
 20
-235.9999999999991
 30
0.0
 11
947.0722995086871
 21
-245.9999999999991
 31
0.0
  0
CIRCLE
  5
1A92C
330
1E
100
AcDbEntity
  8
SIZE
  6
BYBLOCK
100
AcDbCircle
 10
947.0722995086871
 20
-235.9999999999946
 30
0.0
 40
5.0
  0
LINE
  5
1A92D
330
1E
100
AcDbEntity
  8
SIZE
  6
BYBLOCK
100
AcDbLine
 10
947.0722995086871
 20
-235.9999999999946
 30
0.0
 11
947.0722995086871
 21
-225.9999999999946
 31
0.0
  0
TEXT
  5
1A92E
330
1E
100
AcDbEntity
  8
SIZE
  6
CONTINUOUS
100
AcDbText
 10
-97.37142857142675
 20
627.7704195153855
 30
0.0
 40
64.0
  1
1284
 41
0.9
100
AcDbText
  0
TEXT
  5
1A92F
330
1E
100
AcDbEntity
  8
SIZE
  6
CONTINUOUS
100
AcDbText
 10
-96.00000000000727
 20
421.7798103879832
 30
0.0
 40
64.0
  1
1237
 41
0.9
100
AcDbText
  0
CIRCLE
  5
1A930
330
1E
100
AcDbEntity
  8
SIZE
  6
BYBLOCK
100
AcDbCircle
 10
-893.3547201553102
 20
0.0000057735042713
 30
0.0
 40
5.0
  0
LINE
  5
1A931
330
1E
100
AcDbEntity
  8
SIZE
  6
BYBLOCK
100
AcDbLine
 10
-893.3547201553102
 20
0.0000057735042713
 30
0.0
 11
-893.3547201553102
 21
-9.999994226495728
 31
0.0
  0
TEXT
  5
1A932
330
1E
100
AcDbEntity
  8
SIZE
  6
CONTINUOUS
100
AcDbText
 10
-720.3999999999971
 20
378.6686737967684
 30
0.0
 40
64.0
  1
2
 41
0.9
100
AcDbText
  0
TEXT
  5
1A933
330
1E
100
AcDbEntity
  8
SIZE
  6
CONTINUOUS
100
AcDbText
 10
-384.1285714285804
 20
291.8164656889384
 30
0.0
 40
64.0
  1
38
 41
0.9
100
AcDbText
  0
TEXT
  5
1A934
330
1E
100
AcDbEntity
  8
SIZE
  6
CONTINUOUS
100
AcDbText
 10
-439.0000000000146
 20
163.0152408087997
 30
0.0
 40
64.0
  1
85
 41
0.9
100
AcDbText
  0
CIRCLE
  5
1A935
330
1E
100
AcDbEntity
  8
SIZE
  6
BYBLOCK
100
AcDbCircle
 10
-745.226131390149
 20
0.0000057735042294
 30
0.0
 40
5.0
  0
LINE
  5
1A936
330
1E
100
AcDbEntity
  8
SIZE
  6
BYBLOCK
100
AcDbLine
 10
-745.226131390149
 20
0.0000057735042294
 30
0.0
 11
-745.226131390149
 21
10.00000577350423
 31
0.0
  0
CIRCLE
  5
1A937
330
1E
100
AcDbEntity
  8
SIZE
  6
BYBLOCK
100
AcDbCircle
 10
-642.0000000000164
 20
143.0152408087997
 30
0.0
 40
5.0
  0
LINE
  5
1A938
330
1E
100
AcDbEntity
  8
SIZE
  6
BYBLOCK
100
AcDbLine
 10
-642.0000000000164
 20
143.0152408087997
 30
0.0
 11
-652.0000000000163
 21
143.0152408087997
 31
0.0
  0
CIRCLE
  5
1A939
330
1E
100
AcDbEntity
  8
SIZE
  6
BYBLOCK
100
AcDbCircle
 10
-469.0000000000163
 20
143.0152408087997
 30
0.0
 40
5.0
  0
LINE
  5
1A93A
330
1E
100
AcDbEntity
  8
SIZE
  6
BYBLOCK
100
AcDbLine
 10
-469.0000000000163
 20
143.0152408087997
 30
0.0
 11
-479.0000000000163
 21
143.0152408087997
 31
0.0
  0
CIRCLE
  5
1A93B
330
1E
100
AcDbEntity
  8
SIZE
  6
BYBLOCK
100
AcDbCircle
 10
-554.0000000000055
 20
143.0152408087997
 30
0.0
 40
5.0
  0
LINE
  5
1A93C
330
1E
100
AcDbEntity
  8
SIZE
  6
BYBLOCK
100
AcDbLine
 10
-554.0000000000055
 20
143.0152408087997
 30
0.0
 11
-544.0000000000054
 21
143.0152408087997
 31
0.0
  0
CIRCLE
  5
1A93D
330
1E
100
AcDbEntity
  8
SIZE
  6
BYBLOCK
100
AcDbCircle
 10
-554.0000000000055
 20
143.0152408087997
 30
0.0
 40
5.0
  0
LINE
  5
1A93E
330
1E
100
AcDbEntity
  8
SIZE
  6
BYBLOCK
100
AcDbLine
 10
-554.0000000000055
 20
143.0152408087997
 30
0.0
 11
-544.0000000000054
 21
143.0152408087997
 31
0.0
  0
TEXT
  5
1A93F
330
1E
100
AcDbEntity
  8
SIZE
  6
CONTINUOUS
100
AcDbText
 10
-571.9357142857252
 20
291.8164656889384
 30
0.0
 40
64.0
  1
286
 41
0.9
100
AcDbText
  0
TEXT
  5
1A940
330
1E
100
AcDbEntity
  8
SIZE
  6
CONTINUOUS
100
AcDbText
 10
-644.6285714285822
 20
163.0152408087997
 30
0.0
 40
64.0
  1
88
 41
0.9
100
AcDbText
  0
CIRCLE
  5
1A941
330
1E
100
AcDbEntity
  8
SIZE
  6
BYBLOCK
100
AcDbCircle
 10
-642.0000000000164
 20
271.8164656889384
 30
0.0
 40
5.0
  0
LINE
  5
1A942
330
1E
100
AcDbEntity
  8
SIZE
  6
BYBLOCK
100
AcDbLine
 10
-642.0000000000164
 20
271.8164656889384
 30
0.0
 11
-632.0000000000163
 21
271.8164656889384
 31
0.0
  0
CIRCLE
  5
1A943
330
1E
100
AcDbEntity
  8
SIZE
  6
BYBLOCK
100
AcDbCircle
 10
-641.9999999999963
 20
358.6686737967684
 30
0.0
 40
5.0
  0
LINE
  5
1A944
330
1E
100
AcDbEntity
  8
SIZE
  6
BYBLOCK
100
AcDbLine
 10
-641.9999999999963
 20
358.6686737967684
 30
0.0
 11
-651.9999999999964
 21
358.6686737967684
 31
0.0
  0
CIRCLE
  5
1A945
330
1E
100
AcDbEntity
  8
SIZE
  6
BYBLOCK
100
AcDbCircle
 10
-639.9999999999963
 20
358.6686737967684
 30
0.0
 40
5.0
  0
LINE
  5
1A946
330
1E
100
AcDbEntity
  8
SIZE
  6
BYBLOCK
100
AcDbLine
 10
-639.9999999999963
 20
358.6686737967684
 30
0.0
 11
-629.9999999999963
 21
358.6686737967684
 31
0.0
  0
CIRCLE
  5
1A947
330
1E
100
AcDbEntity
  8
SIZE
  6
BYBLOCK
100
AcDbCircle
 10
-213.9269242078971
 20
-29.99999422649491
 30
0.0
 40
5.0
  0
LINE
  5
1A948
330
1E
100
AcDbEntity
  8
SIZE
  6
BYBLOCK
100
AcDbLine
 10
-213.9269242078971
 20
-29.99999422649491
 30
0.0
 11
-213.9269242078971
 21
-39.99999422649491
 31
0.0
  0
CIRCLE
  5
1A949
330
1E
100
AcDbEntity
  8
SIZE
  6
BYBLOCK
100
AcDbCircle
 10
-356.5000000000054
 20
271.8164656889384
 30
0.0
 40
5.0
  0
LINE
  5
1A94A
330
1E
100
AcDbEntity
  8
SIZE
  6
BYBLOCK
100
AcDbLine
 10
-356.5000000000054
 20
271.8164656889384
 30
0.0
 11
-366.5000000000054
 21
271.8164656889384
 31
0.0
  0
CIRCLE
  5
1A94B
330
1E
100
AcDbEntity
  8
SIZE
  6
BYBLOCK
100
AcDbCircle
 10
-318.5000000000127
 20
271.8164656889384
 30
0.0
 40
5.0
  0
LINE
  5
1A94C
330
1E
100
AcDbEntity
  8
SIZE
  6
BYBLOCK
100
AcDbLine
 10
-318.5000000000127
 20
271.8164656889384
 30
0.0
 11
-308.5000000000127
 21
271.8164656889384
 31
0.0
  0
CIRCLE
  5
1A94D
330
1E
100
AcDbEntity
  8
SIZE
  6
BYBLOCK
100
AcDbCircle
 10
-356.5000000000054
 20
271.8164656889384
 30
0.0
 40
5.0
  0
LINE
  5
1A94E
330
1E
100
AcDbEntity
  8
SIZE
  6
BYBLOCK
100
AcDbLine
 10
-356.5000000000054
 20
271.8164656889384
 30
0.0
 11
-366.5000000000054
 21
271.8164656889384
 31
0.0
  0
CIRCLE
  5
1A94F
330
1E
100
AcDbEntity
  8
SIZE
  6
BYBLOCK
100
AcDbCircle
 10
-618.5000000000018
 20
401.7798103879831
 30
0.0
 40
5.0
  0
LINE
  5
1A950
330
1E
100
AcDbEntity
  8
SIZE
  6
BYBLOCK
100
AcDbLine
 10
-618.5000000000018
 20
401.7798103879831
 30
0.0
 11
-608.5000000000018
 21
401.7798103879831
 31
0.0
  0
CIRCLE
  5
1A951
330
1E
100
AcDbEntity
  8
SIZE
  6
BYBLOCK
100
AcDbCircle
 10
-641.9999999999963
 20
607.7704195153856
 30
0.0
 40
5.0
  0
LINE
  5
1A952
330
1E
100
AcDbEntity
  8
SIZE
  6
BYBLOCK
100
AcDbLine
 10
-641.9999999999963
 20
607.7704195153856
 30
0.0
 11
-631.9999999999963
 21
607.7704195153856
 31
0.0
  0
TEXT
  5
1A953
330
1E
100
AcDbEntity
  8
SIZE
  6
CONTINUOUS
100
AcDbText
 10
682.0000000000007
 20
338.4457977186248
 30
0.0
 40
64.0
  1
2
 41
0.9
100
AcDbText
  0
CIRCLE
  5
1A954
330
1E
100
AcDbEntity
  8
SIZE
  6
BYBLOCK
100
AcDbCircle
 10
534.9972248640588
 20
0.0000000000004727
 30
0.0
 40
5.0
  0
LINE
  5
1A955
330
1E
100
AcDbEntity
  8
SIZE
  6
BYBLOCK
100
AcDbLine
 10
534.9972248640588
 20
0.0000000000004727
 30
0.0
 11
534.9972248640588
 21
10.00000000000047
 31
0.0
  0
CIRCLE
  5
1A956
330
1E
100
AcDbEntity
  8
SIZE
  6
BYBLOCK
100
AcDbCircle
 10
534.9972248640588
 20
-5.99999999999407
 30
0.0
 40
5.0
  0
LINE
  5
1A957
330
1E
100
AcDbEntity
  8
SIZE
  6
BYBLOCK
100
AcDbLine
 10
534.9972248640588
 20
-5.99999999999407
 30
0.0
 11
534.9972248640588
 21
-15.99999999999407
 31
0.0
  0
TEXT
  5
1A958
330
1E
100
AcDbEntity
  8
SIZE
  6
CONTINUOUS
100
AcDbText
 10
514.9972248640588
 20
40.00000000000387
 30
0.0
 40
64.0
  1
6
 50
90.0
 41
0.9
100
AcDbText
  0
CIRCLE
  5
1A959
330
1E
100
AcDbEntity
  8
SIZE
  6
BYBLOCK
100
AcDbCircle
 10
642.0
 20
318.4457977186248
 30
0.0
 40
5.0
  0
LINE
  5
1A95A
330
1E
100
AcDbEntity
  8
SIZE
  6
BYBLOCK
100
AcDbLine
 10
642.0
 20
318.4457977186248
 30
0.0
 11
652.0
 21
318.4457977186248
 31
0.0
  0
CIRCLE
  5
1A95B
330
1E
100
AcDbEntity
  8
SIZE
  6
BYBLOCK
100
AcDbCircle
 10
639.9999999999963
 20
318.4457977186248
 30
0.0
 40
5.0
  0
LINE
  5
1A95C
330
1E
100
AcDbEntity
  8
SIZE
  6
BYBLOCK
100
AcDbLine
 10
639.9999999999963
 20
318.4457977186248
 30
0.0
 11
629.9999999999963
 21
318.4457977186248
 31
0.0
  0
CIRCLE
  5
1A95D
330
1E
100
AcDbEntity
  8
SIZE
  6
BYBLOCK
100
AcDbCircle
 10
618.4999999999891
 20
401.7798103879831
 30
0.0
 40
5.0
  0
LINE
  5
1A95E
330
1E
100
AcDbEntity
  8
SIZE
  6
BYBLOCK
100
AcDbLine
 10
618.4999999999891
 20
401.7798103879831
 30
0.0
 11
608.499999999989
 21
401.7798103879831
 31
0.0
  0
CIRCLE
  5
1A95F
330
1E
100
AcDbEntity
  8
SIZE
  6
BYBLOCK
100
AcDbCircle
 10
642.0
 20
607.7704195153856
 30
0.0
 40
5.0
  0
LINE
  5
1A960
330
1E
100
AcDbEntity
  8
SIZE
  6
BYBLOCK
100
AcDbLine
 10
642.0
 20
607.7704195153856
 30
0.0
 11
632.0
 21
607.7704195153856
 31
0.0
  0
CIRCLE
  5
1A961
330
1E
100
AcDbEntity
  8
SIZE
  6
BYBLOCK
100
AcDbCircle
 10
796.2390839491163
 20
0.0000000000004101
 30
0.0
 40
5.0
  0
LINE
  5
1A962
330
1E
100
AcDbEntity
  8
SIZE
  6
BYBLOCK
100
AcDbLine
 10
796.2390839491163
 20
0.0000000000004101
 30
0.0
 11
796.2390839491163
 21
10.00000000000041
 31
0.0
  0
CIRCLE
  5
1A963
330
1E
100
AcDbEntity
  8
SIZE
  6
BYBLOCK
100
AcDbCircle
 10
947.0722995086871
 20
0.000000000000368
 30
0.0
 40
5.0
  0
LINE
  5
1A964
330
1E
100
AcDbEntity
  8
SIZE
  6
BYBLOCK
100
AcDbLine
 10
947.0722995086871
 20
0.000000000000368
 30
0.0
 11
947.0722995086871
 21
-9.999999999999632
 31
0.0
  0
LINE
  5
1A965
330
1E
100
AcDbEntity
  8
OUTLINE
100
AcDbLine
 10
640.0
 20
-47.11240999999972
 30
0.0
 11
640.0
 21
-230.0
 31
0.0
  0
LINE
  5
1A96A
330
1E
100
AcDbEntity
  8
OUTLINE
100
AcDbLine
 10
-640.0
 20
-47.11240999999972
 30
0.0
 11
-640.0
 21
-230.0
 31
0.0
  0
LINE
  5
1A96F
330
1E
100
AcDbEntity
  8
OUTLINE
100
AcDbLine
 10
600.0
 20
-236.0
 30
0.0
 11
-600.0
 21
-236.0
 31
0.0
  0
LINE
  5
1A970
330
1E
100
AcDbEntity
  8
OUTLINE
  6
CONTINUOUS
100
AcDbLine
 10
-600.0499572753906
 20
-300.9868164062491
 30
0.0
 11
600.0499572753906
 21
-300.9868164062491
 31
0.0
  0
LINE
  5
1A973
330
1E
100
AcDbEntity
  8
OUTLINE
  6
CONTINUOUS
100
AcDbLine
 10
600.0499572753906
 20
-232.4742279052725
 30
0.0
 11
-600.0499572753906
 21
-232.4742279052725
 31
0.0
  0
LINE
  5
1A987
330
1E
100
AcDbEntity
  8
OUTLINE
100
AcDbLine
 10
-639.1801399999986
 20
-230.1501400000015
 30
0.0
 11
-608.0806800000027
 21
-235.845580000001
 31
0.0
  0
ARC
  5
1A988
330
1E
100
AcDbEntity
  8
OUTLINE
100
AcDbCircle
 10
-607.9005400000005
 20
-234.8619400000007
 30
0.0
 40
1.0
100
AcDbArc
 50
259.6220679999945
 51
269.0000000000238
  0
ARC
  5
1A989
330
1E
100
AcDbEntity
  8
OUTLINE
100
AcDbCircle
 10
-638.9999999999964
 20
-229.1665000000012
 30
0.0
 40
1.0
100
AcDbArc
 50
180.0
 51
259.6220679999945
  0
LINE
  5
1A98A
330
1E
100
AcDbEntity
  8
OUTLINE
100
AcDbLine
 10
-600.0
 20
-236.0
 30
0.0
 11
-607.9179999999996
 21
-235.861789999999
 31
0.0
  0
ARC
  5
1A98B
330
1E
100
AcDbEntity
  8
OUTLINE
  6
CONTINUOUS
100
AcDbCircle
 10
-609.4367525568468
 20
-234.0175134567735
 30
0.0
 40
0.5558684264385195
100
AcDbArc
 50
101.0191128147808
 51
142.9665023241636
  0
ARC
  5
1A98C
330
1E
100
AcDbEntity
  8
OUTLINE
  6
CONTINUOUS
100
AcDbCircle
 10
-609.1667235065687
 20
-234.1244201660147
 30
0.0
 40
0.8393822894803422
100
AcDbArc
 50
148.2498780667439
 51
186.9150048400321
  0
ARC
  5
1A98E
330
1E
100
AcDbEntity
  8
OUTLINE
  6
CONTINUOUS
100
AcDbCircle
 10
-604.9588604937234
 20
-254.825685717883
 30
0.0
 40
21.84030170289809
100
AcDbArc
 50
93.71080451880933
 51
102.1161149267416
  0
ARC
  5
1A990
330
1E
100
AcDbEntity
  8
OUTLINE
  6
CONTINUOUS
100
AcDbCircle
 10
-587.6345326666105
 20
-465.0475141740326
 30
0.0
 40
232.7717530065937
100
AcDbArc
 50
93.05746246765069
 51
94.61723636192038
  0
LINE
  5
1A992
330
1E
100
AcDbEntity
  8
OUTLINE
  6
CONTINUOUS
100
AcDbLine
 10
-600.0499572753906
 20
-232.6070998103802
 30
0.0
 11
-600.0499572753906
 21
-232.4742279052725
 31
0.0
  0
ARC
  5
1A993
330
1E
100
AcDbEntity
  8
OUTLINE
  6
CONTINUOUS
100
AcDbCircle
 10
-600.9598741878617
 20
-294.1993696863091
 30
0.0
 40
7.298672638378725
100
AcDbArc
 50
182.8894694311342
 51
277.1616310189471
  0
LINE
  5
1A996
330
1E
100
AcDbEntity
  8
OUTLINE
  6
CONTINUOUS
100
AcDbLine
 10
-600.0499572753906
 20
-300.9868164062491
 30
0.0
 11
-600.0499572753906
 21
-301.4411010742178
 31
0.0
  0
LINE
  5
1A997
330
1E
100
AcDbEntity
  8
OUTLINE
  6
CONTINUOUS
100
AcDbLine
 10
-610.0
 20
-234.2254791259756
 30
0.0
 11
-608.2492675781249
 21
-294.5672912597647
 31
0.0
  0
LINE
  5
1AA5F
330
1E
100
AcDbEntity
  8
OUTLINE
100
AcDbLine
 10
639.1801399999986
 20
-230.1501400000015
 30
0.0
 11
608.0806800000027
 21
-235.845580000001
 31
0.0
  0
LINE
  5
1AA60
330
1E
100
AcDbEntity
  8
OUTLINE
100
AcDbLine
 10
600.0
 20
-236.0
 30
0.0
 11
607.9179899999963
 21
-235.861789999999
 31
0.0
  0
ARC
  5
1AA61
330
1E
100
AcDbEntity
  8
OUTLINE
100
AcDbCircle
 10
607.9005400000005
 20
-234.8619400000007
 30
0.0
 40
1.0
100
AcDbArc
 50
270.9999999999761
 51
280.3779320000054
  0
ARC
  5
1AA62
330
1E
100
AcDbEntity
  8
OUTLINE
100
AcDbCircle
 10
638.9999999999964
 20
-229.1665000000012
 30
0.0
 40
1.0
100
AcDbArc
 50
280.3779320000054
 51
0.0
  0
ARC
  5
1AA63
330
1E
100
AcDbEntity
  8
OUTLINE
  6
CONTINUOUS
100
AcDbCircle
 10
609.1667235065687
 20
-234.1244201660147
 30
0.0
 40
0.8393822894803422
100
AcDbArc
 50
353.0849951599678
 51
31.75012193325605
  0
ARC
  5
1AA64
330
1E
100
AcDbEntity
  8
OUTLINE
  6
CONTINUOUS
100
AcDbCircle
 10
609.4367525568468
 20
-234.0175134567735
 30
0.0
 40
0.5558684264385195
100
AcDbArc
 50
37.03349767583637
 51
78.98088718521917
  0
ARC
  5
1AA66
330
1E
100
AcDbEntity
  8
OUTLINE
  6
CONTINUOUS
100
AcDbCircle
 10
604.9588604937234
 20
-254.825685717883
 30
0.0
 40
21.84030170289809
100
AcDbArc
 50
77.88388507325837
 51
86.28919548119068
  0
ARC
  5
1AA67
330
1E
100
AcDbEntity
  8
OUTLINE
  6
CONTINUOUS
100
AcDbCircle
 10
587.6345326666105
 20
-465.0475141740326
 30
0.0
 40
232.7717530065937
100
AcDbArc
 50
85.38276363807964
 51
86.94253753234931
  0
LINE
  5
1AA69
330
1E
100
AcDbEntity
  8
OUTLINE
  6
CONTINUOUS
100
AcDbLine
 10
600.0499877929678
 20
-232.6071014404287
 30
0.0
 11
600.0499572753906
 21
-232.4742279052725
 31
0.0
  0
ARC
  5
1AA6C
330
1E
100
AcDbEntity
  8
OUTLINE
  6
CONTINUOUS
100
AcDbCircle
 10
600.9598741878617
 20
-294.1993696863091
 30
0.0
 40
7.298672638378725
100
AcDbArc
 50
262.8383689810529
 51
357.1105305688657
  0
LINE
  5
1AA6D
330
1E
100
AcDbEntity
  8
OUTLINE
  6
CONTINUOUS
100
AcDbLine
 10
600.0499572753906
 20
-300.9868164062491
 30
0.0
 11
600.0499572753906
 21
-301.4411010742178
 31
0.0
  0
LINE
  5
1AA71
330
1E
100
AcDbEntity
  8
OUTLINE
  6
CONTINUOUS
100
AcDbLine
 10
610.0
 20
-234.2254791259756
 30
0.0
 11
608.2492675781249
 21
-294.5672912597647
 31
0.0
  0
LINE
  5
1AA72
330
1E
100
AcDbEntity
  8
OUTLINE
100
AcDbLine
 10
600.0
 20
-6.0
 30
0.0
 11
-600.0
 21
-6.0
 31
0.0
  0
ARC
  5
1AA74
330
1E
100
AcDbEntity
  8
OUTLINE
100
AcDbCircle
 10
-640.9999999999963
 20
-1.0
 30
0.0
 40
1.0
100
AcDbArc
 50
90.0
 51
180.0
  0
LINE
  5
1AA75
330
1E
100
AcDbEntity
  8
OUTLINE
100
AcDbLine
 10
-600.0
 20
0.0
 30
0.0
 11
-640.9999999999963
 21
0.0
 31
0.0
  0
LINE
  5
1AA76
330
1E
100
AcDbEntity
  8
OUTLINE
100
AcDbLine
 10
-641.9999999999963
 20
-1.0
 30
0.0
 11
-641.9999999999982
 21
-7.918859999999767
 31
0.0
  0
LINE
  5
1AA77
330
1E
100
AcDbEntity
  8
OUTLINE
100
AcDbLine
 10
-631.0256599999957
 20
-12.65810999999848
 30
0.0
 11
-640.9743400000024
 21
-9.341880000001765
 31
0.0
  0
ARC
  5
1AA78
330
1E
100
AcDbEntity
  8
OUTLINE
100
AcDbCircle
 10
-640.5000000000018
 20
-7.918859999999767
 30
0.0
 40
1.5
100
AcDbArc
 50
180.0
 51
251.5650509999979
  0
ARC
  5
1AA79
330
1E
100
AcDbEntity
  8
OUTLINE
100
AcDbCircle
 10
-631.4999999999963
 20
-14.08113999999841
 30
0.0
 40
1.5
100
AcDbArc
 50
0.0
 51
71.56505099999794
  0
LINE
  5
1AA7A
330
1E
100
AcDbEntity
  8
OUTLINE
100
AcDbLine
 10
-600.0
 20
0.0
 30
0.0
 11
-600.0
 21
-6.0
 31
0.0
  0
LINE
  5
1AA7B
330
1E
100
AcDbEntity
  8
OUTLINE
100
AcDbLine
 10
-630.0
 20
-41.52364999999917
 30
0.0
 11
-634.5072100000016
 21
-41.60232000000178
 31
0.0
  0
LINE
  5
1AA7C
330
1E
100
AcDbEntity
  8
OUTLINE
100
AcDbLine
 10
-639.7071099999993
 20
-46.40531000000009
 30
0.0
 11
-635.1968699999997
 21
-41.89507000000048
 31
0.0
  0
ARC
  5
1AA7D
330
1E
100
AcDbEntity
  8
OUTLINE
100
AcDbCircle
 10
-634.4897599999967
 20
-42.60217000000011
 30
0.0
 40
1.0
100
AcDbArc
 50
90.99999999997615
 51
135.0
  0
ARC
  5
1AA7E
330
1E
100
AcDbEntity
  8
OUTLINE
100
AcDbCircle
 10
-638.9999999999964
 20
-47.11240999999972
 30
0.0
 40
1.0
100
AcDbArc
 50
135.0
 51
180.0
  0
LINE
  5
1AA7F
330
1E
100
AcDbEntity
  8
OUTLINE
100
AcDbLine
 10
-630.0
 20
-14.08113999999841
 30
0.0
 11
-630.0
 21
-41.52364999999917
 31
0.0
  0
ARC
  5
1AA84
330
1E
100
AcDbEntity
  8
OUTLINE
100
AcDbCircle
 10
641.0
 20
-1.0
 30
0.0
 40
1.0
100
AcDbArc
 50
0.0
 51
90.0
  0
LINE
  5
1AA85
330
1E
100
AcDbEntity
  8
OUTLINE
100
AcDbLine
 10
641.0
 20
0.0
 30
0.0
 11
600.0000000000018
 21
0.0
 31
0.0
  0
LINE
  5
1AA86
330
1E
100
AcDbEntity
  8
OUTLINE
100
AcDbLine
 10
600.0000000000018
 20
0.0
 30
0.0
 11
600.0
 21
-6.0
 31
0.0
  0
LINE
  5
1AA87
330
1E
100
AcDbEntity
  8
OUTLINE
100
AcDbLine
 10
642.0
 20
-1.0
 30
0.0
 11
641.9999999999982
 21
-7.918859999999767
 31
0.0
  0
LINE
  5
1AA88
330
1E
100
AcDbEntity
  8
OUTLINE
100
AcDbLine
 10
631.0256500000014
 20
-12.65810999999848
 30
0.0
 11
640.9743400000024
 21
-9.341880000001765
 31
0.0
  0
ARC
  5
1AA89
330
1E
100
AcDbEntity
  8
OUTLINE
100
AcDbCircle
 10
640.5000000000018
 20
-7.918859999999767
 30
0.0
 40
1.5
100
AcDbArc
 50
288.434949000002
 51
0.0
  0
ARC
  5
1AA8A
330
1E
100
AcDbEntity
  8
OUTLINE
100
AcDbCircle
 10
631.4999999999963
 20
-14.08113999999841
 30
0.0
 40
1.5
100
AcDbArc
 50
108.434949000002
 51
180.0
  0
LINE
  5
1AA8B
330
1E
100
AcDbEntity
  8
OUTLINE
100
AcDbLine
 10
630.0
 20
-41.52364999999917
 30
0.0
 11
634.5072100000016
 21
-41.60232000000178
 31
0.0
  0
LINE
  5
1AA8C
330
1E
100
AcDbEntity
  8
OUTLINE
100
AcDbLine
 10
639.707099999996
 20
-46.40531000000009
 30
0.0
 11
635.1968599999963
 21
-41.89507000000048
 31
0.0
  0
ARC
  5
1AA8D
330
1E
100
AcDbEntity
  8
OUTLINE
100
AcDbCircle
 10
634.4897500000024
 20
-42.60217000000011
 30
0.0
 40
1.0
100
AcDbArc
 50
45.0
 51
89.00000000002384
  0
ARC
  5
1AA8E
330
1E
100
AcDbEntity
  8
OUTLINE
100
AcDbCircle
 10
638.9999999999964
 20
-47.11240999999972
 30
0.0
 40
1.0
100
AcDbArc
 50
0.0
 51
45.0
  0
LINE
  5
1AA8F
330
1E
100
AcDbEntity
  8
OUTLINE
100
AcDbLine
 10
630.0
 20
-14.08113999999841
 30
0.0
 11
630.0
 21
-41.52364999999917
 31
0.0
  0
ENDSEC
  0
SECTION
  2
OBJECTS
  0
DICTIONARY
  5
C
330
0
100
AcDbDictionary
  3
ACAD_GROUP
350
D
  3
ACAD_LAYOUT
350
19
  3
ACAD_MLINESTYLE
350
16
  3
ACAD_PLOTSETTINGS
350
18
  3
ACAD_PLOTSTYLENAME
350
E
  3
ACDBHEADERROUNDTRIPXREC
350
1AABA
  0
DICTIONARY
  5
1AADD
330
1E
100
AcDbDictionary
280
     1
  3
ACAD_LAYOUTSELFREF
360
1AADE
  0
DICTIONARY
  5
1AADB
330
1A
100
AcDbDictionary
280
     1
  3
ACAD_LAYOUTSELFREF
360
1AADC
  0
DICTIONARY
  5
D
102
{ACAD_REACTORS
330
C
102
}
330
C
100
AcDbDictionary
  0
DICTIONARY
  5
19
102
{ACAD_REACTORS
330
C
102
}
330
C
100
AcDbDictionary
  0
DICTIONARY
  5
16
102
{ACAD_REACTORS
330
C
102
}
330
C
100
AcDbDictionary
  3
STANDARD
350
17
  0
DICTIONARY
  5
18
102
{ACAD_REACTORS
330
C
102
}
330
C
100
AcDbDictionary
  0
ACDBDICTIONARYWDFLT
  5
E
102
{ACAD_REACTORS
330
C
102
}
330
C
100
AcDbDictionary
281
     1
  3
Normal
350
F
100
AcDbDictionaryWithDefault
340
F
  0
DICTIONARY
  5
1AABA
102
{ACAD_REACTORS
330
C
102
}
330
C
100
AcDbDictionary
  3
CEPSNTYPE
350
1AAC4
  3
DIMSTYLEDATA
350
1AAC8
  3
FINGERPRINTGUID
350
1AAC5
  3
HYPERLINKBASE
350
1AABD
  3
INSUNITS
350
1AAC3
  3
LAYOUTDICT
350
1AABF
  3
LWETCUNION
350
1AAC2
  3
PLOTSETDICT
350
1AAC0
  3
PLOTSTYLNAMDICT
350
1AAC1
  3
PSVPSCALE
350
1AAC7
  3
PUCSBASE
350
1AACB
  3
PUCSORGBACK
350
1AAD1
  3
PUCSORGBOTTOM
350
1AACD
  3
PUCSORGFRONT
350
1AAD0
  3
PUCSORGLEFT
350
1AACE
  3
PUCSORGRIGHT
350
1AACF
  3
PUCSORGTOP
350
1AACC
  3
PUCSORTHOREF
350
1AAC9
  3
PUCSORTHOVIEW
350
1AACA
  3
STYLESHEET
350
1AABE
  3
TSTACKALIGN
350
1AABB
  3
TSTACKSIZE
350
1AABC
  3
UCSBASE
350
1AAD4
  3
UCSORGBACK
350
1AADA
  3
UCSORGBOTTOM
350
1AAD6
  3
UCSORGFRONT
350
1AAD9
  3
UCSORGLEFT
350
1AAD7
  3
UCSORGRIGHT
350
1AAD8
  3
UCSORGTOP
350
1AAD5
  3
UCSORTHOREF
350
1AAD2
  3
UCSORTHOVIEW
350
1AAD3
  3
VERSIONGUID
350
1AAC6
  0
XRECORD
  5
1AADE
102
{ACAD_REACTORS
330
1AADD
102
}
330
1AADD
100
AcDbXrecord
340
1E
  0
XRECORD
  5
1AADC
102
{ACAD_REACTORS
330
1AADB
102
}
330
1AADB
100
AcDbXrecord
340
1A
  0
MLINESTYLE
  5
17
102
{ACAD_REACTORS
330
16
102
}
330
16
100
AcDbMlineStyle
  2
STANDARD
 70
     0
  3

 62
   256
 51
90.0
 52
90.0
 71
     2
 49
0.5
 62
   256
  6
BYLAYER
 49
-0.5
 62
   256
  6
BYLAYER
  0
ACDBPLACEHOLDER
  5
F
102
{ACAD_REACTORS
330
E
102
}
330
E
100
AcDbPlaceHolder
280
     0
  0
XRECORD
  5
1AAC4
102
{ACAD_REACTORS
330
1AABA
102
}
330
1AABA
100
AcDbXrecord
 90
        0
  0
XRECORD
  5
1AAC8
102
{ACAD_REACTORS
330
1AABA
102
}
330
1AABA
100
AcDbXrecord
1000
DSTYLE
1002
{
1070
   341
340
125
1070
   342
340
125
1002
}
  0
XRECORD
  5
1AAC5
102
{ACAD_REACTORS
330
1AABA
102
}
330
1AABA
100
AcDbXrecord
  1
{A6FF70D2-A361-4CC0-B5C4-66635CB0F7A7}
  0
XRECORD
  5
1AABD
102
{ACAD_REACTORS
330
1AABA
102
}
330
1AABA
100
AcDbXrecord
  1

  0
XRECORD
  5
1AAC3
102
{ACAD_REACTORS
330
1AABA
102
}
330
1AABA
100
AcDbXrecord
 90
        0
  0
XRECORD
  5
1AABF
102
{ACAD_REACTORS
330
1AABA
102
}
330
1AABA
100
AcDbXrecord
340
19
  0
XRECORD
  5
1AAC2
102
{ACAD_REACTORS
330
1AABA
102
}
330
1AABA
100
AcDbXrecord
 90
     2589
  0
XRECORD
  5
1AAC0
102
{ACAD_REACTORS
330
1AABA
102
}
330
1AABA
100
AcDbXrecord
340
18
  0
XRECORD
  5
1AAC1
102
{ACAD_REACTORS
330
1AABA
102
}
330
1AABA
100
AcDbXrecord
340
E
  0
XRECORD
  5
1AAC7
102
{ACAD_REACTORS
330
1AABA
102
}
330
1AABA
100
AcDbXrecord
 40
0.0
  0
XRECORD
  5
1AACB
102
{ACAD_REACTORS
330
1AABA
102
}
330
1AABA
100
AcDbXrecord
340
0
  0
XRECORD
  5
1AAD1
102
{ACAD_REACTORS
330
1AABA
102
}
330
1AABA
100
AcDbXrecord
 10
0.0
 20
0.0
 30
0.0
  0
XRECORD
  5
1AACD
102
{ACAD_REACTORS
330
1AABA
102
}
330
1AABA
100
AcDbXrecord
 10
0.0
 20
0.0
 30
0.0
  0
XRECORD
  5
1AAD0
102
{ACAD_REACTORS
330
1AABA
102
}
330
1AABA
100
AcDbXrecord
 10
0.0
 20
0.0
 30
0.0
  0
XRECORD
  5
1AACE
102
{ACAD_REACTORS
330
1AABA
102
}
330
1AABA
100
AcDbXrecord
 10
0.0
 20
0.0
 30
0.0
  0
XRECORD
  5
1AACF
102
{ACAD_REACTORS
330
1AABA
102
}
330
1AABA
100
AcDbXrecord
 10
0.0
 20
0.0
 30
0.0
  0
XRECORD
  5
1AACC
102
{ACAD_REACTORS
330
1AABA
102
}
330
1AABA
100
AcDbXrecord
 10
0.0
 20
0.0
 30
0.0
  0
XRECORD
  5
1AAC9
102
{ACAD_REACTORS
330
1AABA
102
}
330
1AABA
100
AcDbXrecord
340
0
  0
XRECORD
  5
1AACA
102
{ACAD_REACTORS
330
1AABA
102
}
330
1AABA
100
AcDbXrecord
 70
     0
  0
XRECORD
  5
1AABE
102
{ACAD_REACTORS
330
1AABA
102
}
330
1AABA
100
AcDbXrecord
  1

  0
XRECORD
  5
1AABB
102
{ACAD_REACTORS
330
1AABA
102
}
330
1AABA
100
AcDbXrecord
 90
        1
  0
XRECORD
  5
1AABC
102
{ACAD_REACTORS
330
1AABA
102
}
330
1AABA
100
AcDbXrecord
 90
       70
  0
XRECORD
  5
1AAD4
102
{ACAD_REACTORS
330
1AABA
102
}
330
1AABA
100
AcDbXrecord
340
0
  0
XRECORD
  5
1AADA
102
{ACAD_REACTORS
330
1AABA
102
}
330
1AABA
100
AcDbXrecord
 10
0.0
 20
0.0
 30
0.0
  0
XRECORD
  5
1AAD6
102
{ACAD_REACTORS
330
1AABA
102
}
330
1AABA
100
AcDbXrecord
 10
0.0
 20
0.0
 30
0.0
  0
XRECORD
  5
1AAD9
102
{ACAD_REACTORS
330
1AABA
102
}
330
1AABA
100
AcDbXrecord
 10
0.0
 20
0.0
 30
0.0
  0
XRECORD
  5
1AAD7
102
{ACAD_REACTORS
330
1AABA
102
}
330
1AABA
100
AcDbXrecord
 10
0.0
 20
0.0
 30
0.0
  0
XRECORD
  5
1AAD8
102
{ACAD_REACTORS
330
1AABA
102
}
330
1AABA
100
AcDbXrecord
 10
0.0
 20
0.0
 30
0.0
  0
XRECORD
  5
1AAD5
102
{ACAD_REACTORS
330
1AABA
102
}
330
1AABA
100
AcDbXrecord
 10
0.0
 20
0.0
 30
0.0
  0
XRECORD
  5
1AAD2
102
{ACAD_REACTORS
330
1AABA
102
}
330
1AABA
100
AcDbXrecord
340
0
  0
XRECORD
  5
1AAD3
102
{ACAD_REACTORS
330
1AABA
102
}
330
1AABA
100
AcDbXrecord
 70
     0
  0
XRECORD
  5
1AAC6
102
{ACAD_REACTORS
330
1AABA
102
}
330
1AABA
100
AcDbXrecord
  1
{7EA5D4AB-9678-4E31-98DD-81885AADBB54}
  0
ENDSEC
  0
EOF
