  0
SECTION
  2
HEADER
  9
$ACADVER
  1
AC1014
  9
$ACADMAINTVER
 70
     9
  9
$DWGCODEPAGE
  3
ANSI_932
  9
$INSBASE
 10
0.0
 20
0.0
 30
0.0
  9
$EXTMIN
 10
-705.1877128784399
 20
-955.0897414599804
 30
0.0
  9
$EXTMAX
 10
4633.504404407053
 20
3273.378972353242
 30
0.0
  9
$LIMMIN
 10
-761.9414548510307
 20
-3321.206755397753
  9
$LIMMAX
 10
7957.007260289675
 20
2813.85708885039
  9
$ORTHOMODE
 70
     1
  9
$REGENMODE
 70
     1
  9
$FILLMODE
 70
     1
  9
$QTEXTMODE
 70
     0
  9
$MIRRTEXT
 70
     0
  9
$DRAGMODE
 70
     2
  9
$LTSCALE
 40
20.0
  9
$OSMODE
 70
    39
  9
$ATTMODE
 70
     1
  9
$TEXTSIZE
 40
64.0
  9
$TRACEWID
 40
0.05
  9
$TEXTSTYLE
  7
STANDARD
  9
$CLAYER
  8
SIZE
  9
$CELTYPE
  6
CONTINUOUS
  9
$CECOLOR
 62
   256
  9
$CELTSCALE
 40
1.0
  9
$DELOBJ
 70
     1
  9
$DISPSILH
 70
     0
  9
$DIMSCALE
 40
1.0
  9
$DIMASZ
 40
10.0
  9
$DIMEXO
 40
20.0
  9
$DIMDLI
 40
200.0
  9
$DIMRND
 40
0.0
  9
$DIMDLE
 40
0.0
  9
$DIMEXE
 40
20.0
  9
$DIMTP
 40
0.0
  9
$DIMTM
 40
0.0
  9
$DIMTXT
 40
50.0
  9
$DIMCEN
 40
0.082
  9
$DIMTSZ
 40
0.0
  9
$DIMTOL
 70
     0
  9
$DIMLIM
 70
     0
  9
$DIMTIH
 70
     0
  9
$DIMTOH
 70
     0
  9
$DIMSE1
 70
     0
  9
$DIMSE2
 70
     0
  9
$DIMTAD
 70
     1
  9
$DIMZIN
 70
     8
  9
$DIMBLK
  1
ORIGIN
  9
$DIMASO
 70
     1
  9
$DIMSHO
 70
     0
  9
$DIMPOST
  1

  9
$DIMAPOST
  1

  9
$DIMALT
 70
     0
  9
$DIMALTD
 70
     2
  9
$DIMALTF
 40
25.4
  9
$DIMLFAC
 40
1.0
  9
$DIMTOFL
 70
     1
  9
$DIMTVP
 40
0.0
  9
$DIMTIX
 70
     0
  9
$DIMSOXD
 70
     0
  9
$DIMSAH
 70
     0
  9
$DIMBLK1
  1

  9
$DIMBLK2
  1

  9
$DIMSTYLE
  2
STANDARD
  9
$DIMCLRD
 70
     0
  9
$DIMCLRE
 70
     0
  9
$DIMCLRT
 70
     0
  9
$DIMTFAC
 40
1.0
  9
$DIMGAP
 40
10.0
  9
$DIMJUST
 70
     0
  9
$DIMSD1
 70
     0
  9
$DIMSD2
 70
     0
  9
$DIMTOLJ
 70
     1
  9
$DIMTZIN
 70
     0
  9
$DIMALTZ
 70
     0
  9
$DIMALTTZ
 70
     0
  9
$DIMFIT
 70
     3
  9
$DIMUPT
 70
     0
  9
$DIMUNIT
 70
     2
  9
$DIMDEC
 70
     0
  9
$DIMTDEC
 70
     0
  9
$DIMALTU
 70
     2
  9
$DIMALTTD
 70
     2
  9
$DIMTXSTY
  7
STANDARD
  9
$DIMAUNIT
 70
     0
  9
$LUNITS
 70
     2
  9
$LUPREC
 70
     4
  9
$SKETCHINC
 40
0.1
  9
$FILLETRAD
 40
10.0
  9
$AUNITS
 70
     1
  9
$AUPREC
 70
     3
  9
$MENU
  1
ACAD
  9
$ELEVATION
 40
0.0
  9
$PELEVATION
 40
0.0
  9
$THICKNESS
 40
0.0
  9
$LIMCHECK
 70
     0
  9
$BLIPMODE
 70
     0
  9
$CHAMFERA
 40
0.0
  9
$CHAMFERB
 40
0.0
  9
$CHAMFERC
 40
0.0
  9
$CHAMFERD
 40
0.0
  9
$SKPOLY
 70
     0
  9
$TDCREATE
 40
2450330.393205995
  9
$TDUPDATE
 40
2455374.383372210
  9
$TDINDWG
 40
3.3959429282
  9
$TDUSRTIMER
 40
3.3959421991
  9
$USRTIMER
 70
     1
  9
$ANGBASE
 50
0.0
  9
$ANGDIR
 70
     0
  9
$PDMODE
 70
     3
  9
$PDSIZE
 40
-2.0
  9
$PLINEWID
 40
0.0
  9
$COORDS
 70
     0
  9
$SPLFRAME
 70
     0
  9
$SPLINETYPE
 70
     6
  9
$SPLINESEGS
 70
     8
  9
$ATTDIA
 70
     0
  9
$ATTREQ
 70
     1
  9
$HANDLING
 70
-16383
  9
$HANDSEED
  5
C7743
  9
$SURFTAB1
 70
     6
  9
$SURFTAB2
 70
     6
  9
$SURFTYPE
 70
     6
  9
$SURFU
 70
     6
  9
$SURFV
 70
     6
  9
$UCSNAME
  2

  9
$UCSORG
 10
0.0
 20
0.0
 30
0.0
  9
$UCSXDIR
 10
1.0
 20
0.0
 30
0.0
  9
$UCSYDIR
 10
0.0
 20
1.0
 30
0.0
  9
$PUCSNAME
  2

  9
$PUCSORG
 10
0.0
 20
0.0
 30
0.0
  9
$PUCSXDIR
 10
1.0
 20
0.0
 30
0.0
  9
$PUCSYDIR
 10
0.0
 20
1.0
 30
0.0
  9
$USERI1
 70
     0
  9
$USERI2
 70
     0
  9
$USERI3
 70
     0
  9
$USERI4
 70
     0
  9
$USERI5
 70
     0
  9
$USERR1
 40
20.0
  9
$USERR2
 40
0.0
  9
$USERR3
 40
0.0
  9
$USERR4
 40
0.0
  9
$USERR5
 40
0.0
  9
$WORLDVIEW
 70
     1
  9
$SHADEDGE
 70
     3
  9
$SHADEDIF
 70
    70
  9
$TILEMODE
 70
     1
  9
$MAXACTVP
 70
    64
  9
$PINSBASE
 10
0.0
 20
0.0
 30
0.0
  9
$PLIMCHECK
 70
     0
  9
$PEXTMIN
 10
1.000000000000000E+20
 20
1.000000000000000E+20
 30
1.000000000000000E+20
  9
$PEXTMAX
 10
-1.000000000000000E+20
 20
-1.000000000000000E+20
 30
-1.000000000000000E+20
  9
$PLIMMIN
 10
0.0
 20
0.0
  9
$PLIMMAX
 10
12.0
 20
9.0
  9
$UNITMODE
 70
     0
  9
$VISRETAIN
 70
     1
  9
$PLINEGEN
 70
     0
  9
$PSLTSCALE
 70
     1
  9
$TREEDEPTH
 70
  3020
  9
$PICKSTYLE
 70
     1
  9
$CMLSTYLE
  2
STANDARD
  9
$CMLJUST
 70
     0
  9
$CMLSCALE
 40
1.0
  9
$PROXYGRAPHICS
 70
     1
  9
$MEASUREMENT
 70
     0
  0
ENDSEC
  0
SECTION
  2
CLASSES
  0
CLASS
  1
ACDBDICTIONARYWDFLT
  2
AcDbDictionaryWithDefault
  3
AutoCAD 2000
 90
        0
280
     0
281
     0
  0
CLASS
  1
ACDBPLACEHOLDER
  2
AcDbPlaceHolder
  3
AutoCAD 2000
 90
        0
280
     0
281
     0
  0
CLASS
  1
LAYOUT
  2
AcDbLayout
  3
AutoCAD 2000
 90
        0
280
     0
281
     0
  0
CLASS
  1
LONG_TRANSACTION
  2
AcDbLongTransaction
  3
AutoCAD 2000
 90
        0
280
     0
281
     0
  0
CLASS
  1
LWPOLYLINE
  2
AcDbPolyline
  3
AutoCAD 2000
 90
        0
280
     0
281
     1
  0
CLASS
  1
HATCH
  2
AcDbHatch
  3
AutoCAD 2000
 90
        0
280
     0
281
     1
  0
CLASS
  1
XRECORD
  2
AcDbXrecord
  3
AutoCAD 2000
 90
        0
280
     0
281
     0
  0
CLASS
  1
LONG_TRANSACTION
  2
AcDbLongTransaction
  3
AutoCAD 2000
 90
        0
280
     0
281
     0
  0
CLASS
  1
LWPOLYLINE
  2
AcDbPolyline
  3
AutoCAD 2000
 90
        0
280
     0
281
     1
  0
CLASS
  1
HATCH
  2
AcDbHatch
  3
AutoCAD 2000
 90
        0
280
     0
281
     1
  0
CLASS
  1
XRECORD
  2
AcDbXrecord
  3
AutoCAD 2000
 90
        0
280
     0
281
     0
  0
CLASS
  1
LONG_TRANSACTION
  2
AcDbLongTransaction
  3
AutoCAD 2000
 90
        0
280
     0
281
     0
  0
CLASS
  1
LWPOLYLINE
  2
AcDbPolyline
  3
AutoCAD 2000
 90
        0
280
     0
281
     1
  0
CLASS
  1
HATCH
  2
AcDbHatch
  3
AutoCAD 2000
 90
        0
280
     0
281
     1
  0
CLASS
  1
XRECORD
  2
AcDbXrecord
  3
AutoCAD 2000
 90
        0
280
     0
281
     0
  0
CLASS
  1
DICTIONARYVAR
  2
AcDbDictionaryVar
  3
AutoCAD 2000
 90
        0
280
     0
281
     0
  0
CLASS
  1
LONG_TRANSACTION
  2
AcDbLongTransaction
  3
AutoCAD 2000
 90
        0
280
     0
281
     0
  0
CLASS
  1
LWPOLYLINE
  2
AcDbPolyline
  3
AutoCAD 2000
 90
        0
280
     0
281
     1
  0
CLASS
  1
HATCH
  2
AcDbHatch
  3
AutoCAD 2000
 90
        0
280
     0
281
     1
  0
CLASS
  1
XRECORD
  2
AcDbXrecord
  3
AutoCAD 2000
 90
        0
280
     0
281
     0
  0
CLASS
  1
LONG_TRANSACTION
  2
AcDbLongTransaction
  3
AutoCAD 2000
 90
        0
280
     0
281
     0
  0
CLASS
  1
LWPOLYLINE
  2
AcDbPolyline
  3
AutoCAD 2000
 90
        0
280
     0
281
     1
  0
CLASS
  1
HATCH
  2
AcDbHatch
  3
AutoCAD 2000
 90
        0
280
     0
281
     1
  0
CLASS
  1
XRECORD
  2
AcDbXrecord
  3
AutoCAD 2000
 90
        0
280
     0
281
     0
  0
ENDSEC
  0
SECTION
  2
TABLES
  0
TABLE
  2
VPORT
  5
8
330
0
100
AcDbSymbolTable
 70
     2
  0
VPORT
  5
C771F
330
8
100
AcDbSymbolTableRecord
100
AcDbViewportTableRecord
  2
*ACTIVE
 70
     0
 10
0.0
 20
0.0
 11
1.0
 21
1.0
 12
306.6121009814437
 22
-477.7241635156651
 13
0.0
 23
0.0
 14
50.0
 24
50.0
 15
100.0
 25
100.0
 16
0.0
 26
0.0
 36
1.0
 17
0.0
 27
0.0
 37
0.0
 40
3606.063904963108
 41
1.508578431372549
 42
50.0
 43
0.0
 44
0.0
 50
0.0
 51
0.0
 71
     0
 72
   500
 73
     1
 74
     0
 75
     0
 76
     0
 77
     0
 78
     0
  0
ENDTAB
  0
TABLE
  2
LTYPE
  5
5
330
0
100
AcDbSymbolTable
 70
     3
  0
LTYPE
  5
13
330
5
100
AcDbSymbolTableRecord
100
AcDbLinetypeTableRecord
  2
BYBLOCK
 70
     0
  3

 72
    65
 73
     0
 40
0.0
  0
LTYPE
  5
14
330
5
100
AcDbSymbolTableRecord
100
AcDbLinetypeTableRecord
  2
BYLAYER
 70
     0
  3

 72
    65
 73
     0
 40
0.0
  0
LTYPE
  5
15
330
5
100
AcDbSymbolTableRecord
100
AcDbLinetypeTableRecord
  2
CONTINUOUS
 70
     0
  3
実線
 72
    65
 73
     0
 40
0.0
  0
LTYPE
  5
23
330
5
100
AcDbSymbolTableRecord
100
AcDbLinetypeTableRecord
  2
DASHDOT
 70
     0
  3
____ _ ____ _ ____ _ ____ _ ____ _ ____ _ ____
 72
    65
 73
     4
 40
5.5
 49
4.0
 74
     0
 49
-0.6
 74
     0
 49
0.3
 74
     0
 49
-0.6
 74
     0
  0
LTYPE
  5
C0121
330
5
100
AcDbSymbolTableRecord
100
AcDbLinetypeTableRecord
  2
CONTINOUS
 70
     0
  3
Solid line
 72
    65
 73
     0
 40
0.0
  0
ENDTAB
  0
TABLE
  2
LAYER
  5
2
330
0
100
AcDbSymbolTable
 70
    10
  0
LAYER
  5
10
330
2
100
AcDbSymbolTableRecord
100
AcDbLayerTableRecord
  2
0
 70
     0
 62
     7
  6
CONTINUOUS
  0
LAYER
  5
22
330
2
100
AcDbSymbolTableRecord
100
AcDbLayerTableRecord
  2
SIZE
 70
     0
 62
    32
  6
CONTINUOUS
  0
LAYER
  5
31
330
2
100
AcDbSymbolTableRecord
100
AcDbLayerTableRecord
  2
DETAIL
 70
     0
 62
     5
  6
CONTINUOUS
  0
LAYER
  5
33
330
2
100
AcDbSymbolTableRecord
100
AcDbLayerTableRecord
  2
BASIS
 70
     0
 62
     6
  6
CONTINUOUS
  0
LAYER
  5
34
330
2
100
AcDbSymbolTableRecord
100
AcDbLayerTableRecord
  2
NOTE
 70
     0
 62
     4
  6
CONTINUOUS
  0
LAYER
  5
35
330
2
100
AcDbSymbolTableRecord
100
AcDbLayerTableRecord
  2
ARRANGE
 70
     0
 62
     1
  6
CONTINUOUS
  0
LAYER
  5
37
330
2
100
AcDbSymbolTableRecord
100
AcDbLayerTableRecord
  2
ETC
 70
     0
 62
    83
  6
CONTINUOUS
  0
LAYER
  5
3A
330
2
100
AcDbSymbolTableRecord
100
AcDbLayerTableRecord
  2
DEFPOINTS
 70
     0
 62
     7
  6
CONTINUOUS
  0
LAYER
  5
6ACAB
330
2
100
AcDbSymbolTableRecord
100
AcDbLayerTableRecord
  2
FIX
 70
     0
 62
   253
  6
CONTINUOUS
  0
LAYER
  5
C75A9
330
2
100
AcDbSymbolTableRecord
100
AcDbLayerTableRecord
  2
OUTLINE
 70
     0
 62
     3
  6
CONTINUOUS
  0
ENDTAB
  0
TABLE
  2
STYLE
  5
3
330
0
100
AcDbSymbolTable
 70
     1
  0
STYLE
  5
11
330
3
100
AcDbSymbolTableRecord
100
AcDbTextStyleTableRecord
  2
STANDARD
 70
     0
 40
0.0
 41
0.9
 50
0.0
 71
     0
 42
64.0
  3
SIMPLEX
  4
BIGFONT
  0
ENDTAB
  0
TABLE
  2
VIEW
  5
6
330
0
100
AcDbSymbolTable
 70
     1
  0
VIEW
  5
3C
330
6
100
AcDbSymbolTableRecord
100
AcDbViewTableRecord
  2
ALL
 70
     0
 40
4282.62
 10
0.0
 20
41.30990399999999
 41
5940.0
 11
0.0
 21
0.0
 31
1.0
 12
0.0
 22
0.0
 32
0.0
 42
50.0
 43
0.0
 44
0.0
 50
0.0
 71
     0
  0
ENDTAB
  0
TABLE
  2
UCS
  5
7
330
0
100
AcDbSymbolTable
 70
     0
  0
ENDTAB
  0
TABLE
  2
APPID
  5
9
330
0
100
AcDbSymbolTable
 70
     1
  0
APPID
  5
12
330
9
100
AcDbSymbolTableRecord
100
AcDbRegAppTableRecord
  2
ACAD
 70
     0
  0
ENDTAB
  0
TABLE
  2
DIMSTYLE
  5
A
330
0
100
AcDbSymbolTable
 70
     1
  0
DIMSTYLE
105
213
330
A
100
AcDbSymbolTableRecord
100
AcDbDimStyleTableRecord
  2
STANDARD
 70
     0
  3

  4

  5

  6

  7

 40
1.0
 41
0.18
 42
0.0625
 43
0.38
 44
0.18
 45
0.0
 46
0.0
 47
0.0
 48
0.0
140
0.18
141
0.09
142
0.0
143
25.4
144
1.0
145
0.0
146
1.0
147
0.09
 71
     0
 72
     0
 73
     1
 74
     1
 75
     0
 76
     0
 77
     0
 78
     0
170
     0
171
     2
172
     0
173
     0
174
     0
175
     0
176
     0
177
     0
178
     0
270
     2
271
     4
272
     4
273
     2
274
     2
340
11
275
     0
280
     0
281
     0
282
     0
283
     1
284
     0
285
     0
286
     0
287
     3
288
     0
  0
ENDTAB
  0
TABLE
  2
BLOCK_RECORD
  5
1
330
0
100
AcDbSymbolTable
 70
     1
  0
BLOCK_RECORD
  5
1E
102
{ACAD_XDICTIONARY
360
66E76
102
}
330
1
100
AcDbSymbolTableRecord
100
AcDbBlockTableRecord
  2
*MODEL_SPACE
  0
BLOCK_RECORD
  5
1A
102
{ACAD_XDICTIONARY
360
66E74
102
}
330
1
100
AcDbSymbolTableRecord
100
AcDbBlockTableRecord
  2
*PAPER_SPACE
  0
BLOCK_RECORD
  5
46
330
1
100
AcDbSymbolTableRecord
100
AcDbBlockTableRecord
  2
_ORIGIN
  0
ENDTAB
  0
ENDSEC
  0
SECTION
  2
BLOCKS
  0
BLOCK
  5
1F
330
1E
100
AcDbEntity
  8
0
100
AcDbBlockBegin
  2
*MODEL_SPACE
 70
     0
 10
0.0
 20
0.0
 30
0.0
  3
*MODEL_SPACE
  1

  0
ENDBLK
  5
20
330
1E
100
AcDbEntity
  8
0
100
AcDbBlockEnd
  0
BLOCK
  5
1B
330
1A
100
AcDbEntity
 67
     1
  8
0
100
AcDbBlockBegin
  2
*PAPER_SPACE
 70
     0
 10
0.0
 20
0.0
 30
0.0
  3
*PAPER_SPACE
  1

  0
ENDBLK
  5
1C
330
1A
100
AcDbEntity
 67
     1
  8
0
100
AcDbBlockEnd
  0
BLOCK
  5
47
330
46
100
AcDbEntity
  8
0
100
AcDbBlockBegin
  2
_ORIGIN
 70
     0
 10
0.0
 20
0.0
 30
0.0
  3
_ORIGIN
  1

  0
CIRCLE
  5
48
330
46
100
AcDbEntity
  8
0
  6
BYBLOCK
 62
     0
100
AcDbCircle
 10
0.0
 20
0.0
 30
0.0
 40
0.5
  0
LINE
  5
49
330
46
100
AcDbEntity
  8
0
  6
BYBLOCK
 62
     0
100
AcDbLine
 10
0.0
 20
0.0
 30
0.0
 11
-1.0
 21
0.0
 31
0.0
  0
ENDBLK
  5
4A
330
46
100
AcDbEntity
  8
0
100
AcDbBlockEnd
  0
ENDSEC
  0
SECTION
  2
ENTITIES
  0
MTEXT
  5
38341
330
1E
100
AcDbEntity
  8
0
  6
CONTINUOUS
100
AcDbMText
 10
383.9605305094082
 20
4023.282340837186
 30
0.0
 40
64.0
 41
187.9848
 71
     1
 72
     5
  1

1001
ACAD
1000
MTEXTBEGIN
1070
    73
1070
     1
1070
    44
1040
1.0
1070
    74
1070
     0
1000
MTEXTEND
1000
MTEXTBEGIN
1070
    73
1070
     1
1070
    44
1040
1.0
1070
    74
1070
     0
1000
MTEXTEND
1000
MTEXTBEGIN
1070
    73
1070
     1
1070
    44
1040
1.0
1070
    74
1070
     0
1000
MTEXTEND
1000
MTEXTBEGIN
1070
    73
1070
     1
1070
    44
1040
1.0
1070
    74
1070
     0
1000
MTEXTEND
1000
MTEXTBEGIN
1070
    73
1070
     1
1070
    44
1040
1.0
1070
    74
1070
     0
1000
MTEXTEND
  0
TEXT
  5
C2213
330
1E
100
AcDbEntity
  8
NOTE
100
AcDbText
 10
-237.5969006184423
 20
-521.9691602713574
 30
0.0
 40
50.0
  1
(取付ピッチ)
 41
0.9
100
AcDbText
  0
LINE
  5
C2214
330
1E
100
AcDbEntity
  8
0
  6
CONTINUOUS
100
AcDbLine
 10
87.5
 20
-172.999999999998
 30
0.0
 11
-312.5
 21
-172.999999999998
 31
0.0
  0
LINE
  5
C2215
330
1E
100
AcDbEntity
  8
BASIS
  6
DASHDOT
 62
     6
100
AcDbLine
 10
476.2528999999994
 20
0.0
 30
0.0
 11
-444.1254100000005
 21
0.0
 31
0.0
  0
LINE
  5
C2216
330
1E
100
AcDbEntity
  8
0
  6
CONTINUOUS
100
AcDbLine
 10
400.0
 20
-150.0
 30
0.0
 11
-400.0
 21
-150.0
 31
0.0
  0
LINE
  5
C221D
330
1E
100
AcDbEntity
  8
0
  6
CONTINUOUS
100
AcDbLine
 10
400.0
 20
150.0
 30
0.0
 11
-400.0
 21
150.0
 31
0.0
  0
LINE
  5
C2459
330
1E
100
AcDbEntity
  8
NOTE
  6
CONTINUOUS
100
AcDbLine
 10
-263.9999997360869
 20
-150.0000089790038
 30
0.0
 11
-523.1949046765135
 21
-503.5575156882096
 31
0.0
  0
TEXT
  5
C245D
330
1E
100
AcDbEntity
  8
NOTE
100
AcDbText
 10
-659.3450663602052
 20
-478.868291688208
 30
0.0
 40
64.0
  1
AH
 41
0.9
100
AcDbText
  0
LINE
  5
C245E
330
1E
100
AcDbEntity
  8
NOTE
100
AcDbLine
 10
-699.4289914642648
 20
-503.5575156882096
 30
0.0
 11
-523.1949046765135
 21
-503.5575156882096
 31
0.0
  0
LINE
  5
C246E
330
1E
100
AcDbEntity
  8
0
  6
CONTINUOUS
100
AcDbLine
 10
-400.0
 20
-150.0
 30
0.0
 11
-400.0
 21
150.0
 31
0.0
  0
LINE
  5
C24A2
330
1E
100
AcDbEntity
  8
BASIS
  6
CONTINUOUS
100
AcDbLine
 10
-263.9999999999926
 20
-162.5493773226826
 30
0.0
 11
-263.9999999999926
 21
-141.4506226773155
 31
0.0
  0
LINE
  5
C24D9
330
1E
100
AcDbEntity
  8
0
  6
CONTINUOUS
100
AcDbLine
 10
-230.0
 20
-172.0
 30
0.0
 11
-230.0
 21
-182.5
 31
0.0
  0
ARC
  5
C24DA
330
1E
100
AcDbEntity
  8
0
  6
CONTINUOUS
100
AcDbCircle
 10
-250.0
 20
-170.5
 30
0.0
 40
5.0
100
AcDbArc
 50
197.4576029999969
 51
342.5423970000028
  0
LINE
  5
C24DB
330
1E
100
AcDbEntity
  8
0
  6
CONTINUOUS
100
AcDbLine
 10
-270.0
 20
-172.0
 30
0.0
 11
-270.0
 21
-182.5
 31
0.0
  0
LINE
  5
C24DC
330
1E
100
AcDbEntity
  8
0
  6
CONTINUOUS
100
AcDbLine
 10
-312.5
 20
-172.999999999998
 30
0.0
 11
-312.5
 21
-150.0
 31
0.0
  0
LINE
  5
C24DD
330
1E
100
AcDbEntity
  8
BASIS
  6
DASHDOT
 62
     6
100
AcDbLine
 10
-250.0
 20
-185.0
 30
0.0
 11
-250.0
 21
-145.0
 31
0.0
  0
LINE
  5
C24DE
330
1E
100
AcDbEntity
  8
BASIS
  6
DASHDOT
 62
     6
100
AcDbLine
 10
-230.0
 20
-165.0
 30
0.0
 11
-270.0
 21
-165.0
 31
0.0
  0
LINE
  5
C24DF
330
1E
100
AcDbEntity
  8
0
  6
CONTINUOUS
100
AcDbLine
 10
-270.0
 20
-182.5
 30
0.0
 11
-230.0
 21
-182.5
 31
0.0
  0
LINE
  5
C24E7
330
1E
100
AcDbEntity
  8
BASIS
  6
DASHDOT
100
AcDbLine
 10
-263.9999999999963
 20
-159.277570422564
 30
0.0
 11
-263.9999999999963
 21
-145.4616704225645
 31
0.0
  0
LINE
  5
C24E8
330
1E
100
AcDbEntity
  8
NOTE
  6
CONTINOUS
100
AcDbLine
 10
-263.9999999999963
 20
-130.000008145489
 30
0.0
 11
-263.9999999999963
 21
-170.0000081454891
 31
0.0
  0
CIRCLE
  5
C24E9
330
1E
100
AcDbEntity
  8
FIX
100
AcDbCircle
 10
-264.0000016666963
 20
-150.0000090788489
 30
0.0
 40
5.0
  0
LINE
  5
C24EA
330
1E
100
AcDbEntity
  8
NOTE
  6
CONTINOUS
100
AcDbLine
 10
-243.9999999999963
 20
-150.000008145489
 30
0.0
 11
-283.9999999999962
 21
-150.000008145489
 31
0.0
  0
LWPOLYLINE
  5
C2518
330
1E
100
AcDbEntity
  8
NOTE
  6
CONTINUOUS
100
AcDbPolyline
 90
        3
 70
     0
 43
0.0
 10
-278.790017074069
 20
-187.1652535577728
 10
-263.9999997360869
 20
-150.0000089790038
 10
-295.3911523298306
 20
-174.791046520964
  0
LINE
  5
C266C
330
1E
100
AcDbEntity
  8
0
  6
CONTINUOUS
100
AcDbLine
 10
-230.0
 20
150.0
 30
0.0
 11
-230.0
 21
182.5
 31
0.0
  0
ARC
  5
C266D
330
1E
100
AcDbEntity
  8
0
  6
CONTINUOUS
100
AcDbCircle
 10
-250.0
 20
170.5
 30
0.0
 40
5.0
100
AcDbArc
 50
0.0
 51
180.0
  0
ARC
  5
C266E
330
1E
100
AcDbEntity
  8
0
  6
CONTINUOUS
100
AcDbCircle
 10
-250.0
 20
159.4999999999999
 30
0.0
 40
5.0
100
AcDbArc
 50
180.0
 51
0.0
  0
LINE
  5
C266F
330
1E
100
AcDbEntity
  8
0
  6
CONTINUOUS
100
AcDbLine
 10
-270.0
 20
150.0
 30
0.0
 11
-270.0
 21
182.5
 31
0.0
  0
LINE
  5
C2670
330
1E
100
AcDbEntity
  8
0
  6
CONTINUOUS
100
AcDbLine
 10
-255.0
 20
159.4999999999999
 30
0.0
 11
-255.0
 21
170.5
 31
0.0
  0
LINE
  5
C2671
330
1E
100
AcDbEntity
  8
BASIS
  6
DASHDOT
 62
     6
100
AcDbLine
 10
-250.0
 20
145.0
 30
0.0
 11
-250.0
 21
185.0
 31
0.0
  0
LINE
  5
C2672
330
1E
100
AcDbEntity
  8
0
  6
CONTINUOUS
100
AcDbLine
 10
-245.0
 20
170.5
 30
0.0
 11
-245.0
 21
159.4999999999999
 31
0.0
  0
LINE
  5
C2673
330
1E
100
AcDbEntity
  8
BASIS
  6
DASHDOT
 62
     6
100
AcDbLine
 10
-230.0
 20
165.0
 30
0.0
 11
-270.0
 21
165.0
 31
0.0
  0
LINE
  5
C2674
330
1E
100
AcDbEntity
  8
0
  6
CONTINUOUS
100
AcDbLine
 10
-270.0
 20
182.5
 30
0.0
 11
-230.0
 21
182.5
 31
0.0
  0
LINE
  5
C2835
330
1E
100
AcDbEntity
  8
NOTE
100
AcDbLine
 10
1466.879482822728
 20
-481.2999825186671
 30
0.0
 11
576.8667250627767
 21
-481.2999826129453
 31
0.0
  0
TEXT
  5
C2836
330
1E
100
AcDbEntity
  8
NOTE
100
AcDbText
 10
652.4138276932135
 20
-455.4573420281449
 30
0.0
 40
64.0
  1
AH 4-%%c5穴（M4ネジ）
 41
0.9
100
AcDbText
  0
LINE
  5
C2839
330
1E
100
AcDbEntity
  8
NOTE
  6
CONTINUOUS
100
AcDbLine
 10
38.9999866503167
 20
-150.0000021151991
 30
0.0
 11
576.8667250627767
 21
-481.2999826129453
 31
0.0
  0
LINE
  5
C283F
330
1E
100
AcDbEntity
  8
BASIS
  6
DASHDOT
 62
     6
100
AcDbLine
 10
0.0
 20
-275.2367199999989
 30
0.0
 11
0.0
 21
249.9775399999998
 31
0.0
  0
LINE
  5
C2850
330
1E
100
AcDbEntity
  8
BASIS
  6
DASHDOT
100
AcDbLine
 10
39.00000000000364
 20
-161.2751763218256
 30
0.0
 11
39.00000000000364
 21
-142.387521676459
 31
0.0
  0
LINE
  5
C2895
330
1E
100
AcDbEntity
  8
NOTE
  6
CONTINOUS
100
AcDbLine
 10
38.99999801084777
 20
-129.9999990666401
 30
0.0
 11
38.99999801084777
 21
-169.99999906664
 31
0.0
  0
CIRCLE
  5
C2896
330
1E
100
AcDbEntity
  8
FIX
100
AcDbCircle
 10
38.99999634414779
 20
-150.0
 30
0.0
 40
5.0
  0
LINE
  5
C2897
330
1E
100
AcDbEntity
  8
NOTE
  6
CONTINOUS
100
AcDbLine
 10
58.99999801084778
 20
-149.9999990666401
 30
0.0
 11
18.99999801084776
 21
-149.9999990666401
 31
0.0
  0
LWPOLYLINE
  5
C2898
330
1E
100
AcDbEntity
  8
NOTE
  6
CONTINUOUS
100
AcDbPolyline
 90
        3
 70
     0
 43
0.0
 10
77.23625510396232
 20
-161.7468226296349
 10
38.9999866503167
 20
-150.0000021151981
 10
66.24015645200779
 20
-179.2911808682946
  0
LINE
  5
C2899
330
1E
100
AcDbEntity
  8
BASIS
  6
DASHDOT
 62
     6
100
AcDbLine
 10
-112.5
 20
-326.4561599999978
 30
0.0
 11
-112.5
 21
-118.6102199999985
 31
0.0
  0
LINE
  5
C28B6
330
1E
100
AcDbEntity
  8
BASIS
  6
DASHDOT
 62
     6
100
AcDbLine
 10
250.0
 20
-185.0
 30
0.0
 11
250.0
 21
-145.0
 31
0.0
  0
LINE
  5
C28B7
330
1E
100
AcDbEntity
  8
0
  6
CONTINUOUS
100
AcDbLine
 10
270.0
 20
-182.5
 30
0.0
 11
270.0
 21
-150.0
 31
0.0
  0
LINE
  5
C28B8
330
1E
100
AcDbEntity
  8
0
  6
CONTINUOUS
100
AcDbLine
 10
230.0
 20
-182.5
 30
0.0
 11
230.0
 21
-150.0
 31
0.0
  0
LINE
  5
C28B9
330
1E
100
AcDbEntity
  8
0
  6
CONTINUOUS
100
AcDbLine
 10
270.0
 20
-182.5
 30
0.0
 11
230.0
 21
-182.5
 31
0.0
  0
LINE
  5
C28BA
330
1E
100
AcDbEntity
  8
0
  6
CONTINUOUS
100
AcDbLine
 10
87.5
 20
-172.999999999998
 30
0.0
 11
87.5
 21
-150.0
 31
0.0
  0
LINE
  5
C28BB
330
1E
100
AcDbEntity
  8
BASIS
  6
DASHDOT
 62
     6
100
AcDbLine
 10
230.0
 20
-165.0
 30
0.0
 11
270.0
 21
-165.0
 31
0.0
  0
ARC
  5
C28BC
330
1E
100
AcDbEntity
  8
0
  6
CONTINUOUS
100
AcDbCircle
 10
250.0
 20
-170.5
 30
0.0
 40
5.0
100
AcDbArc
 50
180.0
 51
0.0
  0
ARC
  5
C28BD
330
1E
100
AcDbEntity
  8
0
  6
CONTINUOUS
100
AcDbCircle
 10
250.0
 20
-159.4999999999999
 30
0.0
 40
5.0
100
AcDbArc
 50
0.0
 51
180.0
  0
LINE
  5
C28BE
330
1E
100
AcDbEntity
  8
0
  6
CONTINUOUS
100
AcDbLine
 10
245.0
 20
-170.5
 30
0.0
 11
245.0
 21
-159.4999999999999
 31
0.0
  0
LINE
  5
C28BF
330
1E
100
AcDbEntity
  8
0
  6
CONTINUOUS
100
AcDbLine
 10
255.0
 20
-159.4999999999999
 30
0.0
 11
255.0
 21
-170.5
 31
0.0
  0
CIRCLE
  5
C28CE
330
1E
100
AcDbEntity
  8
ARRANGE
  6
CONTINUOUS
 62
     1
100
AcDbCircle
 10
0.0
 20
0.0
 30
0.0
 40
40.0
  0
POINT
  5
C28CF
330
1E
100
AcDbEntity
  8
ARRANGE
 62
     1
100
AcDbPoint
 10
0.0
 20
0.0
 30
0.0
  0
LINE
  5
C2A18
330
1E
100
AcDbEntity
  8
BASIS
  6
DASHDOT
 62
     6
100
AcDbLine
 10
230.0
 20
165.0
 30
0.0
 11
270.0
 21
165.0
 31
0.0
  0
LINE
  5
C2A19
330
1E
100
AcDbEntity
  8
0
  6
CONTINUOUS
100
AcDbLine
 10
270.0
 20
182.5
 30
0.0
 11
230.0
 21
182.5
 31
0.0
  0
ARC
  5
C2A1A
330
1E
100
AcDbEntity
  8
0
  6
CONTINUOUS
100
AcDbCircle
 10
250.0
 20
170.5
 30
0.0
 40
5.0
100
AcDbArc
 50
0.0
 51
180.0
  0
ARC
  5
C2A1B
330
1E
100
AcDbEntity
  8
0
  6
CONTINUOUS
100
AcDbCircle
 10
250.0
 20
159.4999999999999
 30
0.0
 40
5.0
100
AcDbArc
 50
180.0
 51
0.0
  0
LINE
  5
C2A1C
330
1E
100
AcDbEntity
  8
BASIS
  6
DASHDOT
 62
     6
100
AcDbLine
 10
250.0
 20
145.0
 30
0.0
 11
250.0
 21
185.0
 31
0.0
  0
LINE
  5
C2A1D
330
1E
100
AcDbEntity
  8
0
  6
CONTINUOUS
100
AcDbLine
 10
270.0
 20
150.0
 30
0.0
 11
270.0
 21
182.5
 31
0.0
  0
LINE
  5
C2A1E
330
1E
100
AcDbEntity
  8
0
  6
CONTINUOUS
100
AcDbLine
 10
230.0
 20
150.0
 30
0.0
 11
230.0
 21
182.5
 31
0.0
  0
LINE
  5
C2A1F
330
1E
100
AcDbEntity
  8
0
  6
CONTINUOUS
100
AcDbLine
 10
245.0
 20
170.5
 30
0.0
 11
245.0
 21
159.4999999999999
 31
0.0
  0
LINE
  5
C2A20
330
1E
100
AcDbEntity
  8
0
  6
CONTINUOUS
100
AcDbLine
 10
255.0
 20
159.4999999999999
 30
0.0
 11
255.0
 21
170.5
 31
0.0
  0
LINE
  5
C2A2A
330
1E
100
AcDbEntity
  8
0
  6
CONTINUOUS
100
AcDbLine
 10
469.0
 20
-53.5
 30
0.0
 11
469.0
 21
16.5
 31
0.0
  0
LINE
  5
C2A2B
330
1E
100
AcDbEntity
  8
0
  6
CONTINUOUS
100
AcDbLine
 10
400.0
 20
-150.0
 30
0.0
 11
400.0
 21
150.0
 31
0.0
  0
ARC
  5
C2A2C
330
1E
100
AcDbEntity
  8
0
  6
CONTINUOUS
100
AcDbCircle
 10
429.0
 20
-53.5
 30
0.0
 40
40.0
100
AcDbArc
 50
270.0
 51
0.0
  0
LINE
  5
C2A2D
330
1E
100
AcDbEntity
  8
0
  6
CONTINUOUS
100
AcDbLine
 10
429.0
 20
-93.49999999999999
 30
0.0
 11
400.0
 21
-93.49999999999999
 31
0.0
  0
LINE
  5
C2A2E
330
1E
100
AcDbEntity
  8
0
  6
CONTINUOUS
100
AcDbLine
 10
469.0
 20
16.5
 30
0.0
 11
400.0
 21
16.5
 31
0.0
  0
LINE
  5
C2A2F
330
1E
100
AcDbEntity
  8
0
  6
CONTINUOUS
100
AcDbLine
 10
450.0
 20
-36.67499999999927
 30
0.0
 11
400.0
 21
-36.67499999999927
 31
0.0
  0
LINE
  5
C2A30
330
1E
100
AcDbEntity
  8
0
  6
CONTINUOUS
100
AcDbLine
 10
450.0
 20
-30.3249999999989
 30
0.0
 11
400.0
 21
-30.3249999999989
 31
0.0
  0
LINE
  5
C2A31
330
1E
100
AcDbEntity
  8
0
  6
CONTINUOUS
100
AcDbLine
 10
457.0
 20
-38.2599999999984
 30
0.0
 11
400.0
 21
-38.2599999999984
 31
0.0
  0
LINE
  5
C2A32
330
1E
100
AcDbEntity
  8
0
  6
CONTINUOUS
100
AcDbLine
 10
457.0
 20
-28.73999999999796
 30
0.0
 11
400.0
 21
-28.73999999999796
 31
0.0
  0
LINE
  5
C2A33
330
1E
100
AcDbEntity
  8
0
  6
CONTINUOUS
100
AcDbLine
 10
450.0
 20
-36.67499999999927
 30
0.0
 11
450.0
 21
-30.3249999999989
 31
0.0
  0
LINE
  5
C2A34
330
1E
100
AcDbEntity
  8
0
  6
CONTINUOUS
100
AcDbLine
 10
457.0
 20
-38.2599999999984
 30
0.0
 11
457.0
 21
-28.73999999999796
 31
0.0
  0
TEXT
  5
C2A3B
330
1E
100
AcDbEntity
  8
ETC
  6
CONTINUOUS
100
AcDbText
 10
577.6997266583366
 20
654.7531153621621
 30
0.0
 40
64.0
  1
SPAC5191
 41
0.9
100
AcDbText
  0
TEXT
  5
C2A3F
330
1E
100
AcDbEntity
  8
ETC
  6
CONTINUOUS
100
AcDbText
 10
589.5224706583356
 20
759.9405038269087
 30
0.0
 40
64.0
  1
PAC別売
 41
0.9
100
AcDbText
  0
LINE
  5
C684F
330
1E
100
AcDbEntity
  8
DETAIL
  6
CONTINUOUS
100
AcDbLine
 10
-268.6999999999952
 20
-151.600016470029
 30
0.0
 11
43.70000000000255
 21
-151.600016470029
 31
0.0
  0
LINE
  5
C6850
330
1E
100
AcDbEntity
  8
DETAIL
  6
CONTINUOUS
100
AcDbLine
 10
133.4000000000032
 20
-235.0000164700304
 30
0.0
 11
-358.399999999996
 21
-235.0000164700304
 31
0.0
  0
LINE
  5
C6851
330
1E
100
AcDbEntity
  8
DETAIL
  6
CONTINUOUS
100
AcDbLine
 10
133.2000000000024
 20
-342.2000164700274
 30
0.0
 11
-358.1999999999952
 21
-342.2000164700274
 31
0.0
  0
LINE
  5
C6852
330
1E
100
AcDbEntity
  8
DETAIL
  6
CONTINUOUS
100
AcDbLine
 10
133.2000000000024
 20
-350.0000164700303
 30
0.0
 11
-358.1999999999952
 21
-350.0000164700303
 31
0.0
  0
LINE
  5
C6853
330
1E
100
AcDbEntity
  8
DETAIL
  6
CONTINUOUS
100
AcDbLine
 10
-351.999999999998
 20
-150.0000164700304
 30
0.0
 11
127.0000000000035
 21
-150.0000164700304
 31
0.0
  0
LINE
  5
C6854
330
1E
100
AcDbEntity
  8
DETAIL
  6
CONTINUOUS
100
AcDbLine
 10
126.4000000000031
 20
-180.0000164700304
 30
0.0
 11
-351.399999999996
 21
-180.0000164700304
 31
0.0
  0
LINE
  5
C6855
330
1E
100
AcDbEntity
  8
DETAIL
  6
CONTINUOUS
100
AcDbLine
 10
-351.999999999998
 20
-150.0000164700304
 30
0.0
 11
127.0000000000035
 21
-150.0000164700304
 31
0.0
  0
LINE
  5
C6856
330
1E
100
AcDbEntity
  8
DETAIL
  6
CONTINUOUS
100
AcDbLine
 10
126.4000000000031
 20
-180.0000164700304
 30
0.0
 11
-351.399999999996
 21
-180.0000164700304
 31
0.0
  0
LINE
  5
C6857
330
1E
100
AcDbEntity
  8
DETAIL
  6
CONTINUOUS
100
AcDbLine
 10
133.4000000000032
 20
-265.0000164700303
 30
0.0
 11
-358.399999999996
 21
-265.0000164700303
 31
0.0
  0
LINE
  5
C6858
330
1E
100
AcDbEntity
  8
DETAIL
  6
CONTINUOUS
100
AcDbLine
 10
133.4000000000032
 20
-235.0000164700304
 30
0.0
 11
-358.399999999996
 21
-235.0000164700304
 31
0.0
  0
LINE
  5
C6859
330
1E
100
AcDbEntity
  8
DETAIL
  6
CONTINUOUS
100
AcDbLine
 10
133.4000000000032
 20
-265.0000164700303
 30
0.0
 11
-358.399999999996
 21
-265.0000164700303
 31
0.0
  0
LINE
  5
C685A
330
1E
100
AcDbEntity
  8
BASIS
  6
DASHDOT
100
AcDbLine
 10
-263.999999999998
 20
-141.600016470029
 30
0.0
 11
-263.999999999998
 21
-159.1240447071013
 31
0.0
  0
SPLINE
  5
C685B
330
1E
100
AcDbEntity
  8
DETAIL
  6
CONTINUOUS
100
AcDbSpline
210
0.0
220
0.0
230
1.0
 70
     8
 71
     3
 72
    17
 73
    13
 74
    11
 42
0.0000000001
 43
0.0000000001
 44
0.00000001
 40
0.0
 40
0.0
 40
0.0
 40
0.0
 40
0.1748846746532918
 40
0.3017492986032322
 40
0.4834007710479418
 40
0.6123806951678322
 40
0.6891525633878124
 40
0.8161074624923225
 40
0.8930275153878254
 40
0.9322204211173142
 40
0.9775777120707688
 40
1.013747951397432
 40
1.013747951397432
 40
1.013747951397432
 40
1.013747951397432
 10
-362.999667421236
 20
-248.5323910686584
 30
0.0
 10
-363.0130511616072
 20
-248.5891397668134
 30
0.0
 10
-363.036143724327
 20
-248.6870550339007
 30
0.0
 10
-363.0651537530435
 20
-248.8455998321329
 30
0.0
 10
-363.0854040819018
 20
-248.9901024488837
 30
0.0
 10
-363.0958363832052
 20
-249.1188815946823
 30
0.0
 10
-363.0987528529728
 20
-249.2298126841883
 30
0.0
 10
-363.0948120271674
 20
-249.323247930752
 30
0.0
 10
-363.0805112635189
 20
-249.4039185505255
 30
0.0
 10
-363.0617564800574
 20
-249.4536665219849
 30
0.0
 10
-363.0392222423858
 20
-249.4908460838408
 30
0.0
 10
-363.0118231926961
 20
-249.4971982725548
 30
0.0
 10
-362.999667421236
 20
-249.5000164700304
 30
0.0
 11
-362.999667421236
 21
-248.5323910686584
 31
0.0
 11
-363.0381445570073
 21
-248.7029904718164
 31
0.0
 11
-363.0611498277267
 21
-248.8277518053783
 31
0.0
 11
-363.085785736266
 21
-249.0077249406949
 31
0.0
 11
-363.0957737363696
 21
-249.136317555758
 31
0.0
 11
-363.0976531056967
 21
-249.213066416998
 31
0.0
 11
-363.0905683166546
 21
-249.3398234762406
 31
0.0
 11
-363.0753710059307
 21
-249.4152272970368
 31
0.0
 11
-363.0611913812953
 21
-249.4517652505983
 31
0.0
 11
-363.033737187392
 21
-249.4878699708006
 31
0.0
 11
-362.999667421236
 21
-249.5000164700304
 31
0.0
  0
SPLINE
  5
C685C
330
1E
100
AcDbEntity
  8
DETAIL
  6
CONTINUOUS
100
AcDbSpline
210
0.0
220
0.0
230
1.0
 70
     8
 71
     3
 72
    17
 73
    13
 74
    11
 42
0.0000000001
 43
0.0000000001
 44
0.00000001
 40
0.0
 40
0.0
 40
0.0
 40
0.0
 40
0.0356715187542091
 40
0.0801359192507583
 40
0.1191119728333473
 40
0.1963292860217493
 40
0.3244874273846269
 40
0.4014689155009794
 40
0.5317292388757206
 40
0.7156822129941637
 40
0.8413403195600038
 40
1.013774078915645
 40
1.013774078915645
 40
1.013774078915645
 40
1.013774078915645
 10
-362.999667421236
 20
-250.5000164700303
 30
0.0
 10
-363.0116610436674
 20
-250.5027453693406
 30
0.0
 10
-363.0386046711445
 20
-250.5088758167053
 30
0.0
 10
-363.0612055252723
 20
-250.5452707679154
 30
0.0
 10
-363.0801730460034
 20
-250.5946773351017
 30
0.0
 10
-363.0947587996306
 20
-250.6757459686653
 30
0.0
 10
-363.0987635505283
 20
-250.7697550475823
 30
0.0
 10
-363.0958282518715
 20
-250.8815833058472
 30
0.0
 10
-363.0852443604906
 20
-251.0116205895157
 30
0.0
 10
-363.0647630431104
 20
-251.1568923951366
 30
0.0
 10
-363.0357009476619
 20
-251.3149666394288
 30
0.0
 10
-363.0128726433649
 20
-251.4116909028916
 30
0.0
 10
-362.999667421247
 20
-251.4676418713988
 30
0.0
 11
-362.999667421236
 21
-250.5000164700303
 31
0.0
 11
-363.0333223822181
 21
-250.5118402192546
 31
0.0
 11
-363.0605484109055
 21
-250.5469945364984
 31
0.0
 11
-363.0748950756551
 21
-250.5832340992509
 31
0.0
 11
-363.0903968384426
 21
-250.6588793813953
 31
0.0
 11
-363.0976531120886
 21
-250.7868319334793
 31
0.0
 11
-363.0957711231549
 21
-250.8637904132647
 31
0.0
 11
-363.085643645072
 21
-250.9936564442413
 31
0.0
 11
-363.0605484109055
 21
-251.175889607779
 31
0.0
 11
-363.0376580056089
 21
-251.2994452192015
 31
0.0
 11
-362.999667421247
 21
-251.4676418713988
 31
0.0
  0
SPLINE
  5
C685D
330
1E
100
AcDbEntity
  8
DETAIL
  6
CONTINUOUS
100
AcDbSpline
210
0.0
220
0.0
230
1.0
 70
     8
 71
     3
 72
    17
 73
    13
 74
    11
 42
0.0000000001
 43
0.0000000001
 44
0.00000001
 40
0.0
 40
0.0
 40
0.0
 40
0.0
 40
0.1528067068136155
 40
0.3017503235647576
 40
0.4834017960166203
 40
0.6123817201467756
 40
0.6891535883641355
 40
0.8161084874663039
 40
0.8930285403646223
 40
0.9322214461009208
 40
0.983097285477125
 40
1.013782926577508
 40
1.013782926577508
 40
1.013782926577508
 40
1.013782926577508
 10
-360.6996674212368
 20
-169.5323910686584
 30
0.0
 10
-360.711424746242
 20
-169.5819579300485
 30
0.0
 10
-360.7346421667563
 20
-169.6798385568765
 30
0.0
 10
-360.764133622777
 20
-169.8383084127932
 30
0.0
 10
-360.7854025765242
 20
-169.9901025795064
 30
0.0
 10
-360.7958389464414
 20
-170.118880814208
 30
0.0
 10
-360.79874610578
 20
-170.2298148387865
 30
0.0
 10
-360.7948492539826
 20
-170.3232359562375
 30
0.0
 10
-360.7804480121491
 20
-170.4039389014724
 30
0.0
 10
-360.7612416072969
 20
-170.4553261772207
 30
0.0
 10
-360.7374830986373
 20
-170.492728356826
 30
0.0
 10
-360.7100053092725
 20
-170.4980240723569
 30
0.0
 10
-360.6996674212368
 20
-170.5000164700304
 30
0.0
 11
-360.6996674212368
 21
-169.5323910686584
 31
0.0
 11
-360.7337063745199
 21
-169.6813583018428
 31
0.0
 11
-360.7611498277273
 21
-169.8277518053782
 31
0.0
 11
-360.7857857362632
 21
-170.0077249406913
 31
0.0
 11
-360.7957737363666
 21
-170.1363175557616
 31
0.0
 11
-360.7976531056974
 21
-170.213066416998
 31
0.0
 11
-360.7905683166555
 21
-170.339823476237
 31
0.0
 11
-360.7753710059313
 21
-170.4152272970332
 31
0.0
 11
-360.7611913812961
 21
-170.4517652505983
 31
0.0
 11
-360.7290631357518
 21
-170.4912130205175
 31
0.0
 11
-360.6996674212368
 21
-170.5000164700304
 31
0.0
  0
SPLINE
  5
C685E
330
1E
100
AcDbEntity
  8
DETAIL
  6
CONTINUOUS
100
AcDbSpline
210
0.0
220
0.0
230
1.0
 70
     8
 71
     3
 72
    17
 73
    13
 74
    11
 42
0.0000000001
 43
0.0000000001
 44
0.00000001
 40
0.0
 40
0.0
 40
0.0
 40
0.0
 40
0.0303517996468569
 40
0.0801666165999404
 40
0.1191426701846917
 40
0.1963599833700479
 40
0.3245181247409863
 40
0.4014996128581292
 40
0.5317599362433225
 40
0.7157129103650366
 40
0.8628991200950453
 40
1.013805739398893
 40
1.013805739398893
 40
1.013805739398893
 40
1.013805739398893
 10
-360.6996674212368
 20
-171.5000164700304
 30
0.0
 10
-360.7098943696506
 20
-171.5019571240972
 30
0.0
 10
-360.7369062762943
 20
-171.5070828564016
 30
0.0
 10
-360.7606962539459
 20
-171.5436619249013
 30
0.0
 10
-360.7801105675731
 20
-171.5946586779394
 30
0.0
 10
-360.794795885996
 20
-171.6757570402698
 30
0.0
 10
-360.7987568682854
 20
-171.7697530680301
 30
0.0
 10
-360.7958308023564
 20
-171.8815840244912
 30
0.0
 10
-360.7852428493178
 20
-172.011620485232
 30
0.0
 10
-360.7637624956388
 20
-172.1640011101172
 30
0.0
 10
-360.7342337759953
 20
-172.3220021195423
 30
0.0
 10
-360.7112850096965
 20
-172.4186930299626
 30
0.0
 10
-360.6996674212368
 20
-172.4676418713988
 30
0.0
 11
-360.6996674212368
 21
-171.5000164700304
 31
0.0
 11
-360.7287708287531
 21
-171.5086317817785
 31
0.0
 11
-360.7605484109062
 21
-171.5469945364984
 31
0.0
 11
-360.7748950756521
 21
-171.583234099251
 31
0.0
 11
-360.7903968384471
 21
-171.658879381388
 31
0.0
 11
-360.7976531120856
 21
-171.7868319334793
 31
0.0
 11
-360.7957711231556
 21
-171.8637904132646
 31
0.0
 11
-360.7856436450691
 21
-171.9936564442487
 31
0.0
 11
-360.7605484109062
 21
-172.175889607779
 31
0.0
 11
-360.7333186289814
 21
-172.3205351031847
 31
0.0
 11
-360.6996674212368
 21
-172.4676418713988
 31
0.0
  0
LINE
  5
C685F
330
1E
100
AcDbEntity
  8
DETAIL
  6
CONTINUOUS
100
AcDbLine
 10
-360.6999999999952
 20
-265.0000164700303
 30
0.0
 11
-360.6999999999952
 21
-254.7000164700274
 31
0.0
  0
LINE
  5
C6860
330
1E
100
AcDbEntity
  8
DETAIL
  6
CONTINUOUS
100
AcDbLine
 10
-358.399999999996
 20
-265.0000164700303
 30
0.0
 11
-360.6999999999952
 21
-265.0000164700303
 31
0.0
  0
LINE
  5
C6861
330
1E
100
AcDbEntity
  8
DETAIL
  6
CONTINUOUS
100
AcDbLine
 10
-360.6999999999952
 20
-248.0000164700304
 30
0.0
 11
-360.6999999999952
 21
-245.3000164700296
 31
0.0
  0
LINE
  5
C6862
330
1E
100
AcDbEntity
  8
DETAIL
  6
CONTINUOUS
100
AcDbLine
 10
-360.6999999999952
 20
-249.0000164700304
 30
0.0
 11
-360.6999999999952
 21
-248.0000164700304
 31
0.0
  0
LINE
  5
C6863
330
1E
100
AcDbEntity
  8
DETAIL
  6
CONTINUOUS
100
AcDbLine
 10
-360.6999999999952
 20
-250.5000164700303
 30
0.0
 11
-360.6999999999952
 21
-249.5000164700304
 31
0.0
  0
LINE
  5
C6864
330
1E
100
AcDbEntity
  8
DETAIL
  6
CONTINUOUS
100
AcDbLine
 10
-360.6999999999952
 20
-249.5000164700304
 30
0.0
 11
-360.6999999999952
 21
-249.0000164700304
 31
0.0
  0
LINE
  5
C6865
330
1E
100
AcDbEntity
  8
DETAIL
  6
CONTINUOUS
100
AcDbLine
 10
-360.6999999999952
 20
-254.7000164700274
 30
0.0
 11
-360.6999999999952
 21
-252.0000164700304
 31
0.0
  0
LINE
  5
C6866
330
1E
100
AcDbEntity
  8
DETAIL
  6
CONTINUOUS
100
AcDbLine
 10
-360.6999999999952
 20
-251.0000164700304
 30
0.0
 11
-360.6999999999952
 21
-250.5000164700303
 31
0.0
  0
LINE
  5
C6867
330
1E
100
AcDbEntity
  8
DETAIL
  6
CONTINUOUS
100
AcDbLine
 10
-360.6999999999952
 20
-252.0000164700304
 30
0.0
 11
-360.6999999999952
 21
-251.0000164700304
 31
0.0
  0
LINE
  5
C6868
330
1E
100
AcDbEntity
  8
DETAIL
  6
CONTINUOUS
100
AcDbLine
 10
-358.399999999996
 20
-235.0000164700304
 30
0.0
 11
-360.6999999999952
 21
-235.0000164700304
 31
0.0
  0
LINE
  5
C6869
330
1E
100
AcDbEntity
  8
DETAIL
  6
CONTINUOUS
100
AcDbLine
 10
-360.6999999999952
 20
-245.3000164700296
 30
0.0
 11
-360.6999999999952
 21
-235.0000164700304
 31
0.0
  0
ARC
  5
C686A
330
1E
100
AcDbEntity
  8
DETAIL
  6
CONTINUOUS
100
AcDbCircle
 10
-354.7999999999973
 20
-171.0000164700304
 30
0.0
 40
6.099999999999504
100
AcDbArc
 50
199.1394744510376
 51
230.3980729188505
  0
ARC
  5
C686B
330
1E
100
AcDbEntity
  8
DETAIL
  6
CONTINUOUS
100
AcDbCircle
 10
-354.7999999999938
 20
-171.000016470025
 30
0.0
 40
6.100000000000785
100
AcDbArc
 50
129.6019270811866
 51
160.8605255490219
  0
ARC
  5
C686C
330
1E
100
AcDbEntity
  8
DETAIL
  6
CONTINUOUS
100
AcDbCircle
 10
-354.8000000000064
 20
-171.000016470003
 30
0.0
 40
6.079473661424027
100
AcDbArc
 50
193.969577158335
 51
199.1202521982769
  0
ARC
  5
C686D
330
1E
100
AcDbEntity
  8
DETAIL
  6
CONTINUOUS
100
AcDbCircle
 10
-353.8792804723361
 20
-171.0000164700304
 30
0.0
 40
6.683536947840672
100
AcDbArc
 50
175.7096550093645
 51
184.2903449906352
  0
ARC
  5
C686E
330
1E
100
AcDbEntity
  8
DETAIL
  6
CONTINUOUS
100
AcDbCircle
 10
-354.8000000000156
 20
-171.0000164700923
 30
0.0
 40
6.079473661424452
100
AcDbArc
 50
160.8797478014519
 51
166.0304228412948
  0
LINE
  5
C686F
330
1E
100
AcDbEntity
  8
DETAIL
  6
CONTINUOUS
100
AcDbLine
 10
-358.399999999996
 20
-166.3000164700296
 30
0.0
 11
-358.399999999996
 21
-169.0000164700304
 31
0.0
  0
LINE
  5
C6870
330
1E
100
AcDbEntity
  8
DETAIL
  6
CONTINUOUS
100
AcDbLine
 10
-358.399999999996
 20
-173.0000164700304
 30
0.0
 11
-358.399999999996
 21
-175.7000164700274
 31
0.0
  0
LINE
  5
C6871
330
1E
100
AcDbEntity
  8
DETAIL
  6
CONTINUOUS
100
AcDbLine
 10
-358.399999999996
 20
-172.0000164700303
 30
0.0
 11
-358.399999999996
 21
-173.0000164700304
 31
0.0
  0
LINE
  5
C6872
330
1E
100
AcDbEntity
  8
DETAIL
  6
CONTINUOUS
100
AcDbLine
 10
-358.399999999996
 20
-169.0000164700304
 30
0.0
 11
-358.399999999996
 21
-170.0000164700304
 31
0.0
  0
LINE
  5
C6873
330
1E
100
AcDbEntity
  8
DETAIL
  6
CONTINUOUS
100
AcDbLine
 10
-358.399999999996
 20
-166.3000164700296
 30
0.0
 11
-358.6884444190455
 21
-166.3000164700296
 31
0.0
  0
LINE
  5
C6874
330
1E
100
AcDbEntity
  8
DETAIL
  6
CONTINUOUS
100
AcDbLine
 10
-358.6884444190455
 20
-166.3000164700296
 30
0.0
 11
-358.6884444190455
 21
-175.7000164700274
 31
0.0
  0
LINE
  5
C6875
330
1E
100
AcDbEntity
  8
DETAIL
  6
CONTINUOUS
100
AcDbLine
 10
-358.399999999996
 20
-175.7000164700274
 30
0.0
 11
-358.6884444190455
 21
-175.7000164700274
 31
0.0
  0
LINE
  5
C6876
330
1E
100
AcDbEntity
  8
DETAIL
  6
CONTINUOUS
100
AcDbLine
 10
-360.5440885065671
 20
-172.9913595415872
 30
0.0
 11
-360.5628118136865
 21
-173.0000164700304
 31
0.0
  0
LINE
  5
C6877
330
1E
100
AcDbEntity
  8
DETAIL
  6
CONTINUOUS
100
AcDbLine
 10
-360.5440885065671
 20
-171.5000164700304
 30
0.0
 11
-360.6996674212368
 21
-171.5000164700304
 31
0.0
  0
LINE
  5
C6878
330
1E
100
AcDbEntity
  8
DETAIL
  6
CONTINUOUS
100
AcDbLine
 10
-358.399999999996
 20
-171.5000164700304
 30
0.0
 11
-358.399999999996
 21
-172.0000164700303
 31
0.0
  0
LINE
  5
C6879
330
1E
100
AcDbEntity
  8
DETAIL
  6
CONTINUOUS
100
AcDbLine
 10
-360.5440885065671
 20
-170.5000164700304
 30
0.0
 11
-360.6996674212368
 21
-170.5000164700304
 31
0.0
  0
LINE
  5
C687A
330
1E
100
AcDbEntity
  8
DETAIL
  6
CONTINUOUS
100
AcDbLine
 10
-358.399999999996
 20
-170.5000164700304
 30
0.0
 11
-358.399999999996
 21
-171.5000164700304
 31
0.0
  0
LINE
  5
C687B
330
1E
100
AcDbEntity
  8
DETAIL
  6
CONTINUOUS
100
AcDbLine
 10
-358.399999999996
 20
-170.0000164700304
 30
0.0
 11
-358.399999999996
 21
-170.5000164700304
 31
0.0
  0
LINE
  5
C687C
330
1E
100
AcDbEntity
  8
DETAIL
  6
CONTINUOUS
100
AcDbLine
 10
-360.5628118136865
 20
-169.0000164700304
 30
0.0
 11
-360.5440885065671
 21
-169.0086733984808
 31
0.0
  0
ARC
  5
C687D
330
1E
100
AcDbEntity
  8
DETAIL
  6
CONTINUOUS
100
AcDbCircle
 10
-357.1000000000003
 20
-250.000016470023
 30
0.0
 40
6.099999999997594
100
AcDbArc
 50
199.1394744511161
 51
230.3980729189796
  0
ARC
  5
C687E
330
1E
100
AcDbEntity
  8
DETAIL
  6
CONTINUOUS
100
AcDbCircle
 10
-357.0999999999985
 20
-250.0000164700321
 30
0.0
 40
6.099999999998274
100
AcDbArc
 50
129.6019270810509
 51
160.8605255489406
  0
ARC
  5
C687F
330
1E
100
AcDbEntity
  8
DETAIL
  6
CONTINUOUS
100
AcDbCircle
 10
-357.0999999999821
 20
-250.0000164699813
 30
0.0
 40
6.079473661429354
100
AcDbArc
 50
160.8797478025747
 51
166.0304228423841
  0
ARC
  5
C6880
330
1E
100
AcDbEntity
  8
DETAIL
  6
CONTINUOUS
100
AcDbCircle
 10
-356.1792804723353
 20
-250.0000164700304
 30
0.0
 40
6.683536947851557
100
AcDbArc
 50
175.7096550093716
 51
184.2903449906282
  0
ARC
  5
C6881
330
1E
100
AcDbEntity
  8
DETAIL
  6
CONTINUOUS
100
AcDbCircle
 10
-357.1000000000148
 20
-250.0000164699759
 30
0.0
 40
6.079473661433262
100
AcDbArc
 50
193.9695771585783
 51
199.1202521984465
  0
LINE
  5
C6882
330
1E
100
AcDbEntity
  8
DETAIL
  6
CONTINUOUS
100
AcDbLine
 10
-360.6999999999952
 20
-248.0000164700304
 30
0.0
 11
-360.6999999999952
 21
-245.3000164700296
 31
0.0
  0
LINE
  5
C6883
330
1E
100
AcDbEntity
  8
DETAIL
  6
CONTINUOUS
100
AcDbLine
 10
-360.6999999999952
 20
-249.0000164700304
 30
0.0
 11
-360.6999999999952
 21
-248.0000164700304
 31
0.0
  0
LINE
  5
C6884
330
1E
100
AcDbEntity
  8
DETAIL
  6
CONTINUOUS
100
AcDbLine
 10
-360.6999999999952
 20
-250.5000164700303
 30
0.0
 11
-360.6999999999952
 21
-249.5000164700304
 31
0.0
  0
LINE
  5
C6885
330
1E
100
AcDbEntity
  8
DETAIL
  6
CONTINUOUS
100
AcDbLine
 10
-360.6999999999952
 20
-249.5000164700304
 30
0.0
 11
-360.6999999999952
 21
-249.0000164700304
 31
0.0
  0
LINE
  5
C6886
330
1E
100
AcDbEntity
  8
DETAIL
  6
CONTINUOUS
100
AcDbLine
 10
-360.6999999999952
 20
-254.7000164700274
 30
0.0
 11
-360.6999999999952
 21
-252.0000164700304
 31
0.0
  0
LINE
  5
C6887
330
1E
100
AcDbEntity
  8
DETAIL
  6
CONTINUOUS
100
AcDbLine
 10
-360.6999999999952
 20
-251.0000164700304
 30
0.0
 11
-360.6999999999952
 21
-250.5000164700303
 31
0.0
  0
LINE
  5
C6888
330
1E
100
AcDbEntity
  8
DETAIL
  6
CONTINUOUS
100
AcDbLine
 10
-360.6999999999952
 20
-252.0000164700304
 30
0.0
 11
-360.6999999999952
 21
-251.0000164700304
 31
0.0
  0
LINE
  5
C6889
330
1E
100
AcDbEntity
  8
DETAIL
  6
CONTINUOUS
100
AcDbLine
 10
-360.6999999999952
 20
-254.7000164700274
 30
0.0
 11
-360.9884444190374
 21
-254.7000164700274
 31
0.0
  0
LINE
  5
C688A
330
1E
100
AcDbEntity
  8
DETAIL
  6
CONTINUOUS
100
AcDbLine
 10
-360.9884444190374
 20
-245.3000164700296
 30
0.0
 11
-360.9884444190374
 21
-254.7000164700274
 31
0.0
  0
LINE
  5
C688B
330
1E
100
AcDbEntity
  8
DETAIL
  6
CONTINUOUS
100
AcDbLine
 10
-362.8440885065773
 20
-250.5000164700303
 30
0.0
 11
-362.999667421236
 21
-250.5000164700303
 31
0.0
  0
LINE
  5
C688C
330
1E
100
AcDbEntity
  8
DETAIL
  6
CONTINUOUS
100
AcDbLine
 10
-362.8440885065773
 20
-249.5000164700304
 30
0.0
 11
-362.999667421236
 21
-249.5000164700304
 31
0.0
  0
LINE
  5
C688D
330
1E
100
AcDbEntity
  8
DETAIL
  6
CONTINUOUS
100
AcDbLine
 10
-360.6999999999952
 20
-245.3000164700296
 30
0.0
 11
-360.9884444190374
 21
-245.3000164700296
 31
0.0
  0
LINE
  5
C688E
330
1E
100
AcDbEntity
  8
DETAIL
  6
CONTINUOUS
100
AcDbLine
 10
-362.8628118136857
 20
-248.0000164700304
 30
0.0
 11
-362.8440885065773
 21
-248.0086733984808
 31
0.0
  0
LINE
  5
C688F
330
1E
100
AcDbEntity
  8
DETAIL
  6
CONTINUOUS
100
AcDbLine
 10
-362.8440885065773
 20
-251.99135954158
 30
0.0
 11
-362.8628118136857
 21
-252.0000164700304
 31
0.0
  0
LINE
  5
C6890
330
1E
100
AcDbEntity
  8
DETAIL
  6
CONTINUOUS
100
AcDbLine
 10
-358.399999999996
 20
-152.0000164700304
 30
0.0
 11
-357.5999999999967
 21
-152.0000164700304
 31
0.0
  0
LINE
  5
C6891
330
1E
100
AcDbEntity
  8
DETAIL
  6
CONTINUOUS
100
AcDbLine
 10
-364.5999999999967
 20
-150.0000164700304
 30
0.0
 11
-357.5999999999967
 21
-150.0000164700304
 31
0.0
  0
LINE
  5
C6892
330
1E
100
AcDbEntity
  8
DETAIL
  6
CONTINUOUS
100
AcDbLine
 10
-358.399999999996
 20
-152.0000164700304
 30
0.0
 11
-358.399999999996
 21
-166.3000164700296
 31
0.0
  0
LINE
  5
C6893
330
1E
100
AcDbEntity
  8
DETAIL
  6
CONTINUOUS
100
AcDbLine
 10
-358.399999999996
 20
-166.3000164700296
 30
0.0
 11
-358.399999999996
 21
-169.0000164700304
 31
0.0
  0
LINE
  5
C6894
330
1E
100
AcDbEntity
  8
DETAIL
  6
CONTINUOUS
100
AcDbLine
 10
-358.399999999996
 20
-173.0000164700304
 30
0.0
 11
-358.399999999996
 21
-175.7000164700274
 31
0.0
  0
LINE
  5
C6895
330
1E
100
AcDbEntity
  8
DETAIL
  6
CONTINUOUS
100
AcDbLine
 10
-358.399999999996
 20
-172.0000164700303
 30
0.0
 11
-358.399999999996
 21
-173.0000164700304
 31
0.0
  0
LINE
  5
C6896
330
1E
100
AcDbEntity
  8
DETAIL
  6
CONTINUOUS
100
AcDbLine
 10
-358.399999999996
 20
-169.0000164700304
 30
0.0
 11
-358.399999999996
 21
-170.0000164700304
 31
0.0
  0
LINE
  5
C6897
330
1E
100
AcDbEntity
  8
DETAIL
  6
CONTINUOUS
100
AcDbLine
 10
-358.399999999996
 20
-171.5000164700304
 30
0.0
 11
-358.399999999996
 21
-172.0000164700303
 31
0.0
  0
LINE
  5
C6898
330
1E
100
AcDbEntity
  8
DETAIL
  6
CONTINUOUS
100
AcDbLine
 10
-358.399999999996
 20
-170.5000164700304
 30
0.0
 11
-358.399999999996
 21
-171.5000164700304
 31
0.0
  0
LINE
  5
C6899
330
1E
100
AcDbEntity
  8
DETAIL
  6
CONTINUOUS
100
AcDbLine
 10
-358.399999999996
 20
-170.0000164700304
 30
0.0
 11
-358.399999999996
 21
-170.5000164700304
 31
0.0
  0
LINE
  5
C689A
330
1E
100
AcDbEntity
  8
DETAIL
  6
CONTINUOUS
100
AcDbLine
 10
-358.399999999996
 20
-175.7000164700274
 30
0.0
 11
-358.399999999996
 21
-235.0000164700304
 31
0.0
  0
LINE
  5
C689B
330
1E
100
AcDbEntity
  8
DETAIL
  6
CONTINUOUS
100
AcDbLine
 10
-354.399999999996
 20
-152.0000164700304
 30
0.0
 11
-351.399999999996
 21
-155.0000164700304
 31
0.0
  0
LINE
  5
C689C
330
1E
100
AcDbEntity
  8
DETAIL
  6
CONTINUOUS
100
AcDbLine
 10
-355.999999999998
 20
-152.0000164700304
 30
0.0
 11
-354.399999999996
 21
-152.0000164700304
 31
0.0
  0
LINE
  5
C689D
330
1E
100
AcDbEntity
  8
DETAIL
  6
CONTINUOUS
100
AcDbLine
 10
-357.5999999999967
 20
-150.0000164700304
 30
0.0
 11
-357.5999999999967
 21
-152.0000164700304
 31
0.0
  0
LINE
  5
C689E
330
1E
100
AcDbEntity
  8
DETAIL
  6
CONTINUOUS
100
AcDbLine
 10
-355.999999999998
 20
-152.0000164700304
 30
0.0
 11
-357.5999999999967
 21
-152.0000164700304
 31
0.0
  0
LINE
  5
C689F
330
1E
100
AcDbEntity
  8
DETAIL
  6
CONTINUOUS
100
AcDbLine
 10
-351.399999999996
 20
-155.0000164700304
 30
0.0
 11
-351.399999999996
 21
-180.0000164700304
 31
0.0
  0
LINE
  5
C68A0
330
1E
100
AcDbEntity
  8
DETAIL
  6
CONTINUOUS
100
AcDbLine
 10
-367.5999999999967
 20
-150.8000164700296
 30
0.0
 11
-364.5999999999967
 21
-150.8000164700296
 31
0.0
  0
LINE
  5
C68A1
330
1E
100
AcDbEntity
  8
DETAIL
  6
CONTINUOUS
100
AcDbLine
 10
-367.5999999999967
 20
-150.0000164700304
 30
0.0
 11
-364.5999999999967
 21
-150.0000164700304
 31
0.0
  0
LINE
  5
C68A2
330
1E
100
AcDbEntity
  8
DETAIL
  6
CONTINUOUS
100
AcDbLine
 10
-358.399999999996
 20
-150.8000164700296
 30
0.0
 11
-364.5999999999967
 21
-150.8000164700296
 31
0.0
  0
LINE
  5
C68A3
330
1E
100
AcDbEntity
  8
DETAIL
  6
CONTINUOUS
100
AcDbLine
 10
-364.5999999999967
 20
-150.8000164700296
 30
0.0
 11
-364.5999999999967
 21
-150.0000164700304
 31
0.0
  0
LINE
  5
C68A4
330
1E
100
AcDbEntity
  8
DETAIL
  6
CONTINUOUS
100
AcDbLine
 10
-358.399999999996
 20
-150.8000164700296
 30
0.0
 11
-358.399999999996
 21
-152.0000164700304
 31
0.0
  0
LINE
  5
C68A5
330
1E
100
AcDbEntity
  8
DETAIL
  6
CONTINUOUS
100
AcDbLine
 10
-367.5999999999967
 20
-150.0000164700304
 30
0.0
 11
-367.5999999999967
 21
-150.8000164700296
 31
0.0
  0
LINE
  5
C68A6
330
1E
100
AcDbEntity
  8
DETAIL
  6
CONTINUOUS
100
AcDbLine
 10
-351.399999999996
 20
-180.0000164700304
 30
0.0
 11
-351.399999999996
 21
-235.0000164700304
 31
0.0
  0
LINE
  5
C68A7
330
1E
100
AcDbEntity
  8
DETAIL
  6
CONTINUOUS
100
AcDbLine
 10
-351.999999999998
 20
-150.0000164700304
 30
0.0
 11
-355.999999999998
 21
-150.0000164700304
 31
0.0
  0
LINE
  5
C68A8
330
1E
100
AcDbEntity
  8
DETAIL
  6
CONTINUOUS
100
AcDbLine
 10
-355.999999999998
 20
-152.0000164700304
 30
0.0
 11
-357.5999999999967
 21
-152.0000164700304
 31
0.0
  0
LINE
  5
C68A9
330
1E
100
AcDbEntity
  8
DETAIL
  6
CONTINUOUS
100
AcDbLine
 10
-355.999999999998
 20
-151.600016470029
 30
0.0
 11
-355.999999999998
 21
-150.0000164700304
 31
0.0
  0
LINE
  5
C68AA
330
1E
100
AcDbEntity
  8
DETAIL
  6
CONTINUOUS
100
AcDbLine
 10
-355.999999999998
 20
-152.0000164700304
 30
0.0
 11
-355.999999999998
 21
-151.600016470029
 31
0.0
  0
LINE
  5
C68AB
330
1E
100
AcDbEntity
  8
DETAIL
  6
CONTINUOUS
100
AcDbLine
 10
-351.999999999998
 20
-150.0000164700304
 30
0.0
 11
-351.999999999998
 21
-151.600016470029
 31
0.0
  0
LINE
  5
C68AC
330
1E
100
AcDbEntity
  8
DETAIL
  6
CONTINUOUS
100
AcDbLine
 10
-351.999999999998
 20
-151.600016470029
 30
0.0
 11
-268.6999999999952
 21
-151.600016470029
 31
0.0
  0
LINE
  5
C68AD
330
1E
100
AcDbEntity
  8
DETAIL
  6
CONTINUOUS
100
AcDbLine
 10
-351.999999999998
 20
-150.0000164700304
 30
0.0
 11
-355.999999999998
 21
-150.0000164700304
 31
0.0
  0
LINE
  5
C68AE
330
1E
100
AcDbEntity
  8
DETAIL
  6
CONTINUOUS
100
AcDbLine
 10
-351.999999999998
 20
-151.600016470029
 30
0.0
 11
-355.999999999998
 21
-151.600016470029
 31
0.0
  0
LINE
  5
C68AF
330
1E
100
AcDbEntity
  8
DETAIL
  6
CONTINUOUS
100
AcDbLine
 10
-355.999999999998
 20
-152.0000164700304
 30
0.0
 11
-357.5999999999967
 21
-152.0000164700304
 31
0.0
  0
LINE
  5
C68B0
330
1E
100
AcDbEntity
  8
DETAIL
  6
CONTINUOUS
100
AcDbLine
 10
-355.999999999998
 20
-151.600016470029
 30
0.0
 11
-355.999999999998
 21
-150.0000164700304
 31
0.0
  0
LINE
  5
C68B1
330
1E
100
AcDbEntity
  8
DETAIL
  6
CONTINUOUS
100
AcDbLine
 10
-355.999999999998
 20
-152.0000164700304
 30
0.0
 11
-355.999999999998
 21
-151.600016470029
 31
0.0
  0
LINE
  5
C68B2
330
1E
100
AcDbEntity
  8
DETAIL
  6
CONTINUOUS
100
AcDbLine
 10
-360.6999999999952
 20
-265.0000164700303
 30
0.0
 11
-360.6999999999952
 21
-254.7000164700274
 31
0.0
  0
LINE
  5
C68B3
330
1E
100
AcDbEntity
  8
DETAIL
  6
CONTINUOUS
100
AcDbLine
 10
-360.6999999999952
 20
-248.0000164700304
 30
0.0
 11
-360.6999999999952
 21
-245.3000164700296
 31
0.0
  0
LINE
  5
C68B4
330
1E
100
AcDbEntity
  8
DETAIL
  6
CONTINUOUS
100
AcDbLine
 10
-360.6999999999952
 20
-249.0000164700304
 30
0.0
 11
-360.6999999999952
 21
-248.0000164700304
 31
0.0
  0
LINE
  5
C68B5
330
1E
100
AcDbEntity
  8
DETAIL
  6
CONTINUOUS
100
AcDbLine
 10
-360.6999999999952
 20
-250.5000164700303
 30
0.0
 11
-360.6999999999952
 21
-249.5000164700304
 31
0.0
  0
LINE
  5
C68B6
330
1E
100
AcDbEntity
  8
DETAIL
  6
CONTINUOUS
100
AcDbLine
 10
-360.6999999999952
 20
-249.5000164700304
 30
0.0
 11
-360.6999999999952
 21
-249.0000164700304
 31
0.0
  0
LINE
  5
C68B7
330
1E
100
AcDbEntity
  8
DETAIL
  6
CONTINUOUS
100
AcDbLine
 10
-360.6999999999952
 20
-254.7000164700274
 30
0.0
 11
-360.6999999999952
 21
-252.0000164700304
 31
0.0
  0
LINE
  5
C68B8
330
1E
100
AcDbEntity
  8
DETAIL
  6
CONTINUOUS
100
AcDbLine
 10
-360.6999999999952
 20
-251.0000164700304
 30
0.0
 11
-360.6999999999952
 21
-250.5000164700303
 31
0.0
  0
LINE
  5
C68B9
330
1E
100
AcDbEntity
  8
DETAIL
  6
CONTINUOUS
100
AcDbLine
 10
-360.6999999999952
 20
-252.0000164700304
 30
0.0
 11
-360.6999999999952
 21
-251.0000164700304
 31
0.0
  0
LINE
  5
C68BA
330
1E
100
AcDbEntity
  8
DETAIL
  6
CONTINUOUS
100
AcDbLine
 10
-360.6999999999952
 20
-245.3000164700296
 30
0.0
 11
-360.6999999999952
 21
-235.0000164700304
 31
0.0
  0
SPLINE
  5
C68BB
330
1E
100
AcDbEntity
  8
DETAIL
  6
CONTINUOUS
100
AcDbSpline
210
0.0
220
0.0
230
1.0
 70
     8
 71
     3
 72
    16
 73
    12
 74
    10
 42
0.0000000001
 43
0.0000000001
 44
0.00000001
 40
0.0
 40
0.0
 40
0.0
 40
0.0
 40
0.0303517997944288
 40
0.0801666166740427
 40
0.1807936775709617
 40
0.3241999496069233
 40
0.4011814377252803
 40
0.5314417611081329
 40
0.7153947352343046
 40
0.8625809449561304
 40
1.013487564262532
 40
1.013487564262532
 40
1.013487564262532
 40
1.013487564262532
 10
-361.499667421247
 20
-341.7000164700275
 30
0.0
 10
-361.5099028109338
 20
-341.7019685745804
 30
0.0
 10
-361.5369370129849
 20
-341.7071245504639
 30
0.0
 10
-361.572689108056
 20
-341.7621594105604
 30
0.0
 10
-361.5935203332056
 20
-341.8570016464612
 30
0.0
 10
-361.598938632148
 20
-341.9647917433387
 30
0.0
 10
-361.5958135261908
 20
-342.0815404973599
 30
0.0
 10
-361.5852510512902
 20
-342.2116411500106
 30
0.0
 10
-361.5637605469464
 20
-342.3639962004008
 30
0.0
 10
-361.534234230402
 20
-342.5220032643769
 30
0.0
 10
-361.511285162424
 20
-342.6186934147332
 30
0.0
 10
-361.499667421247
 20
-342.6676418713995
 30
0.0
 11
-361.499667421247
 21
-341.7000164700275
 31
0.0
 11
-361.528770828756
 21
-341.7086317817793
 31
0.0
 11
-361.5605484109055
 21
-341.7469945364992
 31
0.0
 11
-361.5882464934711
 21
-341.8437345042856
 31
0.0
 11
-361.5976531120886
 21
-341.98683193348
 31
0.0
 11
-361.5957711231585
 21
-342.0637904132654
 31
0.0
 11
-361.5856436450684
 21
-342.1936564442456
 31
0.0
 11
-361.5605484109055
 21
-342.3758896077797
 31
0.0
 11
-361.5333186289881
 21
-342.5205351031781
 31
0.0
 11
-361.499667421247
 21
-342.6676418713995
 31
0.0
  0
SPLINE
  5
C68BC
330
1E
100
AcDbEntity
  8
DETAIL
  6
CONTINUOUS
100
AcDbSpline
210
0.0
220
0.0
230
1.0
 70
     8
 71
     3
 72
    17
 73
    13
 74
    11
 42
0.0000000001
 43
0.0000000001
 44
0.00000001
 40
0.0
 40
0.0
 40
0.0
 40
0.0
 40
0.1307492043905498
 40
0.3017488879469439
 40
0.4834003604118883
 40
0.6123802845451767
 40
0.6891521527605045
 40
0.8161070518720478
 40
0.8930271047677704
 40
0.9322200105012306
 40
0.9830958498702678
 40
1.013781490981764
 40
1.013781490981764
 40
1.013781490981764
 40
1.013781490981764
 10
-361.4996674212361
 20
-339.7323910686591
 30
0.0
 10
-361.509784584509
 20
-339.7747874205295
 30
0.0
 10
-361.5331334352724
 20
-339.8726316244955
 30
0.0
 10
-361.5631170831212
 20
-340.0310241414692
 30
0.0
 10
-361.5854017706273
 20
-340.1901024489329
 30
0.0
 10
-361.5958390469978
 20
-340.3188808304942
 30
0.0
 10
-361.5987460683907
 20
-340.4298148327283
 30
0.0
 10
-361.5948492611491
 20
-340.5232359573989
 30
0.0
 10
-361.5804480114586
 20
-340.6039389013634
 30
0.0
 10
-361.5612416074776
 20
-340.6553261772464
 30
0.0
 10
-361.5374830986175
 20
-340.6927283568254
 30
0.0
 10
-361.5100053092681
 20
-340.6980240723526
 30
0.0
 10
-361.4996674212361
 20
-340.7000164700274
 30
0.0
 11
-361.4996674212361
 21
-339.7323910686591
 31
0.0
 11
-361.5291491613807
 21
-339.8597730889541
 31
0.0
 11
-361.5611498277266
 21
-340.027751805379
 31
0.0
 11
-361.585785736266
 21
-340.2077249406957
 31
0.0
 11
-361.5957737363659
 21
-340.336317555766
 31
0.0
 11
-361.5976531056967
 21
-340.4130664169988
 31
0.0
 11
-361.5905683166546
 21
-340.5398234762451
 31
0.0
 11
-361.5753710059307
 21
-340.6152272970375
 31
0.0
 11
-361.5611913812953
 21
-340.651765250599
 31
0.0
 11
-361.5290631357547
 21
-340.6912130205146
 31
0.0
 11
-361.4996674212361
 21
-340.7000164700274
 31
0.0
  0
LINE
  5
C68BD
330
1E
100
AcDbEntity
  8
DETAIL
  6
CONTINUOUS
100
AcDbLine
 10
-358.399999999996
 20
-334.2000164700274
 30
0.0
 11
-359.1999999999952
 21
-334.2000164700274
 31
0.0
  0
LINE
  5
C68BE
330
1E
100
AcDbEntity
  8
DETAIL
  6
CONTINUOUS
100
AcDbLine
 10
-358.399999999996
 20
-337.2000164700275
 30
0.0
 11
-359.1999999999952
 21
-337.2000164700275
 31
0.0
  0
LINE
  5
C68BF
330
1E
100
AcDbEntity
  8
DETAIL
  6
CONTINUOUS
100
AcDbLine
 10
-359.1999999999952
 20
-341.7000164700275
 30
0.0
 11
-359.1999999999952
 21
-342.2000164700274
 31
0.0
  0
LINE
  5
C68C0
330
1E
100
AcDbEntity
  8
DETAIL
  6
CONTINUOUS
100
AcDbLine
 10
-359.1999999999952
 20
-340.7000164700274
 30
0.0
 11
-359.1999999999952
 21
-341.7000164700275
 31
0.0
  0
LINE
  5
C68C1
330
1E
100
AcDbEntity
  8
DETAIL
  6
CONTINUOUS
100
AcDbLine
 10
-359.1999999999952
 20
-340.2000164700274
 30
0.0
 11
-359.1999999999952
 21
-340.7000164700274
 31
0.0
  0
LINE
  5
C68C2
330
1E
100
AcDbEntity
  8
DETAIL
  6
CONTINUOUS
100
AcDbLine
 10
-359.1999999999952
 20
-337.2000164700275
 30
0.0
 11
-359.1999999999952
 21
-339.2000164700275
 31
0.0
  0
LINE
  5
C68C3
330
1E
100
AcDbEntity
  8
DETAIL
  6
CONTINUOUS
100
AcDbLine
 10
-359.1999999999952
 20
-339.2000164700275
 30
0.0
 11
-359.1999999999952
 21
-340.2000164700274
 31
0.0
  0
LINE
  5
C68C4
330
1E
100
AcDbEntity
  8
DETAIL
  6
CONTINUOUS
100
AcDbLine
 10
-358.399999999996
 20
-348.2000164700274
 30
0.0
 11
-358.399999999996
 21
-337.2000164700275
 31
0.0
  0
LINE
  5
C68C5
330
1E
100
AcDbEntity
  8
DETAIL
  6
CONTINUOUS
100
AcDbLine
 10
-358.399999999996
 20
-334.2000164700274
 30
0.0
 11
-358.399999999996
 21
-337.2000164700275
 31
0.0
  0
LINE
  5
C68C6
330
1E
100
AcDbEntity
  8
DETAIL
  6
CONTINUOUS
100
AcDbLine
 10
-358.399999999996
 20
-349.2000164700275
 30
0.0
 11
-358.399999999996
 21
-348.2000164700274
 31
0.0
  0
LINE
  5
C68C7
330
1E
100
AcDbEntity
  8
DETAIL
  6
CONTINUOUS
100
AcDbLine
 10
-358.1999999999952
 20
-349.2000164700275
 30
0.0
 11
-358.1999999999952
 21
-342.2000164700274
 31
0.0
  0
LINE
  5
C68C8
330
1E
100
AcDbEntity
  8
DETAIL
  6
CONTINUOUS
100
AcDbLine
 10
-358.1999999999952
 20
-349.2000164700275
 30
0.0
 11
-358.399999999996
 21
-349.2000164700275
 31
0.0
  0
LINE
  5
C68C9
330
1E
100
AcDbEntity
  8
DETAIL
  6
CONTINUOUS
100
AcDbLine
 10
-359.1999999999952
 20
-337.2000164700275
 30
0.0
 11
-359.1999999999952
 21
-336.5000164700303
 31
0.0
  0
LINE
  5
C68CA
330
1E
100
AcDbEntity
  8
DETAIL
  6
CONTINUOUS
100
AcDbLine
 10
-359.1999999999952
 20
-343.2000164700275
 30
0.0
 11
-359.1999999999952
 21
-345.9000164700281
 31
0.0
  0
LINE
  5
C68CB
330
1E
100
AcDbEntity
  8
DETAIL
  6
CONTINUOUS
100
AcDbLine
 10
-359.1999999999952
 20
-342.2000164700274
 30
0.0
 11
-359.1999999999952
 21
-343.2000164700275
 31
0.0
  0
LINE
  5
C68CC
330
1E
100
AcDbEntity
  8
DETAIL
  6
CONTINUOUS
100
AcDbLine
 10
-359.1999999999952
 20
-336.5000164700303
 30
0.0
 11
-359.1999999999952
 21
-334.2000164700274
 31
0.0
  0
LINE
  5
C68CD
330
1E
100
AcDbEntity
  8
DETAIL
  6
CONTINUOUS
100
AcDbLine
 10
-359.1999999999952
 20
-345.9000164700281
 30
0.0
 11
-359.1999999999952
 21
-350.0000164700303
 31
0.0
  0
LINE
  5
C68CE
330
1E
100
AcDbEntity
  8
DETAIL
  6
CONTINUOUS
100
AcDbLine
 10
-358.1999999999952
 20
-350.0000164700303
 30
0.0
 11
-359.1999999999952
 21
-350.0000164700303
 31
0.0
  0
LINE
  5
C68CF
330
1E
100
AcDbEntity
  8
DETAIL
  6
CONTINUOUS
100
AcDbLine
 10
-358.1999999999952
 20
-350.0000164700303
 30
0.0
 11
-358.1999999999952
 21
-349.2000164700275
 31
0.0
  0
LINE
  5
C68D0
330
1E
100
AcDbEntity
  8
DETAIL
  6
CONTINUOUS
100
AcDbLine
 10
-358.399999999996
 20
-348.2000164700274
 30
0.0
 11
-358.399999999996
 21
-337.2000164700275
 31
0.0
  0
LINE
  5
C68D1
330
1E
100
AcDbEntity
  8
DETAIL
  6
CONTINUOUS
100
AcDbLine
 10
-358.399999999996
 20
-334.2000164700274
 30
0.0
 11
-358.399999999996
 21
-337.2000164700275
 31
0.0
  0
LINE
  5
C68D2
330
1E
100
AcDbEntity
  8
DETAIL
  6
CONTINUOUS
100
AcDbLine
 10
-358.399999999996
 20
-349.2000164700275
 30
0.0
 11
-358.399999999996
 21
-348.2000164700274
 31
0.0
  0
LINE
  5
C68D3
330
1E
100
AcDbEntity
  8
DETAIL
  6
CONTINUOUS
100
AcDbLine
 10
-358.1999999999952
 20
-348.2000164700274
 30
0.0
 11
-358.399999999996
 21
-348.2000164700274
 31
0.0
  0
LINE
  5
C68D4
330
1E
100
AcDbEntity
  8
DETAIL
  6
CONTINUOUS
100
AcDbLine
 10
-358.1999999999952
 20
-349.2000164700275
 30
0.0
 11
-358.399999999996
 21
-349.2000164700275
 31
0.0
  0
ARC
  5
C68D5
330
1E
100
AcDbEntity
  8
DETAIL
  6
CONTINUOUS
100
AcDbCircle
 10
-349.2999999999991
 20
-341.2000164700311
 30
0.0
 40
0.1000000000038306
100
AcDbArc
 50
295.8423173492445
 51
0.0000000020843956
  0
ARC
  5
C68D6
330
1E
100
AcDbEntity
  8
DETAIL
  6
CONTINUOUS
100
AcDbCircle
 10
-349.2999999999938
 20
-341.2000164700348
 30
0.0
 40
0.0999999999976353
100
AcDbArc
 50
0.0000000041688166
 51
64.15768265312974
  0
ARC
  5
C68D7
330
1E
100
AcDbEntity
  8
DETAIL
  6
CONTINUOUS
100
AcDbCircle
 10
-355.6000000000148
 20
-341.2000164699766
 30
0.0
 40
6.079473661433262
100
AcDbArc
 50
193.9695771585783
 51
199.1202521984465
  0
ARC
  5
C68D8
330
1E
100
AcDbEntity
  8
DETAIL
  6
CONTINUOUS
100
AcDbCircle
 10
-354.6792804723353
 20
-341.2000164700275
 30
0.0
 40
6.683536947851557
100
AcDbArc
 50
175.7096550093716
 51
184.2903449906282
  0
ARC
  5
C68D9
330
1E
100
AcDbEntity
  8
DETAIL
  6
CONTINUOUS
100
AcDbCircle
 10
-355.5999999999929
 20
-341.2000164700238
 30
0.0
 40
6.100000000001124
100
AcDbArc
 50
129.6019270812171
 51
160.860525549003
  0
ARC
  5
C68DA
330
1E
100
AcDbEntity
  8
DETAIL
  6
CONTINUOUS
100
AcDbCircle
 10
-355.5999999999911
 20
-341.2000164700366
 30
0.0
 40
6.100000000001678
100
AcDbArc
 50
199.1394744509401
 51
230.398072918752
  0
ARC
  5
C68DB
330
1E
100
AcDbEntity
  8
DETAIL
  6
CONTINUOUS
100
AcDbCircle
 10
-355.5999999999784
 20
-341.2000164699693
 30
0.0
 40
6.079473661428952
100
AcDbArc
 50
160.8797478026641
 51
166.0304228425068
  0
LINE
  5
C68DC
330
1E
100
AcDbEntity
  8
DETAIL
  6
CONTINUOUS
100
AcDbLine
 10
-349.2564104064566
 20
-341.2900161774504
 30
0.0
 11
-351.1352937228057
 21
-342.2000164700274
 31
0.0
  0
LINE
  5
C68DD
330
1E
100
AcDbEntity
  8
DETAIL
  6
CONTINUOUS
100
AcDbLine
 10
-359.1999999999952
 20
-341.7000164700275
 30
0.0
 11
-359.1999999999952
 21
-342.2000164700274
 31
0.0
  0
LINE
  5
C68DE
330
1E
100
AcDbEntity
  8
DETAIL
  6
CONTINUOUS
100
AcDbLine
 10
-349.2564104064566
 20
-341.1100167626191
 30
0.0
 11
-351.399999999996
 21
-340.0718111751101
 31
0.0
  0
LINE
  5
C68DF
330
1E
100
AcDbEntity
  8
DETAIL
  6
CONTINUOUS
100
AcDbLine
 10
-359.1999999999952
 20
-340.7000164700274
 30
0.0
 11
-359.1999999999952
 21
-341.7000164700275
 31
0.0
  0
LINE
  5
C68E0
330
1E
100
AcDbEntity
  8
DETAIL
  6
CONTINUOUS
100
AcDbLine
 10
-359.1999999999952
 20
-340.2000164700274
 30
0.0
 11
-359.1999999999952
 21
-340.7000164700274
 31
0.0
  0
LINE
  5
C68E1
330
1E
100
AcDbEntity
  8
DETAIL
  6
CONTINUOUS
100
AcDbLine
 10
-359.1999999999952
 20
-337.2000164700275
 30
0.0
 11
-359.1999999999952
 21
-339.2000164700275
 31
0.0
  0
LINE
  5
C68E2
330
1E
100
AcDbEntity
  8
DETAIL
  6
CONTINUOUS
100
AcDbLine
 10
-359.1999999999952
 20
-339.2000164700275
 30
0.0
 11
-359.1999999999952
 21
-340.2000164700274
 31
0.0
  0
LINE
  5
C68E3
330
1E
100
AcDbEntity
  8
DETAIL
  6
CONTINUOUS
100
AcDbLine
 10
-349.2564104064566
 20
-341.2900161774504
 30
0.0
 11
-349.2564104064566
 21
-341.1100167626191
 31
0.0
  0
LINE
  5
C68E4
330
1E
100
AcDbEntity
  8
DETAIL
  6
CONTINUOUS
100
AcDbLine
 10
-359.1999999999952
 20
-336.5000164700303
 30
0.0
 11
-359.4884444190483
 21
-336.5000164700303
 31
0.0
  0
LINE
  5
C68E5
330
1E
100
AcDbEntity
  8
DETAIL
  6
CONTINUOUS
100
AcDbLine
 10
-359.1999999999952
 20
-337.2000164700275
 30
0.0
 11
-359.1999999999952
 21
-336.5000164700303
 31
0.0
  0
LINE
  5
C68E6
330
1E
100
AcDbEntity
  8
DETAIL
  6
CONTINUOUS
100
AcDbLine
 10
-359.4884444190483
 20
-336.5000164700303
 30
0.0
 11
-359.4884444190483
 21
-345.9000164700281
 31
0.0
  0
LINE
  5
C68E7
330
1E
100
AcDbEntity
  8
DETAIL
  6
CONTINUOUS
100
AcDbLine
 10
-359.1999999999952
 20
-345.9000164700281
 30
0.0
 11
-359.4884444190483
 21
-345.9000164700281
 31
0.0
  0
LINE
  5
C68E8
330
1E
100
AcDbEntity
  8
DETAIL
  6
CONTINUOUS
100
AcDbLine
 10
-359.1999999999952
 20
-343.2000164700275
 30
0.0
 11
-359.1999999999952
 21
-345.9000164700281
 31
0.0
  0
LINE
  5
C68E9
330
1E
100
AcDbEntity
  8
DETAIL
  6
CONTINUOUS
100
AcDbLine
 10
-359.1999999999952
 20
-342.2000164700274
 30
0.0
 11
-359.1999999999952
 21
-343.2000164700275
 31
0.0
  0
LINE
  5
C68EA
330
1E
100
AcDbEntity
  8
DETAIL
  6
CONTINUOUS
100
AcDbLine
 10
-361.3440885065773
 20
-341.7000164700275
 30
0.0
 11
-361.499667421247
 21
-341.7000164700275
 31
0.0
  0
LINE
  5
C68EB
330
1E
100
AcDbEntity
  8
DETAIL
  6
CONTINUOUS
100
AcDbLine
 10
-361.3440885065773
 20
-343.1913595415808
 30
0.0
 11
-361.3628118136857
 21
-343.2000164700275
 31
0.0
  0
LINE
  5
C68EC
330
1E
100
AcDbEntity
  8
DETAIL
  6
CONTINUOUS
100
AcDbLine
 10
-361.3440885065773
 20
-340.7000164700274
 30
0.0
 11
-361.4996674212361
 21
-340.7000164700274
 31
0.0
  0
LINE
  5
C68ED
330
1E
100
AcDbEntity
  8
DETAIL
  6
CONTINUOUS
100
AcDbLine
 10
-361.3628118136857
 20
-339.2000164700275
 30
0.0
 11
-361.3440885065773
 21
-339.2086733984778
 31
0.0
  0
LINE
  5
C68EE
330
1E
100
AcDbEntity
  8
DETAIL
  6
CONTINUOUS
100
AcDbLine
 10
-358.399999999996
 20
-265.0000164700303
 30
0.0
 11
-358.399999999996
 21
-334.2000164700274
 31
0.0
  0
LINE
  5
C68EF
330
1E
100
AcDbEntity
  8
DETAIL
  6
CONTINUOUS
100
AcDbLine
 10
-351.399999999996
 20
-265.0000164700303
 30
0.0
 11
-351.399999999996
 21
-342.2000164700274
 31
0.0
  0
LINE
  5
C68F0
330
1E
100
AcDbEntity
  8
BASIS
  6
DASHDOT
100
AcDbLine
 10
39.00000000000364
 20
-141.600016470029
 30
0.0
 11
39.00000000000364
 21
-157.8129614194167
 31
0.0
  0
SPLINE
  5
C68F1
330
1E
100
AcDbEntity
  8
DETAIL
  6
CONTINUOUS
100
AcDbSpline
210
0.0
220
0.0
230
1.0
 70
     8
 71
     3
 72
    15
 73
    11
 74
     9
 42
0.0000000001
 43
0.0000000001
 44
0.00000001
 40
0.0
 40
0.0
 40
0.0
 40
0.0
 40
0.1724337592540733
 40
0.2980918658002203
 40
0.5078928554828478
 40
0.6892288340663765
 40
0.8055497890449098
 40
0.9331062851309127
 40
0.9722102984544871
 40
1.013080014040443
 40
1.013080014040443
 40
1.013080014040443
 40
1.013080014040443
 10
135.6996674212422
 20
-172.4676418713988
 30
0.0
 10
135.7128714555498
 20
-172.4116909454679
 30
0.0
 10
135.7356977067103
 20
-172.3149667556438
 30
0.0
 10
135.7663328040138
 20
-172.1484157929607
 30
0.0
 10
135.789719916955
 20
-171.977641435415
 30
0.0
 10
135.8001622474283
 20
-171.8085445179265
 30
0.0
 10
135.7941048653605
 20
-171.6666684267124
 30
0.0
 10
135.7776299273147
 20
-171.5734723271433
 30
0.0
 10
135.7401836846631
 20
-171.5107642648257
 30
0.0
 10
135.7133701751334
 20
-171.5036514195
 30
0.0
 10
135.6996674212422
 20
-171.5000164700304
 30
0.0
 11
135.6996674212422
 21
-172.4676418713988
 31
0.0
 11
135.7376580056152
 21
-172.2994452191906
 31
0.0
 11
135.7605484109025
 21
-172.175889607779
 31
0.0
 11
135.7882311193207
 21
-171.9679229688645
 31
0.0
 11
135.7976531120929
 21
-171.7868319334793
 31
0.0
 11
135.7918252143317
 21
-171.6706570648984
 31
0.0
 11
135.7605484109025
 21
-171.5469945364984
 31
0.0
 11
135.7375416632403
 21
-171.515374713208
 31
0.0
 11
135.6996674212422
 21
-171.5000164700304
 31
0.0
  0
SPLINE
  5
C68F2
330
1E
100
AcDbEntity
  8
DETAIL
  6
CONTINUOUS
100
AcDbSpline
210
0.0
220
0.0
230
1.0
 70
     8
 71
     3
 72
    17
 73
    13
 74
    11
 42
0.0000000001
 43
0.0000000001
 44
0.00000001
 40
0.0
 40
0.0
 40
0.0
 40
0.0
 40
0.1528067065910232
 40
0.3017503233119811
 40
0.4834017957598425
 40
0.6123817198903142
 40
0.6891535881086899
 40
0.8161084872232574
 40
0.8930285401168125
 40
0.9322214458472696
 40
0.9720515771525031
 40
1.013575841941625
 40
1.013575841941625
 40
1.013575841941625
 40
1.013575841941625
 10
135.6996674212422
 20
-169.5323910686584
 30
0.0
 10
135.7114247872868
 20
-169.58195791353
 30
0.0
 10
135.7346422894832
 20
-169.6798385076554
 30
0.0
 10
135.7641331056712
 20
-169.8383086197424
 30
0.0
 10
135.7854046988782
 20
-169.9901017291555
 30
0.0
 10
135.7958344518957
 20
-170.1188826144315
 30
0.0
 10
135.7987580943517
 20
-170.229810036275
 30
0.0
 10
135.7947829709072
 20
-170.323262507532
 30
0.0
 10
135.780560640536
 20
-170.403893785057
 30
0.0
 10
135.7623097921896
 20
-170.4520081102838
 30
0.0
 10
135.7408032168802
 20
-170.4889147263833
 30
0.0
 10
135.7135683985954
 20
-170.4962648646074
 30
0.0
 10
135.6996674212422
 20
-170.5000164700304
 30
0.0
 11
135.6996674212422
 21
-169.5323910686584
 31
0.0
 11
135.7337063745253
 21
-169.6813583018538
 31
0.0
 11
135.7611498277327
 21
-169.8277518053782
 31
0.0
 11
135.7857857362704
 21
-170.0077249406913
 31
0.0
 11
135.7957737363703
 21
-170.1363175557616
 31
0.0
 11
135.7976531057029
 21
-170.213066416998
 31
0.0
 11
135.7905683166573
 21
-170.339823476248
 31
0.0
 11
135.7753710059277
 21
-170.4152272970404
 31
0.0
 11
135.7611913812925
 21
-170.4517652505983
 31
0.0
 11
135.7380563897113
 21
-170.4841876397785
 31
0.0
 11
135.6996674212422
 21
-170.5000164700304
 31
0.0
  0
SPLINE
  5
C68F3
330
1E
100
AcDbEntity
  8
DETAIL
  6
CONTINUOUS
100
AcDbSpline
210
0.0
220
0.0
230
1.0
 70
     8
 71
     3
 72
    16
 73
    12
 74
    10
 42
0.0000000001
 43
0.0000000001
 44
0.00000001
 40
0.0
 40
0.0
 40
0.0
 40
0.0
 40
0.1748846745099228
 40
0.3017492984750361
 40
0.4834007709176564
 40
0.6123806950381755
 40
0.6891525632599631
 40
0.8315587199798761
 40
0.9319153185423035
 40
0.9717454498207144
 40
1.013269714677059
 40
1.013269714677059
 40
1.013269714677059
 40
1.013269714677059
 10
137.9996674212434
 20
-248.5323910686584
 30
0.0
 10
138.0130511214592
 20
-248.5891393660397
 30
0.0
 10
138.0361436151869
 20
-248.687053941596
 30
0.0
 10
138.0651541072103
 20
-248.8456033656695
 30
0.0
 10
138.0854023272627
 20
-248.9900849309639
 30
0.0
 10
138.0958400869638
 20
-249.1189185651897
 30
0.0
 10
138.0988777911081
 20
-249.2348595668803
 30
0.0
 10
138.0939181363361
 20
-249.342028009181
 30
0.0
 10
138.0731381975841
 20
-249.4335655667168
 30
0.0
 10
138.0408166844577
 20
-249.4888691345409
 30
0.0
 10
138.0135729496901
 20
-249.4962494578207
 30
0.0
 10
137.9996674212434
 20
-249.5000164700304
 30
0.0
 11
137.9996674212434
 21
-248.5323910686584
 31
0.0
 11
138.0381445570074
 21
-248.7029904717946
 31
0.0
 11
138.0611498277338
 21
-248.8277518053783
 31
0.0
 11
138.0857857362715
 21
-249.0077249406949
 31
0.0
 11
138.095773736366
 21
-249.136317555758
 31
0.0
 11
138.0976531056931
 21
-249.213066416998
 31
0.0
 11
138.0884193786132
 21
-249.3551728968467
 31
0.0
 11
138.0611913812936
 21
-249.4517652505983
 31
0.0
 11
138.0380563897124
 21
-249.4841876397785
 31
0.0
 11
137.9996674212434
 21
-249.5000164700304
 31
0.0
  0
SPLINE
  5
C68F4
330
1E
100
AcDbEntity
  8
DETAIL
  6
CONTINUOUS
100
AcDbSpline
210
0.0
220
0.0
230
1.0
 70
     8
 71
     3
 72
    15
 73
    11
 74
     9
 42
0.0000000001
 43
0.0000000001
 44
0.00000001
 40
0.0
 40
0.0
 40
0.0
 40
0.0
 40
0.1509066191756802
 40
0.2980928289095506
 40
0.5078938186110844
 40
0.6892297971906536
 40
0.805550752169411
 40
0.9331072482540395
 40
0.977571648659847
 40
1.013243167596196
 40
1.013243167596196
 40
1.013243167596196
 40
1.013243167596196
 10
137.9996674212434
 20
-251.4676418713988
 30
0.0
 10
138.0112837720292
 20
-251.4186929263494
 30
0.0
 10
138.034230093812
 20
-251.322001811277
 30
0.0
 10
138.0653627068212
 20
-251.1555302704326
 30
0.0
 10
138.0897012615729
 20
-250.9776317731756
 30
0.0
 10
138.1002116629132
 20
-250.8085712409264
 30
0.0
 10
138.0939875469284
 20
-250.6666048358452
 30
0.0
 10
138.0776742886218
 20
-250.5719002094807
 30
0.0
 10
138.0386411379271
 20
-250.5089227885307
 30
0.0
 10
138.0116722763549
 20
-250.5027598378063
 30
0.0
 10
137.9996674212434
 20
-250.5000164700303
 30
0.0
 11
137.9996674212434
 21
-251.4676418713988
 31
0.0
 11
138.0333186289863
 21
-251.3205351031992
 31
0.0
 11
138.0605484109036
 21
-251.175889607779
 31
0.0
 11
138.0882311193163
 21
-250.9679229688571
 31
0.0
 11
138.0976531120922
 21
-250.7868319334793
 31
0.0
 11
138.0918252143291
 21
-250.6706570648984
 31
0.0
 11
138.0605484109036
 21
-250.5469945364984
 31
0.0
 11
138.0333223822272
 21
-250.5118402192546
 31
0.0
 11
137.9996674212434
 21
-250.5000164700303
 31
0.0
  0
ARC
  5
C68F5
330
1E
100
AcDbEntity
  8
DETAIL
  6
CONTINUOUS
100
AcDbCircle
 10
132.1000000000075
 20
-250.000016470034
 30
0.0
 40
6.099999999998121
100
AcDbArc
 50
19.13947445107832
 51
50.39807291897965
  0
ARC
  5
C68F6
330
1E
100
AcDbEntity
  8
DETAIL
  6
CONTINUOUS
100
AcDbCircle
 10
132.1000000000094
 20
-250.0000164700213
 30
0.0
 40
6.099999999997598
100
AcDbArc
 50
309.6019270809897
 51
340.8605255488648
  0
ARC
  5
C68F7
330
1E
100
AcDbEntity
  8
DETAIL
  6
CONTINUOUS
100
AcDbCircle
 10
131.1792804723227
 20
-250.0000164700304
 30
0.0
 40
6.683536947860624
100
AcDbArc
 50
355.7096550093775
 51
4.290344990622505
  0
ARC
  5
C68F8
330
1E
100
AcDbEntity
  8
DETAIL
  6
CONTINUOUS
100
AcDbCircle
 10
132.100000000022
 20
-250.0000164700923
 30
0.0
 40
6.079473661424423
100
AcDbArc
 50
13.96957715870509
 51
19.12025219854794
  0
ARC
  5
C68F9
330
1E
100
AcDbEntity
  8
DETAIL
  6
CONTINUOUS
100
AcDbCircle
 10
132.1000000000184
 20
-250.0000164699776
 30
0.0
 40
6.079473661424909
100
AcDbArc
 50
340.8797478015443
 51
346.0304228414195
  0
LINE
  5
C68FA
330
1E
100
AcDbEntity
  8
DETAIL
  6
CONTINUOUS
100
AcDbLine
 10
135.7000000000024
 20
-248.0000164700304
 30
0.0
 11
135.7000000000024
 21
-245.3000164700296
 31
0.0
  0
LINE
  5
C68FB
330
1E
100
AcDbEntity
  8
DETAIL
  6
CONTINUOUS
100
AcDbLine
 10
135.7000000000024
 20
-249.0000164700304
 30
0.0
 11
135.7000000000024
 21
-248.0000164700304
 31
0.0
  0
LINE
  5
C68FC
330
1E
100
AcDbEntity
  8
DETAIL
  6
CONTINUOUS
100
AcDbLine
 10
135.7000000000024
 20
-252.0000164700304
 30
0.0
 11
135.7000000000024
 21
-251.0000164700304
 31
0.0
  0
LINE
  5
C68FD
330
1E
100
AcDbEntity
  8
DETAIL
  6
CONTINUOUS
100
AcDbLine
 10
135.7000000000024
 20
-251.0000164700304
 30
0.0
 11
135.7000000000024
 21
-250.5000164700303
 31
0.0
  0
LINE
  5
C68FE
330
1E
100
AcDbEntity
  8
DETAIL
  6
CONTINUOUS
100
AcDbLine
 10
135.7000000000024
 20
-250.5000164700303
 30
0.0
 11
135.7000000000024
 21
-250.0000164700304
 31
0.0
  0
LINE
  5
C68FF
330
1E
100
AcDbEntity
  8
DETAIL
  6
CONTINUOUS
100
AcDbLine
 10
135.7000000000024
 20
-250.0000164700304
 30
0.0
 11
135.7000000000024
 21
-249.5000164700304
 31
0.0
  0
LINE
  5
C6900
330
1E
100
AcDbEntity
  8
DETAIL
  6
CONTINUOUS
100
AcDbLine
 10
135.7000000000024
 20
-249.5000164700304
 30
0.0
 11
135.7000000000024
 21
-249.0000164700304
 31
0.0
  0
LINE
  5
C6901
330
1E
100
AcDbEntity
  8
DETAIL
  6
CONTINUOUS
100
AcDbLine
 10
135.7000000000024
 20
-254.7000164700274
 30
0.0
 11
135.7000000000024
 21
-252.0000164700304
 31
0.0
  0
LINE
  5
C6902
330
1E
100
AcDbEntity
  8
DETAIL
  6
CONTINUOUS
100
AcDbLine
 10
135.7000000000024
 20
-254.7000164700274
 30
0.0
 11
135.9884444190429
 21
-254.7000164700274
 31
0.0
  0
LINE
  5
C6903
330
1E
100
AcDbEntity
  8
DETAIL
  6
CONTINUOUS
100
AcDbLine
 10
135.9884444190429
 20
-254.7000164700274
 30
0.0
 11
135.9884444190429
 21
-250.0000164700304
 31
0.0
  0
LINE
  5
C6904
330
1E
100
AcDbEntity
  8
DETAIL
  6
CONTINUOUS
100
AcDbLine
 10
137.8440885065737
 20
-250.5000164700303
 30
0.0
 11
137.9996674212434
 21
-250.5000164700303
 31
0.0
  0
LINE
  5
C6905
330
1E
100
AcDbEntity
  8
DETAIL
  6
CONTINUOUS
100
AcDbLine
 10
135.9884444190429
 20
-250.0000164700304
 30
0.0
 11
135.9884444190429
 21
-245.3000164700296
 31
0.0
  0
LINE
  5
C6906
330
1E
100
AcDbEntity
  8
DETAIL
  6
CONTINUOUS
100
AcDbLine
 10
135.7000000000024
 20
-245.3000164700296
 30
0.0
 11
135.9884444190429
 21
-245.3000164700296
 31
0.0
  0
LINE
  5
C6907
330
1E
100
AcDbEntity
  8
DETAIL
  6
CONTINUOUS
100
AcDbLine
 10
137.8440885065737
 20
-248.0086733984808
 30
0.0
 11
137.862811813693
 21
-248.0000164700304
 31
0.0
  0
LINE
  5
C6908
330
1E
100
AcDbEntity
  8
DETAIL
  6
CONTINUOUS
100
AcDbLine
 10
137.8440885065737
 20
-249.5000164700304
 30
0.0
 11
137.9996674212434
 21
-249.5000164700304
 31
0.0
  0
LINE
  5
C6909
330
1E
100
AcDbEntity
  8
DETAIL
  6
CONTINUOUS
100
AcDbLine
 10
137.862811813693
 20
-252.0000164700304
 30
0.0
 11
137.8440885065737
 21
-251.99135954158
 31
0.0
  0
ARC
  5
C690A
330
1E
100
AcDbEntity
  8
DETAIL
  6
CONTINUOUS
100
AcDbCircle
 10
129.8000000000083
 20
-171.0000164700213
 30
0.0
 40
6.099999999998178
100
AcDbArc
 50
309.6019270809961
 51
340.8605255488676
  0
ARC
  5
C690B
330
1E
100
AcDbEntity
  8
DETAIL
  6
CONTINUOUS
100
AcDbCircle
 10
129.8000000000209
 20
-171.0000164700923
 30
0.0
 40
6.079473661424423
100
AcDbArc
 50
13.96957715870509
 51
19.12025219854794
  0
ARC
  5
C690C
330
1E
100
AcDbEntity
  8
DETAIL
  6
CONTINUOUS
100
AcDbCircle
 10
128.8792804723233
 20
-171.0000164700304
 30
0.0
 40
6.683536947858812
100
AcDbArc
 50
355.7096550093763
 51
4.290344990623663
  0
ARC
  5
C690D
330
1E
100
AcDbEntity
  8
DETAIL
  6
CONTINUOUS
100
AcDbCircle
 10
129.800000000012
 20
-171.000016470003
 30
0.0
 40
6.079473661424107
100
AcDbArc
 50
340.879747801723
 51
346.0304228416648
  0
ARC
  5
C690E
330
1E
100
AcDbEntity
  8
DETAIL
  6
CONTINUOUS
100
AcDbCircle
 10
129.8000000000064
 20
-171.0000164700359
 30
0.0
 40
6.099999999999575
100
AcDbArc
 50
19.13947445109165
 51
50.39807291898396
  0
LINE
  5
C690F
330
1E
100
AcDbEntity
  8
DETAIL
  6
CONTINUOUS
100
AcDbLine
 10
133.4000000000032
 20
-170.0000164700304
 30
0.0
 11
133.4000000000032
 21
-169.0000164700304
 31
0.0
  0
LINE
  5
C6910
330
1E
100
AcDbEntity
  8
DETAIL
  6
CONTINUOUS
100
AcDbLine
 10
133.4000000000032
 20
-173.0000164700304
 30
0.0
 11
133.4000000000032
 21
-172.0000164700303
 31
0.0
  0
LINE
  5
C6911
330
1E
100
AcDbEntity
  8
DETAIL
  6
CONTINUOUS
100
AcDbLine
 10
133.4000000000032
 20
-172.0000164700303
 30
0.0
 11
133.4000000000032
 21
-171.5000164700304
 31
0.0
  0
LINE
  5
C6912
330
1E
100
AcDbEntity
  8
DETAIL
  6
CONTINUOUS
100
AcDbLine
 10
133.4000000000032
 20
-171.5000164700304
 30
0.0
 11
133.4000000000032
 21
-171.0000164700304
 31
0.0
  0
LINE
  5
C6913
330
1E
100
AcDbEntity
  8
DETAIL
  6
CONTINUOUS
100
AcDbLine
 10
133.4000000000032
 20
-171.0000164700304
 30
0.0
 11
133.4000000000032
 21
-170.5000164700304
 31
0.0
  0
LINE
  5
C6914
330
1E
100
AcDbEntity
  8
DETAIL
  6
CONTINUOUS
100
AcDbLine
 10
133.4000000000032
 20
-170.5000164700304
 30
0.0
 11
133.4000000000032
 21
-170.0000164700304
 31
0.0
  0
LINE
  5
C6915
330
1E
100
AcDbEntity
  8
DETAIL
  6
CONTINUOUS
100
AcDbLine
 10
133.4000000000032
 20
-175.7000164700274
 30
0.0
 11
133.4000000000032
 21
-173.0000164700304
 31
0.0
  0
LINE
  5
C6916
330
1E
100
AcDbEntity
  8
DETAIL
  6
CONTINUOUS
100
AcDbLine
 10
133.4000000000032
 20
-169.0000164700304
 30
0.0
 11
133.4000000000032
 21
-166.3000164700296
 31
0.0
  0
LINE
  5
C6917
330
1E
100
AcDbEntity
  8
DETAIL
  6
CONTINUOUS
100
AcDbLine
 10
135.5628118136936
 20
-173.0000164700304
 30
0.0
 11
135.5440885065727
 21
-172.9913595415872
 31
0.0
  0
LINE
  5
C6918
330
1E
100
AcDbEntity
  8
DETAIL
  6
CONTINUOUS
100
AcDbLine
 10
135.5440885065727
 20
-170.5000164700304
 30
0.0
 11
135.6996674212422
 21
-170.5000164700304
 31
0.0
  0
LINE
  5
C6919
330
1E
100
AcDbEntity
  8
DETAIL
  6
CONTINUOUS
100
AcDbLine
 10
135.5440885065727
 20
-169.0086733984808
 30
0.0
 11
135.5628118136936
 21
-169.0000164700304
 31
0.0
  0
LINE
  5
C691A
330
1E
100
AcDbEntity
  8
DETAIL
  6
CONTINUOUS
100
AcDbLine
 10
133.4000000000032
 20
-166.3000164700296
 30
0.0
 11
133.6884444190436
 21
-166.3000164700296
 31
0.0
  0
LINE
  5
C691B
330
1E
100
AcDbEntity
  8
DETAIL
  6
CONTINUOUS
100
AcDbLine
 10
135.5440885065727
 20
-171.5000164700304
 30
0.0
 11
135.6996674212422
 21
-171.5000164700304
 31
0.0
  0
LINE
  5
C691C
330
1E
100
AcDbEntity
  8
DETAIL
  6
CONTINUOUS
100
AcDbLine
 10
133.4000000000032
 20
-175.7000164700274
 30
0.0
 11
133.6884444190436
 21
-175.7000164700274
 31
0.0
  0
LINE
  5
C691D
330
1E
100
AcDbEntity
  8
DETAIL
  6
CONTINUOUS
100
AcDbLine
 10
133.6884444190436
 20
-175.7000164700274
 30
0.0
 11
133.6884444190436
 21
-171.0000164700304
 31
0.0
  0
LINE
  5
C691E
330
1E
100
AcDbEntity
  8
DETAIL
  6
CONTINUOUS
100
AcDbLine
 10
133.6884444190436
 20
-171.0000164700304
 30
0.0
 11
133.6884444190436
 21
-166.3000164700296
 31
0.0
  0
LINE
  5
C691F
330
1E
100
AcDbEntity
  8
DETAIL
  6
CONTINUOUS
100
AcDbLine
 10
126.4000000000031
 20
-155.0000164700304
 30
0.0
 11
129.4000000000032
 21
-152.0000164700304
 31
0.0
  0
LINE
  5
C6920
330
1E
100
AcDbEntity
  8
DETAIL
  6
CONTINUOUS
100
AcDbLine
 10
142.600000000004
 20
-150.0000164700304
 30
0.0
 11
139.600000000004
 21
-150.0000164700304
 31
0.0
  0
LINE
  5
C6921
330
1E
100
AcDbEntity
  8
DETAIL
  6
CONTINUOUS
100
AcDbLine
 10
139.600000000004
 20
-150.0000164700304
 30
0.0
 11
139.600000000004
 21
-150.8000164700296
 31
0.0
  0
LINE
  5
C6922
330
1E
100
AcDbEntity
  8
DETAIL
  6
CONTINUOUS
100
AcDbLine
 10
132.600000000004
 20
-150.0000164700304
 30
0.0
 11
132.600000000004
 21
-152.0000164700304
 31
0.0
  0
LINE
  5
C6923
330
1E
100
AcDbEntity
  8
DETAIL
  6
CONTINUOUS
100
AcDbLine
 10
133.4000000000032
 20
-152.0000164700304
 30
0.0
 11
132.600000000004
 21
-152.0000164700304
 31
0.0
  0
LINE
  5
C6924
330
1E
100
AcDbEntity
  8
DETAIL
  6
CONTINUOUS
100
AcDbLine
 10
142.600000000004
 20
-150.0000164700304
 30
0.0
 11
142.600000000004
 21
-150.8000164700296
 31
0.0
  0
LINE
  5
C6925
330
1E
100
AcDbEntity
  8
DETAIL
  6
CONTINUOUS
100
AcDbLine
 10
142.600000000004
 20
-150.8000164700296
 30
0.0
 11
139.600000000004
 21
-150.8000164700296
 31
0.0
  0
LINE
  5
C6926
330
1E
100
AcDbEntity
  8
DETAIL
  6
CONTINUOUS
100
AcDbLine
 10
131.0000000000035
 20
-152.0000164700304
 30
0.0
 11
132.600000000004
 21
-152.0000164700304
 31
0.0
  0
LINE
  5
C6927
330
1E
100
AcDbEntity
  8
DETAIL
  6
CONTINUOUS
100
AcDbLine
 10
129.4000000000032
 20
-152.0000164700304
 30
0.0
 11
131.0000000000035
 21
-152.0000164700304
 31
0.0
  0
LINE
  5
C6928
330
1E
100
AcDbEntity
  8
DETAIL
  6
CONTINUOUS
100
AcDbLine
 10
133.4000000000032
 20
-235.0000164700304
 30
0.0
 11
133.4000000000032
 21
-175.7000164700274
 31
0.0
  0
LINE
  5
C6929
330
1E
100
AcDbEntity
  8
DETAIL
  6
CONTINUOUS
100
AcDbLine
 10
133.4000000000032
 20
-170.0000164700304
 30
0.0
 11
133.4000000000032
 21
-169.0000164700304
 31
0.0
  0
LINE
  5
C692A
330
1E
100
AcDbEntity
  8
DETAIL
  6
CONTINUOUS
100
AcDbLine
 10
133.4000000000032
 20
-173.0000164700304
 30
0.0
 11
133.4000000000032
 21
-172.0000164700303
 31
0.0
  0
LINE
  5
C692B
330
1E
100
AcDbEntity
  8
DETAIL
  6
CONTINUOUS
100
AcDbLine
 10
133.4000000000032
 20
-172.0000164700303
 30
0.0
 11
133.4000000000032
 21
-171.5000164700304
 31
0.0
  0
LINE
  5
C692C
330
1E
100
AcDbEntity
  8
DETAIL
  6
CONTINUOUS
100
AcDbLine
 10
133.4000000000032
 20
-171.5000164700304
 30
0.0
 11
133.4000000000032
 21
-171.0000164700304
 31
0.0
  0
LINE
  5
C692D
330
1E
100
AcDbEntity
  8
DETAIL
  6
CONTINUOUS
100
AcDbLine
 10
133.4000000000032
 20
-171.0000164700304
 30
0.0
 11
133.4000000000032
 21
-170.5000164700304
 31
0.0
  0
LINE
  5
C692E
330
1E
100
AcDbEntity
  8
DETAIL
  6
CONTINUOUS
100
AcDbLine
 10
133.4000000000032
 20
-170.5000164700304
 30
0.0
 11
133.4000000000032
 21
-170.0000164700304
 31
0.0
  0
LINE
  5
C692F
330
1E
100
AcDbEntity
  8
DETAIL
  6
CONTINUOUS
100
AcDbLine
 10
133.4000000000032
 20
-175.7000164700274
 30
0.0
 11
133.4000000000032
 21
-173.0000164700304
 31
0.0
  0
LINE
  5
C6930
330
1E
100
AcDbEntity
  8
DETAIL
  6
CONTINUOUS
100
AcDbLine
 10
133.4000000000032
 20
-169.0000164700304
 30
0.0
 11
133.4000000000032
 21
-166.3000164700296
 31
0.0
  0
LINE
  5
C6931
330
1E
100
AcDbEntity
  8
DETAIL
  6
CONTINUOUS
100
AcDbLine
 10
126.4000000000031
 20
-235.0000164700304
 30
0.0
 11
126.4000000000031
 21
-155.0000164700304
 31
0.0
  0
LINE
  5
C6932
330
1E
100
AcDbEntity
  8
DETAIL
  6
CONTINUOUS
100
AcDbLine
 10
139.600000000004
 20
-150.0000164700304
 30
0.0
 11
132.600000000004
 21
-150.0000164700304
 31
0.0
  0
LINE
  5
C6933
330
1E
100
AcDbEntity
  8
DETAIL
  6
CONTINUOUS
100
AcDbLine
 10
133.4000000000032
 20
-150.8000164700296
 30
0.0
 11
139.600000000004
 21
-150.8000164700296
 31
0.0
  0
LINE
  5
C6934
330
1E
100
AcDbEntity
  8
DETAIL
  6
CONTINUOUS
100
AcDbLine
 10
133.4000000000032
 20
-166.3000164700296
 30
0.0
 11
133.4000000000032
 21
-152.0000164700304
 31
0.0
  0
LINE
  5
C6935
330
1E
100
AcDbEntity
  8
DETAIL
  6
CONTINUOUS
100
AcDbLine
 10
133.4000000000032
 20
-150.8000164700296
 30
0.0
 11
133.4000000000032
 21
-152.0000164700304
 31
0.0
  0
LINE
  5
C6936
330
1E
100
AcDbEntity
  8
DETAIL
  6
CONTINUOUS
100
AcDbLine
 10
135.7000000000024
 20
-254.7000164700274
 30
0.0
 11
135.7000000000024
 21
-252.0000164700304
 31
0.0
  0
LINE
  5
C6937
330
1E
100
AcDbEntity
  8
DETAIL
  6
CONTINUOUS
100
AcDbLine
 10
135.7000000000024
 20
-265.0000164700303
 30
0.0
 11
133.4000000000032
 21
-265.0000164700303
 31
0.0
  0
LINE
  5
C6938
330
1E
100
AcDbEntity
  8
DETAIL
  6
CONTINUOUS
100
AcDbLine
 10
135.7000000000024
 20
-235.0000164700304
 30
0.0
 11
133.4000000000032
 21
-235.0000164700304
 31
0.0
  0
LINE
  5
C6939
330
1E
100
AcDbEntity
  8
DETAIL
  6
CONTINUOUS
100
AcDbLine
 10
131.0000000000035
 20
-150.0000164700304
 30
0.0
 11
131.0000000000035
 21
-151.600016470029
 31
0.0
  0
LINE
  5
C693A
330
1E
100
AcDbEntity
  8
DETAIL
  6
CONTINUOUS
100
AcDbLine
 10
131.0000000000035
 20
-152.0000164700304
 30
0.0
 11
131.0000000000035
 21
-151.600016470029
 31
0.0
  0
LINE
  5
C693B
330
1E
100
AcDbEntity
  8
DETAIL
  6
CONTINUOUS
100
AcDbLine
 10
131.0000000000035
 20
-150.0000164700304
 30
0.0
 11
127.0000000000035
 21
-150.0000164700304
 31
0.0
  0
LINE
  5
C693C
330
1E
100
AcDbEntity
  8
DETAIL
  6
CONTINUOUS
100
AcDbLine
 10
131.0000000000035
 20
-152.0000164700304
 30
0.0
 11
132.600000000004
 21
-152.0000164700304
 31
0.0
  0
LINE
  5
C693D
330
1E
100
AcDbEntity
  8
DETAIL
  6
CONTINUOUS
100
AcDbLine
 10
43.70000000000255
 20
-151.600016470029
 30
0.0
 11
127.0000000000035
 21
-151.600016470029
 31
0.0
  0
LINE
  5
C693E
330
1E
100
AcDbEntity
  8
DETAIL
  6
CONTINUOUS
100
AcDbLine
 10
131.0000000000035
 20
-151.600016470029
 30
0.0
 11
127.0000000000035
 21
-151.600016470029
 31
0.0
  0
LINE
  5
C693F
330
1E
100
AcDbEntity
  8
DETAIL
  6
CONTINUOUS
100
AcDbLine
 10
131.0000000000035
 20
-150.0000164700304
 30
0.0
 11
131.0000000000035
 21
-151.600016470029
 31
0.0
  0
LINE
  5
C6940
330
1E
100
AcDbEntity
  8
DETAIL
  6
CONTINUOUS
100
AcDbLine
 10
131.0000000000035
 20
-152.0000164700304
 30
0.0
 11
131.0000000000035
 21
-151.600016470029
 31
0.0
  0
LINE
  5
C6941
330
1E
100
AcDbEntity
  8
DETAIL
  6
CONTINUOUS
100
AcDbLine
 10
131.0000000000035
 20
-150.0000164700304
 30
0.0
 11
127.0000000000035
 21
-150.0000164700304
 31
0.0
  0
LINE
  5
C6942
330
1E
100
AcDbEntity
  8
DETAIL
  6
CONTINUOUS
100
AcDbLine
 10
127.0000000000035
 20
-151.600016470029
 30
0.0
 11
127.0000000000035
 21
-150.0000164700304
 31
0.0
  0
LINE
  5
C6943
330
1E
100
AcDbEntity
  8
DETAIL
  6
CONTINUOUS
100
AcDbLine
 10
131.0000000000035
 20
-152.0000164700304
 30
0.0
 11
132.600000000004
 21
-152.0000164700304
 31
0.0
  0
LINE
  5
C6944
330
1E
100
AcDbEntity
  8
DETAIL
  6
CONTINUOUS
100
AcDbLine
 10
135.7000000000024
 20
-265.0000164700303
 30
0.0
 11
135.7000000000024
 21
-254.7000164700274
 31
0.0
  0
LINE
  5
C6945
330
1E
100
AcDbEntity
  8
DETAIL
  6
CONTINUOUS
100
AcDbLine
 10
135.7000000000024
 20
-245.3000164700296
 30
0.0
 11
135.7000000000024
 21
-235.0000164700304
 31
0.0
  0
LINE
  5
C6946
330
1E
100
AcDbEntity
  8
DETAIL
  6
CONTINUOUS
100
AcDbLine
 10
135.7000000000024
 20
-248.0000164700304
 30
0.0
 11
135.7000000000024
 21
-245.3000164700296
 31
0.0
  0
LINE
  5
C6947
330
1E
100
AcDbEntity
  8
DETAIL
  6
CONTINUOUS
100
AcDbLine
 10
135.7000000000024
 20
-249.0000164700304
 30
0.0
 11
135.7000000000024
 21
-248.0000164700304
 31
0.0
  0
LINE
  5
C6948
330
1E
100
AcDbEntity
  8
DETAIL
  6
CONTINUOUS
100
AcDbLine
 10
135.7000000000024
 20
-252.0000164700304
 30
0.0
 11
135.7000000000024
 21
-251.0000164700304
 31
0.0
  0
LINE
  5
C6949
330
1E
100
AcDbEntity
  8
DETAIL
  6
CONTINUOUS
100
AcDbLine
 10
135.7000000000024
 20
-251.0000164700304
 30
0.0
 11
135.7000000000024
 21
-250.5000164700303
 31
0.0
  0
LINE
  5
C694A
330
1E
100
AcDbEntity
  8
DETAIL
  6
CONTINUOUS
100
AcDbLine
 10
135.7000000000024
 20
-250.5000164700303
 30
0.0
 11
135.7000000000024
 21
-250.0000164700304
 31
0.0
  0
LINE
  5
C694B
330
1E
100
AcDbEntity
  8
DETAIL
  6
CONTINUOUS
100
AcDbLine
 10
135.7000000000024
 20
-250.0000164700304
 30
0.0
 11
135.7000000000024
 21
-249.5000164700304
 31
0.0
  0
LINE
  5
C694C
330
1E
100
AcDbEntity
  8
DETAIL
  6
CONTINUOUS
100
AcDbLine
 10
135.7000000000024
 20
-249.5000164700304
 30
0.0
 11
135.7000000000024
 21
-249.0000164700304
 31
0.0
  0
LINE
  5
C694D
330
1E
100
AcDbEntity
  8
DETAIL
  6
CONTINUOUS
100
AcDbLine
 10
135.7000000000024
 20
-254.7000164700274
 30
0.0
 11
135.7000000000024
 21
-252.0000164700304
 31
0.0
  0
LINE
  5
C694E
330
1E
100
AcDbEntity
  8
DETAIL
  6
CONTINUOUS
100
AcDbLine
 10
135.7000000000024
 20
-265.0000164700303
 30
0.0
 11
133.4000000000032
 21
-265.0000164700303
 31
0.0
  0
LINE
  5
C694F
330
1E
100
AcDbEntity
  8
DETAIL
  6
CONTINUOUS
100
AcDbLine
 10
135.7000000000024
 20
-235.0000164700304
 30
0.0
 11
133.4000000000032
 21
-235.0000164700304
 31
0.0
  0
LINE
  5
C6950
330
1E
100
AcDbEntity
  8
DETAIL
  6
CONTINUOUS
100
AcDbLine
 10
135.7000000000024
 20
-265.0000164700303
 30
0.0
 11
135.7000000000024
 21
-254.7000164700274
 31
0.0
  0
LINE
  5
C6951
330
1E
100
AcDbEntity
  8
DETAIL
  6
CONTINUOUS
100
AcDbLine
 10
135.7000000000024
 20
-245.3000164700296
 30
0.0
 11
135.7000000000024
 21
-235.0000164700304
 31
0.0
  0
LINE
  5
C6952
330
1E
100
AcDbEntity
  8
DETAIL
  6
CONTINUOUS
100
AcDbLine
 10
135.7000000000024
 20
-248.0000164700304
 30
0.0
 11
135.7000000000024
 21
-245.3000164700296
 31
0.0
  0
LINE
  5
C6953
330
1E
100
AcDbEntity
  8
DETAIL
  6
CONTINUOUS
100
AcDbLine
 10
135.7000000000024
 20
-249.0000164700304
 30
0.0
 11
135.7000000000024
 21
-248.0000164700304
 31
0.0
  0
LINE
  5
C6954
330
1E
100
AcDbEntity
  8
DETAIL
  6
CONTINUOUS
100
AcDbLine
 10
135.7000000000024
 20
-252.0000164700304
 30
0.0
 11
135.7000000000024
 21
-251.0000164700304
 31
0.0
  0
LINE
  5
C6955
330
1E
100
AcDbEntity
  8
DETAIL
  6
CONTINUOUS
100
AcDbLine
 10
135.7000000000024
 20
-251.0000164700304
 30
0.0
 11
135.7000000000024
 21
-250.5000164700303
 31
0.0
  0
LINE
  5
C6956
330
1E
100
AcDbEntity
  8
DETAIL
  6
CONTINUOUS
100
AcDbLine
 10
135.7000000000024
 20
-250.5000164700303
 30
0.0
 11
135.7000000000024
 21
-250.0000164700304
 31
0.0
  0
LINE
  5
C6957
330
1E
100
AcDbEntity
  8
DETAIL
  6
CONTINUOUS
100
AcDbLine
 10
135.7000000000024
 20
-250.0000164700304
 30
0.0
 11
135.7000000000024
 21
-249.5000164700304
 31
0.0
  0
LINE
  5
C6958
330
1E
100
AcDbEntity
  8
DETAIL
  6
CONTINUOUS
100
AcDbLine
 10
135.7000000000024
 20
-249.5000164700304
 30
0.0
 11
135.7000000000024
 21
-249.0000164700304
 31
0.0
  0
SPLINE
  5
C6959
330
1E
100
AcDbEntity
  8
DETAIL
  6
CONTINUOUS
100
AcDbSpline
210
0.0
220
0.0
230
1.0
 70
     8
 71
     3
 72
    17
 73
    13
 74
    11
 42
0.0000000001
 43
0.0000000001
 44
0.00000001
 40
0.0
 40
0.0
 40
0.0
 40
0.0
 40
0.1528067065803835
 40
0.3017503233121191
 40
0.4834017957635285
 40
0.6123817198940911
 40
0.6891535881088684
 40
0.8161084872233928
 40
0.8930285401161734
 40
0.9322214458452407
 40
0.9720515771557966
 40
1.013575841943506
 40
1.013575841943506
 40
1.013575841943506
 40
1.013575841943506
 10
136.4996674212433
 20
-339.7323910686591
 30
0.0
 10
136.5114247872883
 20
-339.781957913527
 30
0.0
 10
136.534642289487
 20
-339.8798385076519
 30
0.0
 10
136.5641331056714
 20
-340.0383086197411
 30
0.0
 10
136.5854046988777
 20
-340.1901017291588
 30
0.0
 10
136.5958344519001
 20
-340.3188826144345
 30
0.0
 10
136.5987580943512
 20
-340.4298100362769
 30
0.0
 10
136.5947829709103
 20
-340.5232625075331
 30
0.0
 10
136.5805606405397
 20
-340.6038937850561
 30
0.0
 10
136.5623097922018
 20
-340.6520081102882
 30
0.0
 10
136.5408032168811
 20
-340.6889147263821
 30
0.0
 10
136.5135683985957
 20
-340.6962648646053
 30
0.0
 10
136.4996674212433
 20
-340.7000164700274
 30
0.0
 11
136.4996674212433
 21
-339.7323910686591
 31
0.0
 11
136.5337063745264
 21
-339.8813583018436
 31
0.0
 11
136.5611498277338
 21
-340.027751805379
 31
0.0
 11
136.5857857362715
 21
-340.2077249406957
 31
0.0
 11
136.5957737363733
 21
-340.336317555766
 31
0.0
 11
136.597653105704
 21
-340.4130664169988
 31
0.0
 11
136.5905683166601
 21
-340.5398234762488
 31
0.0
 11
136.5753710059343
 21
-340.6152272970412
 31
0.0
 11
136.5611913813027
 21
-340.651765250599
 31
0.0
 11
136.5380563897124
 21
-340.6841876397793
 31
0.0
 11
136.4996674212433
 21
-340.7000164700274
 31
0.0
  0
SPLINE
  5
C695A
330
1E
100
AcDbEntity
  8
DETAIL
  6
CONTINUOUS
100
AcDbSpline
210
0.0
220
0.0
230
1.0
 70
     8
 71
     3
 72
    16
 73
    12
 74
    10
 42
0.0000000001
 43
0.0000000001
 44
0.00000001
 40
0.0
 40
0.0
 40
0.0
 40
0.0
 40
0.172433759483404
 40
0.2980918660375629
 40
0.5078928557272549
 40
0.6892288343027323
 40
0.7617747424087974
 40
0.8505268409490772
 40
0.9334623119661287
 40
0.9832771288613203
 40
1.013628928605744
 40
1.013628928605744
 40
1.013628928605744
 40
1.013628928605744
 10
136.4996674212525
 20
-342.6676418713995
 30
0.0
 10
136.5128724487854
 20
-342.611691486606
 30
0.0
 10
136.5357004164033
 20
-342.514968232202
 30
0.0
 10
136.5663232674213
 20
-342.3484105961812
 30
0.0
 10
136.589780345494
 20
-342.1776743637384
 30
0.0
 10
136.5991197923928
 20
-342.0230541982646
 30
0.0
 10
136.5963443845681
 20
-341.9089445520705
 30
0.0
 10
136.5876153539521
 20
-341.8274113778006
 30
0.0
 10
136.5692777855582
 20
-341.756830357818
 30
0.0
 10
136.5369275527886
 20
-341.7071184329998
 30
0.0
 10
136.5099002128607
 20
-341.7019668945302
 30
0.0
 10
136.4996674212433
 20
-341.7000164700275
 30
0.0
 11
136.4996674212525
 21
-342.6676418713995
 31
0.0
 11
136.5376580056163
 21
-342.4994452191839
 31
0.0
 11
136.5605484109037
 21
-342.3758896077797
 31
0.0
 11
136.5882311193181
 21
-342.1679229688616
 31
0.0
 11
136.5976531120923
 21
-341.98683193348
 31
0.0
 11
136.5955737912407
 21
-341.9143158305759
 31
0.0
 11
136.5852489812314
 21
-341.8261663370049
 31
0.0
 11
136.5605484109037
 21
-341.7469945364882
 31
0.0
 11
136.5287708287578
 21
-341.7086317817793
 31
0.0
 11
136.4996674212433
 21
-341.7000164700275
 31
0.0
  0
ARC
  5
C695B
330
1E
100
AcDbEntity
  8
DETAIL
  6
CONTINUOUS
100
AcDbCircle
 10
124.3000000000082
 20
-341.2000164700356
 30
0.0
 40
0.1000000000058208
100
AcDbArc
 50
179.9999999958311
 51
244.1576826432809
  0
ARC
  5
C695C
330
1E
100
AcDbEntity
  8
DETAIL
  6
CONTINUOUS
100
AcDbCircle
 10
124.3000000000009
 20
-341.2000164700301
 30
0.0
 40
0.0999999999980239
100
AcDbArc
 50
115.8423173543299
 51
179.9999999989578
  0
ARC
  5
C695D
330
1E
100
AcDbEntity
  8
DETAIL
  6
CONTINUOUS
100
AcDbCircle
 10
130.6000000000093
 20
-341.2000164700375
 30
0.0
 40
6.099999999997332
100
AcDbArc
 50
19.13947445113515
 51
50.39807291901031
  0
ARC
  5
C695E
330
1E
100
AcDbEntity
  8
DETAIL
  6
CONTINUOUS
100
AcDbCircle
 10
130.6000000000075
 20
-341.2000164700248
 30
0.0
 40
6.099999999997937
100
AcDbArc
 50
309.6019270810203
 51
340.8605255489216
  0
ARC
  5
C695F
330
1E
100
AcDbEntity
  8
DETAIL
  6
CONTINUOUS
100
AcDbCircle
 10
130.6000000000476
 20
-341.2000164698846
 30
0.0
 40
6.079473661429252
100
AcDbArc
 50
340.8797478006149
 51
346.0304228405111
  0
ARC
  5
C6960
330
1E
100
AcDbEntity
  8
DETAIL
  6
CONTINUOUS
100
AcDbCircle
 10
129.6792804723227
 20
-341.2000164700283
 30
0.0
 40
6.683536947860624
100
AcDbArc
 50
355.7096550093775
 51
4.290344990622505
  0
ARC
  5
C6961
330
1E
100
AcDbEntity
  8
DETAIL
  6
CONTINUOUS
100
AcDbCircle
 10
130.6000000000185
 20
-341.2000164700811
 30
0.0
 40
6.079473661423996
100
AcDbArc
 50
13.96957715858244
 51
19.12025219845853
  0
LINE
  5
C6962
330
1E
100
AcDbEntity
  8
DETAIL
  6
CONTINUOUS
100
AcDbLine
 10
124.256410406453
 20
-341.1100167626191
 30
0.0
 11
126.4000000000031
 21
-340.0718111751101
 31
0.0
  0
LINE
  5
C6963
330
1E
100
AcDbEntity
  8
DETAIL
  6
CONTINUOUS
100
AcDbLine
 10
124.256410406453
 20
-341.2900161774504
 30
0.0
 11
126.135293722813
 21
-342.2000164700274
 31
0.0
  0
LINE
  5
C6964
330
1E
100
AcDbEntity
  8
DETAIL
  6
CONTINUOUS
100
AcDbLine
 10
124.256410406453
 20
-341.2000164700275
 30
0.0
 11
124.256410406453
 21
-341.2900161774504
 31
0.0
  0
LINE
  5
C6965
330
1E
100
AcDbEntity
  8
DETAIL
  6
CONTINUOUS
100
AcDbLine
 10
134.2000000000024
 20
-339.2000164700275
 30
0.0
 11
134.2000000000024
 21
-337.2000164700275
 31
0.0
  0
LINE
  5
C6966
330
1E
100
AcDbEntity
  8
DETAIL
  6
CONTINUOUS
100
AcDbLine
 10
134.2000000000024
 20
-340.2000164700274
 30
0.0
 11
134.2000000000024
 21
-339.2000164700275
 31
0.0
  0
LINE
  5
C6967
330
1E
100
AcDbEntity
  8
DETAIL
  6
CONTINUOUS
100
AcDbLine
 10
134.2000000000024
 20
-341.2000164700275
 30
0.0
 11
134.2000000000024
 21
-340.7000164700274
 31
0.0
  0
LINE
  5
C6968
330
1E
100
AcDbEntity
  8
DETAIL
  6
CONTINUOUS
100
AcDbLine
 10
134.2000000000024
 20
-340.7000164700274
 30
0.0
 11
134.2000000000024
 21
-340.2000164700274
 31
0.0
  0
LINE
  5
C6969
330
1E
100
AcDbEntity
  8
DETAIL
  6
CONTINUOUS
100
AcDbLine
 10
134.2000000000024
 20
-341.7000164700275
 30
0.0
 11
134.2000000000024
 21
-341.2000164700275
 31
0.0
  0
LINE
  5
C696A
330
1E
100
AcDbEntity
  8
DETAIL
  6
CONTINUOUS
100
AcDbLine
 10
124.256410406453
 20
-341.1100167626191
 30
0.0
 11
124.256410406453
 21
-341.2000164700275
 31
0.0
  0
LINE
  5
C696B
330
1E
100
AcDbEntity
  8
DETAIL
  6
CONTINUOUS
100
AcDbLine
 10
134.2000000000024
 20
-345.9000164700281
 30
0.0
 11
134.2000000000024
 21
-343.2000164700275
 31
0.0
  0
LINE
  5
C696C
330
1E
100
AcDbEntity
  8
DETAIL
  6
CONTINUOUS
100
AcDbLine
 10
134.2000000000024
 20
-337.2000164700275
 30
0.0
 11
134.2000000000024
 21
-336.5000164700303
 31
0.0
  0
LINE
  5
C696D
330
1E
100
AcDbEntity
  8
DETAIL
  6
CONTINUOUS
100
AcDbLine
 10
134.2000000000024
 20
-343.2000164700275
 30
0.0
 11
134.2000000000024
 21
-342.2000164700274
 31
0.0
  0
LINE
  5
C696E
330
1E
100
AcDbEntity
  8
DETAIL
  6
CONTINUOUS
100
AcDbLine
 10
134.2000000000024
 20
-342.2000164700274
 30
0.0
 11
134.2000000000024
 21
-341.7000164700275
 31
0.0
  0
LINE
  5
C696F
330
1E
100
AcDbEntity
  8
DETAIL
  6
CONTINUOUS
100
AcDbLine
 10
134.4884444190429
 20
-345.9000164700281
 30
0.0
 11
134.4884444190429
 21
-341.2000164700275
 31
0.0
  0
LINE
  5
C6970
330
1E
100
AcDbEntity
  8
DETAIL
  6
CONTINUOUS
100
AcDbLine
 10
134.4884444190429
 20
-341.2000164700275
 30
0.0
 11
134.4884444190429
 21
-336.5000164700303
 31
0.0
  0
LINE
  5
C6971
330
1E
100
AcDbEntity
  8
DETAIL
  6
CONTINUOUS
100
AcDbLine
 10
134.2000000000024
 20
-345.9000164700281
 30
0.0
 11
134.4884444190429
 21
-345.9000164700281
 31
0.0
  0
LINE
  5
C6972
330
1E
100
AcDbEntity
  8
DETAIL
  6
CONTINUOUS
100
AcDbLine
 10
136.362811813693
 20
-343.2000164700275
 30
0.0
 11
136.3440885065738
 21
-343.1913595415808
 31
0.0
  0
LINE
  5
C6973
330
1E
100
AcDbEntity
  8
DETAIL
  6
CONTINUOUS
100
AcDbLine
 10
136.3440885065738
 20
-341.7000164700275
 30
0.0
 11
136.4996674212433
 21
-341.7000164700275
 31
0.0
  0
LINE
  5
C6974
330
1E
100
AcDbEntity
  8
DETAIL
  6
CONTINUOUS
100
AcDbLine
 10
134.2000000000024
 20
-336.5000164700303
 30
0.0
 11
134.4884444190429
 21
-336.5000164700303
 31
0.0
  0
LINE
  5
C6975
330
1E
100
AcDbEntity
  8
DETAIL
  6
CONTINUOUS
100
AcDbLine
 10
136.3440885065738
 20
-339.2086733984778
 30
0.0
 11
136.362811813693
 21
-339.2000164700275
 31
0.0
  0
LINE
  5
C6976
330
1E
100
AcDbEntity
  8
DETAIL
  6
CONTINUOUS
100
AcDbLine
 10
136.3440885065738
 20
-340.7000164700274
 30
0.0
 11
136.4996674212433
 21
-340.7000164700274
 31
0.0
  0
LINE
  5
C6977
330
1E
100
AcDbEntity
  8
DETAIL
  6
CONTINUOUS
100
AcDbLine
 10
133.4000000000032
 20
-348.2000164700274
 30
0.0
 11
133.2000000000024
 21
-348.2000164700274
 31
0.0
  0
LINE
  5
C6978
330
1E
100
AcDbEntity
  8
DETAIL
  6
CONTINUOUS
100
AcDbLine
 10
133.4000000000032
 20
-337.2000164700275
 30
0.0
 11
133.4000000000032
 21
-348.2000164700274
 31
0.0
  0
LINE
  5
C6979
330
1E
100
AcDbEntity
  8
DETAIL
  6
CONTINUOUS
100
AcDbLine
 10
133.4000000000032
 20
-334.2000164700274
 30
0.0
 11
133.4000000000032
 21
-337.2000164700275
 31
0.0
  0
LINE
  5
C697A
330
1E
100
AcDbEntity
  8
DETAIL
  6
CONTINUOUS
100
AcDbLine
 10
133.4000000000032
 20
-348.2000164700274
 30
0.0
 11
133.4000000000032
 21
-349.2000164700275
 31
0.0
  0
LINE
  5
C697B
330
1E
100
AcDbEntity
  8
DETAIL
  6
CONTINUOUS
100
AcDbLine
 10
133.4000000000032
 20
-349.2000164700275
 30
0.0
 11
133.2000000000024
 21
-349.2000164700275
 31
0.0
  0
LINE
  5
C697C
330
1E
100
AcDbEntity
  8
DETAIL
  6
CONTINUOUS
100
AcDbLine
 10
133.4000000000032
 20
-334.2000164700274
 30
0.0
 11
134.2000000000024
 21
-334.2000164700274
 31
0.0
  0
LINE
  5
C697D
330
1E
100
AcDbEntity
  8
DETAIL
  6
CONTINUOUS
100
AcDbLine
 10
133.4000000000032
 20
-337.2000164700275
 30
0.0
 11
134.2000000000024
 21
-337.2000164700275
 31
0.0
  0
LINE
  5
C697E
330
1E
100
AcDbEntity
  8
DETAIL
  6
CONTINUOUS
100
AcDbLine
 10
134.2000000000024
 20
-339.2000164700275
 30
0.0
 11
134.2000000000024
 21
-337.2000164700275
 31
0.0
  0
LINE
  5
C697F
330
1E
100
AcDbEntity
  8
DETAIL
  6
CONTINUOUS
100
AcDbLine
 10
134.2000000000024
 20
-340.2000164700274
 30
0.0
 11
134.2000000000024
 21
-339.2000164700275
 31
0.0
  0
LINE
  5
C6980
330
1E
100
AcDbEntity
  8
DETAIL
  6
CONTINUOUS
100
AcDbLine
 10
134.2000000000024
 20
-341.2000164700275
 30
0.0
 11
134.2000000000024
 21
-340.7000164700274
 31
0.0
  0
LINE
  5
C6981
330
1E
100
AcDbEntity
  8
DETAIL
  6
CONTINUOUS
100
AcDbLine
 10
134.2000000000024
 20
-340.7000164700274
 30
0.0
 11
134.2000000000024
 21
-340.2000164700274
 31
0.0
  0
LINE
  5
C6982
330
1E
100
AcDbEntity
  8
DETAIL
  6
CONTINUOUS
100
AcDbLine
 10
134.2000000000024
 20
-341.7000164700275
 30
0.0
 11
134.2000000000024
 21
-341.2000164700275
 31
0.0
  0
LINE
  5
C6983
330
1E
100
AcDbEntity
  8
DETAIL
  6
CONTINUOUS
100
AcDbLine
 10
133.2000000000024
 20
-342.2000164700274
 30
0.0
 11
133.2000000000024
 21
-349.2000164700275
 31
0.0
  0
LINE
  5
C6984
330
1E
100
AcDbEntity
  8
DETAIL
  6
CONTINUOUS
100
AcDbLine
 10
133.4000000000032
 20
-337.2000164700275
 30
0.0
 11
133.4000000000032
 21
-348.2000164700274
 31
0.0
  0
LINE
  5
C6985
330
1E
100
AcDbEntity
  8
DETAIL
  6
CONTINUOUS
100
AcDbLine
 10
133.4000000000032
 20
-334.2000164700274
 30
0.0
 11
133.4000000000032
 21
-337.2000164700275
 31
0.0
  0
LINE
  5
C6986
330
1E
100
AcDbEntity
  8
DETAIL
  6
CONTINUOUS
100
AcDbLine
 10
133.4000000000032
 20
-348.2000164700274
 30
0.0
 11
133.4000000000032
 21
-349.2000164700275
 31
0.0
  0
LINE
  5
C6987
330
1E
100
AcDbEntity
  8
DETAIL
  6
CONTINUOUS
100
AcDbLine
 10
133.4000000000032
 20
-349.2000164700275
 30
0.0
 11
133.2000000000024
 21
-349.2000164700275
 31
0.0
  0
LINE
  5
C6988
330
1E
100
AcDbEntity
  8
DETAIL
  6
CONTINUOUS
100
AcDbLine
 10
134.2000000000024
 20
-345.9000164700281
 30
0.0
 11
134.2000000000024
 21
-343.2000164700275
 31
0.0
  0
LINE
  5
C6989
330
1E
100
AcDbEntity
  8
DETAIL
  6
CONTINUOUS
100
AcDbLine
 10
134.2000000000024
 20
-350.0000164700303
 30
0.0
 11
134.2000000000024
 21
-345.9000164700281
 31
0.0
  0
LINE
  5
C698A
330
1E
100
AcDbEntity
  8
DETAIL
  6
CONTINUOUS
100
AcDbLine
 10
134.2000000000024
 20
-336.5000164700303
 30
0.0
 11
134.2000000000024
 21
-334.2000164700274
 31
0.0
  0
LINE
  5
C698B
330
1E
100
AcDbEntity
  8
DETAIL
  6
CONTINUOUS
100
AcDbLine
 10
134.2000000000024
 20
-337.2000164700275
 30
0.0
 11
134.2000000000024
 21
-336.5000164700303
 31
0.0
  0
LINE
  5
C698C
330
1E
100
AcDbEntity
  8
DETAIL
  6
CONTINUOUS
100
AcDbLine
 10
134.2000000000024
 20
-343.2000164700275
 30
0.0
 11
134.2000000000024
 21
-342.2000164700274
 31
0.0
  0
LINE
  5
C698D
330
1E
100
AcDbEntity
  8
DETAIL
  6
CONTINUOUS
100
AcDbLine
 10
134.2000000000024
 20
-342.2000164700274
 30
0.0
 11
134.2000000000024
 21
-341.7000164700275
 31
0.0
  0
LINE
  5
C698E
330
1E
100
AcDbEntity
  8
DETAIL
  6
CONTINUOUS
100
AcDbLine
 10
134.2000000000024
 20
-350.0000164700303
 30
0.0
 11
133.2000000000024
 21
-350.0000164700303
 31
0.0
  0
LINE
  5
C698F
330
1E
100
AcDbEntity
  8
DETAIL
  6
CONTINUOUS
100
AcDbLine
 10
133.2000000000024
 20
-350.0000164700303
 30
0.0
 11
133.2000000000024
 21
-349.2000164700275
 31
0.0
  0
LINE
  5
C6990
330
1E
100
AcDbEntity
  8
DETAIL
  6
CONTINUOUS
100
AcDbLine
 10
133.4000000000032
 20
-334.2000164700274
 30
0.0
 11
133.4000000000032
 21
-265.0000164700303
 31
0.0
  0
LINE
  5
C6991
330
1E
100
AcDbEntity
  8
DETAIL
  6
CONTINUOUS
100
AcDbLine
 10
126.4000000000031
 20
-342.2000164700274
 30
0.0
 11
126.4000000000031
 21
-265.0000164700303
 31
0.0
  0
LINE
  5
C74FE
330
1E
100
AcDbEntity
  8
SIZE
  6
CONTINUOUS
100
AcDbLine
 10
290.0
 20
165.0
 30
0.0
 11
695.2221713108374
 21
164.9999999999998
 31
0.0
  0
LINE
  5
C74FF
330
1E
100
AcDbEntity
  8
SIZE
  6
CONTINUOUS
100
AcDbLine
 10
290.0
 20
-165.0
 30
0.0
 11
695.2221713108374
 21
-165.0
 31
0.0
  0
LINE
  5
C7500
330
1E
100
AcDbEntity
  8
SIZE
  6
CONTINUOUS
100
AcDbLine
 10
675.2221713108374
 20
154.9999999999998
 30
0.0
 11
675.2221713108374
 21
-155.0
 31
0.0
  0
LINE
  5
C7504
330
1E
100
AcDbEntity
  8
SIZE
  6
CONTINUOUS
100
AcDbLine
 10
290.0
 20
182.5
 30
0.0
 11
814.0576713108384
 21
182.4999999999997
 31
0.0
  0
LINE
  5
C7505
330
1E
100
AcDbEntity
  8
SIZE
  6
CONTINUOUS
100
AcDbLine
 10
290.0
 20
-182.5
 30
0.0
 11
814.0576713108384
 21
-182.5
 31
0.0
  0
LINE
  5
C7506
330
1E
100
AcDbEntity
  8
SIZE
  6
CONTINUOUS
100
AcDbLine
 10
794.0576713108383
 20
172.4999999999998
 30
0.0
 11
794.0576713108383
 21
-172.5
 31
0.0
  0
LINE
  5
C750A
330
1E
100
AcDbEntity
  8
SIZE
  6
CONTINUOUS
100
AcDbLine
 10
420.0
 20
-150.0
 30
0.0
 11
581.6986856554193
 21
-150.0
 31
0.0
  0
LINE
  5
C750B
330
1E
100
AcDbEntity
  8
SIZE
  6
CONTINUOUS
100
AcDbLine
 10
290.0
 20
-182.5
 30
0.0
 11
581.6986856554193
 21
-182.5
 31
0.0
  0
LINE
  5
C750C
330
1E
100
AcDbEntity
  8
SIZE
  6
CONTINUOUS
100
AcDbLine
 10
561.6986856554193
 20
-140.0
 30
0.0
 11
561.6986856554193
 21
-130.0
 31
0.0
  0
LINE
  5
C750D
330
1E
100
AcDbEntity
  8
SIZE
  6
CONTINUOUS
100
AcDbLine
 10
561.6986856554193
 20
-192.5
 30
0.0
 11
561.6986856554193
 21
-378.8428571428586
 31
0.0
  0
LINE
  5
C750E
330
1E
100
AcDbEntity
  8
SIZE
  6
CONTINUOUS
100
AcDbLine
 10
561.6986856554193
 20
-150.0
 30
0.0
 11
561.6986856554193
 21
-182.5
 31
0.0
  0
LINE
  5
C7512
330
1E
100
AcDbEntity
  8
SIZE
  6
CONTINUOUS
100
AcDbLine
 10
400.0
 20
-170.0
 30
0.0
 11
399.9999999999998
 21
-955.0897414599804
 31
0.0
  0
LINE
  5
C7513
330
1E
100
AcDbEntity
  8
SIZE
  6
CONTINUOUS
100
AcDbLine
 10
469.0
 20
-73.5
 30
0.0
 11
468.9999999999998
 21
-955.0897414599804
 31
0.0
  0
LINE
  5
C7514
330
1E
100
AcDbEntity
  8
SIZE
  6
CONTINUOUS
100
AcDbLine
 10
409.9999999999998
 20
-935.0897414599803
 30
0.0
 11
458.9999999999998
 21
-935.0897414599803
 31
0.0
  0
LINE
  5
C7515
330
1E
100
AcDbEntity
  8
SIZE
  6
CONTINUOUS
100
AcDbLine
 10
468.9999999999998
 20
-935.0897414599803
 30
0.0
 11
581.4949141679788
 21
-935.0897414599803
 31
0.0
  0
LINE
  5
C7519
330
1E
100
AcDbEntity
  8
SIZE
  6
CONTINUOUS
100
AcDbLine
 10
-420.0
 20
150.0
 30
0.0
 11
-538.4489007940028
 21
150.0
 31
0.0
  0
LINE
  5
C751A
330
1E
100
AcDbEntity
  8
SIZE
  6
CONTINUOUS
100
AcDbLine
 10
-420.0
 20
-150.0
 30
0.0
 11
-538.4489007940028
 21
-149.9999999999999
 31
0.0
  0
LINE
  5
C751B
330
1E
100
AcDbEntity
  8
SIZE
  6
CONTINUOUS
100
AcDbLine
 10
-518.4489007940028
 20
140.0
 30
0.0
 11
-518.4489007940028
 21
-139.9999999999999
 31
0.0
  0
LINE
  5
C751F
330
1E
100
AcDbEntity
  8
SIZE
  6
CONTINUOUS
100
AcDbLine
 10
400.0
 20
-170.0
 30
0.0
 11
399.9999999999998
 21
-955.0897414599804
 31
0.0
  0
LINE
  5
C7520
330
1E
100
AcDbEntity
  8
SIZE
  6
CONTINUOUS
100
AcDbLine
 10
-400.0
 20
-170.0
 30
0.0
 11
-400.0
 21
-955.0897414599804
 31
0.0
  0
LINE
  5
C7521
330
1E
100
AcDbEntity
  8
SIZE
  6
CONTINUOUS
100
AcDbLine
 10
389.9999999999998
 20
-935.0897414599803
 30
0.0
 11
-390.0
 21
-935.0897414599803
 31
0.0
  0
LINE
  5
C7525
330
1E
100
AcDbEntity
  8
SIZE
  6
CONTINUOUS
100
AcDbLine
 10
-263.9999999999963
 20
-190.0000081454891
 30
0.0
 11
-263.9999999999963
 21
-471.75927381978
 31
0.0
  0
LINE
  5
C7526
330
1E
100
AcDbEntity
  8
SIZE
  6
CONTINUOUS
100
AcDbLine
 10
38.99999801084777
 20
-189.9999990666401
 30
0.0
 11
38.99999801084774
 21
-471.75927381978
 31
0.0
  0
LINE
  5
C7527
330
1E
100
AcDbEntity
  8
SIZE
  6
CONTINUOUS
100
AcDbLine
 10
-253.9999999999963
 20
-451.75927381978
 30
0.0
 11
28.99999801084776
 21
-451.75927381978
 31
0.0
  0
LINE
  5
C752B
330
1E
100
AcDbEntity
  8
SIZE
  6
CONTINUOUS
100
AcDbLine
 10
-367.5999999999967
 20
-170.8000164700296
 30
0.0
 11
-367.5999999999967
 21
-641.405289459215
 31
0.0
  0
LINE
  5
C752C
330
1E
100
AcDbEntity
  8
SIZE
  6
CONTINUOUS
100
AcDbLine
 10
142.600000000004
 20
-170.8000164700296
 30
0.0
 11
142.6000000000039
 21
-641.405289459215
 31
0.0
  0
LINE
  5
C752D
330
1E
100
AcDbEntity
  8
SIZE
  6
CONTINUOUS
100
AcDbLine
 10
-357.5999999999968
 20
-621.405289459215
 30
0.0
 11
132.6000000000039
 21
-621.405289459215
 31
0.0
  0
LINE
  5
C7531
330
1E
100
AcDbEntity
  8
SIZE
  6
CONTINUOUS
100
AcDbLine
 10
-400.0
 20
-170.0
 30
0.0
 11
-400.0
 21
-747.9883557069022
 31
0.0
  0
LINE
  5
C7532
330
1E
100
AcDbEntity
  8
SIZE
  6
CONTINUOUS
100
AcDbLine
 10
-112.5
 20
-346.4561599999978
 30
0.0
 11
-112.5
 21
-747.9883557069022
 31
0.0
  0
LINE
  5
C7533
330
1E
100
AcDbEntity
  8
SIZE
  6
CONTINUOUS
100
AcDbLine
 10
-390.0
 20
-727.9883557069023
 30
0.0
 11
-122.5
 21
-727.9883557069023
 31
0.0
  0
LINE
  5
C7537
330
1E
100
AcDbEntity
  8
SIZE
  6
CONTINUOUS
100
AcDbLine
 10
-0.0000000000000012
 20
-295.2367199999989
 30
0.0
 11
-0.000000000000035
 21
-847.177744890321
 31
0.0
  0
LINE
  5
C7538
330
1E
100
AcDbEntity
  8
SIZE
  6
CONTINUOUS
100
AcDbLine
 10
-400.0
 20
-170.0
 30
0.0
 11
-400.0
 21
-847.177744890321
 31
0.0
  0
LINE
  5
C7539
330
1E
100
AcDbEntity
  8
SIZE
  6
CONTINUOUS
100
AcDbLine
 10
-10.00000000000003
 20
-827.1777448903211
 30
0.0
 11
-390.0
 21
-827.1777448903211
 31
0.0
  0
LINE
  5
C753D
330
1E
100
AcDbEntity
  8
SIZE
  6
CONTINUOUS
100
AcDbLine
 10
-420.0
 20
-150.0
 30
0.0
 11
-538.4489007940028
 21
-149.9999999999999
 31
0.0
  0
LINE
  5
C753E
330
1E
100
AcDbEntity
  8
SIZE
  6
CONTINUOUS
100
AcDbLine
 10
-332.5
 20
-172.999999999998
 30
0.0
 11
-538.4489007940028
 21
-172.999999999998
 31
0.0
  0
LINE
  5
C753F
330
1E
100
AcDbEntity
  8
SIZE
  6
CONTINUOUS
100
AcDbLine
 10
-518.4489007940028
 20
-139.9999999999999
 30
0.0
 11
-518.4489007940028
 21
-129.9999999999999
 31
0.0
  0
LINE
  5
C7540
330
1E
100
AcDbEntity
  8
SIZE
  6
CONTINUOUS
100
AcDbLine
 10
-518.4489007940028
 20
-182.999999999998
 30
0.0
 11
-518.4489007940028
 21
-296.0571428571418
 31
0.0
  0
LINE
  5
C7541
330
1E
100
AcDbEntity
  8
SIZE
  6
CONTINUOUS
100
AcDbLine
 10
-518.4489007940028
 20
-149.9999999999999
 30
0.0
 11
-518.4489007940028
 21
-172.999999999998
 31
0.0
  0
LINE
  5
C7545
330
1E
100
AcDbEntity
  8
SIZE
  6
CONTINUOUS
100
AcDbLine
 10
-387.5999999999967
 20
-150.0
 30
0.0
 11
-665.1877128784397
 21
-149.9999999999999
 31
0.0
  0
LINE
  5
C7546
330
1E
100
AcDbEntity
  8
SIZE
  6
CONTINUOUS
100
AcDbLine
 10
-379.1999999999952
 20
-350.0000164700303
 30
0.0
 11
-665.18771287844
 21
-350.0000164700303
 31
0.0
  0
LINE
  5
C7547
330
1E
100
AcDbEntity
  8
SIZE
  6
CONTINUOUS
100
AcDbLine
 10
-645.1877128784397
 20
-159.9999999999999
 30
0.0
 11
-645.18771287844
 21
-340.0000164700303
 31
0.0
  0
LINE
  5
C754B
330
1E
100
AcDbEntity
  8
SIZE
  6
CONTINUOUS
100
AcDbLine
 10
-400.0
 20
170.0
 30
0.0
 11
-400.0
 21
327.4014811139658
 31
0.0
  0
LINE
  5
C754C
330
1E
100
AcDbEntity
  8
SIZE
  6
CONTINUOUS
100
AcDbLine
 10
-250.0
 20
205.0
 30
0.0
 11
-250.0
 21
327.4014811139658
 31
0.0
  0
LINE
  5
C754D
330
1E
100
AcDbEntity
  8
SIZE
  6
CONTINUOUS
100
AcDbLine
 10
-390.0
 20
307.4014811139658
 30
0.0
 11
-260.0
 21
307.4014811139658
 31
0.0
  0
LINE
  5
C7551
330
1E
100
AcDbEntity
  8
SIZE
  6
CONTINUOUS
100
AcDbLine
 10
-250.0
 20
205.0
 30
0.0
 11
-250.0
 21
327.4014811139658
 31
0.0
  0
LINE
  5
C7552
330
1E
100
AcDbEntity
  8
SIZE
  6
CONTINUOUS
100
AcDbLine
 10
250.0
 20
205.0
 30
0.0
 11
250.0
 21
327.4014811139658
 31
0.0
  0
LINE
  5
C7553
330
1E
100
AcDbEntity
  8
SIZE
  6
CONTINUOUS
100
AcDbLine
 10
-240.0
 20
307.4014811139658
 30
0.0
 11
240.0
 21
307.4014811139658
 31
0.0
  0
LINE
  5
C7557
330
1E
100
AcDbEntity
  8
SIZE
  6
CONTINUOUS
100
AcDbLine
 10
250.0
 20
205.0
 30
0.0
 11
250.0
 21
327.4014811139658
 31
0.0
  0
LINE
  5
C7558
330
1E
100
AcDbEntity
  8
SIZE
  6
CONTINUOUS
100
AcDbLine
 10
400.0
 20
170.0
 30
0.0
 11
400.0
 21
327.4014811139658
 31
0.0
  0
LINE
  5
C7559
330
1E
100
AcDbEntity
  8
SIZE
  6
CONTINUOUS
100
AcDbLine
 10
260.0
 20
307.4014811139658
 30
0.0
 11
390.0
 21
307.4014811139658
 31
0.0
  0
TEXT
  5
C755D
330
1E
100
AcDbEntity
  8
SIZE
  6
CONTINUOUS
100
AcDbText
 10
500.780628453693
 20
-925.0897414599803
 30
0.0
 40
50.0
  1
69
 41
0.9
100
AcDbText
  0
CIRCLE
  5
C755E
330
1E
100
AcDbEntity
  8
SIZE
  6
BYBLOCK
100
AcDbCircle
 10
561.6986856554193
 20
-182.5
 30
0.0
 40
5.0
  0
LINE
  5
C755F
330
1E
100
AcDbEntity
  8
SIZE
  6
BYBLOCK
100
AcDbLine
 10
561.6986856554193
 20
-182.5
 30
0.0
 11
561.6986856554193
 21
-192.5
 31
0.0
  0
CIRCLE
  5
C7560
330
1E
100
AcDbEntity
  8
SIZE
  6
BYBLOCK
100
AcDbCircle
 10
561.6986856554193
 20
-150.0
 30
0.0
 40
5.0
  0
LINE
  5
C7561
330
1E
100
AcDbEntity
  8
SIZE
  6
BYBLOCK
100
AcDbLine
 10
561.6986856554193
 20
-150.0
 30
0.0
 11
561.6986856554193
 21
-140.0
 31
0.0
  0
TEXT
  5
C7562
330
1E
100
AcDbEntity
  8
SIZE
  6
CONTINUOUS
100
AcDbText
 10
-170.3571438517171
 20
-441.7592738197798
 30
0.0
 40
50.0
  1
303
 41
0.9
100
AcDbText
  0
TEXT
  5
C7563
330
1E
100
AcDbEntity
  8
SIZE
  6
CONTINUOUS
100
AcDbText
 10
-347.4037286891653
 20
-717.9883557069023
 30
0.0
 40
50.0
  1
287.5
 41
0.9
100
AcDbText
  0
CIRCLE
  5
C7564
330
1E
100
AcDbEntity
  8
SIZE
  6
BYBLOCK
100
AcDbCircle
 10
-400.0
 20
-827.1777448903211
 30
0.0
 40
5.0
  0
LINE
  5
C7565
330
1E
100
AcDbEntity
  8
SIZE
  6
BYBLOCK
100
AcDbLine
 10
-400.0
 20
-827.1777448903211
 30
0.0
 11
-390.0
 21
-827.1777448903211
 31
0.0
  0
CIRCLE
  5
C7566
330
1E
100
AcDbEntity
  8
SIZE
  6
BYBLOCK
100
AcDbCircle
 10
-400.0
 20
-935.0897414599803
 30
0.0
 40
5.0
  0
LINE
  5
C7567
330
1E
100
AcDbEntity
  8
SIZE
  6
BYBLOCK
100
AcDbLine
 10
-400.0
 20
-935.0897414599803
 30
0.0
 11
-390.0
 21
-935.0897414599803
 31
0.0
  0
CIRCLE
  5
C7568
330
1E
100
AcDbEntity
  8
SIZE
  6
BYBLOCK
100
AcDbCircle
 10
-400.0
 20
-727.9883557069023
 30
0.0
 40
5.0
  0
LINE
  5
C7569
330
1E
100
AcDbEntity
  8
SIZE
  6
BYBLOCK
100
AcDbLine
 10
-400.0
 20
-727.9883557069023
 30
0.0
 11
-390.0
 21
-727.9883557069023
 31
0.0
  0
CIRCLE
  5
C756A
330
1E
100
AcDbEntity
  8
SIZE
  6
BYBLOCK
100
AcDbCircle
 10
-367.5999999999967
 20
-621.405289459215
 30
0.0
 40
5.0
  0
LINE
  5
C756B
330
1E
100
AcDbEntity
  8
SIZE
  6
BYBLOCK
100
AcDbLine
 10
-367.5999999999967
 20
-621.405289459215
 30
0.0
 11
-357.5999999999968
 21
-621.405289459215
 31
0.0
  0
TEXT
  5
C756C
330
1E
100
AcDbEntity
  8
SIZE
  6
CONTINUOUS
100
AcDbText
 10
-257.8571428571428
 20
-817.1777448903212
 30
0.0
 40
50.0
  1
400
 41
0.9
100
AcDbText
  0
CIRCLE
  5
C756D
330
1E
100
AcDbEntity
  8
SIZE
  6
BYBLOCK
100
AcDbCircle
 10
-0.0000000000000338
 20
-827.1777448903211
 30
0.0
 40
5.0
  0
LINE
  5
C756E
330
1E
100
AcDbEntity
  8
SIZE
  6
BYBLOCK
100
AcDbLine
 10
-0.0000000000000338
 20
-827.1777448903211
 30
0.0
 11
-10.00000000000003
 21
-827.1777448903211
 31
0.0
  0
TEXT
  5
C756F
330
1E
100
AcDbEntity
  8
SIZE
  6
CONTINUOUS
100
AcDbText
 10
-57.85714285714287
 20
-925.0897414599803
 30
0.0
 40
50.0
  1
800
 41
0.9
100
AcDbText
  0
CIRCLE
  5
C7570
330
1E
100
AcDbEntity
  8
SIZE
  6
BYBLOCK
100
AcDbCircle
 10
-112.5
 20
-727.9883557069023
 30
0.0
 40
5.0
  0
LINE
  5
C7571
330
1E
100
AcDbEntity
  8
SIZE
  6
BYBLOCK
100
AcDbLine
 10
-112.5
 20
-727.9883557069023
 30
0.0
 11
-122.5
 21
-727.9883557069023
 31
0.0
  0
CIRCLE
  5
C7572
330
1E
100
AcDbEntity
  8
SIZE
  6
BYBLOCK
100
AcDbCircle
 10
399.9999999999998
 20
-935.0897414599803
 30
0.0
 40
5.0
  0
LINE
  5
C7573
330
1E
100
AcDbEntity
  8
SIZE
  6
BYBLOCK
100
AcDbLine
 10
399.9999999999998
 20
-935.0897414599803
 30
0.0
 11
389.9999999999998
 21
-935.0897414599803
 31
0.0
  0
CIRCLE
  5
C7574
330
1E
100
AcDbEntity
  8
SIZE
  6
BYBLOCK
100
AcDbCircle
 10
468.9999999999998
 20
-935.0897414599803
 30
0.0
 40
5.0
  0
LINE
  5
C7575
330
1E
100
AcDbEntity
  8
SIZE
  6
BYBLOCK
100
AcDbLine
 10
468.9999999999998
 20
-935.0897414599803
 30
0.0
 11
458.9999999999998
 21
-935.0897414599803
 31
0.0
  0
CIRCLE
  5
C7576
330
1E
100
AcDbEntity
  8
SIZE
  6
BYBLOCK
100
AcDbCircle
 10
399.9999999999998
 20
-935.0897414599803
 30
0.0
 40
5.0
  0
LINE
  5
C7577
330
1E
100
AcDbEntity
  8
SIZE
  6
BYBLOCK
100
AcDbLine
 10
399.9999999999998
 20
-935.0897414599803
 30
0.0
 11
409.9999999999998
 21
-935.0897414599803
 31
0.0
  0
CIRCLE
  5
C7578
330
1E
100
AcDbEntity
  8
SIZE
  6
BYBLOCK
100
AcDbCircle
 10
142.6000000000039
 20
-621.405289459215
 30
0.0
 40
5.0
  0
LINE
  5
C7579
330
1E
100
AcDbEntity
  8
SIZE
  6
BYBLOCK
100
AcDbLine
 10
142.6000000000039
 20
-621.405289459215
 30
0.0
 11
132.6000000000039
 21
-621.405289459215
 31
0.0
  0
TEXT
  5
C757A
330
1E
100
AcDbEntity
  8
SIZE
  6
CONTINUOUS
100
AcDbText
 10
-237.1498426823391
 20
-611.405289459215
 30
0.0
 40
50.0
  1
510
 41
0.9
100
AcDbText
  0
CIRCLE
  5
C757B
330
1E
100
AcDbEntity
  8
SIZE
  6
BYBLOCK
100
AcDbCircle
 10
-263.9999999999963
 20
-451.75927381978
 30
0.0
 40
5.0
  0
LINE
  5
C757C
330
1E
100
AcDbEntity
  8
SIZE
  6
BYBLOCK
100
AcDbLine
 10
-263.9999999999963
 20
-451.75927381978
 30
0.0
 11
-253.9999999999963
 21
-451.75927381978
 31
0.0
  0
CIRCLE
  5
C757D
330
1E
100
AcDbEntity
  8
SIZE
  6
BYBLOCK
100
AcDbCircle
 10
38.99999801084776
 20
-451.75927381978
 30
0.0
 40
5.0
  0
LINE
  5
C757E
330
1E
100
AcDbEntity
  8
SIZE
  6
BYBLOCK
100
AcDbLine
 10
38.99999801084776
 20
-451.75927381978
 30
0.0
 11
28.99999801084776
 21
-451.75927381978
 31
0.0
  0
TEXT
  5
C757F
330
1E
100
AcDbEntity
  8
SIZE
  6
CONTINUOUS
100
AcDbText
 10
-655.1877128784398
 20
-307.8571510921578
 30
0.0
 40
50.0
  1
200
 50
90.0
 41
0.9
100
AcDbText
  0
TEXT
  5
C7580
330
1E
100
AcDbEntity
  8
SIZE
  6
CONTINUOUS
100
AcDbText
 10
-528.4489007940028
 20
-286.0571428571418
 30
0.0
 40
50.0
  1
23
 50
90.0
 41
0.9
100
AcDbText
  0
CIRCLE
  5
C7581
330
1E
100
AcDbEntity
  8
SIZE
  6
BYBLOCK
100
AcDbCircle
 10
-645.18771287844
 20
-350.0000164700303
 30
0.0
 40
5.0
  0
LINE
  5
C7582
330
1E
100
AcDbEntity
  8
SIZE
  6
BYBLOCK
100
AcDbLine
 10
-645.18771287844
 20
-350.0000164700303
 30
0.0
 11
-645.18771287844
 21
-340.0000164700303
 31
0.0
  0
CIRCLE
  5
C7583
330
1E
100
AcDbEntity
  8
SIZE
  6
BYBLOCK
100
AcDbCircle
 10
-645.1877128784397
 20
-149.9999999999999
 30
0.0
 40
5.0
  0
LINE
  5
C7584
330
1E
100
AcDbEntity
  8
SIZE
  6
BYBLOCK
100
AcDbLine
 10
-645.1877128784397
 20
-149.9999999999999
 30
0.0
 11
-645.1877128784397
 21
-159.9999999999999
 31
0.0
  0
CIRCLE
  5
C7585
330
1E
100
AcDbEntity
  8
SIZE
  6
BYBLOCK
100
AcDbCircle
 10
-518.4489007940028
 20
-172.999999999998
 30
0.0
 40
5.0
  0
LINE
  5
C7586
330
1E
100
AcDbEntity
  8
SIZE
  6
BYBLOCK
100
AcDbLine
 10
-518.4489007940028
 20
-172.999999999998
 30
0.0
 11
-518.4489007940028
 21
-182.999999999998
 31
0.0
  0
CIRCLE
  5
C7587
330
1E
100
AcDbEntity
  8
SIZE
  6
BYBLOCK
100
AcDbCircle
 10
-518.4489007940028
 20
-149.9999999999999
 30
0.0
 40
5.0
  0
LINE
  5
C7588
330
1E
100
AcDbEntity
  8
SIZE
  6
BYBLOCK
100
AcDbLine
 10
-518.4489007940028
 20
-149.9999999999999
 30
0.0
 11
-518.4489007940028
 21
-139.9999999999999
 31
0.0
  0
CIRCLE
  5
C7589
330
1E
100
AcDbEntity
  8
SIZE
  6
BYBLOCK
100
AcDbCircle
 10
-518.4489007940028
 20
-149.9999999999999
 30
0.0
 40
5.0
  0
LINE
  5
C758A
330
1E
100
AcDbEntity
  8
SIZE
  6
BYBLOCK
100
AcDbLine
 10
-518.4489007940028
 20
-149.9999999999999
 30
0.0
 11
-518.4489007940028
 21
-139.9999999999999
 31
0.0
  0
TEXT
  5
C758B
330
1E
100
AcDbEntity
  8
SIZE
  6
CONTINUOUS
100
AcDbText
 10
-528.4489007940028
 20
-55.85714285714465
 30
0.0
 40
50.0
  1
300
 50
90.0
 41
0.9
100
AcDbText
  0
TEXT
  5
C758C
330
1E
100
AcDbEntity
  8
SIZE
  6
CONTINUOUS
100
AcDbText
 10
551.6986856554193
 20
-368.8428571428586
 30
0.0
 40
50.0
  1
32.5
 50
90.0
 41
0.9
100
AcDbText
  0
TEXT
  5
C758D
330
1E
100
AcDbEntity
  8
SIZE
  6
CONTINUOUS
100
AcDbText
 10
-378.5714285714285
 20
317.4014811139658
 30
0.0
 40
50.0
  1
150
 41
0.9
100
AcDbText
  0
CIRCLE
  5
C758E
330
1E
100
AcDbEntity
  8
SIZE
  6
BYBLOCK
100
AcDbCircle
 10
-518.4489007940028
 20
150.0
 30
0.0
 40
5.0
  0
LINE
  5
C758F
330
1E
100
AcDbEntity
  8
SIZE
  6
BYBLOCK
100
AcDbLine
 10
-518.4489007940028
 20
150.0
 30
0.0
 11
-518.4489007940028
 21
140.0
 31
0.0
  0
CIRCLE
  5
C7590
330
1E
100
AcDbEntity
  8
SIZE
  6
BYBLOCK
100
AcDbCircle
 10
-400.0
 20
307.4014811139658
 30
0.0
 40
5.0
  0
LINE
  5
C7591
330
1E
100
AcDbEntity
  8
SIZE
  6
BYBLOCK
100
AcDbLine
 10
-400.0
 20
307.4014811139658
 30
0.0
 11
-390.0
 21
307.4014811139658
 31
0.0
  0
CIRCLE
  5
C7592
330
1E
100
AcDbEntity
  8
SIZE
  6
BYBLOCK
100
AcDbCircle
 10
-250.0
 20
307.4014811139658
 30
0.0
 40
5.0
  0
LINE
  5
C7593
330
1E
100
AcDbEntity
  8
SIZE
  6
BYBLOCK
100
AcDbLine
 10
-250.0
 20
307.4014811139658
 30
0.0
 11
-240.0
 21
307.4014811139658
 31
0.0
  0
CIRCLE
  5
C7594
330
1E
100
AcDbEntity
  8
SIZE
  6
BYBLOCK
100
AcDbCircle
 10
-250.0
 20
307.4014811139658
 30
0.0
 40
5.0
  0
LINE
  5
C7595
330
1E
100
AcDbEntity
  8
SIZE
  6
BYBLOCK
100
AcDbLine
 10
-250.0
 20
307.4014811139658
 30
0.0
 11
-260.0
 21
307.4014811139658
 31
0.0
  0
TEXT
  5
C7596
330
1E
100
AcDbEntity
  8
SIZE
  6
CONTINUOUS
100
AcDbText
 10
-63.77310741301124
 20
317.4014811139658
 30
0.0
 40
50.0
  1
500
 41
0.9
100
AcDbText
  0
TEXT
  5
C7597
330
1E
100
AcDbEntity
  8
SIZE
  6
CONTINUOUS
100
AcDbText
 10
271.4285714285713
 20
317.4014811139658
 30
0.0
 40
50.0
  1
150
 41
0.9
100
AcDbText
  0
CIRCLE
  5
C7598
330
1E
100
AcDbEntity
  8
SIZE
  6
BYBLOCK
100
AcDbCircle
 10
250.0
 20
307.4014811139658
 30
0.0
 40
5.0
  0
LINE
  5
C7599
330
1E
100
AcDbEntity
  8
SIZE
  6
BYBLOCK
100
AcDbLine
 10
250.0
 20
307.4014811139658
 30
0.0
 11
260.0
 21
307.4014811139658
 31
0.0
  0
CIRCLE
  5
C759A
330
1E
100
AcDbEntity
  8
SIZE
  6
BYBLOCK
100
AcDbCircle
 10
250.0
 20
307.4014811139658
 30
0.0
 40
5.0
  0
LINE
  5
C759B
330
1E
100
AcDbEntity
  8
SIZE
  6
BYBLOCK
100
AcDbLine
 10
250.0
 20
307.4014811139658
 30
0.0
 11
240.0
 21
307.4014811139658
 31
0.0
  0
CIRCLE
  5
C759C
330
1E
100
AcDbEntity
  8
SIZE
  6
BYBLOCK
100
AcDbCircle
 10
400.0
 20
307.4014811139658
 30
0.0
 40
5.0
  0
LINE
  5
C759D
330
1E
100
AcDbEntity
  8
SIZE
  6
BYBLOCK
100
AcDbLine
 10
400.0
 20
307.4014811139658
 30
0.0
 11
390.0
 21
307.4014811139658
 31
0.0
  0
CIRCLE
  5
C759E
330
1E
100
AcDbEntity
  8
SIZE
  6
BYBLOCK
100
AcDbCircle
 10
675.2221713108374
 20
-165.0
 30
0.0
 40
5.0
  0
LINE
  5
C759F
330
1E
100
AcDbEntity
  8
SIZE
  6
BYBLOCK
100
AcDbLine
 10
675.2221713108374
 20
-165.0
 30
0.0
 11
675.2221713108374
 21
-155.0
 31
0.0
  0
CIRCLE
  5
C75A0
330
1E
100
AcDbEntity
  8
SIZE
  6
BYBLOCK
100
AcDbCircle
 10
794.0576713108383
 20
-182.5
 30
0.0
 40
5.0
  0
LINE
  5
C75A1
330
1E
100
AcDbEntity
  8
SIZE
  6
BYBLOCK
100
AcDbLine
 10
794.0576713108383
 20
-182.5
 30
0.0
 11
794.0576713108383
 21
-172.5
 31
0.0
  0
TEXT
  5
C75A2
330
1E
100
AcDbEntity
  8
SIZE
  6
CONTINUOUS
100
AcDbText
 10
784.0576713108385
 20
-57.85714285714284
 30
0.0
 40
50.0
  1
365
 50
90.0
 41
0.9
100
AcDbText
  0
TEXT
  5
C75A3
330
1E
100
AcDbEntity
  8
SIZE
  6
CONTINUOUS
100
AcDbText
 10
665.2221713108374
 20
-57.85714285714286
 30
0.0
 40
50.0
  1
330
 50
90.0
 41
0.9
100
AcDbText
  0
CIRCLE
  5
C75A4
330
1E
100
AcDbEntity
  8
SIZE
  6
BYBLOCK
100
AcDbCircle
 10
675.2221713108374
 20
164.9999999999998
 30
0.0
 40
5.0
  0
LINE
  5
C75A5
330
1E
100
AcDbEntity
  8
SIZE
  6
BYBLOCK
100
AcDbLine
 10
675.2221713108374
 20
164.9999999999998
 30
0.0
 11
675.2221713108374
 21
154.9999999999998
 31
0.0
  0
CIRCLE
  5
C75A6
330
1E
100
AcDbEntity
  8
SIZE
  6
BYBLOCK
100
AcDbCircle
 10
794.0576713108383
 20
182.4999999999997
 30
0.0
 40
5.0
  0
LINE
  5
C75A7
330
1E
100
AcDbEntity
  8
SIZE
  6
BYBLOCK
100
AcDbLine
 10
794.0576713108383
 20
182.4999999999997
 30
0.0
 11
794.0576713108383
 21
172.4999999999998
 31
0.0
  0
LINE
  5
C75B2
330
1E
100
AcDbEntity
  8
OUTLINE
  6
CONTINUOUS
100
AcDbLine
 10
-351.999999999998
 20
-151.600016470029
 30
0.0
 11
-268.6999999999952
 21
-151.600016470029
 31
0.0
  0
LINE
  5
C75B3
330
1E
100
AcDbEntity
  8
OUTLINE
  6
CONTINUOUS
100
AcDbLine
 10
133.4000000000032
 20
-235.0000164700304
 30
0.0
 11
-358.399999999996
 21
-235.0000164700304
 31
0.0
  0
LINE
  5
C75B4
330
1E
100
AcDbEntity
  8
OUTLINE
  6
CONTINUOUS
100
AcDbLine
 10
126.4000000000031
 20
-180.0000164700304
 30
0.0
 11
-351.399999999996
 21
-180.0000164700304
 31
0.0
  0
LINE
  5
C75B5
330
1E
100
AcDbEntity
  8
OUTLINE
  6
CONTINUOUS
100
AcDbLine
 10
-351.999999999998
 20
-150.0000164700304
 30
0.0
 11
127.0000000000035
 21
-150.0000164700304
 31
0.0
  0
LINE
  5
C75B6
330
1E
100
AcDbEntity
  8
OUTLINE
  6
CONTINUOUS
100
AcDbLine
 10
126.4000000000031
 20
-180.0000164700304
 30
0.0
 11
-351.399999999996
 21
-180.0000164700304
 31
0.0
  0
LINE
  5
C75B7
330
1E
100
AcDbEntity
  8
OUTLINE
  6
CONTINUOUS
100
AcDbLine
 10
-351.999999999998
 20
-150.0000164700304
 30
0.0
 11
127.0000000000035
 21
-150.0000164700304
 31
0.0
  0
LINE
  5
C75B8
330
1E
100
AcDbEntity
  8
OUTLINE
  6
CONTINUOUS
100
AcDbLine
 10
133.4000000000032
 20
-235.0000164700304
 30
0.0
 11
-358.399999999996
 21
-235.0000164700304
 31
0.0
  0
LINE
  5
C75B9
330
1E
100
AcDbEntity
  8
OUTLINE
  6
CONTINUOUS
100
AcDbLine
 10
133.2000000000024
 20
-350.0000164700303
 30
0.0
 11
-358.1999999999952
 21
-350.0000164700303
 31
0.0
  0
LINE
  5
C75BA
330
1E
100
AcDbEntity
  8
OUTLINE
  6
CONTINUOUS
100
AcDbLine
 10
133.4000000000032
 20
-265.0000164700303
 30
0.0
 11
-358.399999999996
 21
-265.0000164700303
 31
0.0
  0
LINE
  5
C75BB
330
1E
100
AcDbEntity
  8
OUTLINE
  6
CONTINUOUS
100
AcDbLine
 10
133.4000000000032
 20
-265.0000164700303
 30
0.0
 11
-358.399999999996
 21
-265.0000164700303
 31
0.0
  0
LINE
  5
C75BC
330
1E
100
AcDbEntity
  8
OUTLINE
  6
CONTINUOUS
100
AcDbLine
 10
133.2000000000024
 20
-342.2000164700274
 30
0.0
 11
-358.1999999999952
 21
-342.2000164700274
 31
0.0
  0
LINE
  5
C75BD
330
1E
100
AcDbEntity
  8
OUTLINE
  6
CONTINUOUS
100
AcDbLine
 10
-351.399999999996
 20
-265.0000164700303
 30
0.0
 11
-351.399999999996
 21
-342.2000164700274
 31
0.0
  0
LINE
  5
C75BE
330
1E
100
AcDbEntity
  8
OUTLINE
  6
CONTINUOUS
100
AcDbLine
 10
-358.399999999996
 20
-265.0000164700303
 30
0.0
 11
-358.399999999996
 21
-334.2000164700274
 31
0.0
  0
LINE
  5
C75BF
330
1E
100
AcDbEntity
  8
OUTLINE
  6
CONTINUOUS
100
AcDbLine
 10
-358.399999999996
 20
-348.2000164700274
 30
0.0
 11
-358.399999999996
 21
-337.2000164700275
 31
0.0
  0
LINE
  5
C75C0
330
1E
100
AcDbEntity
  8
OUTLINE
  6
CONTINUOUS
100
AcDbLine
 10
-359.1999999999952
 20
-345.9000164700281
 30
0.0
 11
-359.1999999999952
 21
-350.0000164700303
 31
0.0
  0
LINE
  5
C75C1
330
1E
100
AcDbEntity
  8
OUTLINE
  6
CONTINUOUS
100
AcDbLine
 10
-358.1999999999952
 20
-349.2000164700275
 30
0.0
 11
-358.1999999999952
 21
-342.2000164700274
 31
0.0
  0
LINE
  5
C75C2
330
1E
100
AcDbEntity
  8
OUTLINE
  6
CONTINUOUS
100
AcDbLine
 10
-358.399999999996
 20
-348.2000164700274
 30
0.0
 11
-358.399999999996
 21
-337.2000164700275
 31
0.0
  0
LINE
  5
C75C3
330
1E
100
AcDbEntity
  8
OUTLINE
  6
CONTINUOUS
100
AcDbLine
 10
-358.1999999999952
 20
-349.2000164700275
 30
0.0
 11
-358.399999999996
 21
-349.2000164700275
 31
0.0
  0
LINE
  5
C75C4
330
1E
100
AcDbEntity
  8
OUTLINE
  6
CONTINUOUS
100
AcDbLine
 10
-358.1999999999952
 20
-348.2000164700274
 30
0.0
 11
-358.399999999996
 21
-348.2000164700274
 31
0.0
  0
LINE
  5
C75C5
330
1E
100
AcDbEntity
  8
OUTLINE
  6
CONTINUOUS
100
AcDbLine
 10
-358.399999999996
 20
-349.2000164700275
 30
0.0
 11
-358.399999999996
 21
-348.2000164700274
 31
0.0
  0
LINE
  5
C75C6
330
1E
100
AcDbEntity
  8
OUTLINE
  6
CONTINUOUS
100
AcDbLine
 10
-358.1999999999952
 20
-350.0000164700303
 30
0.0
 11
-358.1999999999952
 21
-349.2000164700275
 31
0.0
  0
LINE
  5
C75C7
330
1E
100
AcDbEntity
  8
OUTLINE
  6
CONTINUOUS
100
AcDbLine
 10
-358.1999999999952
 20
-350.0000164700303
 30
0.0
 11
-359.1999999999952
 21
-350.0000164700303
 31
0.0
  0
LINE
  5
C75C8
330
1E
100
AcDbEntity
  8
OUTLINE
  6
CONTINUOUS
100
AcDbLine
 10
-358.1999999999952
 20
-349.2000164700275
 30
0.0
 11
-358.399999999996
 21
-349.2000164700275
 31
0.0
  0
LINE
  5
C75C9
330
1E
100
AcDbEntity
  8
OUTLINE
  6
CONTINUOUS
100
AcDbLine
 10
-358.399999999996
 20
-349.2000164700275
 30
0.0
 11
-358.399999999996
 21
-348.2000164700274
 31
0.0
  0
LINE
  5
C75CA
330
1E
100
AcDbEntity
  8
OUTLINE
  6
CONTINUOUS
100
AcDbLine
 10
-361.3628118136857
 20
-339.2000164700275
 30
0.0
 11
-361.3440885065773
 21
-339.2086733984778
 31
0.0
  0
LINE
  5
C75CB
330
1E
100
AcDbEntity
  8
OUTLINE
  6
CONTINUOUS
100
AcDbLine
 10
-361.3440885065773
 20
-340.7000164700274
 30
0.0
 11
-361.4996674212361
 21
-340.7000164700274
 31
0.0
  0
LINE
  5
C75CC
330
1E
100
AcDbEntity
  8
OUTLINE
  6
CONTINUOUS
100
AcDbLine
 10
-361.3440885065773
 20
-343.1913595415808
 30
0.0
 11
-361.3628118136857
 21
-343.2000164700275
 31
0.0
  0
LINE
  5
C75CD
330
1E
100
AcDbEntity
  8
OUTLINE
  6
CONTINUOUS
100
AcDbLine
 10
-361.3440885065773
 20
-341.7000164700275
 30
0.0
 11
-361.499667421247
 21
-341.7000164700275
 31
0.0
  0
LINE
  5
C75CE
330
1E
100
AcDbEntity
  8
OUTLINE
  6
CONTINUOUS
100
AcDbLine
 10
-359.1999999999952
 20
-342.2000164700274
 30
0.0
 11
-359.1999999999952
 21
-343.2000164700275
 31
0.0
  0
LINE
  5
C75CF
330
1E
100
AcDbEntity
  8
OUTLINE
  6
CONTINUOUS
100
AcDbLine
 10
-359.1999999999952
 20
-343.2000164700275
 30
0.0
 11
-359.1999999999952
 21
-345.9000164700281
 31
0.0
  0
LINE
  5
C75D0
330
1E
100
AcDbEntity
  8
OUTLINE
  6
CONTINUOUS
100
AcDbLine
 10
-359.1999999999952
 20
-345.9000164700281
 30
0.0
 11
-359.4884444190483
 21
-345.9000164700281
 31
0.0
  0
LINE
  5
C75D1
330
1E
100
AcDbEntity
  8
OUTLINE
  6
CONTINUOUS
100
AcDbLine
 10
-359.4884444190483
 20
-336.5000164700303
 30
0.0
 11
-359.4884444190483
 21
-345.9000164700281
 31
0.0
  0
LINE
  5
C75D2
330
1E
100
AcDbEntity
  8
OUTLINE
  6
CONTINUOUS
100
AcDbLine
 10
-359.1999999999952
 20
-337.2000164700275
 30
0.0
 11
-359.1999999999952
 21
-336.5000164700303
 31
0.0
  0
LINE
  5
C75D3
330
1E
100
AcDbEntity
  8
OUTLINE
  6
CONTINUOUS
100
AcDbLine
 10
-359.1999999999952
 20
-336.5000164700303
 30
0.0
 11
-359.4884444190483
 21
-336.5000164700303
 31
0.0
  0
LINE
  5
C75D4
330
1E
100
AcDbEntity
  8
OUTLINE
  6
CONTINUOUS
100
AcDbLine
 10
-349.2564104064566
 20
-341.2900161774504
 30
0.0
 11
-349.2564104064566
 21
-341.1100167626191
 31
0.0
  0
LINE
  5
C75D5
330
1E
100
AcDbEntity
  8
OUTLINE
  6
CONTINUOUS
100
AcDbLine
 10
-359.1999999999952
 20
-339.2000164700275
 30
0.0
 11
-359.1999999999952
 21
-340.2000164700274
 31
0.0
  0
LINE
  5
C75D6
330
1E
100
AcDbEntity
  8
OUTLINE
  6
CONTINUOUS
100
AcDbLine
 10
-359.1999999999952
 20
-337.2000164700275
 30
0.0
 11
-359.1999999999952
 21
-339.2000164700275
 31
0.0
  0
LINE
  5
C75D7
330
1E
100
AcDbEntity
  8
OUTLINE
  6
CONTINUOUS
100
AcDbLine
 10
-359.1999999999952
 20
-340.2000164700274
 30
0.0
 11
-359.1999999999952
 21
-340.7000164700274
 31
0.0
  0
LINE
  5
C75D8
330
1E
100
AcDbEntity
  8
OUTLINE
  6
CONTINUOUS
100
AcDbLine
 10
-359.1999999999952
 20
-340.7000164700274
 30
0.0
 11
-359.1999999999952
 21
-341.7000164700275
 31
0.0
  0
LINE
  5
C75D9
330
1E
100
AcDbEntity
  8
OUTLINE
  6
CONTINUOUS
100
AcDbLine
 10
-349.2564104064566
 20
-341.1100167626191
 30
0.0
 11
-351.399999999996
 21
-340.0718111751101
 31
0.0
  0
LINE
  5
C75DA
330
1E
100
AcDbEntity
  8
OUTLINE
  6
CONTINUOUS
100
AcDbLine
 10
-359.1999999999952
 20
-341.7000164700275
 30
0.0
 11
-359.1999999999952
 21
-342.2000164700274
 31
0.0
  0
LINE
  5
C75DB
330
1E
100
AcDbEntity
  8
OUTLINE
  6
CONTINUOUS
100
AcDbLine
 10
-349.2564104064566
 20
-341.2900161774504
 30
0.0
 11
-351.1352937228057
 21
-342.2000164700274
 31
0.0
  0
ARC
  5
C75DC
330
1E
100
AcDbEntity
  8
OUTLINE
  6
CONTINUOUS
100
AcDbCircle
 10
-355.5999999999784
 20
-341.2000164699693
 30
0.0
 40
6.079473661428952
100
AcDbArc
 50
160.8797478026641
 51
166.0304228425068
  0
ARC
  5
C75DD
330
1E
100
AcDbEntity
  8
OUTLINE
  6
CONTINUOUS
100
AcDbCircle
 10
-355.5999999999911
 20
-341.2000164700366
 30
0.0
 40
6.100000000001678
100
AcDbArc
 50
199.1394744509401
 51
230.398072918752
  0
ARC
  5
C75DE
330
1E
100
AcDbEntity
  8
OUTLINE
  6
CONTINUOUS
100
AcDbCircle
 10
-355.5999999999929
 20
-341.2000164700238
 30
0.0
 40
6.100000000001124
100
AcDbArc
 50
129.6019270812171
 51
160.860525549003
  0
ARC
  5
C75DF
330
1E
100
AcDbEntity
  8
OUTLINE
  6
CONTINUOUS
100
AcDbCircle
 10
-354.6792804723353
 20
-341.2000164700275
 30
0.0
 40
6.683536947851557
100
AcDbArc
 50
175.7096550093716
 51
184.2903449906282
  0
ARC
  5
C75E0
330
1E
100
AcDbEntity
  8
OUTLINE
  6
CONTINUOUS
100
AcDbCircle
 10
-355.6000000000148
 20
-341.2000164699766
 30
0.0
 40
6.079473661433262
100
AcDbArc
 50
193.9695771585783
 51
199.1202521984465
  0
ARC
  5
C75E1
330
1E
100
AcDbEntity
  8
OUTLINE
  6
CONTINUOUS
100
AcDbCircle
 10
-349.2999999999938
 20
-341.2000164700348
 30
0.0
 40
0.0999999999976353
100
AcDbArc
 50
0.0000000041688166
 51
64.15768265312974
  0
ARC
  5
C75E2
330
1E
100
AcDbEntity
  8
OUTLINE
  6
CONTINUOUS
100
AcDbCircle
 10
-349.2999999999991
 20
-341.2000164700311
 30
0.0
 40
0.1000000000038306
100
AcDbArc
 50
295.8423173492445
 51
0.0000000020843956
  0
LINE
  5
C75E3
330
1E
100
AcDbEntity
  8
OUTLINE
  6
CONTINUOUS
100
AcDbLine
 10
-358.399999999996
 20
-334.2000164700274
 30
0.0
 11
-358.399999999996
 21
-337.2000164700275
 31
0.0
  0
LINE
  5
C75E4
330
1E
100
AcDbEntity
  8
OUTLINE
  6
CONTINUOUS
100
AcDbLine
 10
-359.1999999999952
 20
-336.5000164700303
 30
0.0
 11
-359.1999999999952
 21
-334.2000164700274
 31
0.0
  0
LINE
  5
C75E5
330
1E
100
AcDbEntity
  8
OUTLINE
  6
CONTINUOUS
100
AcDbLine
 10
-359.1999999999952
 20
-342.2000164700274
 30
0.0
 11
-359.1999999999952
 21
-343.2000164700275
 31
0.0
  0
LINE
  5
C75E6
330
1E
100
AcDbEntity
  8
OUTLINE
  6
CONTINUOUS
100
AcDbLine
 10
-359.1999999999952
 20
-343.2000164700275
 30
0.0
 11
-359.1999999999952
 21
-345.9000164700281
 31
0.0
  0
LINE
  5
C75E7
330
1E
100
AcDbEntity
  8
OUTLINE
  6
CONTINUOUS
100
AcDbLine
 10
-359.1999999999952
 20
-337.2000164700275
 30
0.0
 11
-359.1999999999952
 21
-336.5000164700303
 31
0.0
  0
LINE
  5
C75E8
330
1E
100
AcDbEntity
  8
OUTLINE
  6
CONTINUOUS
100
AcDbLine
 10
-358.399999999996
 20
-334.2000164700274
 30
0.0
 11
-358.399999999996
 21
-337.2000164700275
 31
0.0
  0
LINE
  5
C75E9
330
1E
100
AcDbEntity
  8
OUTLINE
  6
CONTINUOUS
100
AcDbLine
 10
-359.1999999999952
 20
-339.2000164700275
 30
0.0
 11
-359.1999999999952
 21
-340.2000164700274
 31
0.0
  0
LINE
  5
C75EA
330
1E
100
AcDbEntity
  8
OUTLINE
  6
CONTINUOUS
100
AcDbLine
 10
-359.1999999999952
 20
-337.2000164700275
 30
0.0
 11
-359.1999999999952
 21
-339.2000164700275
 31
0.0
  0
LINE
  5
C75EB
330
1E
100
AcDbEntity
  8
OUTLINE
  6
CONTINUOUS
100
AcDbLine
 10
-359.1999999999952
 20
-340.2000164700274
 30
0.0
 11
-359.1999999999952
 21
-340.7000164700274
 31
0.0
  0
LINE
  5
C75EC
330
1E
100
AcDbEntity
  8
OUTLINE
  6
CONTINUOUS
100
AcDbLine
 10
-359.1999999999952
 20
-340.7000164700274
 30
0.0
 11
-359.1999999999952
 21
-341.7000164700275
 31
0.0
  0
LINE
  5
C75ED
330
1E
100
AcDbEntity
  8
OUTLINE
  6
CONTINUOUS
100
AcDbLine
 10
-359.1999999999952
 20
-341.7000164700275
 30
0.0
 11
-359.1999999999952
 21
-342.2000164700274
 31
0.0
  0
LINE
  5
C75EE
330
1E
100
AcDbEntity
  8
OUTLINE
  6
CONTINUOUS
100
AcDbLine
 10
-358.399999999996
 20
-337.2000164700275
 30
0.0
 11
-359.1999999999952
 21
-337.2000164700275
 31
0.0
  0
LINE
  5
C75EF
330
1E
100
AcDbEntity
  8
OUTLINE
  6
CONTINUOUS
100
AcDbLine
 10
-358.399999999996
 20
-334.2000164700274
 30
0.0
 11
-359.1999999999952
 21
-334.2000164700274
 31
0.0
  0
SPLINE
  5
C75F0
330
1E
100
AcDbEntity
  8
OUTLINE
  6
CONTINUOUS
100
AcDbSpline
210
0.0
220
0.0
230
1.0
 70
     8
 71
     3
 72
    17
 73
    13
 74
    11
 42
0.0000000001
 43
0.0000000001
 44
0.00000001
 40
0.0
 40
0.0
 40
0.0
 40
0.0
 40
0.1307492043905498
 40
0.3017488879469439
 40
0.4834003604118883
 40
0.6123802845451767
 40
0.6891521527605045
 40
0.8161070518720478
 40
0.8930271047677704
 40
0.9322200105012306
 40
0.9830958498702678
 40
1.013781490981764
 40
1.013781490981764
 40
1.013781490981764
 40
1.013781490981764
 10
-361.4996674212361
 20
-339.7323910686591
 30
0.0
 10
-361.509784584509
 20
-339.7747874205295
 30
0.0
 10
-361.5331334352724
 20
-339.8726316244955
 30
0.0
 10
-361.5631170831212
 20
-340.0310241414692
 30
0.0
 10
-361.5854017706273
 20
-340.1901024489329
 30
0.0
 10
-361.5958390469978
 20
-340.3188808304942
 30
0.0
 10
-361.5987460683907
 20
-340.4298148327283
 30
0.0
 10
-361.5948492611491
 20
-340.5232359573989
 30
0.0
 10
-361.5804480114586
 20
-340.6039389013634
 30
0.0
 10
-361.5612416074776
 20
-340.6553261772464
 30
0.0
 10
-361.5374830986175
 20
-340.6927283568254
 30
0.0
 10
-361.5100053092681
 20
-340.6980240723526
 30
0.0
 10
-361.4996674212361
 20
-340.7000164700274
 30
0.0
 11
-361.4996674212361
 21
-339.7323910686591
 31
0.0
 11
-361.5291491613807
 21
-339.8597730889541
 31
0.0
 11
-361.5611498277266
 21
-340.027751805379
 31
0.0
 11
-361.585785736266
 21
-340.2077249406957
 31
0.0
 11
-361.5957737363659
 21
-340.336317555766
 31
0.0
 11
-361.5976531056967
 21
-340.4130664169988
 31
0.0
 11
-361.5905683166546
 21
-340.5398234762451
 31
0.0
 11
-361.5753710059307
 21
-340.6152272970375
 31
0.0
 11
-361.5611913812953
 21
-340.651765250599
 31
0.0
 11
-361.5290631357547
 21
-340.6912130205146
 31
0.0
 11
-361.4996674212361
 21
-340.7000164700274
 31
0.0
  0
SPLINE
  5
C75F1
330
1E
100
AcDbEntity
  8
OUTLINE
  6
CONTINUOUS
100
AcDbSpline
210
0.0
220
0.0
230
1.0
 70
     8
 71
     3
 72
    16
 73
    12
 74
    10
 42
0.0000000001
 43
0.0000000001
 44
0.00000001
 40
0.0
 40
0.0
 40
0.0
 40
0.0
 40
0.0303517997944288
 40
0.0801666166740427
 40
0.1807936775709617
 40
0.3241999496069233
 40
0.4011814377252803
 40
0.5314417611081329
 40
0.7153947352343046
 40
0.8625809449561304
 40
1.013487564262532
 40
1.013487564262532
 40
1.013487564262532
 40
1.013487564262532
 10
-361.499667421247
 20
-341.7000164700275
 30
0.0
 10
-361.5099028109338
 20
-341.7019685745804
 30
0.0
 10
-361.5369370129849
 20
-341.7071245504639
 30
0.0
 10
-361.572689108056
 20
-341.7621594105604
 30
0.0
 10
-361.5935203332056
 20
-341.8570016464612
 30
0.0
 10
-361.598938632148
 20
-341.9647917433387
 30
0.0
 10
-361.5958135261908
 20
-342.0815404973599
 30
0.0
 10
-361.5852510512902
 20
-342.2116411500106
 30
0.0
 10
-361.5637605469464
 20
-342.3639962004008
 30
0.0
 10
-361.534234230402
 20
-342.5220032643769
 30
0.0
 10
-361.511285162424
 20
-342.6186934147332
 30
0.0
 10
-361.499667421247
 20
-342.6676418713995
 30
0.0
 11
-361.499667421247
 21
-341.7000164700275
 31
0.0
 11
-361.528770828756
 21
-341.7086317817793
 31
0.0
 11
-361.5605484109055
 21
-341.7469945364992
 31
0.0
 11
-361.5882464934711
 21
-341.8437345042856
 31
0.0
 11
-361.5976531120886
 21
-341.98683193348
 31
0.0
 11
-361.5957711231585
 21
-342.0637904132654
 31
0.0
 11
-361.5856436450684
 21
-342.1936564442456
 31
0.0
 11
-361.5605484109055
 21
-342.3758896077797
 31
0.0
 11
-361.5333186289881
 21
-342.5205351031781
 31
0.0
 11
-361.499667421247
 21
-342.6676418713995
 31
0.0
  0
LINE
  5
C75F2
330
1E
100
AcDbEntity
  8
OUTLINE
  6
CONTINUOUS
100
AcDbLine
 10
-351.399999999996
 20
-180.0000164700304
 30
0.0
 11
-351.399999999996
 21
-235.0000164700304
 31
0.0
  0
LINE
  5
C75F3
330
1E
100
AcDbEntity
  8
OUTLINE
  6
CONTINUOUS
100
AcDbLine
 10
-358.399999999996
 20
-175.7000164700274
 30
0.0
 11
-358.399999999996
 21
-235.0000164700304
 31
0.0
  0
LINE
  5
C75F4
330
1E
100
AcDbEntity
  8
OUTLINE
  6
CONTINUOUS
100
AcDbLine
 10
-358.399999999996
 20
-235.0000164700304
 30
0.0
 11
-360.6999999999952
 21
-235.0000164700304
 31
0.0
  0
LINE
  5
C75F5
330
1E
100
AcDbEntity
  8
OUTLINE
  6
CONTINUOUS
100
AcDbLine
 10
-355.999999999998
 20
-152.0000164700304
 30
0.0
 11
-355.999999999998
 21
-151.600016470029
 31
0.0
  0
LINE
  5
C75F6
330
1E
100
AcDbEntity
  8
OUTLINE
  6
CONTINUOUS
100
AcDbLine
 10
-355.999999999998
 20
-151.600016470029
 30
0.0
 11
-355.999999999998
 21
-150.0000164700304
 31
0.0
  0
LINE
  5
C75F7
330
1E
100
AcDbEntity
  8
OUTLINE
  6
CONTINUOUS
100
AcDbLine
 10
-355.999999999998
 20
-152.0000164700304
 30
0.0
 11
-357.5999999999967
 21
-152.0000164700304
 31
0.0
  0
LINE
  5
C75F8
330
1E
100
AcDbEntity
  8
OUTLINE
  6
CONTINUOUS
100
AcDbLine
 10
-351.999999999998
 20
-151.600016470029
 30
0.0
 11
-355.999999999998
 21
-151.600016470029
 31
0.0
  0
LINE
  5
C75F9
330
1E
100
AcDbEntity
  8
OUTLINE
  6
CONTINUOUS
100
AcDbLine
 10
-351.999999999998
 20
-150.0000164700304
 30
0.0
 11
-355.999999999998
 21
-150.0000164700304
 31
0.0
  0
LINE
  5
C75FA
330
1E
100
AcDbEntity
  8
OUTLINE
  6
CONTINUOUS
100
AcDbLine
 10
-351.999999999998
 20
-150.0000164700304
 30
0.0
 11
-351.999999999998
 21
-151.600016470029
 31
0.0
  0
LINE
  5
C75FB
330
1E
100
AcDbEntity
  8
OUTLINE
  6
CONTINUOUS
100
AcDbLine
 10
-355.999999999998
 20
-152.0000164700304
 30
0.0
 11
-355.999999999998
 21
-151.600016470029
 31
0.0
  0
LINE
  5
C75FC
330
1E
100
AcDbEntity
  8
OUTLINE
  6
CONTINUOUS
100
AcDbLine
 10
-355.999999999998
 20
-151.600016470029
 30
0.0
 11
-355.999999999998
 21
-150.0000164700304
 31
0.0
  0
LINE
  5
C75FD
330
1E
100
AcDbEntity
  8
OUTLINE
  6
CONTINUOUS
100
AcDbLine
 10
-355.999999999998
 20
-152.0000164700304
 30
0.0
 11
-357.5999999999967
 21
-152.0000164700304
 31
0.0
  0
LINE
  5
C75FE
330
1E
100
AcDbEntity
  8
OUTLINE
  6
CONTINUOUS
100
AcDbLine
 10
-351.999999999998
 20
-150.0000164700304
 30
0.0
 11
-355.999999999998
 21
-150.0000164700304
 31
0.0
  0
LINE
  5
C75FF
330
1E
100
AcDbEntity
  8
OUTLINE
  6
CONTINUOUS
100
AcDbLine
 10
-367.5999999999967
 20
-150.0000164700304
 30
0.0
 11
-367.5999999999967
 21
-150.8000164700296
 31
0.0
  0
LINE
  5
C7600
330
1E
100
AcDbEntity
  8
OUTLINE
  6
CONTINUOUS
100
AcDbLine
 10
-358.399999999996
 20
-150.8000164700296
 30
0.0
 11
-358.399999999996
 21
-152.0000164700304
 31
0.0
  0
LINE
  5
C7601
330
1E
100
AcDbEntity
  8
OUTLINE
  6
CONTINUOUS
100
AcDbLine
 10
-364.5999999999967
 20
-150.8000164700296
 30
0.0
 11
-364.5999999999967
 21
-150.0000164700304
 31
0.0
  0
LINE
  5
C7602
330
1E
100
AcDbEntity
  8
OUTLINE
  6
CONTINUOUS
100
AcDbLine
 10
-358.399999999996
 20
-150.8000164700296
 30
0.0
 11
-364.5999999999967
 21
-150.8000164700296
 31
0.0
  0
LINE
  5
C7603
330
1E
100
AcDbEntity
  8
OUTLINE
  6
CONTINUOUS
100
AcDbLine
 10
-367.5999999999967
 20
-150.0000164700304
 30
0.0
 11
-364.5999999999967
 21
-150.0000164700304
 31
0.0
  0
LINE
  5
C7604
330
1E
100
AcDbEntity
  8
OUTLINE
  6
CONTINUOUS
100
AcDbLine
 10
-367.5999999999967
 20
-150.8000164700296
 30
0.0
 11
-364.5999999999967
 21
-150.8000164700296
 31
0.0
  0
LINE
  5
C7605
330
1E
100
AcDbEntity
  8
OUTLINE
  6
CONTINUOUS
100
AcDbLine
 10
-351.399999999996
 20
-155.0000164700304
 30
0.0
 11
-351.399999999996
 21
-180.0000164700304
 31
0.0
  0
LINE
  5
C7606
330
1E
100
AcDbEntity
  8
OUTLINE
  6
CONTINUOUS
100
AcDbLine
 10
-355.999999999998
 20
-152.0000164700304
 30
0.0
 11
-357.5999999999967
 21
-152.0000164700304
 31
0.0
  0
LINE
  5
C7607
330
1E
100
AcDbEntity
  8
OUTLINE
  6
CONTINUOUS
100
AcDbLine
 10
-357.5999999999967
 20
-150.0000164700304
 30
0.0
 11
-357.5999999999967
 21
-152.0000164700304
 31
0.0
  0
LINE
  5
C7608
330
1E
100
AcDbEntity
  8
OUTLINE
  6
CONTINUOUS
100
AcDbLine
 10
-355.999999999998
 20
-152.0000164700304
 30
0.0
 11
-354.399999999996
 21
-152.0000164700304
 31
0.0
  0
LINE
  5
C7609
330
1E
100
AcDbEntity
  8
OUTLINE
  6
CONTINUOUS
100
AcDbLine
 10
-354.399999999996
 20
-152.0000164700304
 30
0.0
 11
-351.399999999996
 21
-155.0000164700304
 31
0.0
  0
LINE
  5
C760A
330
1E
100
AcDbEntity
  8
OUTLINE
  6
CONTINUOUS
100
AcDbLine
 10
-358.399999999996
 20
-170.0000164700304
 30
0.0
 11
-358.399999999996
 21
-170.5000164700304
 31
0.0
  0
LINE
  5
C760B
330
1E
100
AcDbEntity
  8
OUTLINE
  6
CONTINUOUS
100
AcDbLine
 10
-358.399999999996
 20
-170.5000164700304
 30
0.0
 11
-358.399999999996
 21
-171.5000164700304
 31
0.0
  0
LINE
  5
C760C
330
1E
100
AcDbEntity
  8
OUTLINE
  6
CONTINUOUS
100
AcDbLine
 10
-358.399999999996
 20
-171.5000164700304
 30
0.0
 11
-358.399999999996
 21
-172.0000164700303
 31
0.0
  0
LINE
  5
C760D
330
1E
100
AcDbEntity
  8
OUTLINE
  6
CONTINUOUS
100
AcDbLine
 10
-358.399999999996
 20
-169.0000164700304
 30
0.0
 11
-358.399999999996
 21
-170.0000164700304
 31
0.0
  0
LINE
  5
C760E
330
1E
100
AcDbEntity
  8
OUTLINE
  6
CONTINUOUS
100
AcDbLine
 10
-358.399999999996
 20
-172.0000164700303
 30
0.0
 11
-358.399999999996
 21
-173.0000164700304
 31
0.0
  0
LINE
  5
C760F
330
1E
100
AcDbEntity
  8
OUTLINE
  6
CONTINUOUS
100
AcDbLine
 10
-358.399999999996
 20
-173.0000164700304
 30
0.0
 11
-358.399999999996
 21
-175.7000164700274
 31
0.0
  0
LINE
  5
C7610
330
1E
100
AcDbEntity
  8
OUTLINE
  6
CONTINUOUS
100
AcDbLine
 10
-358.399999999996
 20
-166.3000164700296
 30
0.0
 11
-358.399999999996
 21
-169.0000164700304
 31
0.0
  0
LINE
  5
C7611
330
1E
100
AcDbEntity
  8
OUTLINE
  6
CONTINUOUS
100
AcDbLine
 10
-358.399999999996
 20
-152.0000164700304
 30
0.0
 11
-358.399999999996
 21
-166.3000164700296
 31
0.0
  0
LINE
  5
C7612
330
1E
100
AcDbEntity
  8
OUTLINE
  6
CONTINUOUS
100
AcDbLine
 10
-364.5999999999967
 20
-150.0000164700304
 30
0.0
 11
-357.5999999999967
 21
-150.0000164700304
 31
0.0
  0
LINE
  5
C7613
330
1E
100
AcDbEntity
  8
OUTLINE
  6
CONTINUOUS
100
AcDbLine
 10
-358.399999999996
 20
-152.0000164700304
 30
0.0
 11
-357.5999999999967
 21
-152.0000164700304
 31
0.0
  0
LINE
  5
C7614
330
1E
100
AcDbEntity
  8
OUTLINE
  6
CONTINUOUS
100
AcDbLine
 10
-360.5628118136865
 20
-169.0000164700304
 30
0.0
 11
-360.5440885065671
 21
-169.0086733984808
 31
0.0
  0
LINE
  5
C7615
330
1E
100
AcDbEntity
  8
OUTLINE
  6
CONTINUOUS
100
AcDbLine
 10
-358.399999999996
 20
-170.0000164700304
 30
0.0
 11
-358.399999999996
 21
-170.5000164700304
 31
0.0
  0
LINE
  5
C7616
330
1E
100
AcDbEntity
  8
OUTLINE
  6
CONTINUOUS
100
AcDbLine
 10
-358.399999999996
 20
-170.5000164700304
 30
0.0
 11
-358.399999999996
 21
-171.5000164700304
 31
0.0
  0
LINE
  5
C7617
330
1E
100
AcDbEntity
  8
OUTLINE
  6
CONTINUOUS
100
AcDbLine
 10
-360.5440885065671
 20
-170.5000164700304
 30
0.0
 11
-360.6996674212368
 21
-170.5000164700304
 31
0.0
  0
LINE
  5
C7618
330
1E
100
AcDbEntity
  8
OUTLINE
  6
CONTINUOUS
100
AcDbLine
 10
-358.399999999996
 20
-171.5000164700304
 30
0.0
 11
-358.399999999996
 21
-172.0000164700303
 31
0.0
  0
LINE
  5
C7619
330
1E
100
AcDbEntity
  8
OUTLINE
  6
CONTINUOUS
100
AcDbLine
 10
-360.5440885065671
 20
-171.5000164700304
 30
0.0
 11
-360.6996674212368
 21
-171.5000164700304
 31
0.0
  0
LINE
  5
C761A
330
1E
100
AcDbEntity
  8
OUTLINE
  6
CONTINUOUS
100
AcDbLine
 10
-360.5440885065671
 20
-172.9913595415872
 30
0.0
 11
-360.5628118136865
 21
-173.0000164700304
 31
0.0
  0
LINE
  5
C761B
330
1E
100
AcDbEntity
  8
OUTLINE
  6
CONTINUOUS
100
AcDbLine
 10
-358.399999999996
 20
-175.7000164700274
 30
0.0
 11
-358.6884444190455
 21
-175.7000164700274
 31
0.0
  0
LINE
  5
C761C
330
1E
100
AcDbEntity
  8
OUTLINE
  6
CONTINUOUS
100
AcDbLine
 10
-358.6884444190455
 20
-166.3000164700296
 30
0.0
 11
-358.6884444190455
 21
-175.7000164700274
 31
0.0
  0
LINE
  5
C761D
330
1E
100
AcDbEntity
  8
OUTLINE
  6
CONTINUOUS
100
AcDbLine
 10
-358.399999999996
 20
-166.3000164700296
 30
0.0
 11
-358.6884444190455
 21
-166.3000164700296
 31
0.0
  0
LINE
  5
C761E
330
1E
100
AcDbEntity
  8
OUTLINE
  6
CONTINUOUS
100
AcDbLine
 10
-358.399999999996
 20
-169.0000164700304
 30
0.0
 11
-358.399999999996
 21
-170.0000164700304
 31
0.0
  0
LINE
  5
C761F
330
1E
100
AcDbEntity
  8
OUTLINE
  6
CONTINUOUS
100
AcDbLine
 10
-358.399999999996
 20
-172.0000164700303
 30
0.0
 11
-358.399999999996
 21
-173.0000164700304
 31
0.0
  0
LINE
  5
C7620
330
1E
100
AcDbEntity
  8
OUTLINE
  6
CONTINUOUS
100
AcDbLine
 10
-358.399999999996
 20
-173.0000164700304
 30
0.0
 11
-358.399999999996
 21
-175.7000164700274
 31
0.0
  0
LINE
  5
C7621
330
1E
100
AcDbEntity
  8
OUTLINE
  6
CONTINUOUS
100
AcDbLine
 10
-358.399999999996
 20
-166.3000164700296
 30
0.0
 11
-358.399999999996
 21
-169.0000164700304
 31
0.0
  0
ARC
  5
C7622
330
1E
100
AcDbEntity
  8
OUTLINE
  6
CONTINUOUS
100
AcDbCircle
 10
-354.8000000000156
 20
-171.0000164700923
 30
0.0
 40
6.079473661424452
100
AcDbArc
 50
160.8797478014519
 51
166.0304228412948
  0
ARC
  5
C7623
330
1E
100
AcDbEntity
  8
OUTLINE
  6
CONTINUOUS
100
AcDbCircle
 10
-353.8792804723361
 20
-171.0000164700304
 30
0.0
 40
6.683536947840672
100
AcDbArc
 50
175.7096550093645
 51
184.2903449906352
  0
ARC
  5
C7624
330
1E
100
AcDbEntity
  8
OUTLINE
  6
CONTINUOUS
100
AcDbCircle
 10
-354.8000000000064
 20
-171.000016470003
 30
0.0
 40
6.079473661424027
100
AcDbArc
 50
193.969577158335
 51
199.1202521982769
  0
ARC
  5
C7625
330
1E
100
AcDbEntity
  8
OUTLINE
  6
CONTINUOUS
100
AcDbCircle
 10
-354.7999999999938
 20
-171.000016470025
 30
0.0
 40
6.100000000000785
100
AcDbArc
 50
129.6019270811866
 51
160.8605255490219
  0
ARC
  5
C7626
330
1E
100
AcDbEntity
  8
OUTLINE
  6
CONTINUOUS
100
AcDbCircle
 10
-354.7999999999973
 20
-171.0000164700304
 30
0.0
 40
6.099999999999504
100
AcDbArc
 50
199.1394744510376
 51
230.3980729188505
  0
SPLINE
  5
C7627
330
1E
100
AcDbEntity
  8
OUTLINE
  6
CONTINUOUS
100
AcDbSpline
210
0.0
220
0.0
230
1.0
 70
     8
 71
     3
 72
    17
 73
    13
 74
    11
 42
0.0000000001
 43
0.0000000001
 44
0.00000001
 40
0.0
 40
0.0
 40
0.0
 40
0.0
 40
0.0303517996468569
 40
0.0801666165999404
 40
0.1191426701846917
 40
0.1963599833700479
 40
0.3245181247409863
 40
0.4014996128581292
 40
0.5317599362433225
 40
0.7157129103650366
 40
0.8628991200950453
 40
1.013805739398893
 40
1.013805739398893
 40
1.013805739398893
 40
1.013805739398893
 10
-360.6996674212368
 20
-171.5000164700304
 30
0.0
 10
-360.7098943696506
 20
-171.5019571240972
 30
0.0
 10
-360.7369062762943
 20
-171.5070828564016
 30
0.0
 10
-360.7606962539459
 20
-171.5436619249013
 30
0.0
 10
-360.7801105675731
 20
-171.5946586779394
 30
0.0
 10
-360.794795885996
 20
-171.6757570402698
 30
0.0
 10
-360.7987568682854
 20
-171.7697530680301
 30
0.0
 10
-360.7958308023564
 20
-171.8815840244912
 30
0.0
 10
-360.7852428493178
 20
-172.011620485232
 30
0.0
 10
-360.7637624956388
 20
-172.1640011101172
 30
0.0
 10
-360.7342337759953
 20
-172.3220021195423
 30
0.0
 10
-360.7112850096965
 20
-172.4186930299626
 30
0.0
 10
-360.6996674212368
 20
-172.4676418713988
 30
0.0
 11
-360.6996674212368
 21
-171.5000164700304
 31
0.0
 11
-360.7287708287531
 21
-171.5086317817785
 31
0.0
 11
-360.7605484109062
 21
-171.5469945364984
 31
0.0
 11
-360.7748950756521
 21
-171.583234099251
 31
0.0
 11
-360.7903968384471
 21
-171.658879381388
 31
0.0
 11
-360.7976531120856
 21
-171.7868319334793
 31
0.0
 11
-360.7957711231556
 21
-171.8637904132646
 31
0.0
 11
-360.7856436450691
 21
-171.9936564442487
 31
0.0
 11
-360.7605484109062
 21
-172.175889607779
 31
0.0
 11
-360.7333186289814
 21
-172.3205351031847
 31
0.0
 11
-360.6996674212368
 21
-172.4676418713988
 31
0.0
  0
SPLINE
  5
C7628
330
1E
100
AcDbEntity
  8
OUTLINE
  6
CONTINUOUS
100
AcDbSpline
210
0.0
220
0.0
230
1.0
 70
     8
 71
     3
 72
    17
 73
    13
 74
    11
 42
0.0000000001
 43
0.0000000001
 44
0.00000001
 40
0.0
 40
0.0
 40
0.0
 40
0.0
 40
0.1528067068136155
 40
0.3017503235647576
 40
0.4834017960166203
 40
0.6123817201467756
 40
0.6891535883641355
 40
0.8161084874663039
 40
0.8930285403646223
 40
0.9322214461009208
 40
0.983097285477125
 40
1.013782926577508
 40
1.013782926577508
 40
1.013782926577508
 40
1.013782926577508
 10
-360.6996674212368
 20
-169.5323910686584
 30
0.0
 10
-360.711424746242
 20
-169.5819579300485
 30
0.0
 10
-360.7346421667563
 20
-169.6798385568765
 30
0.0
 10
-360.764133622777
 20
-169.8383084127932
 30
0.0
 10
-360.7854025765242
 20
-169.9901025795064
 30
0.0
 10
-360.7958389464414
 20
-170.118880814208
 30
0.0
 10
-360.79874610578
 20
-170.2298148387865
 30
0.0
 10
-360.7948492539826
 20
-170.3232359562375
 30
0.0
 10
-360.7804480121491
 20
-170.4039389014724
 30
0.0
 10
-360.7612416072969
 20
-170.4553261772207
 30
0.0
 10
-360.7374830986373
 20
-170.492728356826
 30
0.0
 10
-360.7100053092725
 20
-170.4980240723569
 30
0.0
 10
-360.6996674212368
 20
-170.5000164700304
 30
0.0
 11
-360.6996674212368
 21
-169.5323910686584
 31
0.0
 11
-360.7337063745199
 21
-169.6813583018428
 31
0.0
 11
-360.7611498277273
 21
-169.8277518053782
 31
0.0
 11
-360.7857857362632
 21
-170.0077249406913
 31
0.0
 11
-360.7957737363666
 21
-170.1363175557616
 31
0.0
 11
-360.7976531056974
 21
-170.213066416998
 31
0.0
 11
-360.7905683166555
 21
-170.339823476237
 31
0.0
 11
-360.7753710059313
 21
-170.4152272970332
 31
0.0
 11
-360.7611913812961
 21
-170.4517652505983
 31
0.0
 11
-360.7290631357518
 21
-170.4912130205175
 31
0.0
 11
-360.6996674212368
 21
-170.5000164700304
 31
0.0
  0
LINE
  5
C7629
330
1E
100
AcDbEntity
  8
OUTLINE
  6
CONTINUOUS
100
AcDbLine
 10
-360.6999999999952
 20
-252.0000164700304
 30
0.0
 11
-360.6999999999952
 21
-251.0000164700304
 31
0.0
  0
LINE
  5
C762A
330
1E
100
AcDbEntity
  8
OUTLINE
  6
CONTINUOUS
100
AcDbLine
 10
-360.6999999999952
 20
-251.0000164700304
 30
0.0
 11
-360.6999999999952
 21
-250.5000164700303
 31
0.0
  0
LINE
  5
C762B
330
1E
100
AcDbEntity
  8
OUTLINE
  6
CONTINUOUS
100
AcDbLine
 10
-360.6999999999952
 20
-254.7000164700274
 30
0.0
 11
-360.6999999999952
 21
-252.0000164700304
 31
0.0
  0
LINE
  5
C762C
330
1E
100
AcDbEntity
  8
OUTLINE
  6
CONTINUOUS
100
AcDbLine
 10
-360.6999999999952
 20
-249.5000164700304
 30
0.0
 11
-360.6999999999952
 21
-249.0000164700304
 31
0.0
  0
LINE
  5
C762D
330
1E
100
AcDbEntity
  8
OUTLINE
  6
CONTINUOUS
100
AcDbLine
 10
-360.6999999999952
 20
-250.5000164700303
 30
0.0
 11
-360.6999999999952
 21
-249.5000164700304
 31
0.0
  0
LINE
  5
C762E
330
1E
100
AcDbEntity
  8
OUTLINE
  6
CONTINUOUS
100
AcDbLine
 10
-360.6999999999952
 20
-249.0000164700304
 30
0.0
 11
-360.6999999999952
 21
-248.0000164700304
 31
0.0
  0
LINE
  5
C762F
330
1E
100
AcDbEntity
  8
OUTLINE
  6
CONTINUOUS
100
AcDbLine
 10
-360.6999999999952
 20
-248.0000164700304
 30
0.0
 11
-360.6999999999952
 21
-245.3000164700296
 31
0.0
  0
LINE
  5
C7630
330
1E
100
AcDbEntity
  8
OUTLINE
  6
CONTINUOUS
100
AcDbLine
 10
-360.6999999999952
 20
-265.0000164700303
 30
0.0
 11
-360.6999999999952
 21
-254.7000164700274
 31
0.0
  0
LINE
  5
C7631
330
1E
100
AcDbEntity
  8
OUTLINE
  6
CONTINUOUS
100
AcDbLine
 10
-362.8440885065773
 20
-251.99135954158
 30
0.0
 11
-362.8628118136857
 21
-252.0000164700304
 31
0.0
  0
LINE
  5
C7632
330
1E
100
AcDbEntity
  8
OUTLINE
  6
CONTINUOUS
100
AcDbLine
 10
-362.8628118136857
 20
-248.0000164700304
 30
0.0
 11
-362.8440885065773
 21
-248.0086733984808
 31
0.0
  0
LINE
  5
C7633
330
1E
100
AcDbEntity
  8
OUTLINE
  6
CONTINUOUS
100
AcDbLine
 10
-360.6999999999952
 20
-245.3000164700296
 30
0.0
 11
-360.9884444190374
 21
-245.3000164700296
 31
0.0
  0
LINE
  5
C7634
330
1E
100
AcDbEntity
  8
OUTLINE
  6
CONTINUOUS
100
AcDbLine
 10
-362.8440885065773
 20
-249.5000164700304
 30
0.0
 11
-362.999667421236
 21
-249.5000164700304
 31
0.0
  0
LINE
  5
C7635
330
1E
100
AcDbEntity
  8
OUTLINE
  6
CONTINUOUS
100
AcDbLine
 10
-362.8440885065773
 20
-250.5000164700303
 30
0.0
 11
-362.999667421236
 21
-250.5000164700303
 31
0.0
  0
LINE
  5
C7636
330
1E
100
AcDbEntity
  8
OUTLINE
  6
CONTINUOUS
100
AcDbLine
 10
-360.9884444190374
 20
-245.3000164700296
 30
0.0
 11
-360.9884444190374
 21
-254.7000164700274
 31
0.0
  0
LINE
  5
C7637
330
1E
100
AcDbEntity
  8
OUTLINE
  6
CONTINUOUS
100
AcDbLine
 10
-360.6999999999952
 20
-254.7000164700274
 30
0.0
 11
-360.9884444190374
 21
-254.7000164700274
 31
0.0
  0
LINE
  5
C7638
330
1E
100
AcDbEntity
  8
OUTLINE
  6
CONTINUOUS
100
AcDbLine
 10
-360.6999999999952
 20
-252.0000164700304
 30
0.0
 11
-360.6999999999952
 21
-251.0000164700304
 31
0.0
  0
LINE
  5
C7639
330
1E
100
AcDbEntity
  8
OUTLINE
  6
CONTINUOUS
100
AcDbLine
 10
-360.6999999999952
 20
-251.0000164700304
 30
0.0
 11
-360.6999999999952
 21
-250.5000164700303
 31
0.0
  0
LINE
  5
C763A
330
1E
100
AcDbEntity
  8
OUTLINE
  6
CONTINUOUS
100
AcDbLine
 10
-360.6999999999952
 20
-254.7000164700274
 30
0.0
 11
-360.6999999999952
 21
-252.0000164700304
 31
0.0
  0
LINE
  5
C763B
330
1E
100
AcDbEntity
  8
OUTLINE
  6
CONTINUOUS
100
AcDbLine
 10
-360.6999999999952
 20
-249.5000164700304
 30
0.0
 11
-360.6999999999952
 21
-249.0000164700304
 31
0.0
  0
LINE
  5
C763C
330
1E
100
AcDbEntity
  8
OUTLINE
  6
CONTINUOUS
100
AcDbLine
 10
-360.6999999999952
 20
-250.5000164700303
 30
0.0
 11
-360.6999999999952
 21
-249.5000164700304
 31
0.0
  0
LINE
  5
C763D
330
1E
100
AcDbEntity
  8
OUTLINE
  6
CONTINUOUS
100
AcDbLine
 10
-360.6999999999952
 20
-249.0000164700304
 30
0.0
 11
-360.6999999999952
 21
-248.0000164700304
 31
0.0
  0
LINE
  5
C763E
330
1E
100
AcDbEntity
  8
OUTLINE
  6
CONTINUOUS
100
AcDbLine
 10
-360.6999999999952
 20
-248.0000164700304
 30
0.0
 11
-360.6999999999952
 21
-245.3000164700296
 31
0.0
  0
ARC
  5
C763F
330
1E
100
AcDbEntity
  8
OUTLINE
  6
CONTINUOUS
100
AcDbCircle
 10
-357.1000000000148
 20
-250.0000164699759
 30
0.0
 40
6.079473661433262
100
AcDbArc
 50
193.9695771585783
 51
199.1202521984465
  0
ARC
  5
C7640
330
1E
100
AcDbEntity
  8
OUTLINE
  6
CONTINUOUS
100
AcDbCircle
 10
-356.1792804723353
 20
-250.0000164700304
 30
0.0
 40
6.683536947851557
100
AcDbArc
 50
175.7096550093716
 51
184.2903449906282
  0
ARC
  5
C7641
330
1E
100
AcDbEntity
  8
OUTLINE
  6
CONTINUOUS
100
AcDbCircle
 10
-357.0999999999821
 20
-250.0000164699813
 30
0.0
 40
6.079473661429354
100
AcDbArc
 50
160.8797478025747
 51
166.0304228423841
  0
ARC
  5
C7642
330
1E
100
AcDbEntity
  8
OUTLINE
  6
CONTINUOUS
100
AcDbCircle
 10
-357.0999999999985
 20
-250.0000164700321
 30
0.0
 40
6.099999999998274
100
AcDbArc
 50
129.6019270810509
 51
160.8605255489406
  0
ARC
  5
C7643
330
1E
100
AcDbEntity
  8
OUTLINE
  6
CONTINUOUS
100
AcDbCircle
 10
-357.1000000000003
 20
-250.000016470023
 30
0.0
 40
6.099999999997594
100
AcDbArc
 50
199.1394744511161
 51
230.3980729189796
  0
LINE
  5
C7644
330
1E
100
AcDbEntity
  8
OUTLINE
  6
CONTINUOUS
100
AcDbLine
 10
-360.6999999999952
 20
-252.0000164700304
 30
0.0
 11
-360.6999999999952
 21
-251.0000164700304
 31
0.0
  0
LINE
  5
C7645
330
1E
100
AcDbEntity
  8
OUTLINE
  6
CONTINUOUS
100
AcDbLine
 10
-360.6999999999952
 20
-251.0000164700304
 30
0.0
 11
-360.6999999999952
 21
-250.5000164700303
 31
0.0
  0
LINE
  5
C7646
330
1E
100
AcDbEntity
  8
OUTLINE
  6
CONTINUOUS
100
AcDbLine
 10
-360.6999999999952
 20
-254.7000164700274
 30
0.0
 11
-360.6999999999952
 21
-252.0000164700304
 31
0.0
  0
LINE
  5
C7647
330
1E
100
AcDbEntity
  8
OUTLINE
  6
CONTINUOUS
100
AcDbLine
 10
-360.6999999999952
 20
-249.5000164700304
 30
0.0
 11
-360.6999999999952
 21
-249.0000164700304
 31
0.0
  0
LINE
  5
C7648
330
1E
100
AcDbEntity
  8
OUTLINE
  6
CONTINUOUS
100
AcDbLine
 10
-360.6999999999952
 20
-250.5000164700303
 30
0.0
 11
-360.6999999999952
 21
-249.5000164700304
 31
0.0
  0
LINE
  5
C7649
330
1E
100
AcDbEntity
  8
OUTLINE
  6
CONTINUOUS
100
AcDbLine
 10
-360.6999999999952
 20
-249.0000164700304
 30
0.0
 11
-360.6999999999952
 21
-248.0000164700304
 31
0.0
  0
LINE
  5
C764A
330
1E
100
AcDbEntity
  8
OUTLINE
  6
CONTINUOUS
100
AcDbLine
 10
-360.6999999999952
 20
-248.0000164700304
 30
0.0
 11
-360.6999999999952
 21
-245.3000164700296
 31
0.0
  0
LINE
  5
C764B
330
1E
100
AcDbEntity
  8
OUTLINE
  6
CONTINUOUS
100
AcDbLine
 10
-358.399999999996
 20
-265.0000164700303
 30
0.0
 11
-360.6999999999952
 21
-265.0000164700303
 31
0.0
  0
LINE
  5
C764C
330
1E
100
AcDbEntity
  8
OUTLINE
  6
CONTINUOUS
100
AcDbLine
 10
-360.6999999999952
 20
-265.0000164700303
 30
0.0
 11
-360.6999999999952
 21
-254.7000164700274
 31
0.0
  0
SPLINE
  5
C764D
330
1E
100
AcDbEntity
  8
OUTLINE
  6
CONTINUOUS
100
AcDbSpline
210
0.0
220
0.0
230
1.0
 70
     8
 71
     3
 72
    17
 73
    13
 74
    11
 42
0.0000000001
 43
0.0000000001
 44
0.00000001
 40
0.0
 40
0.0
 40
0.0
 40
0.0
 40
0.0356715187542091
 40
0.0801359192507583
 40
0.1191119728333473
 40
0.1963292860217493
 40
0.3244874273846269
 40
0.4014689155009794
 40
0.5317292388757206
 40
0.7156822129941637
 40
0.8413403195600038
 40
1.013774078915645
 40
1.013774078915645
 40
1.013774078915645
 40
1.013774078915645
 10
-362.999667421236
 20
-250.5000164700303
 30
0.0
 10
-363.0116610436674
 20
-250.5027453693406
 30
0.0
 10
-363.0386046711445
 20
-250.5088758167053
 30
0.0
 10
-363.0612055252723
 20
-250.5452707679154
 30
0.0
 10
-363.0801730460034
 20
-250.5946773351017
 30
0.0
 10
-363.0947587996306
 20
-250.6757459686653
 30
0.0
 10
-363.0987635505283
 20
-250.7697550475823
 30
0.0
 10
-363.0958282518715
 20
-250.8815833058472
 30
0.0
 10
-363.0852443604906
 20
-251.0116205895157
 30
0.0
 10
-363.0647630431104
 20
-251.1568923951366
 30
0.0
 10
-363.0357009476619
 20
-251.3149666394288
 30
0.0
 10
-363.0128726433649
 20
-251.4116909028916
 30
0.0
 10
-362.999667421247
 20
-251.4676418713988
 30
0.0
 11
-362.999667421236
 21
-250.5000164700303
 31
0.0
 11
-363.0333223822181
 21
-250.5118402192546
 31
0.0
 11
-363.0605484109055
 21
-250.5469945364984
 31
0.0
 11
-363.0748950756551
 21
-250.5832340992509
 31
0.0
 11
-363.0903968384426
 21
-250.6588793813953
 31
0.0
 11
-363.0976531120886
 21
-250.7868319334793
 31
0.0
 11
-363.0957711231549
 21
-250.8637904132647
 31
0.0
 11
-363.085643645072
 21
-250.9936564442413
 31
0.0
 11
-363.0605484109055
 21
-251.175889607779
 31
0.0
 11
-363.0376580056089
 21
-251.2994452192015
 31
0.0
 11
-362.999667421247
 21
-251.4676418713988
 31
0.0
  0
SPLINE
  5
C764E
330
1E
100
AcDbEntity
  8
OUTLINE
  6
CONTINUOUS
100
AcDbSpline
210
0.0
220
0.0
230
1.0
 70
     8
 71
     3
 72
    17
 73
    13
 74
    11
 42
0.0000000001
 43
0.0000000001
 44
0.00000001
 40
0.0
 40
0.0
 40
0.0
 40
0.0
 40
0.1748846746532918
 40
0.3017492986032322
 40
0.4834007710479418
 40
0.6123806951678322
 40
0.6891525633878124
 40
0.8161074624923225
 40
0.8930275153878254
 40
0.9322204211173142
 40
0.9775777120707688
 40
1.013747951397432
 40
1.013747951397432
 40
1.013747951397432
 40
1.013747951397432
 10
-362.999667421236
 20
-248.5323910686584
 30
0.0
 10
-363.0130511616072
 20
-248.5891397668134
 30
0.0
 10
-363.036143724327
 20
-248.6870550339007
 30
0.0
 10
-363.0651537530435
 20
-248.8455998321329
 30
0.0
 10
-363.0854040819018
 20
-248.9901024488837
 30
0.0
 10
-363.0958363832052
 20
-249.1188815946823
 30
0.0
 10
-363.0987528529728
 20
-249.2298126841883
 30
0.0
 10
-363.0948120271674
 20
-249.323247930752
 30
0.0
 10
-363.0805112635189
 20
-249.4039185505255
 30
0.0
 10
-363.0617564800574
 20
-249.4536665219849
 30
0.0
 10
-363.0392222423858
 20
-249.4908460838408
 30
0.0
 10
-363.0118231926961
 20
-249.4971982725548
 30
0.0
 10
-362.999667421236
 20
-249.5000164700304
 30
0.0
 11
-362.999667421236
 21
-248.5323910686584
 31
0.0
 11
-363.0381445570073
 21
-248.7029904718164
 31
0.0
 11
-363.0611498277267
 21
-248.8277518053783
 31
0.0
 11
-363.085785736266
 21
-249.0077249406949
 31
0.0
 11
-363.0957737363696
 21
-249.136317555758
 31
0.0
 11
-363.0976531056967
 21
-249.213066416998
 31
0.0
 11
-363.0905683166546
 21
-249.3398234762406
 31
0.0
 11
-363.0753710059307
 21
-249.4152272970368
 31
0.0
 11
-363.0611913812953
 21
-249.4517652505983
 31
0.0
 11
-363.033737187392
 21
-249.4878699708006
 31
0.0
 11
-362.999667421236
 21
-249.5000164700304
 31
0.0
  0
LINE
  5
C764F
330
1E
100
AcDbEntity
  8
OUTLINE
  6
CONTINUOUS
100
AcDbLine
 10
-360.6999999999952
 20
-245.3000164700296
 30
0.0
 11
-360.6999999999952
 21
-235.0000164700304
 31
0.0
  0
LINE
  5
C7650
330
1E
100
AcDbEntity
  8
OUTLINE
  6
CONTINUOUS
100
AcDbLine
 10
-360.6999999999952
 20
-245.3000164700296
 30
0.0
 11
-360.6999999999952
 21
-235.0000164700304
 31
0.0
  0
LINE
  5
C7651
330
1E
100
AcDbEntity
  8
OUTLINE
  6
CONTINUOUS
100
AcDbLine
 10
133.4000000000032
 20
-150.8000164700296
 30
0.0
 11
139.600000000004
 21
-150.8000164700296
 31
0.0
  0
LINE
  5
C7652
330
1E
100
AcDbEntity
  8
OUTLINE
  6
CONTINUOUS
100
AcDbLine
 10
139.600000000004
 20
-150.0000164700304
 30
0.0
 11
132.600000000004
 21
-150.0000164700304
 31
0.0
  0
ARC
  5
C7653
330
1E
100
AcDbEntity
  8
OUTLINE
  6
CONTINUOUS
100
AcDbCircle
 10
130.6000000000075
 20
-341.2000164700248
 30
0.0
 40
6.099999999997937
100
AcDbArc
 50
309.6019270810203
 51
340.8605255489216
  0
ARC
  5
C7654
330
1E
100
AcDbEntity
  8
OUTLINE
  6
CONTINUOUS
100
AcDbCircle
 10
130.6000000000093
 20
-341.2000164700375
 30
0.0
 40
6.099999999997332
100
AcDbArc
 50
19.13947445113515
 51
50.39807291901031
  0
SPLINE
  5
C7655
330
1E
100
AcDbEntity
  8
OUTLINE
  6
CONTINUOUS
100
AcDbSpline
210
0.0
220
0.0
230
1.0
 70
     8
 71
     3
 72
    16
 73
    12
 74
    10
 42
0.0000000001
 43
0.0000000001
 44
0.00000001
 40
0.0
 40
0.0
 40
0.0
 40
0.0
 40
0.172433759483404
 40
0.2980918660375629
 40
0.5078928557272549
 40
0.6892288343027323
 40
0.7617747424087974
 40
0.8505268409490772
 40
0.9334623119661287
 40
0.9832771288613203
 40
1.013628928605744
 40
1.013628928605744
 40
1.013628928605744
 40
1.013628928605744
 10
136.4996674212525
 20
-342.6676418713995
 30
0.0
 10
136.5128724487854
 20
-342.611691486606
 30
0.0
 10
136.5357004164033
 20
-342.514968232202
 30
0.0
 10
136.5663232674213
 20
-342.3484105961812
 30
0.0
 10
136.589780345494
 20
-342.1776743637384
 30
0.0
 10
136.5991197923928
 20
-342.0230541982646
 30
0.0
 10
136.5963443845681
 20
-341.9089445520705
 30
0.0
 10
136.5876153539521
 20
-341.8274113778006
 30
0.0
 10
136.5692777855582
 20
-341.756830357818
 30
0.0
 10
136.5369275527886
 20
-341.7071184329998
 30
0.0
 10
136.5099002128607
 20
-341.7019668945302
 30
0.0
 10
136.4996674212433
 20
-341.7000164700275
 30
0.0
 11
136.4996674212525
 21
-342.6676418713995
 31
0.0
 11
136.5376580056163
 21
-342.4994452191839
 31
0.0
 11
136.5605484109037
 21
-342.3758896077797
 31
0.0
 11
136.5882311193181
 21
-342.1679229688616
 31
0.0
 11
136.5976531120923
 21
-341.98683193348
 31
0.0
 11
136.5955737912407
 21
-341.9143158305759
 31
0.0
 11
136.5852489812314
 21
-341.8261663370049
 31
0.0
 11
136.5605484109037
 21
-341.7469945364882
 31
0.0
 11
136.5287708287578
 21
-341.7086317817793
 31
0.0
 11
136.4996674212433
 21
-341.7000164700275
 31
0.0
  0
SPLINE
  5
C7656
330
1E
100
AcDbEntity
  8
OUTLINE
  6
CONTINUOUS
100
AcDbSpline
210
0.0
220
0.0
230
1.0
 70
     8
 71
     3
 72
    17
 73
    13
 74
    11
 42
0.0000000001
 43
0.0000000001
 44
0.00000001
 40
0.0
 40
0.0
 40
0.0
 40
0.0
 40
0.1528067065803835
 40
0.3017503233121191
 40
0.4834017957635285
 40
0.6123817198940911
 40
0.6891535881088684
 40
0.8161084872233928
 40
0.8930285401161734
 40
0.9322214458452407
 40
0.9720515771557966
 40
1.013575841943506
 40
1.013575841943506
 40
1.013575841943506
 40
1.013575841943506
 10
136.4996674212433
 20
-339.7323910686591
 30
0.0
 10
136.5114247872883
 20
-339.781957913527
 30
0.0
 10
136.534642289487
 20
-339.8798385076519
 30
0.0
 10
136.5641331056714
 20
-340.0383086197411
 30
0.0
 10
136.5854046988777
 20
-340.1901017291588
 30
0.0
 10
136.5958344519001
 20
-340.3188826144345
 30
0.0
 10
136.5987580943512
 20
-340.4298100362769
 30
0.0
 10
136.5947829709103
 20
-340.5232625075331
 30
0.0
 10
136.5805606405397
 20
-340.6038937850561
 30
0.0
 10
136.5623097922018
 20
-340.6520081102882
 30
0.0
 10
136.5408032168811
 20
-340.6889147263821
 30
0.0
 10
136.5135683985957
 20
-340.6962648646053
 30
0.0
 10
136.4996674212433
 20
-340.7000164700274
 30
0.0
 11
136.4996674212433
 21
-339.7323910686591
 31
0.0
 11
136.5337063745264
 21
-339.8813583018436
 31
0.0
 11
136.5611498277338
 21
-340.027751805379
 31
0.0
 11
136.5857857362715
 21
-340.2077249406957
 31
0.0
 11
136.5957737363733
 21
-340.336317555766
 31
0.0
 11
136.597653105704
 21
-340.4130664169988
 31
0.0
 11
136.5905683166601
 21
-340.5398234762488
 31
0.0
 11
136.5753710059343
 21
-340.6152272970412
 31
0.0
 11
136.5611913813027
 21
-340.651765250599
 31
0.0
 11
136.5380563897124
 21
-340.6841876397793
 31
0.0
 11
136.4996674212433
 21
-340.7000164700274
 31
0.0
  0
ARC
  5
C7657
330
1E
100
AcDbEntity
  8
OUTLINE
  6
CONTINUOUS
100
AcDbCircle
 10
132.1000000000094
 20
-250.0000164700213
 30
0.0
 40
6.099999999997598
100
AcDbArc
 50
309.6019270809897
 51
340.8605255488648
  0
ARC
  5
C7658
330
1E
100
AcDbEntity
  8
OUTLINE
  6
CONTINUOUS
100
AcDbCircle
 10
132.1000000000075
 20
-250.000016470034
 30
0.0
 40
6.099999999998121
100
AcDbArc
 50
19.13947445107832
 51
50.39807291897965
  0
LINE
  5
C7659
330
1E
100
AcDbEntity
  8
OUTLINE
  6
CONTINUOUS
100
AcDbLine
 10
126.4000000000031
 20
-342.2000164700274
 30
0.0
 11
126.4000000000031
 21
-265.0000164700303
 31
0.0
  0
LINE
  5
C765A
330
1E
100
AcDbEntity
  8
OUTLINE
  6
CONTINUOUS
100
AcDbLine
 10
133.4000000000032
 20
-334.2000164700274
 30
0.0
 11
133.4000000000032
 21
-265.0000164700303
 31
0.0
  0
LINE
  5
C765B
330
1E
100
AcDbEntity
  8
OUTLINE
  6
CONTINUOUS
100
AcDbLine
 10
134.2000000000024
 20
-350.0000164700303
 30
0.0
 11
134.2000000000024
 21
-345.9000164700281
 31
0.0
  0
LINE
  5
C765C
330
1E
100
AcDbEntity
  8
OUTLINE
  6
CONTINUOUS
100
AcDbLine
 10
133.4000000000032
 20
-337.2000164700275
 30
0.0
 11
133.4000000000032
 21
-348.2000164700274
 31
0.0
  0
LINE
  5
C765D
330
1E
100
AcDbEntity
  8
OUTLINE
  6
CONTINUOUS
100
AcDbLine
 10
133.2000000000024
 20
-342.2000164700274
 30
0.0
 11
133.2000000000024
 21
-349.2000164700275
 31
0.0
  0
LINE
  5
C765E
330
1E
100
AcDbEntity
  8
OUTLINE
  6
CONTINUOUS
100
AcDbLine
 10
133.4000000000032
 20
-337.2000164700275
 30
0.0
 11
133.4000000000032
 21
-348.2000164700274
 31
0.0
  0
LINE
  5
C765F
330
1E
100
AcDbEntity
  8
OUTLINE
  6
CONTINUOUS
100
AcDbLine
 10
133.2000000000024
 20
-350.0000164700303
 30
0.0
 11
133.2000000000024
 21
-349.2000164700275
 31
0.0
  0
LINE
  5
C7660
330
1E
100
AcDbEntity
  8
OUTLINE
  6
CONTINUOUS
100
AcDbLine
 10
134.2000000000024
 20
-350.0000164700303
 30
0.0
 11
133.2000000000024
 21
-350.0000164700303
 31
0.0
  0
LINE
  5
C7661
330
1E
100
AcDbEntity
  8
OUTLINE
  6
CONTINUOUS
100
AcDbLine
 10
133.4000000000032
 20
-349.2000164700275
 30
0.0
 11
133.2000000000024
 21
-349.2000164700275
 31
0.0
  0
LINE
  5
C7662
330
1E
100
AcDbEntity
  8
OUTLINE
  6
CONTINUOUS
100
AcDbLine
 10
133.4000000000032
 20
-348.2000164700274
 30
0.0
 11
133.4000000000032
 21
-349.2000164700275
 31
0.0
  0
LINE
  5
C7663
330
1E
100
AcDbEntity
  8
OUTLINE
  6
CONTINUOUS
100
AcDbLine
 10
133.4000000000032
 20
-349.2000164700275
 30
0.0
 11
133.2000000000024
 21
-349.2000164700275
 31
0.0
  0
LINE
  5
C7664
330
1E
100
AcDbEntity
  8
OUTLINE
  6
CONTINUOUS
100
AcDbLine
 10
133.4000000000032
 20
-348.2000164700274
 30
0.0
 11
133.4000000000032
 21
-349.2000164700275
 31
0.0
  0
LINE
  5
C7665
330
1E
100
AcDbEntity
  8
OUTLINE
  6
CONTINUOUS
100
AcDbLine
 10
133.4000000000032
 20
-348.2000164700274
 30
0.0
 11
133.2000000000024
 21
-348.2000164700274
 31
0.0
  0
LINE
  5
C7666
330
1E
100
AcDbEntity
  8
OUTLINE
  6
CONTINUOUS
100
AcDbLine
 10
134.2000000000024
 20
-342.2000164700274
 30
0.0
 11
134.2000000000024
 21
-341.7000164700275
 31
0.0
  0
LINE
  5
C7667
330
1E
100
AcDbEntity
  8
OUTLINE
  6
CONTINUOUS
100
AcDbLine
 10
134.2000000000024
 20
-343.2000164700275
 30
0.0
 11
134.2000000000024
 21
-342.2000164700274
 31
0.0
  0
LINE
  5
C7668
330
1E
100
AcDbEntity
  8
OUTLINE
  6
CONTINUOUS
100
AcDbLine
 10
134.2000000000024
 20
-337.2000164700275
 30
0.0
 11
134.2000000000024
 21
-336.5000164700303
 31
0.0
  0
LINE
  5
C7669
330
1E
100
AcDbEntity
  8
OUTLINE
  6
CONTINUOUS
100
AcDbLine
 10
134.2000000000024
 20
-336.5000164700303
 30
0.0
 11
134.2000000000024
 21
-334.2000164700274
 31
0.0
  0
LINE
  5
C766A
330
1E
100
AcDbEntity
  8
OUTLINE
  6
CONTINUOUS
100
AcDbLine
 10
134.2000000000024
 20
-345.9000164700281
 30
0.0
 11
134.2000000000024
 21
-343.2000164700275
 31
0.0
  0
LINE
  5
C766B
330
1E
100
AcDbEntity
  8
OUTLINE
  6
CONTINUOUS
100
AcDbLine
 10
133.4000000000032
 20
-334.2000164700274
 30
0.0
 11
133.4000000000032
 21
-337.2000164700275
 31
0.0
  0
LINE
  5
C766C
330
1E
100
AcDbEntity
  8
OUTLINE
  6
CONTINUOUS
100
AcDbLine
 10
134.2000000000024
 20
-341.7000164700275
 30
0.0
 11
134.2000000000024
 21
-341.2000164700275
 31
0.0
  0
LINE
  5
C766D
330
1E
100
AcDbEntity
  8
OUTLINE
  6
CONTINUOUS
100
AcDbLine
 10
134.2000000000024
 20
-340.7000164700274
 30
0.0
 11
134.2000000000024
 21
-340.2000164700274
 31
0.0
  0
LINE
  5
C766E
330
1E
100
AcDbEntity
  8
OUTLINE
  6
CONTINUOUS
100
AcDbLine
 10
134.2000000000024
 20
-341.2000164700275
 30
0.0
 11
134.2000000000024
 21
-340.7000164700274
 31
0.0
  0
LINE
  5
C766F
330
1E
100
AcDbEntity
  8
OUTLINE
  6
CONTINUOUS
100
AcDbLine
 10
134.2000000000024
 20
-340.2000164700274
 30
0.0
 11
134.2000000000024
 21
-339.2000164700275
 31
0.0
  0
LINE
  5
C7670
330
1E
100
AcDbEntity
  8
OUTLINE
  6
CONTINUOUS
100
AcDbLine
 10
134.2000000000024
 20
-339.2000164700275
 30
0.0
 11
134.2000000000024
 21
-337.2000164700275
 31
0.0
  0
LINE
  5
C7671
330
1E
100
AcDbEntity
  8
OUTLINE
  6
CONTINUOUS
100
AcDbLine
 10
133.4000000000032
 20
-337.2000164700275
 30
0.0
 11
134.2000000000024
 21
-337.2000164700275
 31
0.0
  0
LINE
  5
C7672
330
1E
100
AcDbEntity
  8
OUTLINE
  6
CONTINUOUS
100
AcDbLine
 10
133.4000000000032
 20
-334.2000164700274
 30
0.0
 11
134.2000000000024
 21
-334.2000164700274
 31
0.0
  0
LINE
  5
C7673
330
1E
100
AcDbEntity
  8
OUTLINE
  6
CONTINUOUS
100
AcDbLine
 10
133.4000000000032
 20
-334.2000164700274
 30
0.0
 11
133.4000000000032
 21
-337.2000164700275
 31
0.0
  0
LINE
  5
C7674
330
1E
100
AcDbEntity
  8
OUTLINE
  6
CONTINUOUS
100
AcDbLine
 10
136.3440885065738
 20
-340.7000164700274
 30
0.0
 11
136.4996674212433
 21
-340.7000164700274
 31
0.0
  0
LINE
  5
C7675
330
1E
100
AcDbEntity
  8
OUTLINE
  6
CONTINUOUS
100
AcDbLine
 10
136.3440885065738
 20
-339.2086733984778
 30
0.0
 11
136.362811813693
 21
-339.2000164700275
 31
0.0
  0
LINE
  5
C7676
330
1E
100
AcDbEntity
  8
OUTLINE
  6
CONTINUOUS
100
AcDbLine
 10
134.2000000000024
 20
-336.5000164700303
 30
0.0
 11
134.4884444190429
 21
-336.5000164700303
 31
0.0
  0
LINE
  5
C7677
330
1E
100
AcDbEntity
  8
OUTLINE
  6
CONTINUOUS
100
AcDbLine
 10
136.3440885065738
 20
-341.7000164700275
 30
0.0
 11
136.4996674212433
 21
-341.7000164700275
 31
0.0
  0
LINE
  5
C7678
330
1E
100
AcDbEntity
  8
OUTLINE
  6
CONTINUOUS
100
AcDbLine
 10
136.362811813693
 20
-343.2000164700275
 30
0.0
 11
136.3440885065738
 21
-343.1913595415808
 31
0.0
  0
LINE
  5
C7679
330
1E
100
AcDbEntity
  8
OUTLINE
  6
CONTINUOUS
100
AcDbLine
 10
134.2000000000024
 20
-345.9000164700281
 30
0.0
 11
134.4884444190429
 21
-345.9000164700281
 31
0.0
  0
LINE
  5
C767A
330
1E
100
AcDbEntity
  8
OUTLINE
  6
CONTINUOUS
100
AcDbLine
 10
134.4884444190429
 20
-341.2000164700275
 30
0.0
 11
134.4884444190429
 21
-336.5000164700303
 31
0.0
  0
LINE
  5
C767B
330
1E
100
AcDbEntity
  8
OUTLINE
  6
CONTINUOUS
100
AcDbLine
 10
134.4884444190429
 20
-345.9000164700281
 30
0.0
 11
134.4884444190429
 21
-341.2000164700275
 31
0.0
  0
LINE
  5
C767C
330
1E
100
AcDbEntity
  8
OUTLINE
  6
CONTINUOUS
100
AcDbLine
 10
134.2000000000024
 20
-342.2000164700274
 30
0.0
 11
134.2000000000024
 21
-341.7000164700275
 31
0.0
  0
LINE
  5
C767D
330
1E
100
AcDbEntity
  8
OUTLINE
  6
CONTINUOUS
100
AcDbLine
 10
134.2000000000024
 20
-343.2000164700275
 30
0.0
 11
134.2000000000024
 21
-342.2000164700274
 31
0.0
  0
LINE
  5
C767E
330
1E
100
AcDbEntity
  8
OUTLINE
  6
CONTINUOUS
100
AcDbLine
 10
134.2000000000024
 20
-337.2000164700275
 30
0.0
 11
134.2000000000024
 21
-336.5000164700303
 31
0.0
  0
LINE
  5
C767F
330
1E
100
AcDbEntity
  8
OUTLINE
  6
CONTINUOUS
100
AcDbLine
 10
134.2000000000024
 20
-345.9000164700281
 30
0.0
 11
134.2000000000024
 21
-343.2000164700275
 31
0.0
  0
LINE
  5
C7680
330
1E
100
AcDbEntity
  8
OUTLINE
  6
CONTINUOUS
100
AcDbLine
 10
124.256410406453
 20
-341.1100167626191
 30
0.0
 11
124.256410406453
 21
-341.2000164700275
 31
0.0
  0
LINE
  5
C7681
330
1E
100
AcDbEntity
  8
OUTLINE
  6
CONTINUOUS
100
AcDbLine
 10
134.2000000000024
 20
-341.7000164700275
 30
0.0
 11
134.2000000000024
 21
-341.2000164700275
 31
0.0
  0
LINE
  5
C7682
330
1E
100
AcDbEntity
  8
OUTLINE
  6
CONTINUOUS
100
AcDbLine
 10
134.2000000000024
 20
-340.7000164700274
 30
0.0
 11
134.2000000000024
 21
-340.2000164700274
 31
0.0
  0
LINE
  5
C7683
330
1E
100
AcDbEntity
  8
OUTLINE
  6
CONTINUOUS
100
AcDbLine
 10
134.2000000000024
 20
-341.2000164700275
 30
0.0
 11
134.2000000000024
 21
-340.7000164700274
 31
0.0
  0
LINE
  5
C7684
330
1E
100
AcDbEntity
  8
OUTLINE
  6
CONTINUOUS
100
AcDbLine
 10
134.2000000000024
 20
-340.2000164700274
 30
0.0
 11
134.2000000000024
 21
-339.2000164700275
 31
0.0
  0
LINE
  5
C7685
330
1E
100
AcDbEntity
  8
OUTLINE
  6
CONTINUOUS
100
AcDbLine
 10
134.2000000000024
 20
-339.2000164700275
 30
0.0
 11
134.2000000000024
 21
-337.2000164700275
 31
0.0
  0
LINE
  5
C7686
330
1E
100
AcDbEntity
  8
OUTLINE
  6
CONTINUOUS
100
AcDbLine
 10
124.256410406453
 20
-341.2000164700275
 30
0.0
 11
124.256410406453
 21
-341.2900161774504
 31
0.0
  0
LINE
  5
C7687
330
1E
100
AcDbEntity
  8
OUTLINE
  6
CONTINUOUS
100
AcDbLine
 10
124.256410406453
 20
-341.2900161774504
 30
0.0
 11
126.135293722813
 21
-342.2000164700274
 31
0.0
  0
LINE
  5
C7688
330
1E
100
AcDbEntity
  8
OUTLINE
  6
CONTINUOUS
100
AcDbLine
 10
124.256410406453
 20
-341.1100167626191
 30
0.0
 11
126.4000000000031
 21
-340.0718111751101
 31
0.0
  0
ARC
  5
C7689
330
1E
100
AcDbEntity
  8
OUTLINE
  6
CONTINUOUS
100
AcDbCircle
 10
130.6000000000185
 20
-341.2000164700811
 30
0.0
 40
6.079473661423996
100
AcDbArc
 50
13.96957715858244
 51
19.12025219845853
  0
ARC
  5
C768A
330
1E
100
AcDbEntity
  8
OUTLINE
  6
CONTINUOUS
100
AcDbCircle
 10
129.6792804723227
 20
-341.2000164700283
 30
0.0
 40
6.683536947860624
100
AcDbArc
 50
355.7096550093775
 51
4.290344990622505
  0
ARC
  5
C768B
330
1E
100
AcDbEntity
  8
OUTLINE
  6
CONTINUOUS
100
AcDbCircle
 10
130.6000000000476
 20
-341.2000164698846
 30
0.0
 40
6.079473661429252
100
AcDbArc
 50
340.8797478006149
 51
346.0304228405111
  0
ARC
  5
C768C
330
1E
100
AcDbEntity
  8
OUTLINE
  6
CONTINUOUS
100
AcDbCircle
 10
124.3000000000009
 20
-341.2000164700301
 30
0.0
 40
0.0999999999980239
100
AcDbArc
 50
115.8423173543299
 51
179.9999999989578
  0
ARC
  5
C768D
330
1E
100
AcDbEntity
  8
OUTLINE
  6
CONTINUOUS
100
AcDbCircle
 10
124.3000000000082
 20
-341.2000164700356
 30
0.0
 40
0.1000000000058208
100
AcDbArc
 50
179.9999999958311
 51
244.1576826432809
  0
LINE
  5
C768E
330
1E
100
AcDbEntity
  8
OUTLINE
  6
CONTINUOUS
100
AcDbLine
 10
-268.6999999999952
 20
-151.600016470029
 30
0.0
 11
43.70000000000255
 21
-151.600016470029
 31
0.0
  0
LINE
  5
C768F
330
1E
100
AcDbEntity
  8
OUTLINE
  6
CONTINUOUS
100
AcDbLine
 10
126.4000000000031
 20
-235.0000164700304
 30
0.0
 11
126.4000000000031
 21
-155.0000164700304
 31
0.0
  0
LINE
  5
C7690
330
1E
100
AcDbEntity
  8
OUTLINE
  6
CONTINUOUS
100
AcDbLine
 10
133.4000000000032
 20
-235.0000164700304
 30
0.0
 11
133.4000000000032
 21
-175.7000164700274
 31
0.0
  0
LINE
  5
C7691
330
1E
100
AcDbEntity
  8
OUTLINE
  6
CONTINUOUS
100
AcDbLine
 10
135.7000000000024
 20
-235.0000164700304
 30
0.0
 11
133.4000000000032
 21
-235.0000164700304
 31
0.0
  0
LINE
  5
C7692
330
1E
100
AcDbEntity
  8
OUTLINE
  6
CONTINUOUS
100
AcDbLine
 10
135.7000000000024
 20
-235.0000164700304
 30
0.0
 11
133.4000000000032
 21
-235.0000164700304
 31
0.0
  0
LINE
  5
C7693
330
1E
100
AcDbEntity
  8
OUTLINE
  6
CONTINUOUS
100
AcDbLine
 10
131.0000000000035
 20
-152.0000164700304
 30
0.0
 11
132.600000000004
 21
-152.0000164700304
 31
0.0
  0
LINE
  5
C7694
330
1E
100
AcDbEntity
  8
OUTLINE
  6
CONTINUOUS
100
AcDbLine
 10
127.0000000000035
 20
-151.600016470029
 30
0.0
 11
127.0000000000035
 21
-150.0000164700304
 31
0.0
  0
LINE
  5
C7695
330
1E
100
AcDbEntity
  8
OUTLINE
  6
CONTINUOUS
100
AcDbLine
 10
131.0000000000035
 20
-150.0000164700304
 30
0.0
 11
127.0000000000035
 21
-150.0000164700304
 31
0.0
  0
LINE
  5
C7696
330
1E
100
AcDbEntity
  8
OUTLINE
  6
CONTINUOUS
100
AcDbLine
 10
131.0000000000035
 20
-152.0000164700304
 30
0.0
 11
131.0000000000035
 21
-151.600016470029
 31
0.0
  0
LINE
  5
C7697
330
1E
100
AcDbEntity
  8
OUTLINE
  6
CONTINUOUS
100
AcDbLine
 10
131.0000000000035
 20
-150.0000164700304
 30
0.0
 11
131.0000000000035
 21
-151.600016470029
 31
0.0
  0
LINE
  5
C7698
330
1E
100
AcDbEntity
  8
OUTLINE
  6
CONTINUOUS
100
AcDbLine
 10
131.0000000000035
 20
-151.600016470029
 30
0.0
 11
127.0000000000035
 21
-151.600016470029
 31
0.0
  0
LINE
  5
C7699
330
1E
100
AcDbEntity
  8
OUTLINE
  6
CONTINUOUS
100
AcDbLine
 10
131.0000000000035
 20
-152.0000164700304
 30
0.0
 11
132.600000000004
 21
-152.0000164700304
 31
0.0
  0
LINE
  5
C769A
330
1E
100
AcDbEntity
  8
OUTLINE
  6
CONTINUOUS
100
AcDbLine
 10
131.0000000000035
 20
-150.0000164700304
 30
0.0
 11
127.0000000000035
 21
-150.0000164700304
 31
0.0
  0
LINE
  5
C769B
330
1E
100
AcDbEntity
  8
OUTLINE
  6
CONTINUOUS
100
AcDbLine
 10
131.0000000000035
 20
-152.0000164700304
 30
0.0
 11
131.0000000000035
 21
-151.600016470029
 31
0.0
  0
LINE
  5
C769C
330
1E
100
AcDbEntity
  8
OUTLINE
  6
CONTINUOUS
100
AcDbLine
 10
131.0000000000035
 20
-150.0000164700304
 30
0.0
 11
131.0000000000035
 21
-151.600016470029
 31
0.0
  0
LINE
  5
C769D
330
1E
100
AcDbEntity
  8
OUTLINE
  6
CONTINUOUS
100
AcDbLine
 10
133.4000000000032
 20
-150.8000164700296
 30
0.0
 11
133.4000000000032
 21
-152.0000164700304
 31
0.0
  0
LINE
  5
C769E
330
1E
100
AcDbEntity
  8
OUTLINE
  6
CONTINUOUS
100
AcDbLine
 10
133.4000000000032
 20
-166.3000164700296
 30
0.0
 11
133.4000000000032
 21
-152.0000164700304
 31
0.0
  0
LINE
  5
C769F
330
1E
100
AcDbEntity
  8
OUTLINE
  6
CONTINUOUS
100
AcDbLine
 10
133.4000000000032
 20
-169.0000164700304
 30
0.0
 11
133.4000000000032
 21
-166.3000164700296
 31
0.0
  0
LINE
  5
C76A0
330
1E
100
AcDbEntity
  8
OUTLINE
  6
CONTINUOUS
100
AcDbLine
 10
133.4000000000032
 20
-175.7000164700274
 30
0.0
 11
133.4000000000032
 21
-173.0000164700304
 31
0.0
  0
LINE
  5
C76A1
330
1E
100
AcDbEntity
  8
OUTLINE
  6
CONTINUOUS
100
AcDbLine
 10
133.4000000000032
 20
-170.5000164700304
 30
0.0
 11
133.4000000000032
 21
-170.0000164700304
 31
0.0
  0
LINE
  5
C76A2
330
1E
100
AcDbEntity
  8
OUTLINE
  6
CONTINUOUS
100
AcDbLine
 10
133.4000000000032
 20
-171.0000164700304
 30
0.0
 11
133.4000000000032
 21
-170.5000164700304
 31
0.0
  0
LINE
  5
C76A3
330
1E
100
AcDbEntity
  8
OUTLINE
  6
CONTINUOUS
100
AcDbLine
 10
133.4000000000032
 20
-171.5000164700304
 30
0.0
 11
133.4000000000032
 21
-171.0000164700304
 31
0.0
  0
LINE
  5
C76A4
330
1E
100
AcDbEntity
  8
OUTLINE
  6
CONTINUOUS
100
AcDbLine
 10
133.4000000000032
 20
-172.0000164700303
 30
0.0
 11
133.4000000000032
 21
-171.5000164700304
 31
0.0
  0
LINE
  5
C76A5
330
1E
100
AcDbEntity
  8
OUTLINE
  6
CONTINUOUS
100
AcDbLine
 10
133.4000000000032
 20
-173.0000164700304
 30
0.0
 11
133.4000000000032
 21
-172.0000164700303
 31
0.0
  0
LINE
  5
C76A6
330
1E
100
AcDbEntity
  8
OUTLINE
  6
CONTINUOUS
100
AcDbLine
 10
133.4000000000032
 20
-170.0000164700304
 30
0.0
 11
133.4000000000032
 21
-169.0000164700304
 31
0.0
  0
LINE
  5
C76A7
330
1E
100
AcDbEntity
  8
OUTLINE
  6
CONTINUOUS
100
AcDbLine
 10
129.4000000000032
 20
-152.0000164700304
 30
0.0
 11
131.0000000000035
 21
-152.0000164700304
 31
0.0
  0
LINE
  5
C76A8
330
1E
100
AcDbEntity
  8
OUTLINE
  6
CONTINUOUS
100
AcDbLine
 10
131.0000000000035
 20
-152.0000164700304
 30
0.0
 11
132.600000000004
 21
-152.0000164700304
 31
0.0
  0
LINE
  5
C76A9
330
1E
100
AcDbEntity
  8
OUTLINE
  6
CONTINUOUS
100
AcDbLine
 10
133.4000000000032
 20
-152.0000164700304
 30
0.0
 11
132.600000000004
 21
-152.0000164700304
 31
0.0
  0
LINE
  5
C76AA
330
1E
100
AcDbEntity
  8
OUTLINE
  6
CONTINUOUS
100
AcDbLine
 10
132.600000000004
 20
-150.0000164700304
 30
0.0
 11
132.600000000004
 21
-152.0000164700304
 31
0.0
  0
LINE
  5
C76AB
330
1E
100
AcDbEntity
  8
OUTLINE
  6
CONTINUOUS
100
AcDbLine
 10
126.4000000000031
 20
-155.0000164700304
 30
0.0
 11
129.4000000000032
 21
-152.0000164700304
 31
0.0
  0
LINE
  5
C76AC
330
1E
100
AcDbEntity
  8
OUTLINE
  6
CONTINUOUS
100
AcDbLine
 10
133.6884444190436
 20
-171.0000164700304
 30
0.0
 11
133.6884444190436
 21
-166.3000164700296
 31
0.0
  0
LINE
  5
C76AD
330
1E
100
AcDbEntity
  8
OUTLINE
  6
CONTINUOUS
100
AcDbLine
 10
133.6884444190436
 20
-175.7000164700274
 30
0.0
 11
133.6884444190436
 21
-171.0000164700304
 31
0.0
  0
LINE
  5
C76AE
330
1E
100
AcDbEntity
  8
OUTLINE
  6
CONTINUOUS
100
AcDbLine
 10
133.4000000000032
 20
-175.7000164700274
 30
0.0
 11
133.6884444190436
 21
-175.7000164700274
 31
0.0
  0
LINE
  5
C76AF
330
1E
100
AcDbEntity
  8
OUTLINE
  6
CONTINUOUS
100
AcDbLine
 10
135.5440885065727
 20
-171.5000164700304
 30
0.0
 11
135.6996674212422
 21
-171.5000164700304
 31
0.0
  0
LINE
  5
C76B0
330
1E
100
AcDbEntity
  8
OUTLINE
  6
CONTINUOUS
100
AcDbLine
 10
133.4000000000032
 20
-166.3000164700296
 30
0.0
 11
133.6884444190436
 21
-166.3000164700296
 31
0.0
  0
LINE
  5
C76B1
330
1E
100
AcDbEntity
  8
OUTLINE
  6
CONTINUOUS
100
AcDbLine
 10
135.5440885065727
 20
-169.0086733984808
 30
0.0
 11
135.5628118136936
 21
-169.0000164700304
 31
0.0
  0
LINE
  5
C76B2
330
1E
100
AcDbEntity
  8
OUTLINE
  6
CONTINUOUS
100
AcDbLine
 10
135.5440885065727
 20
-170.5000164700304
 30
0.0
 11
135.6996674212422
 21
-170.5000164700304
 31
0.0
  0
LINE
  5
C76B3
330
1E
100
AcDbEntity
  8
OUTLINE
  6
CONTINUOUS
100
AcDbLine
 10
135.5628118136936
 20
-173.0000164700304
 30
0.0
 11
135.5440885065727
 21
-172.9913595415872
 31
0.0
  0
LINE
  5
C76B4
330
1E
100
AcDbEntity
  8
OUTLINE
  6
CONTINUOUS
100
AcDbLine
 10
133.4000000000032
 20
-169.0000164700304
 30
0.0
 11
133.4000000000032
 21
-166.3000164700296
 31
0.0
  0
LINE
  5
C76B5
330
1E
100
AcDbEntity
  8
OUTLINE
  6
CONTINUOUS
100
AcDbLine
 10
133.4000000000032
 20
-175.7000164700274
 30
0.0
 11
133.4000000000032
 21
-173.0000164700304
 31
0.0
  0
LINE
  5
C76B6
330
1E
100
AcDbEntity
  8
OUTLINE
  6
CONTINUOUS
100
AcDbLine
 10
133.4000000000032
 20
-170.5000164700304
 30
0.0
 11
133.4000000000032
 21
-170.0000164700304
 31
0.0
  0
LINE
  5
C76B7
330
1E
100
AcDbEntity
  8
OUTLINE
  6
CONTINUOUS
100
AcDbLine
 10
133.4000000000032
 20
-171.0000164700304
 30
0.0
 11
133.4000000000032
 21
-170.5000164700304
 31
0.0
  0
LINE
  5
C76B8
330
1E
100
AcDbEntity
  8
OUTLINE
  6
CONTINUOUS
100
AcDbLine
 10
133.4000000000032
 20
-171.5000164700304
 30
0.0
 11
133.4000000000032
 21
-171.0000164700304
 31
0.0
  0
LINE
  5
C76B9
330
1E
100
AcDbEntity
  8
OUTLINE
  6
CONTINUOUS
100
AcDbLine
 10
133.4000000000032
 20
-172.0000164700303
 30
0.0
 11
133.4000000000032
 21
-171.5000164700304
 31
0.0
  0
LINE
  5
C76BA
330
1E
100
AcDbEntity
  8
OUTLINE
  6
CONTINUOUS
100
AcDbLine
 10
133.4000000000032
 20
-173.0000164700304
 30
0.0
 11
133.4000000000032
 21
-172.0000164700303
 31
0.0
  0
LINE
  5
C76BB
330
1E
100
AcDbEntity
  8
OUTLINE
  6
CONTINUOUS
100
AcDbLine
 10
133.4000000000032
 20
-170.0000164700304
 30
0.0
 11
133.4000000000032
 21
-169.0000164700304
 31
0.0
  0
ARC
  5
C76BC
330
1E
100
AcDbEntity
  8
OUTLINE
  6
CONTINUOUS
100
AcDbCircle
 10
129.8000000000064
 20
-171.0000164700359
 30
0.0
 40
6.099999999999575
100
AcDbArc
 50
19.13947445109165
 51
50.39807291898396
  0
ARC
  5
C76BD
330
1E
100
AcDbEntity
  8
OUTLINE
  6
CONTINUOUS
100
AcDbCircle
 10
129.800000000012
 20
-171.000016470003
 30
0.0
 40
6.079473661424107
100
AcDbArc
 50
340.879747801723
 51
346.0304228416648
  0
ARC
  5
C76BE
330
1E
100
AcDbEntity
  8
OUTLINE
  6
CONTINUOUS
100
AcDbCircle
 10
128.8792804723233
 20
-171.0000164700304
 30
0.0
 40
6.683536947858812
100
AcDbArc
 50
355.7096550093763
 51
4.290344990623663
  0
ARC
  5
C76BF
330
1E
100
AcDbEntity
  8
OUTLINE
  6
CONTINUOUS
100
AcDbCircle
 10
129.8000000000209
 20
-171.0000164700923
 30
0.0
 40
6.079473661424423
100
AcDbArc
 50
13.96957715870509
 51
19.12025219854794
  0
ARC
  5
C76C0
330
1E
100
AcDbEntity
  8
OUTLINE
  6
CONTINUOUS
100
AcDbCircle
 10
129.8000000000083
 20
-171.0000164700213
 30
0.0
 40
6.099999999998178
100
AcDbArc
 50
309.6019270809961
 51
340.8605255488676
  0
SPLINE
  5
C76C1
330
1E
100
AcDbEntity
  8
OUTLINE
  6
CONTINUOUS
100
AcDbSpline
210
0.0
220
0.0
230
1.0
 70
     8
 71
     3
 72
    17
 73
    13
 74
    11
 42
0.0000000001
 43
0.0000000001
 44
0.00000001
 40
0.0
 40
0.0
 40
0.0
 40
0.0
 40
0.1528067065910232
 40
0.3017503233119811
 40
0.4834017957598425
 40
0.6123817198903142
 40
0.6891535881086899
 40
0.8161084872232574
 40
0.8930285401168125
 40
0.9322214458472696
 40
0.9720515771525031
 40
1.013575841941625
 40
1.013575841941625
 40
1.013575841941625
 40
1.013575841941625
 10
135.6996674212422
 20
-169.5323910686584
 30
0.0
 10
135.7114247872868
 20
-169.58195791353
 30
0.0
 10
135.7346422894832
 20
-169.6798385076554
 30
0.0
 10
135.7641331056712
 20
-169.8383086197424
 30
0.0
 10
135.7854046988782
 20
-169.9901017291555
 30
0.0
 10
135.7958344518957
 20
-170.1188826144315
 30
0.0
 10
135.7987580943517
 20
-170.229810036275
 30
0.0
 10
135.7947829709072
 20
-170.323262507532
 30
0.0
 10
135.780560640536
 20
-170.403893785057
 30
0.0
 10
135.7623097921896
 20
-170.4520081102838
 30
0.0
 10
135.7408032168802
 20
-170.4889147263833
 30
0.0
 10
135.7135683985954
 20
-170.4962648646074
 30
0.0
 10
135.6996674212422
 20
-170.5000164700304
 30
0.0
 11
135.6996674212422
 21
-169.5323910686584
 31
0.0
 11
135.7337063745253
 21
-169.6813583018538
 31
0.0
 11
135.7611498277327
 21
-169.8277518053782
 31
0.0
 11
135.7857857362704
 21
-170.0077249406913
 31
0.0
 11
135.7957737363703
 21
-170.1363175557616
 31
0.0
 11
135.7976531057029
 21
-170.213066416998
 31
0.0
 11
135.7905683166573
 21
-170.339823476248
 31
0.0
 11
135.7753710059277
 21
-170.4152272970404
 31
0.0
 11
135.7611913812925
 21
-170.4517652505983
 31
0.0
 11
135.7380563897113
 21
-170.4841876397785
 31
0.0
 11
135.6996674212422
 21
-170.5000164700304
 31
0.0
  0
SPLINE
  5
C76C2
330
1E
100
AcDbEntity
  8
OUTLINE
  6
CONTINUOUS
100
AcDbSpline
210
0.0
220
0.0
230
1.0
 70
     8
 71
     3
 72
    15
 73
    11
 74
     9
 42
0.0000000001
 43
0.0000000001
 44
0.00000001
 40
0.0
 40
0.0
 40
0.0
 40
0.0
 40
0.1724337592540733
 40
0.2980918658002203
 40
0.5078928554828478
 40
0.6892288340663765
 40
0.8055497890449098
 40
0.9331062851309127
 40
0.9722102984544871
 40
1.013080014040443
 40
1.013080014040443
 40
1.013080014040443
 40
1.013080014040443
 10
135.6996674212422
 20
-172.4676418713988
 30
0.0
 10
135.7128714555498
 20
-172.4116909454679
 30
0.0
 10
135.7356977067103
 20
-172.3149667556438
 30
0.0
 10
135.7663328040138
 20
-172.1484157929607
 30
0.0
 10
135.789719916955
 20
-171.977641435415
 30
0.0
 10
135.8001622474283
 20
-171.8085445179265
 30
0.0
 10
135.7941048653605
 20
-171.6666684267124
 30
0.0
 10
135.7776299273147
 20
-171.5734723271433
 30
0.0
 10
135.7401836846631
 20
-171.5107642648257
 30
0.0
 10
135.7133701751334
 20
-171.5036514195
 30
0.0
 10
135.6996674212422
 20
-171.5000164700304
 30
0.0
 11
135.6996674212422
 21
-172.4676418713988
 31
0.0
 11
135.7376580056152
 21
-172.2994452191906
 31
0.0
 11
135.7605484109025
 21
-172.175889607779
 31
0.0
 11
135.7882311193207
 21
-171.9679229688645
 31
0.0
 11
135.7976531120929
 21
-171.7868319334793
 31
0.0
 11
135.7918252143317
 21
-171.6706570648984
 31
0.0
 11
135.7605484109025
 21
-171.5469945364984
 31
0.0
 11
135.7375416632403
 21
-171.515374713208
 31
0.0
 11
135.6996674212422
 21
-171.5000164700304
 31
0.0
  0
LINE
  5
C76C3
330
1E
100
AcDbEntity
  8
OUTLINE
  6
CONTINUOUS
100
AcDbLine
 10
43.70000000000255
 20
-151.600016470029
 30
0.0
 11
127.0000000000035
 21
-151.600016470029
 31
0.0
  0
LINE
  5
C76C4
330
1E
100
AcDbEntity
  8
OUTLINE
  6
CONTINUOUS
100
AcDbLine
 10
135.7000000000024
 20
-249.5000164700304
 30
0.0
 11
135.7000000000024
 21
-249.0000164700304
 31
0.0
  0
LINE
  5
C76C5
330
1E
100
AcDbEntity
  8
OUTLINE
  6
CONTINUOUS
100
AcDbLine
 10
135.7000000000024
 20
-250.0000164700304
 30
0.0
 11
135.7000000000024
 21
-249.5000164700304
 31
0.0
  0
LINE
  5
C76C6
330
1E
100
AcDbEntity
  8
OUTLINE
  6
CONTINUOUS
100
AcDbLine
 10
135.7000000000024
 20
-250.5000164700303
 30
0.0
 11
135.7000000000024
 21
-250.0000164700304
 31
0.0
  0
LINE
  5
C76C7
330
1E
100
AcDbEntity
  8
OUTLINE
  6
CONTINUOUS
100
AcDbLine
 10
135.7000000000024
 20
-251.0000164700304
 30
0.0
 11
135.7000000000024
 21
-250.5000164700303
 31
0.0
  0
LINE
  5
C76C8
330
1E
100
AcDbEntity
  8
OUTLINE
  6
CONTINUOUS
100
AcDbLine
 10
135.7000000000024
 20
-252.0000164700304
 30
0.0
 11
135.7000000000024
 21
-251.0000164700304
 31
0.0
  0
LINE
  5
C76C9
330
1E
100
AcDbEntity
  8
OUTLINE
  6
CONTINUOUS
100
AcDbLine
 10
135.7000000000024
 20
-249.0000164700304
 30
0.0
 11
135.7000000000024
 21
-248.0000164700304
 31
0.0
  0
LINE
  5
C76CA
330
1E
100
AcDbEntity
  8
OUTLINE
  6
CONTINUOUS
100
AcDbLine
 10
135.7000000000024
 20
-248.0000164700304
 30
0.0
 11
135.7000000000024
 21
-245.3000164700296
 31
0.0
  0
LINE
  5
C76CB
330
1E
100
AcDbEntity
  8
OUTLINE
  6
CONTINUOUS
100
AcDbLine
 10
135.7000000000024
 20
-265.0000164700303
 30
0.0
 11
135.7000000000024
 21
-254.7000164700274
 31
0.0
  0
LINE
  5
C76CC
330
1E
100
AcDbEntity
  8
OUTLINE
  6
CONTINUOUS
100
AcDbLine
 10
135.7000000000024
 20
-265.0000164700303
 30
0.0
 11
133.4000000000032
 21
-265.0000164700303
 31
0.0
  0
LINE
  5
C76CD
330
1E
100
AcDbEntity
  8
OUTLINE
  6
CONTINUOUS
100
AcDbLine
 10
135.7000000000024
 20
-254.7000164700274
 30
0.0
 11
135.7000000000024
 21
-252.0000164700304
 31
0.0
  0
LINE
  5
C76CE
330
1E
100
AcDbEntity
  8
OUTLINE
  6
CONTINUOUS
100
AcDbLine
 10
135.7000000000024
 20
-249.5000164700304
 30
0.0
 11
135.7000000000024
 21
-249.0000164700304
 31
0.0
  0
LINE
  5
C76CF
330
1E
100
AcDbEntity
  8
OUTLINE
  6
CONTINUOUS
100
AcDbLine
 10
135.7000000000024
 20
-250.0000164700304
 30
0.0
 11
135.7000000000024
 21
-249.5000164700304
 31
0.0
  0
LINE
  5
C76D0
330
1E
100
AcDbEntity
  8
OUTLINE
  6
CONTINUOUS
100
AcDbLine
 10
135.7000000000024
 20
-250.5000164700303
 30
0.0
 11
135.7000000000024
 21
-250.0000164700304
 31
0.0
  0
LINE
  5
C76D1
330
1E
100
AcDbEntity
  8
OUTLINE
  6
CONTINUOUS
100
AcDbLine
 10
135.7000000000024
 20
-251.0000164700304
 30
0.0
 11
135.7000000000024
 21
-250.5000164700303
 31
0.0
  0
LINE
  5
C76D2
330
1E
100
AcDbEntity
  8
OUTLINE
  6
CONTINUOUS
100
AcDbLine
 10
135.7000000000024
 20
-252.0000164700304
 30
0.0
 11
135.7000000000024
 21
-251.0000164700304
 31
0.0
  0
LINE
  5
C76D3
330
1E
100
AcDbEntity
  8
OUTLINE
  6
CONTINUOUS
100
AcDbLine
 10
135.7000000000024
 20
-249.0000164700304
 30
0.0
 11
135.7000000000024
 21
-248.0000164700304
 31
0.0
  0
LINE
  5
C76D4
330
1E
100
AcDbEntity
  8
OUTLINE
  6
CONTINUOUS
100
AcDbLine
 10
135.7000000000024
 20
-248.0000164700304
 30
0.0
 11
135.7000000000024
 21
-245.3000164700296
 31
0.0
  0
LINE
  5
C76D5
330
1E
100
AcDbEntity
  8
OUTLINE
  6
CONTINUOUS
100
AcDbLine
 10
135.7000000000024
 20
-265.0000164700303
 30
0.0
 11
135.7000000000024
 21
-254.7000164700274
 31
0.0
  0
LINE
  5
C76D6
330
1E
100
AcDbEntity
  8
OUTLINE
  6
CONTINUOUS
100
AcDbLine
 10
135.7000000000024
 20
-265.0000164700303
 30
0.0
 11
133.4000000000032
 21
-265.0000164700303
 31
0.0
  0
LINE
  5
C76D7
330
1E
100
AcDbEntity
  8
OUTLINE
  6
CONTINUOUS
100
AcDbLine
 10
135.7000000000024
 20
-254.7000164700274
 30
0.0
 11
135.7000000000024
 21
-252.0000164700304
 31
0.0
  0
LINE
  5
C76D8
330
1E
100
AcDbEntity
  8
OUTLINE
  6
CONTINUOUS
100
AcDbLine
 10
135.7000000000024
 20
-245.3000164700296
 30
0.0
 11
135.9884444190429
 21
-245.3000164700296
 31
0.0
  0
LINE
  5
C76D9
330
1E
100
AcDbEntity
  8
OUTLINE
  6
CONTINUOUS
100
AcDbLine
 10
135.9884444190429
 20
-250.0000164700304
 30
0.0
 11
135.9884444190429
 21
-245.3000164700296
 31
0.0
  0
LINE
  5
C76DA
330
1E
100
AcDbEntity
  8
OUTLINE
  6
CONTINUOUS
100
AcDbLine
 10
135.9884444190429
 20
-254.7000164700274
 30
0.0
 11
135.9884444190429
 21
-250.0000164700304
 31
0.0
  0
LINE
  5
C76DB
330
1E
100
AcDbEntity
  8
OUTLINE
  6
CONTINUOUS
100
AcDbLine
 10
135.7000000000024
 20
-254.7000164700274
 30
0.0
 11
135.9884444190429
 21
-254.7000164700274
 31
0.0
  0
LINE
  5
C76DC
330
1E
100
AcDbEntity
  8
OUTLINE
  6
CONTINUOUS
100
AcDbLine
 10
135.7000000000024
 20
-254.7000164700274
 30
0.0
 11
135.7000000000024
 21
-252.0000164700304
 31
0.0
  0
LINE
  5
C76DD
330
1E
100
AcDbEntity
  8
OUTLINE
  6
CONTINUOUS
100
AcDbLine
 10
135.7000000000024
 20
-249.5000164700304
 30
0.0
 11
135.7000000000024
 21
-249.0000164700304
 31
0.0
  0
LINE
  5
C76DE
330
1E
100
AcDbEntity
  8
OUTLINE
  6
CONTINUOUS
100
AcDbLine
 10
135.7000000000024
 20
-250.0000164700304
 30
0.0
 11
135.7000000000024
 21
-249.5000164700304
 31
0.0
  0
LINE
  5
C76DF
330
1E
100
AcDbEntity
  8
OUTLINE
  6
CONTINUOUS
100
AcDbLine
 10
135.7000000000024
 20
-250.5000164700303
 30
0.0
 11
135.7000000000024
 21
-250.0000164700304
 31
0.0
  0
LINE
  5
C76E0
330
1E
100
AcDbEntity
  8
OUTLINE
  6
CONTINUOUS
100
AcDbLine
 10
135.7000000000024
 20
-251.0000164700304
 30
0.0
 11
135.7000000000024
 21
-250.5000164700303
 31
0.0
  0
LINE
  5
C76E1
330
1E
100
AcDbEntity
  8
OUTLINE
  6
CONTINUOUS
100
AcDbLine
 10
135.7000000000024
 20
-252.0000164700304
 30
0.0
 11
135.7000000000024
 21
-251.0000164700304
 31
0.0
  0
LINE
  5
C76E2
330
1E
100
AcDbEntity
  8
OUTLINE
  6
CONTINUOUS
100
AcDbLine
 10
135.7000000000024
 20
-249.0000164700304
 30
0.0
 11
135.7000000000024
 21
-248.0000164700304
 31
0.0
  0
LINE
  5
C76E3
330
1E
100
AcDbEntity
  8
OUTLINE
  6
CONTINUOUS
100
AcDbLine
 10
135.7000000000024
 20
-248.0000164700304
 30
0.0
 11
135.7000000000024
 21
-245.3000164700296
 31
0.0
  0
LINE
  5
C76E4
330
1E
100
AcDbEntity
  8
OUTLINE
  6
CONTINUOUS
100
AcDbLine
 10
135.7000000000024
 20
-245.3000164700296
 30
0.0
 11
135.7000000000024
 21
-235.0000164700304
 31
0.0
  0
LINE
  5
C76E5
330
1E
100
AcDbEntity
  8
OUTLINE
  6
CONTINUOUS
100
AcDbLine
 10
135.7000000000024
 20
-245.3000164700296
 30
0.0
 11
135.7000000000024
 21
-235.0000164700304
 31
0.0
  0
LINE
  5
C76E6
330
1E
100
AcDbEntity
  8
OUTLINE
  6
CONTINUOUS
100
AcDbLine
 10
142.600000000004
 20
-150.8000164700296
 30
0.0
 11
139.600000000004
 21
-150.8000164700296
 31
0.0
  0
LINE
  5
C76E7
330
1E
100
AcDbEntity
  8
OUTLINE
  6
CONTINUOUS
100
AcDbLine
 10
142.600000000004
 20
-150.0000164700304
 30
0.0
 11
142.600000000004
 21
-150.8000164700296
 31
0.0
  0
LINE
  5
C76E8
330
1E
100
AcDbEntity
  8
OUTLINE
  6
CONTINUOUS
100
AcDbLine
 10
139.600000000004
 20
-150.0000164700304
 30
0.0
 11
139.600000000004
 21
-150.8000164700296
 31
0.0
  0
LINE
  5
C76E9
330
1E
100
AcDbEntity
  8
OUTLINE
  6
CONTINUOUS
100
AcDbLine
 10
142.600000000004
 20
-150.0000164700304
 30
0.0
 11
139.600000000004
 21
-150.0000164700304
 31
0.0
  0
LINE
  5
C76EA
330
1E
100
AcDbEntity
  8
OUTLINE
  6
CONTINUOUS
100
AcDbLine
 10
137.862811813693
 20
-252.0000164700304
 30
0.0
 11
137.8440885065737
 21
-251.99135954158
 31
0.0
  0
LINE
  5
C76EB
330
1E
100
AcDbEntity
  8
OUTLINE
  6
CONTINUOUS
100
AcDbLine
 10
137.8440885065737
 20
-249.5000164700304
 30
0.0
 11
137.9996674212434
 21
-249.5000164700304
 31
0.0
  0
LINE
  5
C76EC
330
1E
100
AcDbEntity
  8
OUTLINE
  6
CONTINUOUS
100
AcDbLine
 10
137.8440885065737
 20
-248.0086733984808
 30
0.0
 11
137.862811813693
 21
-248.0000164700304
 31
0.0
  0
LINE
  5
C76ED
330
1E
100
AcDbEntity
  8
OUTLINE
  6
CONTINUOUS
100
AcDbLine
 10
137.8440885065737
 20
-250.5000164700303
 30
0.0
 11
137.9996674212434
 21
-250.5000164700303
 31
0.0
  0
ARC
  5
C76EE
330
1E
100
AcDbEntity
  8
OUTLINE
  6
CONTINUOUS
100
AcDbCircle
 10
132.1000000000184
 20
-250.0000164699776
 30
0.0
 40
6.079473661424909
100
AcDbArc
 50
340.8797478015443
 51
346.0304228414195
  0
ARC
  5
C76EF
330
1E
100
AcDbEntity
  8
OUTLINE
  6
CONTINUOUS
100
AcDbCircle
 10
132.100000000022
 20
-250.0000164700923
 30
0.0
 40
6.079473661424423
100
AcDbArc
 50
13.96957715870509
 51
19.12025219854794
  0
ARC
  5
C76F0
330
1E
100
AcDbEntity
  8
OUTLINE
  6
CONTINUOUS
100
AcDbCircle
 10
131.1792804723227
 20
-250.0000164700304
 30
0.0
 40
6.683536947860624
100
AcDbArc
 50
355.7096550093775
 51
4.290344990622505
  0
SPLINE
  5
C76F1
330
1E
100
AcDbEntity
  8
OUTLINE
  6
CONTINUOUS
100
AcDbSpline
210
0.0
220
0.0
230
1.0
 70
     8
 71
     3
 72
    15
 73
    11
 74
     9
 42
0.0000000001
 43
0.0000000001
 44
0.00000001
 40
0.0
 40
0.0
 40
0.0
 40
0.0
 40
0.1509066191756802
 40
0.2980928289095506
 40
0.5078938186110844
 40
0.6892297971906536
 40
0.805550752169411
 40
0.9331072482540395
 40
0.977571648659847
 40
1.013243167596196
 40
1.013243167596196
 40
1.013243167596196
 40
1.013243167596196
 10
137.9996674212434
 20
-251.4676418713988
 30
0.0
 10
138.0112837720292
 20
-251.4186929263494
 30
0.0
 10
138.034230093812
 20
-251.322001811277
 30
0.0
 10
138.0653627068212
 20
-251.1555302704326
 30
0.0
 10
138.0897012615729
 20
-250.9776317731756
 30
0.0
 10
138.1002116629132
 20
-250.8085712409264
 30
0.0
 10
138.0939875469284
 20
-250.6666048358452
 30
0.0
 10
138.0776742886218
 20
-250.5719002094807
 30
0.0
 10
138.0386411379271
 20
-250.5089227885307
 30
0.0
 10
138.0116722763549
 20
-250.5027598378063
 30
0.0
 10
137.9996674212434
 20
-250.5000164700303
 30
0.0
 11
137.9996674212434
 21
-251.4676418713988
 31
0.0
 11
138.0333186289863
 21
-251.3205351031992
 31
0.0
 11
138.0605484109036
 21
-251.175889607779
 31
0.0
 11
138.0882311193163
 21
-250.9679229688571
 31
0.0
 11
138.0976531120922
 21
-250.7868319334793
 31
0.0
 11
138.0918252143291
 21
-250.6706570648984
 31
0.0
 11
138.0605484109036
 21
-250.5469945364984
 31
0.0
 11
138.0333223822272
 21
-250.5118402192546
 31
0.0
 11
137.9996674212434
 21
-250.5000164700303
 31
0.0
  0
SPLINE
  5
C76F2
330
1E
100
AcDbEntity
  8
OUTLINE
  6
CONTINUOUS
100
AcDbSpline
210
0.0
220
0.0
230
1.0
 70
     8
 71
     3
 72
    16
 73
    12
 74
    10
 42
0.0000000001
 43
0.0000000001
 44
0.00000001
 40
0.0
 40
0.0
 40
0.0
 40
0.0
 40
0.1748846745099228
 40
0.3017492984750361
 40
0.4834007709176564
 40
0.6123806950381755
 40
0.6891525632599631
 40
0.8315587199798761
 40
0.9319153185423035
 40
0.9717454498207144
 40
1.013269714677059
 40
1.013269714677059
 40
1.013269714677059
 40
1.013269714677059
 10
137.9996674212434
 20
-248.5323910686584
 30
0.0
 10
138.0130511214592
 20
-248.5891393660397
 30
0.0
 10
138.0361436151869
 20
-248.687053941596
 30
0.0
 10
138.0651541072103
 20
-248.8456033656695
 30
0.0
 10
138.0854023272627
 20
-248.9900849309639
 30
0.0
 10
138.0958400869638
 20
-249.1189185651897
 30
0.0
 10
138.0988777911081
 20
-249.2348595668803
 30
0.0
 10
138.0939181363361
 20
-249.342028009181
 30
0.0
 10
138.0731381975841
 20
-249.4335655667168
 30
0.0
 10
138.0408166844577
 20
-249.4888691345409
 30
0.0
 10
138.0135729496901
 20
-249.4962494578207
 30
0.0
 10
137.9996674212434
 20
-249.5000164700304
 30
0.0
 11
137.9996674212434
 21
-248.5323910686584
 31
0.0
 11
138.0381445570074
 21
-248.7029904717946
 31
0.0
 11
138.0611498277338
 21
-248.8277518053783
 31
0.0
 11
138.0857857362715
 21
-249.0077249406949
 31
0.0
 11
138.095773736366
 21
-249.136317555758
 31
0.0
 11
138.0976531056931
 21
-249.213066416998
 31
0.0
 11
138.0884193786132
 21
-249.3551728968467
 31
0.0
 11
138.0611913812936
 21
-249.4517652505983
 31
0.0
 11
138.0380563897124
 21
-249.4841876397785
 31
0.0
 11
137.9996674212434
 21
-249.5000164700304
 31
0.0
  0
ENDSEC
  0
SECTION
  2
OBJECTS
  0
DICTIONARY
  5
C
330
0
100
AcDbDictionary
  3
ACAD_GROUP
350
D
  3
ACAD_LAYOUT
350
19
  3
ACAD_MLINESTYLE
350
16
  3
ACAD_PLOTSETTINGS
350
18
  3
ACAD_PLOTSTYLENAME
350
E
  3
ACDBHEADERROUNDTRIPXREC
350
C7720
  3
ACDBVARIABLEDICTIONARY
350
A2E2E
  0
DICTIONARY
  5
66E76
330
1E
100
AcDbDictionary
280
     1
  3
ACAD_LAYOUTSELFREF
360
C7742
  0
DICTIONARY
  5
66E74
330
1A
100
AcDbDictionary
280
     1
  3
ACAD_LAYOUTSELFREF
360
C7741
  0
DICTIONARY
  5
D
102
{ACAD_REACTORS
330
C
102
}
330
C
100
AcDbDictionary
  3
*A1
350
677EB
  3
*A10
350
77D6C
  3
*A11
350
79B1A
  3
*A12
350
7A715
  3
*A13
350
7DE8D
  3
*A2
350
7DE8E
  3
*A3
350
7DE8F
  3
*A4
350
7DE90
  3
*A5
350
B1D33
  3
*A6
350
B6C6B
  3
*A7
350
B6C6C
  3
*A8
350
B6C6D
  3
*A9
350
B6C6E
  0
DICTIONARY
  5
19
102
{ACAD_REACTORS
330
C
102
}
330
C
100
AcDbDictionary
  0
DICTIONARY
  5
16
102
{ACAD_REACTORS
330
C
102
}
330
C
100
AcDbDictionary
  3
STANDARD
350
17
  0
DICTIONARY
  5
18
102
{ACAD_REACTORS
330
C
102
}
330
C
100
AcDbDictionary
  0
ACDBDICTIONARYWDFLT
  5
E
102
{ACAD_REACTORS
330
C
102
}
330
C
100
AcDbDictionary
281
     1
  3
Normal
350
F
100
AcDbDictionaryWithDefault
340
F
  0
DICTIONARY
  5
C7720
102
{ACAD_REACTORS
330
C
102
}
330
C
100
AcDbDictionary
  3
CEPSNTYPE
350
C772A
  3
DIMSTYLEDATA
350
C772E
  3
FINGERPRINTGUID
350
C772B
  3
HYPERLINKBASE
350
C7723
  3
INSUNITS
350
C7729
  3
LAYOUTDICT
350
C7725
  3
LWETCUNION
350
C7728
  3
PLOTSETDICT
350
C7726
  3
PLOTSTYLNAMDICT
350
C7727
  3
PSVPSCALE
350
C772D
  3
PUCSBASE
350
C7731
  3
PUCSORGBACK
350
C7737
  3
PUCSORGBOTTOM
350
C7733
  3
PUCSORGFRONT
350
C7736
  3
PUCSORGLEFT
350
C7734
  3
PUCSORGRIGHT
350
C7735
  3
PUCSORGTOP
350
C7732
  3
PUCSORTHOREF
350
C772F
  3
PUCSORTHOVIEW
350
C7730
  3
STYLESHEET
350
C7724
  3
TSTACKALIGN
350
C7721
  3
TSTACKSIZE
350
C7722
  3
UCSBASE
350
C773A
  3
UCSORGBACK
350
C7740
  3
UCSORGBOTTOM
350
C773C
  3
UCSORGFRONT
350
C773F
  3
UCSORGLEFT
350
C773D
  3
UCSORGRIGHT
350
C773E
  3
UCSORGTOP
350
C773B
  3
UCSORTHOREF
350
C7738
  3
UCSORTHOVIEW
350
C7739
  3
VERSIONGUID
350
C772C
  0
DICTIONARY
  5
A2E2E
102
{ACAD_REACTORS
330
C
102
}
330
C
100
AcDbDictionary
  3
SORTENTS
350
A2E2F
  0
XRECORD
  5
C7742
102
{ACAD_REACTORS
330
66E76
102
}
330
66E76
100
AcDbXrecord
340
1E
  0
XRECORD
  5
C7741
102
{ACAD_REACTORS
330
66E74
102
}
330
66E74
100
AcDbXrecord
340
1A
  0
GROUP
  5
677EB
102
{ACAD_REACTORS
330
D
102
}
330
D
100
AcDbGroup
300

 70
     1
 71
     1
  0
GROUP
  5
77D6C
102
{ACAD_REACTORS
330
D
102
}
330
D
100
AcDbGroup
300

 70
     1
 71
     1
  0
GROUP
  5
79B1A
102
{ACAD_REACTORS
330
D
102
}
330
D
100
AcDbGroup
300

 70
     1
 71
     1
  0
GROUP
  5
7A715
102
{ACAD_REACTORS
330
D
102
}
330
D
100
AcDbGroup
300

 70
     1
 71
     1
  0
GROUP
  5
7DE8D
102
{ACAD_REACTORS
330
D
102
}
330
D
100
AcDbGroup
300

 70
     1
 71
     1
  0
GROUP
  5
7DE8E
102
{ACAD_REACTORS
330
D
102
}
330
D
100
AcDbGroup
300

 70
     1
 71
     1
  0
GROUP
  5
7DE8F
102
{ACAD_REACTORS
330
D
102
}
330
D
100
AcDbGroup
300

 70
     1
 71
     1
  0
GROUP
  5
7DE90
102
{ACAD_REACTORS
330
D
102
}
330
D
100
AcDbGroup
300

 70
     1
 71
     1
  0
GROUP
  5
B1D33
102
{ACAD_REACTORS
330
D
102
}
330
D
100
AcDbGroup
300

 70
     1
 71
     1
  0
GROUP
  5
B6C6B
102
{ACAD_REACTORS
330
D
102
}
330
D
100
AcDbGroup
300

 70
     1
 71
     1
  0
GROUP
  5
B6C6C
102
{ACAD_REACTORS
330
D
102
}
330
D
100
AcDbGroup
300

 70
     1
 71
     1
  0
GROUP
  5
B6C6D
102
{ACAD_REACTORS
330
D
102
}
330
D
100
AcDbGroup
300

 70
     1
 71
     1
  0
GROUP
  5
B6C6E
102
{ACAD_REACTORS
330
D
102
}
330
D
100
AcDbGroup
300

 70
     1
 71
     1
  0
MLINESTYLE
  5
17
102
{ACAD_REACTORS
330
16
102
}
330
16
100
AcDbMlineStyle
  2
STANDARD
 70
     0
  3

 62
   256
 51
90.0
 52
90.0
 71
     2
 49
0.5
 62
   256
  6
BYLAYER
 49
-0.5
 62
   256
  6
BYLAYER
  0
ACDBPLACEHOLDER
  5
F
102
{ACAD_REACTORS
330
E
102
}
330
E
100
AcDbPlaceHolder
280
     0
  0
XRECORD
  5
C772A
102
{ACAD_REACTORS
330
C7720
102
}
330
C7720
100
AcDbXrecord
 90
        0
  0
XRECORD
  5
C772E
102
{ACAD_REACTORS
330
C7720
102
}
330
C7720
100
AcDbXrecord
1000
DSTYLE
1002
{
1070
   341
340
46
1070
   342
340
46
1002
}
  0
XRECORD
  5
C772B
102
{ACAD_REACTORS
330
C7720
102
}
330
C7720
100
AcDbXrecord
  1
{97DA8DB6-C4F0-4C3D-ABEB-53C4FBBC7EFF}
  0
XRECORD
  5
C7723
102
{ACAD_REACTORS
330
C7720
102
}
330
C7720
100
AcDbXrecord
  1

  0
XRECORD
  5
C7729
102
{ACAD_REACTORS
330
C7720
102
}
330
C7720
100
AcDbXrecord
 90
        0
  0
XRECORD
  5
C7725
102
{ACAD_REACTORS
330
C7720
102
}
330
C7720
100
AcDbXrecord
340
19
  0
XRECORD
  5
C7728
102
{ACAD_REACTORS
330
C7720
102
}
330
C7720
100
AcDbXrecord
 90
    10781
  0
XRECORD
  5
C7726
102
{ACAD_REACTORS
330
C7720
102
}
330
C7720
100
AcDbXrecord
340
18
  0
XRECORD
  5
C7727
102
{ACAD_REACTORS
330
C7720
102
}
330
C7720
100
AcDbXrecord
340
E
  0
XRECORD
  5
C772D
102
{ACAD_REACTORS
330
C7720
102
}
330
C7720
100
AcDbXrecord
 40
0.0
  0
XRECORD
  5
C7731
102
{ACAD_REACTORS
330
C7720
102
}
330
C7720
100
AcDbXrecord
340
0
  0
XRECORD
  5
C7737
102
{ACAD_REACTORS
330
C7720
102
}
330
C7720
100
AcDbXrecord
 10
0.0
 20
0.0
 30
0.0
  0
XRECORD
  5
C7733
102
{ACAD_REACTORS
330
C7720
102
}
330
C7720
100
AcDbXrecord
 10
0.0
 20
0.0
 30
0.0
  0
XRECORD
  5
C7736
102
{ACAD_REACTORS
330
C7720
102
}
330
C7720
100
AcDbXrecord
 10
0.0
 20
0.0
 30
0.0
  0
XRECORD
  5
C7734
102
{ACAD_REACTORS
330
C7720
102
}
330
C7720
100
AcDbXrecord
 10
0.0
 20
0.0
 30
0.0
  0
XRECORD
  5
C7735
102
{ACAD_REACTORS
330
C7720
102
}
330
C7720
100
AcDbXrecord
 10
0.0
 20
0.0
 30
0.0
  0
XRECORD
  5
C7732
102
{ACAD_REACTORS
330
C7720
102
}
330
C7720
100
AcDbXrecord
 10
0.0
 20
0.0
 30
0.0
  0
XRECORD
  5
C772F
102
{ACAD_REACTORS
330
C7720
102
}
330
C7720
100
AcDbXrecord
340
0
  0
XRECORD
  5
C7730
102
{ACAD_REACTORS
330
C7720
102
}
330
C7720
100
AcDbXrecord
 70
     0
  0
XRECORD
  5
C7724
102
{ACAD_REACTORS
330
C7720
102
}
330
C7720
100
AcDbXrecord
  1

  0
XRECORD
  5
C7721
102
{ACAD_REACTORS
330
C7720
102
}
330
C7720
100
AcDbXrecord
 90
        1
  0
XRECORD
  5
C7722
102
{ACAD_REACTORS
330
C7720
102
}
330
C7720
100
AcDbXrecord
 90
       70
  0
XRECORD
  5
C773A
102
{ACAD_REACTORS
330
C7720
102
}
330
C7720
100
AcDbXrecord
340
0
  0
XRECORD
  5
C7740
102
{ACAD_REACTORS
330
C7720
102
}
330
C7720
100
AcDbXrecord
 10
0.0
 20
0.0
 30
0.0
  0
XRECORD
  5
C773C
102
{ACAD_REACTORS
330
C7720
102
}
330
C7720
100
AcDbXrecord
 10
0.0
 20
0.0
 30
0.0
  0
XRECORD
  5
C773F
102
{ACAD_REACTORS
330
C7720
102
}
330
C7720
100
AcDbXrecord
 10
0.0
 20
0.0
 30
0.0
  0
XRECORD
  5
C773D
102
{ACAD_REACTORS
330
C7720
102
}
330
C7720
100
AcDbXrecord
 10
0.0
 20
0.0
 30
0.0
  0
XRECORD
  5
C773E
102
{ACAD_REACTORS
330
C7720
102
}
330
C7720
100
AcDbXrecord
 10
0.0
 20
0.0
 30
0.0
  0
XRECORD
  5
C773B
102
{ACAD_REACTORS
330
C7720
102
}
330
C7720
100
AcDbXrecord
 10
0.0
 20
0.0
 30
0.0
  0
XRECORD
  5
C7738
102
{ACAD_REACTORS
330
C7720
102
}
330
C7720
100
AcDbXrecord
340
0
  0
XRECORD
  5
C7739
102
{ACAD_REACTORS
330
C7720
102
}
330
C7720
100
AcDbXrecord
 70
     0
  0
XRECORD
  5
C772C
102
{ACAD_REACTORS
330
C7720
102
}
330
C7720
100
AcDbXrecord
  1
{294B68D7-71C5-473C-84E8-CBFD16348B0E}
  0
DICTIONARYVAR
  5
A2E2F
102
{ACAD_REACTORS
330
A2E2E
102
}
330
A2E2E
100
DictionaryVariables
280
     0
  1
96
  0
ENDSEC
  0
EOF
