  0
SECTION
  2
HEADER
  9
$ACADVER
  1
AC1014
  9
$ACADMAINTVER
 70
     9
  9
$DWGCODEPAGE
  3
ANSI_932
  9
$INSBASE
 10
0.0
 20
0.0
 30
0.0
  9
$EXTMIN
 10
-579.6142857142893
 20
-466.4483926757546
 30
0.0
  9
$EXTMAX
 10
4633.504404407053
 20
3273.378972353242
 30
0.0
  9
$LIMMIN
 10
-761.9414548510307
 20
-3321.206755397753
  9
$LIMMAX
 10
7957.007260289675
 20
2813.85708885039
  9
$ORTHOMODE
 70
     1
  9
$REGENMODE
 70
     1
  9
$FILLMODE
 70
     1
  9
$QTEXTMODE
 70
     0
  9
$MIRRTEXT
 70
     0
  9
$DRAGMODE
 70
     2
  9
$LTSCALE
 40
20.0
  9
$OSMODE
 70
    39
  9
$ATTMODE
 70
     1
  9
$TEXTSIZE
 40
64.0
  9
$TRACEWID
 40
0.05
  9
$TEXTSTYLE
  7
STANDARD
  9
$CLAYER
  8
SIZE
  9
$CELTYPE
  6
CONTINUOUS
  9
$CECOLOR
 62
   256
  9
$CELTSCALE
 40
1.0
  9
$DELOBJ
 70
     1
  9
$DISPSILH
 70
     0
  9
$DIMSCALE
 40
1.0
  9
$DIMASZ
 40
10.0
  9
$DIMEXO
 40
20.0
  9
$DIMDLI
 40
200.0
  9
$DIMRND
 40
0.0
  9
$DIMDLE
 40
0.0
  9
$DIMEXE
 40
20.0
  9
$DIMTP
 40
0.0
  9
$DIMTM
 40
0.0
  9
$DIMTXT
 40
50.0
  9
$DIMCEN
 40
0.082
  9
$DIMTSZ
 40
0.0
  9
$DIMTOL
 70
     0
  9
$DIMLIM
 70
     0
  9
$DIMTIH
 70
     0
  9
$DIMTOH
 70
     0
  9
$DIMSE1
 70
     0
  9
$DIMSE2
 70
     0
  9
$DIMTAD
 70
     1
  9
$DIMZIN
 70
     8
  9
$DIMBLK
  1
ORIGIN
  9
$DIMASO
 70
     1
  9
$DIMSHO
 70
     0
  9
$DIMPOST
  1

  9
$DIMAPOST
  1

  9
$DIMALT
 70
     0
  9
$DIMALTD
 70
     2
  9
$DIMALTF
 40
25.4
  9
$DIMLFAC
 40
1.0
  9
$DIMTOFL
 70
     1
  9
$DIMTVP
 40
0.0
  9
$DIMTIX
 70
     0
  9
$DIMSOXD
 70
     0
  9
$DIMSAH
 70
     0
  9
$DIMBLK1
  1

  9
$DIMBLK2
  1

  9
$DIMSTYLE
  2
STANDARD
  9
$DIMCLRD
 70
     0
  9
$DIMCLRE
 70
     0
  9
$DIMCLRT
 70
     0
  9
$DIMTFAC
 40
1.0
  9
$DIMGAP
 40
10.0
  9
$DIMJUST
 70
     0
  9
$DIMSD1
 70
     0
  9
$DIMSD2
 70
     0
  9
$DIMTOLJ
 70
     1
  9
$DIMTZIN
 70
     0
  9
$DIMALTZ
 70
     0
  9
$DIMALTTZ
 70
     0
  9
$DIMFIT
 70
     3
  9
$DIMUPT
 70
     0
  9
$DIMUNIT
 70
     2
  9
$DIMDEC
 70
     0
  9
$DIMTDEC
 70
     0
  9
$DIMALTU
 70
     2
  9
$DIMALTTD
 70
     2
  9
$DIMTXSTY
  7
STANDARD
  9
$DIMAUNIT
 70
     0
  9
$LUNITS
 70
     2
  9
$LUPREC
 70
     4
  9
$SKETCHINC
 40
0.1
  9
$FILLETRAD
 40
10.0
  9
$AUNITS
 70
     1
  9
$AUPREC
 70
     3
  9
$MENU
  1
ACAD
  9
$ELEVATION
 40
0.0
  9
$PELEVATION
 40
0.0
  9
$THICKNESS
 40
0.0
  9
$LIMCHECK
 70
     0
  9
$BLIPMODE
 70
     0
  9
$CHAMFERA
 40
0.0
  9
$CHAMFERB
 40
0.0
  9
$CHAMFERC
 40
0.0
  9
$CHAMFERD
 40
0.0
  9
$SKPOLY
 70
     0
  9
$TDCREATE
 40
2450330.393205995
  9
$TDUPDATE
 40
2455374.382438321
  9
$TDINDWG
 40
3.3919983333
  9
$TDUSRTIMER
 40
3.3919977778
  9
$USRTIMER
 70
     1
  9
$ANGBASE
 50
0.0
  9
$ANGDIR
 70
     0
  9
$PDMODE
 70
     3
  9
$PDSIZE
 40
-2.0
  9
$PLINEWID
 40
0.0
  9
$COORDS
 70
     0
  9
$SPLFRAME
 70
     0
  9
$SPLINETYPE
 70
     6
  9
$SPLINESEGS
 70
     8
  9
$ATTDIA
 70
     0
  9
$ATTREQ
 70
     1
  9
$HANDLING
 70
-16383
  9
$HANDSEED
  5
C74C7
  9
$SURFTAB1
 70
     6
  9
$SURFTAB2
 70
     6
  9
$SURFTYPE
 70
     6
  9
$SURFU
 70
     6
  9
$SURFV
 70
     6
  9
$UCSNAME
  2

  9
$UCSORG
 10
0.0
 20
0.0
 30
0.0
  9
$UCSXDIR
 10
1.0
 20
0.0
 30
0.0
  9
$UCSYDIR
 10
0.0
 20
1.0
 30
0.0
  9
$PUCSNAME
  2

  9
$PUCSORG
 10
0.0
 20
0.0
 30
0.0
  9
$PUCSXDIR
 10
1.0
 20
0.0
 30
0.0
  9
$PUCSYDIR
 10
0.0
 20
1.0
 30
0.0
  9
$USERI1
 70
     0
  9
$USERI2
 70
     0
  9
$USERI3
 70
     0
  9
$USERI4
 70
     0
  9
$USERI5
 70
     0
  9
$USERR1
 40
20.0
  9
$USERR2
 40
0.0
  9
$USERR3
 40
0.0
  9
$USERR4
 40
0.0
  9
$USERR5
 40
0.0
  9
$WORLDVIEW
 70
     1
  9
$SHADEDGE
 70
     3
  9
$SHADEDIF
 70
    70
  9
$TILEMODE
 70
     1
  9
$MAXACTVP
 70
    64
  9
$PINSBASE
 10
0.0
 20
0.0
 30
0.0
  9
$PLIMCHECK
 70
     0
  9
$PEXTMIN
 10
1.000000000000000E+20
 20
1.000000000000000E+20
 30
1.000000000000000E+20
  9
$PEXTMAX
 10
-1.000000000000000E+20
 20
-1.000000000000000E+20
 30
-1.000000000000000E+20
  9
$PLIMMIN
 10
0.0
 20
0.0
  9
$PLIMMAX
 10
12.0
 20
9.0
  9
$UNITMODE
 70
     0
  9
$VISRETAIN
 70
     1
  9
$PLINEGEN
 70
     0
  9
$PSLTSCALE
 70
     1
  9
$TREEDEPTH
 70
  3020
  9
$PICKSTYLE
 70
     1
  9
$CMLSTYLE
  2
STANDARD
  9
$CMLJUST
 70
     0
  9
$CMLSCALE
 40
1.0
  9
$PROXYGRAPHICS
 70
     1
  9
$MEASUREMENT
 70
     0
  0
ENDSEC
  0
SECTION
  2
CLASSES
  0
CLASS
  1
ACDBDICTIONARYWDFLT
  2
AcDbDictionaryWithDefault
  3
AutoCAD 2000
 90
        0
280
     0
281
     0
  0
CLASS
  1
ACDBPLACEHOLDER
  2
AcDbPlaceHolder
  3
AutoCAD 2000
 90
        0
280
     0
281
     0
  0
CLASS
  1
LAYOUT
  2
AcDbLayout
  3
AutoCAD 2000
 90
        0
280
     0
281
     0
  0
CLASS
  1
LONG_TRANSACTION
  2
AcDbLongTransaction
  3
AutoCAD 2000
 90
        0
280
     0
281
     0
  0
CLASS
  1
LWPOLYLINE
  2
AcDbPolyline
  3
AutoCAD 2000
 90
        0
280
     0
281
     1
  0
CLASS
  1
HATCH
  2
AcDbHatch
  3
AutoCAD 2000
 90
        0
280
     0
281
     1
  0
CLASS
  1
XRECORD
  2
AcDbXrecord
  3
AutoCAD 2000
 90
        0
280
     0
281
     0
  0
CLASS
  1
LONG_TRANSACTION
  2
AcDbLongTransaction
  3
AutoCAD 2000
 90
        0
280
     0
281
     0
  0
CLASS
  1
LWPOLYLINE
  2
AcDbPolyline
  3
AutoCAD 2000
 90
        0
280
     0
281
     1
  0
CLASS
  1
HATCH
  2
AcDbHatch
  3
AutoCAD 2000
 90
        0
280
     0
281
     1
  0
CLASS
  1
XRECORD
  2
AcDbXrecord
  3
AutoCAD 2000
 90
        0
280
     0
281
     0
  0
CLASS
  1
LONG_TRANSACTION
  2
AcDbLongTransaction
  3
AutoCAD 2000
 90
        0
280
     0
281
     0
  0
CLASS
  1
LWPOLYLINE
  2
AcDbPolyline
  3
AutoCAD 2000
 90
        0
280
     0
281
     1
  0
CLASS
  1
HATCH
  2
AcDbHatch
  3
AutoCAD 2000
 90
        0
280
     0
281
     1
  0
CLASS
  1
XRECORD
  2
AcDbXrecord
  3
AutoCAD 2000
 90
        0
280
     0
281
     0
  0
CLASS
  1
DICTIONARYVAR
  2
AcDbDictionaryVar
  3
AutoCAD 2000
 90
        0
280
     0
281
     0
  0
CLASS
  1
LONG_TRANSACTION
  2
AcDbLongTransaction
  3
AutoCAD 2000
 90
        0
280
     0
281
     0
  0
CLASS
  1
LWPOLYLINE
  2
AcDbPolyline
  3
AutoCAD 2000
 90
        0
280
     0
281
     1
  0
CLASS
  1
HATCH
  2
AcDbHatch
  3
AutoCAD 2000
 90
        0
280
     0
281
     1
  0
CLASS
  1
XRECORD
  2
AcDbXrecord
  3
AutoCAD 2000
 90
        0
280
     0
281
     0
  0
CLASS
  1
LONG_TRANSACTION
  2
AcDbLongTransaction
  3
AutoCAD 2000
 90
        0
280
     0
281
     0
  0
CLASS
  1
LWPOLYLINE
  2
AcDbPolyline
  3
AutoCAD 2000
 90
        0
280
     0
281
     1
  0
CLASS
  1
HATCH
  2
AcDbHatch
  3
AutoCAD 2000
 90
        0
280
     0
281
     1
  0
CLASS
  1
XRECORD
  2
AcDbXrecord
  3
AutoCAD 2000
 90
        0
280
     0
281
     0
  0
ENDSEC
  0
SECTION
  2
TABLES
  0
TABLE
  2
VPORT
  5
8
330
0
100
AcDbSymbolTable
 70
     2
  0
VPORT
  5
C74A3
330
8
100
AcDbSymbolTableRecord
100
AcDbViewportTableRecord
  2
*ACTIVE
 70
     0
 10
0.0
 20
0.0
 11
1.0
 21
1.0
 12
856.8771178629086
 22
127.3736281599667
 13
0.0
 23
0.0
 14
50.0
 24
50.0
 15
100.0
 25
100.0
 16
0.0
 26
0.0
 36
1.0
 17
0.0
 27
0.0
 37
0.0
 40
4099.168102638155
 41
1.508578431372549
 42
50.0
 43
0.0
 44
0.0
 50
0.0
 51
0.0
 71
     0
 72
   500
 73
     1
 74
     0
 75
     0
 76
     0
 77
     0
 78
     0
  0
ENDTAB
  0
TABLE
  2
LTYPE
  5
5
330
0
100
AcDbSymbolTable
 70
     2
  0
LTYPE
  5
13
330
5
100
AcDbSymbolTableRecord
100
AcDbLinetypeTableRecord
  2
BYBLOCK
 70
     0
  3

 72
    65
 73
     0
 40
0.0
  0
LTYPE
  5
14
330
5
100
AcDbSymbolTableRecord
100
AcDbLinetypeTableRecord
  2
BYLAYER
 70
     0
  3

 72
    65
 73
     0
 40
0.0
  0
LTYPE
  5
15
330
5
100
AcDbSymbolTableRecord
100
AcDbLinetypeTableRecord
  2
CONTINUOUS
 70
     0
  3
実線
 72
    65
 73
     0
 40
0.0
  0
LTYPE
  5
23
330
5
100
AcDbSymbolTableRecord
100
AcDbLinetypeTableRecord
  2
DASHDOT
 70
     0
  3
____ _ ____ _ ____ _ ____ _ ____ _ ____ _ ____
 72
    65
 73
     4
 40
5.5
 49
4.0
 74
     0
 49
-0.6
 74
     0
 49
0.3
 74
     0
 49
-0.6
 74
     0
  0
ENDTAB
  0
TABLE
  2
LAYER
  5
2
330
0
100
AcDbSymbolTable
 70
     7
  0
LAYER
  5
10
330
2
100
AcDbSymbolTableRecord
100
AcDbLayerTableRecord
  2
0
 70
     0
 62
     7
  6
CONTINUOUS
  0
LAYER
  5
22
330
2
100
AcDbSymbolTableRecord
100
AcDbLayerTableRecord
  2
SIZE
 70
     0
 62
    32
  6
CONTINUOUS
  0
LAYER
  5
31
330
2
100
AcDbSymbolTableRecord
100
AcDbLayerTableRecord
  2
DETAIL
 70
     0
 62
     5
  6
CONTINUOUS
  0
LAYER
  5
33
330
2
100
AcDbSymbolTableRecord
100
AcDbLayerTableRecord
  2
BASIS
 70
     0
 62
     6
  6
CONTINUOUS
  0
LAYER
  5
35
330
2
100
AcDbSymbolTableRecord
100
AcDbLayerTableRecord
  2
ARRANGE
 70
     0
 62
     1
  6
CONTINUOUS
  0
LAYER
  5
37
330
2
100
AcDbSymbolTableRecord
100
AcDbLayerTableRecord
  2
ETC
 70
     0
 62
    83
  6
CONTINUOUS
  0
LAYER
  5
3A
330
2
100
AcDbSymbolTableRecord
100
AcDbLayerTableRecord
  2
DEFPOINTS
 70
     0
 62
     7
  6
CONTINUOUS
  0
ENDTAB
  0
TABLE
  2
STYLE
  5
3
330
0
100
AcDbSymbolTable
 70
     1
  0
STYLE
  5
11
330
3
100
AcDbSymbolTableRecord
100
AcDbTextStyleTableRecord
  2
STANDARD
 70
     0
 40
0.0
 41
0.9
 50
0.0
 71
     0
 42
64.0
  3
SIMPLEX
  4
BIGFONT
  0
ENDTAB
  0
TABLE
  2
VIEW
  5
6
330
0
100
AcDbSymbolTable
 70
     1
  0
VIEW
  5
3C
330
6
100
AcDbSymbolTableRecord
100
AcDbViewTableRecord
  2
ALL
 70
     0
 40
4282.62
 10
0.0
 20
41.30990399999999
 41
5940.0
 11
0.0
 21
0.0
 31
1.0
 12
0.0
 22
0.0
 32
0.0
 42
50.0
 43
0.0
 44
0.0
 50
0.0
 71
     0
  0
ENDTAB
  0
TABLE
  2
UCS
  5
7
330
0
100
AcDbSymbolTable
 70
     0
  0
ENDTAB
  0
TABLE
  2
APPID
  5
9
330
0
100
AcDbSymbolTable
 70
     1
  0
APPID
  5
12
330
9
100
AcDbSymbolTableRecord
100
AcDbRegAppTableRecord
  2
ACAD
 70
     0
  0
ENDTAB
  0
TABLE
  2
DIMSTYLE
  5
A
330
0
100
AcDbSymbolTable
 70
     1
  0
DIMSTYLE
105
213
330
A
100
AcDbSymbolTableRecord
100
AcDbDimStyleTableRecord
  2
STANDARD
 70
     0
  3

  4

  5

  6

  7

 40
1.0
 41
0.18
 42
0.0625
 43
0.38
 44
0.18
 45
0.0
 46
0.0
 47
0.0
 48
0.0
140
0.18
141
0.09
142
0.0
143
25.4
144
1.0
145
0.0
146
1.0
147
0.09
 71
     0
 72
     0
 73
     1
 74
     1
 75
     0
 76
     0
 77
     0
 78
     0
170
     0
171
     2
172
     0
173
     0
174
     0
175
     0
176
     0
177
     0
178
     0
270
     2
271
     4
272
     4
273
     2
274
     2
340
11
275
     0
280
     0
281
     0
282
     0
283
     1
284
     0
285
     0
286
     0
287
     3
288
     0
  0
ENDTAB
  0
TABLE
  2
BLOCK_RECORD
  5
1
330
0
100
AcDbSymbolTable
 70
     8
  0
BLOCK_RECORD
  5
1E
102
{ACAD_XDICTIONARY
360
66E76
102
}
330
1
100
AcDbSymbolTableRecord
100
AcDbBlockTableRecord
  2
*MODEL_SPACE
  0
BLOCK_RECORD
  5
1A
102
{ACAD_XDICTIONARY
360
66E74
102
}
330
1
100
AcDbSymbolTableRecord
100
AcDbBlockTableRecord
  2
*PAPER_SPACE
  0
BLOCK_RECORD
  5
46
330
1
100
AcDbSymbolTableRecord
100
AcDbBlockTableRecord
  2
_ORIGIN
  0
BLOCK_RECORD
  5
C3275
330
1
100
AcDbSymbolTableRecord
100
AcDbBlockTableRecord
  2
*D1
  0
BLOCK_RECORD
  5
C3281
330
1
100
AcDbSymbolTableRecord
100
AcDbBlockTableRecord
  2
*D2
  0
BLOCK_RECORD
  5
C32DE
330
1
100
AcDbSymbolTableRecord
100
AcDbBlockTableRecord
  2
*D3
  0
BLOCK_RECORD
  5
C32EA
330
1
100
AcDbSymbolTableRecord
100
AcDbBlockTableRecord
  2
*D4
  0
BLOCK_RECORD
  5
C32F8
330
1
100
AcDbSymbolTableRecord
100
AcDbBlockTableRecord
  2
*D5
  0
BLOCK_RECORD
  5
C3306
330
1
100
AcDbSymbolTableRecord
100
AcDbBlockTableRecord
  2
*D6
  0
BLOCK_RECORD
  5
C3313
330
1
100
AcDbSymbolTableRecord
100
AcDbBlockTableRecord
  2
*D7
  0
ENDTAB
  0
ENDSEC
  0
SECTION
  2
BLOCKS
  0
BLOCK
  5
1F
330
1E
100
AcDbEntity
  8
0
100
AcDbBlockBegin
  2
*MODEL_SPACE
 70
     0
 10
0.0
 20
0.0
 30
0.0
  3
*MODEL_SPACE
  1

  0
ENDBLK
  5
20
330
1E
100
AcDbEntity
  8
0
100
AcDbBlockEnd
  0
BLOCK
  5
1B
330
1A
100
AcDbEntity
 67
     1
  8
0
100
AcDbBlockBegin
  2
*PAPER_SPACE
 70
     0
 10
0.0
 20
0.0
 30
0.0
  3
*PAPER_SPACE
  1

  0
ENDBLK
  5
1C
330
1A
100
AcDbEntity
 67
     1
  8
0
100
AcDbBlockEnd
  0
BLOCK
  5
47
330
46
100
AcDbEntity
  8
0
100
AcDbBlockBegin
  2
_ORIGIN
 70
     0
 10
0.0
 20
0.0
 30
0.0
  3
_ORIGIN
  1

  0
CIRCLE
  5
48
330
46
100
AcDbEntity
  8
0
  6
BYBLOCK
 62
     0
100
AcDbCircle
 10
0.0
 20
0.0
 30
0.0
 40
0.5
  0
LINE
  5
49
330
46
100
AcDbEntity
  8
0
  6
BYBLOCK
 62
     0
100
AcDbLine
 10
0.0
 20
0.0
 30
0.0
 11
-1.0
 21
0.0
 31
0.0
  0
ENDBLK
  5
4A
330
46
100
AcDbEntity
  8
0
100
AcDbBlockEnd
  0
BLOCK
  5
C327F
330
C3275
100
AcDbEntity
  8
0
100
AcDbBlockBegin
  2
*D1
 70
     1
 10
0.0
 20
0.0
 30
0.0
  3
*D1
  1

  0
LINE
  5
C7411
330
C3275
100
AcDbEntity
  8
SIZE
  6
CONTINUOUS
 62
     0
100
AcDbLine
 10
420.0
 20
600.0
 30
0.0
 11
698.2842021916586
 21
600.0
 31
0.0
  0
LINE
  5
C7412
330
C3275
100
AcDbEntity
  8
SIZE
  6
CONTINUOUS
 62
     0
100
AcDbLine
 10
290.0
 20
-0.0000000000000057
 30
0.0
 11
698.2842021916584
 21
-0.0000000000001213
 31
0.0
  0
LINE
  5
C7413
330
C3275
100
AcDbEntity
  8
SIZE
  6
CONTINUOUS
 62
     0
100
AcDbLine
 10
678.2842021916586
 20
590.0
 30
0.0
 11
678.2842021916584
 21
9.999999999999882
 31
0.0
  0
INSERT
  5
C7414
330
C3275
100
AcDbEntity
  8
SIZE
  6
CONTINUOUS
 62
     0
100
AcDbBlockReference
  2
_ORIGIN
 10
678.2842021916586
 20
600.0
 30
0.0
 41
10.0
 42
10.0
 43
10.0
 50
90.0
  0
INSERT
  5
C7415
330
C3275
100
AcDbEntity
  8
SIZE
  6
CONTINUOUS
 62
     0
100
AcDbBlockReference
  2
_ORIGIN
 10
678.2842021916584
 20
-0.0000000000001157
 30
0.0
 41
10.0
 42
10.0
 43
10.0
 50
270.0
  0
MTEXT
  5
C7416
330
C3275
100
AcDbEntity
  8
SIZE
  6
CONTINUOUS
 62
     0
100
AcDbMText
 10
643.2842021916584
 20
300.0000000000036
 30
0.0
 40
50.0
 41
0.0
 71
     5
 72
     1
  1
\A1;600
 11
0.0000000000000001
 21
1.0
 31
0.0
1001
ACAD
1000
MTEXTBEGIN
1070
    73
1070
     1
1070
    44
1040
1.0
1070
    74
1070
     0
1000
MTEXTEND
1000
MTEXTBEGIN
1070
    73
1070
     1
1070
    44
1040
1.0
1070
    74
1070
     0
1000
MTEXTEND
  0
POINT
  5
C7417
330
C3275
100
AcDbEntity
  8
DEFPOINTS
  6
CONTINUOUS
 62
     0
100
AcDbPoint
 10
400.0
 20
600.0
 30
0.0
  0
POINT
  5
C7418
330
C3275
100
AcDbEntity
  8
DEFPOINTS
  6
CONTINUOUS
 62
     0
100
AcDbPoint
 10
270.0
 20
0.0
 30
0.0
  0
POINT
  5
C7419
330
C3275
100
AcDbEntity
  8
DEFPOINTS
  6
CONTINUOUS
 62
     0
100
AcDbPoint
 10
678.2842021916584
 20
-0.0000000000001157
 30
0.0
  0
ENDBLK
  5
C3280
330
C3275
100
AcDbEntity
  8
0
100
AcDbBlockEnd
  0
BLOCK
  5
C328D
330
C3281
100
AcDbEntity
  8
0
100
AcDbBlockBegin
  2
*D2
 70
     1
 10
0.0
 20
0.0
 30
0.0
  3
*D2
  1

  0
LINE
  5
C741A
330
C3281
100
AcDbEntity
  8
SIZE
  6
CONTINUOUS
 62
     0
100
AcDbLine
 10
290.0
 20
-0.0000000000000057
 30
0.0
 11
698.2842021916584
 21
-0.0000000000001213
 31
0.0
  0
LINE
  5
C741B
330
C3281
100
AcDbEntity
  8
SIZE
  6
CONTINUOUS
 62
     0
100
AcDbLine
 10
420.0
 20
9.999999999999991
 30
0.0
 11
698.2842021916584
 21
9.999999999999916
 31
0.0
  0
LINE
  5
C741C
330
C3281
100
AcDbEntity
  8
SIZE
  6
CONTINUOUS
 62
     0
100
AcDbLine
 10
678.2842021916584
 20
19.99999999999992
 30
0.0
 11
678.2842021916584
 21
29.99999999999992
 31
0.0
  0
LINE
  5
C741D
330
C3281
100
AcDbEntity
  8
SIZE
  6
CONTINUOUS
 62
     0
100
AcDbLine
 10
678.2842021916584
 20
-10.00000000000011
 30
0.0
 11
678.2842021916584
 21
-113.2857142857135
 31
0.0
  0
LINE
  5
C741E
330
C3281
100
AcDbEntity
  8
SIZE
  6
CONTINUOUS
 62
     0
100
AcDbLine
 10
678.2842021916584
 20
9.99999999999992
 30
0.0
 11
678.2842021916584
 21
-0.0000000000001157
 31
0.0
  0
INSERT
  5
C741F
330
C3281
100
AcDbEntity
  8
SIZE
  6
CONTINUOUS
 62
     0
100
AcDbBlockReference
  2
_ORIGIN
 10
678.2842021916584
 20
9.99999999999992
 30
0.0
 41
10.0
 42
10.0
 43
10.0
 50
270.0
  0
INSERT
  5
C7420
330
C3281
100
AcDbEntity
  8
SIZE
  6
CONTINUOUS
 62
     0
100
AcDbBlockReference
  2
_ORIGIN
 10
678.2842021916584
 20
-0.0000000000001157
 30
0.0
 41
10.0
 42
10.0
 43
10.0
 50
90.0
  0
MTEXT
  5
C7421
330
C3281
100
AcDbEntity
  8
SIZE
  6
CONTINUOUS
 62
     0
100
AcDbMText
 10
643.2842021916584
 20
-71.14285714285642
 30
0.0
 40
50.0
 41
0.0
 71
     5
 72
     1
  1
\A1;10
 11
0.0000000000000001
 21
1.0
 31
0.0
1001
ACAD
1000
MTEXTBEGIN
1070
    73
1070
     1
1070
    44
1040
1.0
1070
    74
1070
     0
1000
MTEXTEND
1000
MTEXTBEGIN
1070
    73
1070
     1
1070
    44
1040
1.0
1070
    74
1070
     0
1000
MTEXTEND
  0
POINT
  5
C7422
330
C3281
100
AcDbEntity
  8
DEFPOINTS
  6
CONTINUOUS
 62
     0
100
AcDbPoint
 10
270.0
 20
0.0
 30
0.0
  0
POINT
  5
C7423
330
C3281
100
AcDbEntity
  8
DEFPOINTS
  6
CONTINUOUS
 62
     0
100
AcDbPoint
 10
400.0
 20
10.0
 30
0.0
  0
POINT
  5
C7424
330
C3281
100
AcDbEntity
  8
DEFPOINTS
  6
CONTINUOUS
 62
     0
100
AcDbPoint
 10
678.2842021916584
 20
9.99999999999992
 30
0.0
  0
ENDBLK
  5
C328E
330
C3281
100
AcDbEntity
  8
0
100
AcDbBlockEnd
  0
BLOCK
  5
C32E8
330
C32DE
100
AcDbEntity
  8
0
100
AcDbBlockBegin
  2
*D3
 70
     1
 10
0.0
 20
0.0
 30
0.0
  3
*D3
  1

  0
LINE
  5
C7408
330
C32DE
100
AcDbEntity
  8
SIZE
  6
CONTINUOUS
 62
     0
100
AcDbLine
 10
-250.0
 20
-40.0
 30
0.0
 11
-250.0
 21
-328.9491926757546
 31
0.0
  0
LINE
  5
C7409
330
C32DE
100
AcDbEntity
  8
SIZE
  6
CONTINUOUS
 62
     0
100
AcDbLine
 10
250.0
 20
-40.0
 30
0.0
 11
249.9999999999999
 21
-328.9491926757546
 31
0.0
  0
LINE
  5
C740A
330
C32DE
100
AcDbEntity
  8
SIZE
  6
CONTINUOUS
 62
     0
100
AcDbLine
 10
-240.0
 20
-308.9491926757546
 30
0.0
 11
239.9999999999999
 21
-308.9491926757546
 31
0.0
  0
INSERT
  5
C740B
330
C32DE
100
AcDbEntity
  8
SIZE
  6
CONTINUOUS
 62
     0
100
AcDbBlockReference
  2
_ORIGIN
 10
-250.0
 20
-308.9491926757546
 30
0.0
 41
10.0
 42
10.0
 43
10.0
 50
180.0
  0
INSERT
  5
C740C
330
C32DE
100
AcDbEntity
  8
SIZE
  6
CONTINUOUS
 62
     0
100
AcDbBlockReference
  2
_ORIGIN
 10
249.9999999999999
 20
-308.9491926757546
 30
0.0
 41
10.0
 42
10.0
 43
10.0
  0
MTEXT
  5
C740D
330
C32DE
100
AcDbEntity
  8
SIZE
  6
CONTINUOUS
 62
     0
100
AcDbMText
 10
-0.0000000000000263
 20
-273.9491926757545
 30
0.0
 40
50.0
 41
0.0
 71
     5
 72
     1
  1
\A1;500
1001
ACAD
1000
MTEXTBEGIN
1070
    73
1070
     1
1070
    44
1040
1.0
1070
    74
1070
     0
1000
MTEXTEND
1000
MTEXTBEGIN
1070
    73
1070
     1
1070
    44
1040
1.0
1070
    74
1070
     0
1000
MTEXTEND
  0
POINT
  5
C740E
330
C32DE
100
AcDbEntity
  8
DEFPOINTS
  6
CONTINUOUS
 62
     0
100
AcDbPoint
 10
-250.0
 20
-20.0
 30
0.0
  0
POINT
  5
C740F
330
C32DE
100
AcDbEntity
  8
DEFPOINTS
  6
CONTINUOUS
 62
     0
100
AcDbPoint
 10
250.0
 20
-20.0
 30
0.0
  0
POINT
  5
C7410
330
C32DE
100
AcDbEntity
  8
DEFPOINTS
  6
CONTINUOUS
 62
     0
100
AcDbPoint
 10
249.9999999999999
 20
-308.9491926757546
 30
0.0
  0
ENDBLK
  5
C32E9
330
C32DE
100
AcDbEntity
  8
0
100
AcDbBlockEnd
  0
BLOCK
  5
C32F6
330
C32EA
100
AcDbEntity
  8
0
100
AcDbBlockBegin
  2
*D4
 70
     1
 10
0.0
 20
0.0
 30
0.0
  3
*D4
  1

  0
LINE
  5
C73FF
330
C32EA
100
AcDbEntity
  8
SIZE
  6
CONTINUOUS
 62
     0
100
AcDbLine
 10
250.0
 20
-40.0
 30
0.0
 11
249.9999999999999
 21
-328.9491926757546
 31
0.0
  0
LINE
  5
C7400
330
C32EA
100
AcDbEntity
  8
SIZE
  6
CONTINUOUS
 62
     0
100
AcDbLine
 10
400.0
 20
-10.0
 30
0.0
 11
400.0
 21
-328.9491926757546
 31
0.0
  0
LINE
  5
C7401
330
C32EA
100
AcDbEntity
  8
SIZE
  6
CONTINUOUS
 62
     0
100
AcDbLine
 10
260.0
 20
-308.9491926757546
 30
0.0
 11
390.0
 21
-308.9491926757546
 31
0.0
  0
INSERT
  5
C7402
330
C32EA
100
AcDbEntity
  8
SIZE
  6
CONTINUOUS
 62
     0
100
AcDbBlockReference
  2
_ORIGIN
 10
249.9999999999999
 20
-308.9491926757546
 30
0.0
 41
10.0
 42
10.0
 43
10.0
 50
180.0
  0
INSERT
  5
C7403
330
C32EA
100
AcDbEntity
  8
SIZE
  6
CONTINUOUS
 62
     0
100
AcDbBlockReference
  2
_ORIGIN
 10
400.0
 20
-308.9491926757546
 30
0.0
 41
10.0
 42
10.0
 43
10.0
  0
MTEXT
  5
C7404
330
C32EA
100
AcDbEntity
  8
SIZE
  6
CONTINUOUS
 62
     0
100
AcDbMText
 10
325.0
 20
-273.9491926757545
 30
0.0
 40
50.0
 41
0.0
 71
     5
 72
     1
  1
\A1;150
1001
ACAD
1000
MTEXTBEGIN
1070
    73
1070
     1
1070
    44
1040
1.0
1070
    74
1070
     0
1000
MTEXTEND
1000
MTEXTBEGIN
1070
    73
1070
     1
1070
    44
1040
1.0
1070
    74
1070
     0
1000
MTEXTEND
  0
POINT
  5
C7405
330
C32EA
100
AcDbEntity
  8
DEFPOINTS
  6
CONTINUOUS
 62
     0
100
AcDbPoint
 10
250.0
 20
-20.0
 30
0.0
  0
POINT
  5
C7406
330
C32EA
100
AcDbEntity
  8
DEFPOINTS
  6
CONTINUOUS
 62
     0
100
AcDbPoint
 10
400.0
 20
10.0
 30
0.0
  0
POINT
  5
C7407
330
C32EA
100
AcDbEntity
  8
DEFPOINTS
  6
CONTINUOUS
 62
     0
100
AcDbPoint
 10
400.0
 20
-308.9491926757546
 30
0.0
  0
ENDBLK
  5
C32F7
330
C32EA
100
AcDbEntity
  8
0
100
AcDbBlockEnd
  0
BLOCK
  5
C3304
330
C32F8
100
AcDbEntity
  8
0
100
AcDbBlockBegin
  2
*D5
 70
     1
 10
0.0
 20
0.0
 30
0.0
  3
*D5
  1

  0
LINE
  5
C73F6
330
C32F8
100
AcDbEntity
  8
SIZE
  6
CONTINUOUS
 62
     0
100
AcDbLine
 10
-400.0
 20
-10.0
 30
0.0
 11
-400.0
 21
-328.9491926757546
 31
0.0
  0
LINE
  5
C73F7
330
C32F8
100
AcDbEntity
  8
SIZE
  6
CONTINUOUS
 62
     0
100
AcDbLine
 10
-250.0
 20
-40.0
 30
0.0
 11
-250.0
 21
-328.9491926757546
 31
0.0
  0
LINE
  5
C73F8
330
C32F8
100
AcDbEntity
  8
SIZE
  6
CONTINUOUS
 62
     0
100
AcDbLine
 10
-390.0
 20
-308.9491926757546
 30
0.0
 11
-260.0
 21
-308.9491926757546
 31
0.0
  0
INSERT
  5
C73F9
330
C32F8
100
AcDbEntity
  8
SIZE
  6
CONTINUOUS
 62
     0
100
AcDbBlockReference
  2
_ORIGIN
 10
-400.0
 20
-308.9491926757546
 30
0.0
 41
10.0
 42
10.0
 43
10.0
 50
180.0
  0
INSERT
  5
C73FA
330
C32F8
100
AcDbEntity
  8
SIZE
  6
CONTINUOUS
 62
     0
100
AcDbBlockReference
  2
_ORIGIN
 10
-250.0
 20
-308.9491926757546
 30
0.0
 41
10.0
 42
10.0
 43
10.0
  0
MTEXT
  5
C73FB
330
C32F8
100
AcDbEntity
  8
SIZE
  6
CONTINUOUS
 62
     0
100
AcDbMText
 10
-325.0
 20
-273.9491926757545
 30
0.0
 40
50.0
 41
0.0
 71
     5
 72
     1
  1
\A1;150
1001
ACAD
1000
MTEXTBEGIN
1070
    73
1070
     1
1070
    44
1040
1.0
1070
    74
1070
     0
1000
MTEXTEND
1000
MTEXTBEGIN
1070
    73
1070
     1
1070
    44
1040
1.0
1070
    74
1070
     0
1000
MTEXTEND
  0
POINT
  5
C73FC
330
C32F8
100
AcDbEntity
  8
DEFPOINTS
  6
CONTINUOUS
 62
     0
100
AcDbPoint
 10
-400.0
 20
10.0
 30
0.0
  0
POINT
  5
C73FD
330
C32F8
100
AcDbEntity
  8
DEFPOINTS
  6
CONTINUOUS
 62
     0
100
AcDbPoint
 10
-250.0
 20
-20.0
 30
0.0
  0
POINT
  5
C73FE
330
C32F8
100
AcDbEntity
  8
DEFPOINTS
  6
CONTINUOUS
 62
     0
100
AcDbPoint
 10
-250.0
 20
-308.9491926757546
 30
0.0
  0
ENDBLK
  5
C3305
330
C32F8
100
AcDbEntity
  8
0
100
AcDbBlockEnd
  0
BLOCK
  5
C3311
330
C3306
100
AcDbEntity
  8
0
100
AcDbBlockBegin
  2
*D6
 70
     1
 10
0.0
 20
0.0
 30
0.0
  3
*D6
  1

  0
LINE
  5
C73EC
330
C3306
100
AcDbEntity
  8
SIZE
  6
CONTINUOUS
 62
     0
100
AcDbLine
 10
-469.0000000000036
 20
37.31039999999848
 30
0.0
 11
-469.0000000000036
 21
-466.4483926757546
 31
0.0
  0
LINE
  5
C73ED
330
C3306
100
AcDbEntity
  8
SIZE
  6
CONTINUOUS
 62
     0
100
AcDbLine
 10
-400.0
 20
-10.0
 30
0.0
 11
-400.0
 21
-466.4483926757546
 31
0.0
  0
LINE
  5
C73EE
330
C3306
100
AcDbEntity
  8
SIZE
  6
CONTINUOUS
 62
     0
100
AcDbLine
 10
-410.0
 20
-446.4483926757548
 30
0.0
 11
-459.0000000000036
 21
-446.4483926757548
 31
0.0
  0
LINE
  5
C73EF
330
C3306
100
AcDbEntity
  8
SIZE
  6
CONTINUOUS
 62
     0
100
AcDbLine
 10
-469.0000000000036
 20
-446.4483926757548
 30
0.0
 11
-579.6142857142893
 21
-446.4483926757548
 31
0.0
  0
INSERT
  5
C73F0
330
C3306
100
AcDbEntity
  8
SIZE
  6
CONTINUOUS
 62
     0
100
AcDbBlockReference
  2
_ORIGIN
 10
-400.0
 20
-446.4483926757548
 30
0.0
 41
10.0
 42
10.0
 43
10.0
  0
INSERT
  5
C73F1
330
C3306
100
AcDbEntity
  8
SIZE
  6
CONTINUOUS
 62
     0
100
AcDbBlockReference
  2
_ORIGIN
 10
-469.0000000000036
 20
-446.4483926757548
 30
0.0
 41
10.0
 42
10.0
 43
10.0
 50
180.0
  0
MTEXT
  5
C73F2
330
C3306
100
AcDbEntity
  8
SIZE
  6
CONTINUOUS
 62
     0
100
AcDbMText
 10
-534.2571428571464
 20
-411.4483926757547
 30
0.0
 40
50.0
 41
0.0
 71
     5
 72
     1
  1
\A1;69
1001
ACAD
1000
MTEXTBEGIN
1070
    73
1070
     1
1070
    44
1040
1.0
1070
    74
1070
     0
1000
MTEXTEND
1000
MTEXTBEGIN
1070
    73
1070
     1
1070
    44
1040
1.0
1070
    74
1070
     0
1000
MTEXTEND
  0
POINT
  5
C73F3
330
C3306
100
AcDbEntity
  8
DEFPOINTS
  6
CONTINUOUS
 62
     0
100
AcDbPoint
 10
-469.0000000000036
 20
57.31039999999847
 30
0.0
  0
POINT
  5
C73F4
330
C3306
100
AcDbEntity
  8
DEFPOINTS
  6
CONTINUOUS
 62
     0
100
AcDbPoint
 10
-400.0
 20
10.0
 30
0.0
  0
POINT
  5
C73F5
330
C3306
100
AcDbEntity
  8
DEFPOINTS
  6
CONTINUOUS
 62
     0
100
AcDbPoint
 10
-400.0
 20
-446.4483926757548
 30
0.0
  0
ENDBLK
  5
C3312
330
C3306
100
AcDbEntity
  8
0
100
AcDbBlockEnd
  0
BLOCK
  5
C331D
330
C3313
100
AcDbEntity
  8
0
100
AcDbBlockBegin
  2
*D7
 70
     1
 10
0.0
 20
0.0
 30
0.0
  3
*D7
  1

  0
LINE
  5
C73E3
330
C3313
100
AcDbEntity
  8
SIZE
  6
CONTINUOUS
 62
     0
100
AcDbLine
 10
-400.0
 20
-10.0
 30
0.0
 11
-400.0
 21
-466.4483926757546
 31
0.0
  0
LINE
  5
C73E4
330
C3313
100
AcDbEntity
  8
SIZE
  6
CONTINUOUS
 62
     0
100
AcDbLine
 10
400.0
 20
-10.0
 30
0.0
 11
399.9999999999998
 21
-466.4483926757546
 31
0.0
  0
LINE
  5
C73E5
330
C3313
100
AcDbEntity
  8
SIZE
  6
CONTINUOUS
 62
     0
100
AcDbLine
 10
-390.0
 20
-446.4483926757548
 30
0.0
 11
390.0
 21
-446.4483926757548
 31
0.0
  0
INSERT
  5
C73E6
330
C3313
100
AcDbEntity
  8
SIZE
  6
CONTINUOUS
 62
     0
100
AcDbBlockReference
  2
_ORIGIN
 10
-400.0
 20
-446.4483926757548
 30
0.0
 41
10.0
 42
10.0
 43
10.0
 50
180.0
  0
INSERT
  5
C73E7
330
C3313
100
AcDbEntity
  8
SIZE
  6
CONTINUOUS
 62
     0
100
AcDbBlockReference
  2
_ORIGIN
 10
400.0
 20
-446.4483926757548
 30
0.0
 41
10.0
 42
10.0
 43
10.0
  0
MTEXT
  5
C73E8
330
C3313
100
AcDbEntity
  8
SIZE
  6
CONTINUOUS
 62
     0
100
AcDbMText
 10
0.0000000000000021
 20
-411.4483926757547
 30
0.0
 40
50.0
 41
0.0
 71
     5
 72
     1
  1
\A1;800
1001
ACAD
1000
MTEXTBEGIN
1070
    73
1070
     1
1070
    44
1040
1.0
1070
    74
1070
     0
1000
MTEXTEND
1000
MTEXTBEGIN
1070
    73
1070
     1
1070
    44
1040
1.0
1070
    74
1070
     0
1000
MTEXTEND
  0
POINT
  5
C73E9
330
C3313
100
AcDbEntity
  8
DEFPOINTS
  6
CONTINUOUS
 62
     0
100
AcDbPoint
 10
-400.0
 20
10.0
 30
0.0
  0
POINT
  5
C73EA
330
C3313
100
AcDbEntity
  8
DEFPOINTS
  6
CONTINUOUS
 62
     0
100
AcDbPoint
 10
400.0
 20
10.0
 30
0.0
  0
POINT
  5
C73EB
330
C3313
100
AcDbEntity
  8
DEFPOINTS
  6
CONTINUOUS
 62
     0
100
AcDbPoint
 10
400.0
 20
-446.4483926757548
 30
0.0
  0
ENDBLK
  5
C331E
330
C3313
100
AcDbEntity
  8
0
100
AcDbBlockEnd
  0
ENDSEC
  0
SECTION
  2
ENTITIES
  0
MTEXT
  5
38341
330
1E
100
AcDbEntity
  8
0
  6
CONTINUOUS
100
AcDbMText
 10
383.9605305094082
 20
4023.282340837186
 30
0.0
 40
64.0
 41
187.9848
 71
     1
 72
     5
  1

1001
ACAD
1000
MTEXTBEGIN
1070
    73
1070
     1
1070
    44
1040
1.0
1070
    74
1070
     0
1000
MTEXTEND
1000
MTEXTBEGIN
1070
    73
1070
     1
1070
    44
1040
1.0
1070
    74
1070
     0
1000
MTEXTEND
1000
MTEXTBEGIN
1070
    73
1070
     1
1070
    44
1040
1.0
1070
    74
1070
     0
1000
MTEXTEND
1000
MTEXTBEGIN
1070
    73
1070
     1
1070
    44
1040
1.0
1070
    74
1070
     0
1000
MTEXTEND
1000
MTEXTBEGIN
1070
    73
1070
     1
1070
    44
1040
1.0
1070
    74
1070
     0
1000
MTEXTEND
  0
TEXT
  5
C18B1
330
1E
100
AcDbEntity
  8
ETC
  6
CONTINUOUS
100
AcDbText
 10
562.2337575391611
 20
757.8817160924136
 30
0.0
 40
64.0
  1
SPAC5193
 41
0.9
100
AcDbText
  0
POINT
  5
C1D3C
330
1E
100
AcDbEntity
  8
ARRANGE
 62
     1
100
AcDbPoint
 10
0.0
 20
0.0
 30
0.0
  0
LINE
  5
C2CAF
330
1E
100
AcDbEntity
  8
0
  6
CONTINUOUS
100
AcDbLine
 10
-400.0
 20
600.0
 30
0.0
 11
400.0
 21
600.0
 31
0.0
  0
LINE
  5
C2CC9
330
1E
100
AcDbEntity
  8
0
  6
CONTINUOUS
100
AcDbLine
 10
-400.0
 20
10.0
 30
0.0
 11
400.0
 21
10.0
 31
0.0
  0
LINE
  5
C2CD7
330
1E
100
AcDbEntity
  8
0
  6
CONTINUOUS
100
AcDbLine
 10
-400.0
 20
10.0
 30
0.0
 11
-400.0
 21
600.0
 31
0.0
  0
LINE
  5
C2CD8
330
1E
100
AcDbEntity
  8
0
  6
CONTINUOUS
100
AcDbLine
 10
-410.0
 20
230.0
 30
0.0
 11
-410.0
 21
560.0
 31
0.0
  0
LINE
  5
C2CE8
330
1E
100
AcDbEntity
  8
0
  6
CONTINUOUS
100
AcDbLine
 10
-469.0
 20
57.31039999999847
 30
0.0
 11
-469.0
 21
203.104589999999
 31
0.0
  0
LINE
  5
C2CE9
330
1E
100
AcDbEntity
  8
0
  6
CONTINUOUS
100
AcDbLine
 10
-400.0
 20
30.0
 30
0.0
 11
-451.8685799999984
 21
37.51718999999865
 31
0.0
  0
ARC
  5
C2CEA
330
1E
100
AcDbEntity
  8
0
  6
CONTINUOUS
100
AcDbCircle
 10
-449.0
 20
57.31039999999847
 30
0.0
 40
20.0
100
AcDbArc
 50
180.0
 51
261.7536789999639
  0
LINE
  5
C2CF0
330
1E
100
AcDbEntity
  8
BASIS
  6
DASHDOT
 62
     6
100
AcDbLine
 10
-250.0
 20
-20.0
 30
0.0
 11
-250.0
 21
20.0
 31
0.0
  0
LINE
  5
C2CF1
330
1E
100
AcDbEntity
  8
BASIS
  6
DASHDOT
 62
     6
100
AcDbLine
 10
-230.0
 20
0.0
 30
0.0
 11
-270.0
 21
0.0
 31
0.0
  0
LINE
  5
C2CF2
330
1E
100
AcDbEntity
  8
0
  6
CONTINUOUS
100
AcDbLine
 10
-270.0
 20
0.0
 30
0.0
 11
-230.0
 21
0.0
 31
0.0
  0
LINE
  5
C2CF3
330
1E
100
AcDbEntity
  8
0
  6
CONTINUOUS
100
AcDbLine
 10
-270.0
 20
10.0
 30
0.0
 11
-270.0
 21
0.0
 31
0.0
  0
LINE
  5
C2CF4
330
1E
100
AcDbEntity
  8
0
  6
CONTINUOUS
100
AcDbLine
 10
-230.0
 20
10.0
 30
0.0
 11
-230.0
 21
0.0
 31
0.0
  0
LINE
  5
C2D35
330
1E
100
AcDbEntity
  8
0
  6
CONTINUOUS
100
AcDbLine
 10
-410.0
 20
230.0
 30
0.0
 11
-452.3421699999998
 21
222.8233599999985
 31
0.0
  0
ARC
  5
C2D36
330
1E
100
AcDbEntity
  8
0
  6
CONTINUOUS
100
AcDbCircle
 10
-449.0
 20
203.104589999999
 30
0.0
 40
20.0
100
AcDbArc
 50
99.61972799999692
 51
180.0
  0
ARC
  5
C2D90
330
1E
100
AcDbEntity
  8
0
  6
CONTINUOUS
100
AcDbCircle
 10
-400.0
 20
560.0
 30
0.0
 40
10.0
100
AcDbArc
 50
90.0
 51
180.0
  0
LINE
  5
C2DB2
330
1E
100
AcDbEntity
  8
BASIS
  6
DASHDOT
 62
     6
100
AcDbLine
 10
0.0
 20
-106.33467
 30
0.0
 11
0.0
 21
631.6661999999996
 31
0.0
  0
LINE
  5
C2DB3
330
1E
100
AcDbEntity
  8
0
  6
CONTINUOUS
100
AcDbLine
 10
400.0
 20
600.0
 30
0.0
 11
400.0
 21
10.0
 31
0.0
  0
CIRCLE
  5
C2E04
330
1E
100
AcDbEntity
  8
ARRANGE
  6
CONTINUOUS
 62
     1
100
AcDbCircle
 10
0.0
 20
0.0
 30
0.0
 40
40.0
  0
LINE
  5
C2E3F
330
1E
100
AcDbEntity
  8
BASIS
  6
DASHDOT
 62
     6
100
AcDbLine
 10
230.0
 20
0.0
 30
0.0
 11
270.0
 21
0.0
 31
0.0
  0
LINE
  5
C2E40
330
1E
100
AcDbEntity
  8
0
  6
CONTINUOUS
100
AcDbLine
 10
230.0
 20
0.0
 30
0.0
 11
270.0
 21
0.0
 31
0.0
  0
LINE
  5
C2E41
330
1E
100
AcDbEntity
  8
BASIS
  6
DASHDOT
 62
     6
100
AcDbLine
 10
250.0
 20
-20.0
 30
0.0
 11
250.0
 21
20.0
 31
0.0
  0
LINE
  5
C2E42
330
1E
100
AcDbEntity
  8
0
  6
CONTINUOUS
100
AcDbLine
 10
230.0
 20
10.0
 30
0.0
 11
230.0
 21
0.0
 31
0.0
  0
LINE
  5
C2E43
330
1E
100
AcDbEntity
  8
0
  6
CONTINUOUS
100
AcDbLine
 10
270.0
 20
10.0
 30
0.0
 11
270.0
 21
0.0
 31
0.0
  0
TEXT
  5
C4C6B
330
1E
100
AcDbEntity
  8
ETC
  6
CONTINUOUS
100
AcDbText
 10
559.9792120121272
 20
876.842157150193
 30
0.0
 40
64.0
  1
PAC別売
 41
0.9
100
AcDbText
  0
LINE
  5
C7428
330
1E
100
AcDbEntity
  8
SIZE
  6
CONTINUOUS
100
AcDbLine
 10
290.0
 20
-0.0000000000000057
 30
0.0
 11
698.2842021916584
 21
-0.0000000000001213
 31
0.0
  0
LINE
  5
C7429
330
1E
100
AcDbEntity
  8
SIZE
  6
CONTINUOUS
100
AcDbLine
 10
420.0
 20
9.999999999999991
 30
0.0
 11
698.2842021916584
 21
9.999999999999916
 31
0.0
  0
LINE
  5
C742A
330
1E
100
AcDbEntity
  8
SIZE
  6
CONTINUOUS
100
AcDbLine
 10
678.2842021916584
 20
19.99999999999992
 30
0.0
 11
678.2842021916584
 21
29.99999999999992
 31
0.0
  0
LINE
  5
C742B
330
1E
100
AcDbEntity
  8
SIZE
  6
CONTINUOUS
100
AcDbLine
 10
678.2842021916584
 20
-10.00000000000011
 30
0.0
 11
678.2842021916584
 21
-113.2857142857135
 31
0.0
  0
LINE
  5
C742C
330
1E
100
AcDbEntity
  8
SIZE
  6
CONTINUOUS
100
AcDbLine
 10
678.2842021916584
 20
9.99999999999992
 30
0.0
 11
678.2842021916584
 21
-0.0000000000001157
 31
0.0
  0
LINE
  5
C7430
330
1E
100
AcDbEntity
  8
SIZE
  6
CONTINUOUS
100
AcDbLine
 10
420.0
 20
600.0
 30
0.0
 11
698.2842021916586
 21
600.0
 31
0.0
  0
LINE
  5
C7431
330
1E
100
AcDbEntity
  8
SIZE
  6
CONTINUOUS
100
AcDbLine
 10
290.0
 20
-0.0000000000000057
 30
0.0
 11
698.2842021916584
 21
-0.0000000000001213
 31
0.0
  0
LINE
  5
C7432
330
1E
100
AcDbEntity
  8
SIZE
  6
CONTINUOUS
100
AcDbLine
 10
678.2842021916586
 20
590.0
 30
0.0
 11
678.2842021916584
 21
9.999999999999882
 31
0.0
  0
LINE
  5
C7436
330
1E
100
AcDbEntity
  8
SIZE
  6
CONTINUOUS
100
AcDbLine
 10
-469.0000000000036
 20
37.31039999999848
 30
0.0
 11
-469.0000000000036
 21
-466.4483926757546
 31
0.0
  0
LINE
  5
C7437
330
1E
100
AcDbEntity
  8
SIZE
  6
CONTINUOUS
100
AcDbLine
 10
-400.0
 20
-10.0
 30
0.0
 11
-400.0
 21
-466.4483926757546
 31
0.0
  0
LINE
  5
C7438
330
1E
100
AcDbEntity
  8
SIZE
  6
CONTINUOUS
100
AcDbLine
 10
-410.0
 20
-446.4483926757548
 30
0.0
 11
-459.0000000000036
 21
-446.4483926757548
 31
0.0
  0
LINE
  5
C7439
330
1E
100
AcDbEntity
  8
SIZE
  6
CONTINUOUS
100
AcDbLine
 10
-469.0000000000036
 20
-446.4483926757548
 30
0.0
 11
-579.6142857142893
 21
-446.4483926757548
 31
0.0
  0
LINE
  5
C743D
330
1E
100
AcDbEntity
  8
SIZE
  6
CONTINUOUS
100
AcDbLine
 10
-400.0
 20
-10.0
 30
0.0
 11
-400.0
 21
-466.4483926757546
 31
0.0
  0
LINE
  5
C743E
330
1E
100
AcDbEntity
  8
SIZE
  6
CONTINUOUS
100
AcDbLine
 10
400.0
 20
-10.0
 30
0.0
 11
399.9999999999998
 21
-466.4483926757546
 31
0.0
  0
LINE
  5
C743F
330
1E
100
AcDbEntity
  8
SIZE
  6
CONTINUOUS
100
AcDbLine
 10
-390.0
 20
-446.4483926757548
 30
0.0
 11
390.0
 21
-446.4483926757548
 31
0.0
  0
LINE
  5
C7443
330
1E
100
AcDbEntity
  8
SIZE
  6
CONTINUOUS
100
AcDbLine
 10
-400.0
 20
-10.0
 30
0.0
 11
-400.0
 21
-328.9491926757546
 31
0.0
  0
LINE
  5
C7444
330
1E
100
AcDbEntity
  8
SIZE
  6
CONTINUOUS
100
AcDbLine
 10
-250.0
 20
-40.0
 30
0.0
 11
-250.0
 21
-328.9491926757546
 31
0.0
  0
LINE
  5
C7445
330
1E
100
AcDbEntity
  8
SIZE
  6
CONTINUOUS
100
AcDbLine
 10
-390.0
 20
-308.9491926757546
 30
0.0
 11
-260.0
 21
-308.9491926757546
 31
0.0
  0
LINE
  5
C7449
330
1E
100
AcDbEntity
  8
SIZE
  6
CONTINUOUS
100
AcDbLine
 10
-250.0
 20
-40.0
 30
0.0
 11
-250.0
 21
-328.9491926757546
 31
0.0
  0
LINE
  5
C744A
330
1E
100
AcDbEntity
  8
SIZE
  6
CONTINUOUS
100
AcDbLine
 10
250.0
 20
-40.0
 30
0.0
 11
249.9999999999999
 21
-328.9491926757546
 31
0.0
  0
LINE
  5
C744B
330
1E
100
AcDbEntity
  8
SIZE
  6
CONTINUOUS
100
AcDbLine
 10
-240.0
 20
-308.9491926757546
 30
0.0
 11
239.9999999999999
 21
-308.9491926757546
 31
0.0
  0
LINE
  5
C744F
330
1E
100
AcDbEntity
  8
SIZE
  6
CONTINUOUS
100
AcDbLine
 10
250.0
 20
-40.0
 30
0.0
 11
249.9999999999999
 21
-328.9491926757546
 31
0.0
  0
LINE
  5
C7450
330
1E
100
AcDbEntity
  8
SIZE
  6
CONTINUOUS
100
AcDbLine
 10
400.0
 20
-10.0
 30
0.0
 11
400.0
 21
-328.9491926757546
 31
0.0
  0
LINE
  5
C7451
330
1E
100
AcDbEntity
  8
SIZE
  6
CONTINUOUS
100
AcDbLine
 10
260.0
 20
-308.9491926757546
 30
0.0
 11
390.0
 21
-308.9491926757546
 31
0.0
  0
TEXT
  5
C7455
330
1E
100
AcDbEntity
  8
SIZE
  6
CONTINUOUS
100
AcDbText
 10
-57.85714285714287
 20
-436.4483926757547
 30
0.0
 40
50.0
  1
800
 41
0.9
100
AcDbText
  0
TEXT
  5
C7456
330
1E
100
AcDbEntity
  8
SIZE
  6
CONTINUOUS
100
AcDbText
 10
-569.6142857142892
 20
-436.4483926757547
 30
0.0
 40
50.0
  1
69
 41
0.9
100
AcDbText
  0
CIRCLE
  5
C7457
330
1E
100
AcDbEntity
  8
SIZE
  6
BYBLOCK
100
AcDbCircle
 10
-400.0
 20
-446.4483926757548
 30
0.0
 40
5.0
  0
LINE
  5
C7458
330
1E
100
AcDbEntity
  8
SIZE
  6
BYBLOCK
100
AcDbLine
 10
-400.0
 20
-446.4483926757548
 30
0.0
 11
-390.0
 21
-446.4483926757548
 31
0.0
  0
CIRCLE
  5
C7459
330
1E
100
AcDbEntity
  8
SIZE
  6
BYBLOCK
100
AcDbCircle
 10
-469.0000000000036
 20
-446.4483926757548
 30
0.0
 40
5.0
  0
LINE
  5
C745A
330
1E
100
AcDbEntity
  8
SIZE
  6
BYBLOCK
100
AcDbLine
 10
-469.0000000000036
 20
-446.4483926757548
 30
0.0
 11
-459.0000000000036
 21
-446.4483926757548
 31
0.0
  0
CIRCLE
  5
C745B
330
1E
100
AcDbEntity
  8
SIZE
  6
BYBLOCK
100
AcDbCircle
 10
-400.0
 20
-446.4483926757548
 30
0.0
 40
5.0
  0
LINE
  5
C745C
330
1E
100
AcDbEntity
  8
SIZE
  6
BYBLOCK
100
AcDbLine
 10
-400.0
 20
-446.4483926757548
 30
0.0
 11
-410.0
 21
-446.4483926757548
 31
0.0
  0
CIRCLE
  5
C745D
330
1E
100
AcDbEntity
  8
SIZE
  6
BYBLOCK
100
AcDbCircle
 10
400.0
 20
-446.4483926757548
 30
0.0
 40
5.0
  0
LINE
  5
C745E
330
1E
100
AcDbEntity
  8
SIZE
  6
BYBLOCK
100
AcDbLine
 10
400.0
 20
-446.4483926757548
 30
0.0
 11
390.0
 21
-446.4483926757548
 31
0.0
  0
TEXT
  5
C745F
330
1E
100
AcDbEntity
  8
SIZE
  6
CONTINUOUS
100
AcDbText
 10
-378.5714285714285
 20
-298.9491926757546
 30
0.0
 40
50.0
  1
150
 41
0.9
100
AcDbText
  0
CIRCLE
  5
C7460
330
1E
100
AcDbEntity
  8
SIZE
  6
BYBLOCK
100
AcDbCircle
 10
-400.0
 20
-308.9491926757546
 30
0.0
 40
5.0
  0
LINE
  5
C7461
330
1E
100
AcDbEntity
  8
SIZE
  6
BYBLOCK
100
AcDbLine
 10
-400.0
 20
-308.9491926757546
 30
0.0
 11
-390.0
 21
-308.9491926757546
 31
0.0
  0
TEXT
  5
C7462
330
1E
100
AcDbEntity
  8
SIZE
  6
CONTINUOUS
100
AcDbText
 10
-57.85714285714287
 20
-298.9491926757546
 30
0.0
 40
50.0
  1
500
 41
0.9
100
AcDbText
  0
CIRCLE
  5
C7463
330
1E
100
AcDbEntity
  8
SIZE
  6
BYBLOCK
100
AcDbCircle
 10
-250.0
 20
-308.9491926757546
 30
0.0
 40
5.0
  0
LINE
  5
C7464
330
1E
100
AcDbEntity
  8
SIZE
  6
BYBLOCK
100
AcDbLine
 10
-250.0
 20
-308.9491926757546
 30
0.0
 11
-240.0
 21
-308.9491926757546
 31
0.0
  0
CIRCLE
  5
C7465
330
1E
100
AcDbEntity
  8
SIZE
  6
BYBLOCK
100
AcDbCircle
 10
-250.0
 20
-308.9491926757546
 30
0.0
 40
5.0
  0
LINE
  5
C7466
330
1E
100
AcDbEntity
  8
SIZE
  6
BYBLOCK
100
AcDbLine
 10
-250.0
 20
-308.9491926757546
 30
0.0
 11
-260.0
 21
-308.9491926757546
 31
0.0
  0
TEXT
  5
C7467
330
1E
100
AcDbEntity
  8
SIZE
  6
CONTINUOUS
100
AcDbText
 10
271.4285714285713
 20
-298.9491926757546
 30
0.0
 40
50.0
  1
150
 41
0.9
100
AcDbText
  0
CIRCLE
  5
C7468
330
1E
100
AcDbEntity
  8
SIZE
  6
BYBLOCK
100
AcDbCircle
 10
249.9999999999999
 20
-308.9491926757546
 30
0.0
 40
5.0
  0
LINE
  5
C7469
330
1E
100
AcDbEntity
  8
SIZE
  6
BYBLOCK
100
AcDbLine
 10
249.9999999999999
 20
-308.9491926757546
 30
0.0
 11
260.0
 21
-308.9491926757546
 31
0.0
  0
CIRCLE
  5
C746A
330
1E
100
AcDbEntity
  8
SIZE
  6
BYBLOCK
100
AcDbCircle
 10
249.9999999999999
 20
-308.9491926757546
 30
0.0
 40
5.0
  0
LINE
  5
C746B
330
1E
100
AcDbEntity
  8
SIZE
  6
BYBLOCK
100
AcDbLine
 10
249.9999999999999
 20
-308.9491926757546
 30
0.0
 11
239.9999999999999
 21
-308.9491926757546
 31
0.0
  0
CIRCLE
  5
C746C
330
1E
100
AcDbEntity
  8
SIZE
  6
BYBLOCK
100
AcDbCircle
 10
400.0
 20
-308.9491926757546
 30
0.0
 40
5.0
  0
LINE
  5
C746D
330
1E
100
AcDbEntity
  8
SIZE
  6
BYBLOCK
100
AcDbLine
 10
400.0
 20
-308.9491926757546
 30
0.0
 11
390.0
 21
-308.9491926757546
 31
0.0
  0
CIRCLE
  5
C746E
330
1E
100
AcDbEntity
  8
SIZE
  6
BYBLOCK
100
AcDbCircle
 10
678.2842021916584
 20
-0.0000000000001157
 30
0.0
 40
5.0
  0
LINE
  5
C746F
330
1E
100
AcDbEntity
  8
SIZE
  6
BYBLOCK
100
AcDbLine
 10
678.2842021916584
 20
-0.0000000000001157
 30
0.0
 11
678.2842021916584
 21
9.999999999999882
 31
0.0
  0
CIRCLE
  5
C7470
330
1E
100
AcDbEntity
  8
SIZE
  6
BYBLOCK
100
AcDbCircle
 10
678.2842021916584
 20
-0.0000000000001157
 30
0.0
 40
5.0
  0
LINE
  5
C7471
330
1E
100
AcDbEntity
  8
SIZE
  6
BYBLOCK
100
AcDbLine
 10
678.2842021916584
 20
-0.0000000000001157
 30
0.0
 11
678.2842021916584
 21
-10.00000000000011
 31
0.0
  0
TEXT
  5
C7472
330
1E
100
AcDbEntity
  8
SIZE
  6
CONTINUOUS
100
AcDbText
 10
668.2842021916584
 20
-103.2857142857134
 30
0.0
 40
50.0
  1
10
 50
90.0
 41
0.9
100
AcDbText
  0
CIRCLE
  5
C7473
330
1E
100
AcDbEntity
  8
SIZE
  6
BYBLOCK
100
AcDbCircle
 10
678.2842021916584
 20
9.99999999999992
 30
0.0
 40
5.0
  0
LINE
  5
C7474
330
1E
100
AcDbEntity
  8
SIZE
  6
BYBLOCK
100
AcDbLine
 10
678.2842021916584
 20
9.99999999999992
 30
0.0
 11
678.2842021916584
 21
19.99999999999992
 31
0.0
  0
TEXT
  5
C7475
330
1E
100
AcDbEntity
  8
SIZE
  6
CONTINUOUS
100
AcDbText
 10
668.2842021916584
 20
242.1428571428608
 30
0.0
 40
50.0
  1
600
 50
90.0
 41
0.9
100
AcDbText
  0
CIRCLE
  5
C7476
330
1E
100
AcDbEntity
  8
SIZE
  6
BYBLOCK
100
AcDbCircle
 10
678.2842021916586
 20
600.0
 30
0.0
 40
5.0
  0
LINE
  5
C7477
330
1E
100
AcDbEntity
  8
SIZE
  6
BYBLOCK
100
AcDbLine
 10
678.2842021916586
 20
600.0
 30
0.0
 11
678.2842021916586
 21
590.0
 31
0.0
  0
ENDSEC
  0
SECTION
  2
OBJECTS
  0
DICTIONARY
  5
C
330
0
100
AcDbDictionary
  3
ACAD_GROUP
350
D
  3
ACAD_LAYOUT
350
19
  3
ACAD_MLINESTYLE
350
16
  3
ACAD_PLOTSETTINGS
350
18
  3
ACAD_PLOTSTYLENAME
350
E
  3
ACDBHEADERROUNDTRIPXREC
350
C74A4
  3
ACDBVARIABLEDICTIONARY
350
A2E2E
  0
DICTIONARY
  5
66E76
330
1E
100
AcDbDictionary
280
     1
  3
ACAD_LAYOUTSELFREF
360
C74C6
  0
DICTIONARY
  5
66E74
330
1A
100
AcDbDictionary
280
     1
  3
ACAD_LAYOUTSELFREF
360
C74C5
  0
DICTIONARY
  5
D
102
{ACAD_REACTORS
330
C
102
}
330
C
100
AcDbDictionary
  3
*A1
350
677EB
  3
*A10
350
77D6C
  3
*A11
350
79B1A
  3
*A12
350
7A715
  3
*A13
350
7DE8D
  3
*A2
350
7DE8E
  3
*A3
350
7DE8F
  3
*A4
350
7DE90
  3
*A5
350
B1D33
  3
*A6
350
B6C6B
  3
*A7
350
B6C6C
  3
*A8
350
B6C6D
  3
*A9
350
B6C6E
  0
DICTIONARY
  5
19
102
{ACAD_REACTORS
330
C
102
}
330
C
100
AcDbDictionary
  0
DICTIONARY
  5
16
102
{ACAD_REACTORS
330
C
102
}
330
C
100
AcDbDictionary
  3
STANDARD
350
17
  0
DICTIONARY
  5
18
102
{ACAD_REACTORS
330
C
102
}
330
C
100
AcDbDictionary
  0
ACDBDICTIONARYWDFLT
  5
E
102
{ACAD_REACTORS
330
C
102
}
330
C
100
AcDbDictionary
281
     1
  3
Normal
350
F
100
AcDbDictionaryWithDefault
340
F
  0
DICTIONARY
  5
C74A4
102
{ACAD_REACTORS
330
C
102
}
330
C
100
AcDbDictionary
  3
CEPSNTYPE
350
C74AE
  3
DIMSTYLEDATA
350
C74B2
  3
FINGERPRINTGUID
350
C74AF
  3
HYPERLINKBASE
350
C74A7
  3
INSUNITS
350
C74AD
  3
LAYOUTDICT
350
C74A9
  3
LWETCUNION
350
C74AC
  3
PLOTSETDICT
350
C74AA
  3
PLOTSTYLNAMDICT
350
C74AB
  3
PSVPSCALE
350
C74B1
  3
PUCSBASE
350
C74B5
  3
PUCSORGBACK
350
C74BB
  3
PUCSORGBOTTOM
350
C74B7
  3
PUCSORGFRONT
350
C74BA
  3
PUCSORGLEFT
350
C74B8
  3
PUCSORGRIGHT
350
C74B9
  3
PUCSORGTOP
350
C74B6
  3
PUCSORTHOREF
350
C74B3
  3
PUCSORTHOVIEW
350
C74B4
  3
STYLESHEET
350
C74A8
  3
TSTACKALIGN
350
C74A5
  3
TSTACKSIZE
350
C74A6
  3
UCSBASE
350
C74BE
  3
UCSORGBACK
350
C74C4
  3
UCSORGBOTTOM
350
C74C0
  3
UCSORGFRONT
350
C74C3
  3
UCSORGLEFT
350
C74C1
  3
UCSORGRIGHT
350
C74C2
  3
UCSORGTOP
350
C74BF
  3
UCSORTHOREF
350
C74BC
  3
UCSORTHOVIEW
350
C74BD
  3
VERSIONGUID
350
C74B0
  0
DICTIONARY
  5
A2E2E
102
{ACAD_REACTORS
330
C
102
}
330
C
100
AcDbDictionary
  3
SORTENTS
350
A2E2F
  0
XRECORD
  5
C74C6
102
{ACAD_REACTORS
330
66E76
102
}
330
66E76
100
AcDbXrecord
340
1E
  0
XRECORD
  5
C74C5
102
{ACAD_REACTORS
330
66E74
102
}
330
66E74
100
AcDbXrecord
340
1A
  0
GROUP
  5
677EB
102
{ACAD_REACTORS
330
D
102
}
330
D
100
AcDbGroup
300

 70
     1
 71
     1
  0
GROUP
  5
77D6C
102
{ACAD_REACTORS
330
D
102
}
330
D
100
AcDbGroup
300

 70
     1
 71
     1
  0
GROUP
  5
79B1A
102
{ACAD_REACTORS
330
D
102
}
330
D
100
AcDbGroup
300

 70
     1
 71
     1
  0
GROUP
  5
7A715
102
{ACAD_REACTORS
330
D
102
}
330
D
100
AcDbGroup
300

 70
     1
 71
     1
  0
GROUP
  5
7DE8D
102
{ACAD_REACTORS
330
D
102
}
330
D
100
AcDbGroup
300

 70
     1
 71
     1
  0
GROUP
  5
7DE8E
102
{ACAD_REACTORS
330
D
102
}
330
D
100
AcDbGroup
300

 70
     1
 71
     1
  0
GROUP
  5
7DE8F
102
{ACAD_REACTORS
330
D
102
}
330
D
100
AcDbGroup
300

 70
     1
 71
     1
  0
GROUP
  5
7DE90
102
{ACAD_REACTORS
330
D
102
}
330
D
100
AcDbGroup
300

 70
     1
 71
     1
  0
GROUP
  5
B1D33
102
{ACAD_REACTORS
330
D
102
}
330
D
100
AcDbGroup
300

 70
     1
 71
     1
  0
GROUP
  5
B6C6B
102
{ACAD_REACTORS
330
D
102
}
330
D
100
AcDbGroup
300

 70
     1
 71
     1
  0
GROUP
  5
B6C6C
102
{ACAD_REACTORS
330
D
102
}
330
D
100
AcDbGroup
300

 70
     1
 71
     1
  0
GROUP
  5
B6C6D
102
{ACAD_REACTORS
330
D
102
}
330
D
100
AcDbGroup
300

 70
     1
 71
     1
  0
GROUP
  5
B6C6E
102
{ACAD_REACTORS
330
D
102
}
330
D
100
AcDbGroup
300

 70
     1
 71
     1
  0
MLINESTYLE
  5
17
102
{ACAD_REACTORS
330
16
102
}
330
16
100
AcDbMlineStyle
  2
STANDARD
 70
     0
  3

 62
   256
 51
90.0
 52
90.0
 71
     2
 49
0.5
 62
   256
  6
BYLAYER
 49
-0.5
 62
   256
  6
BYLAYER
  0
ACDBPLACEHOLDER
  5
F
102
{ACAD_REACTORS
330
E
102
}
330
E
100
AcDbPlaceHolder
280
     0
  0
XRECORD
  5
C74AE
102
{ACAD_REACTORS
330
C74A4
102
}
330
C74A4
100
AcDbXrecord
 90
        0
  0
XRECORD
  5
C74B2
102
{ACAD_REACTORS
330
C74A4
102
}
330
C74A4
100
AcDbXrecord
1000
DSTYLE
1002
{
1070
   341
340
46
1070
   342
340
46
1002
}
  0
XRECORD
  5
C74AF
102
{ACAD_REACTORS
330
C74A4
102
}
330
C74A4
100
AcDbXrecord
  1
{97DA8DB6-C4F0-4C3D-ABEB-53C4FBBC7EFF}
  0
XRECORD
  5
C74A7
102
{ACAD_REACTORS
330
C74A4
102
}
330
C74A4
100
AcDbXrecord
  1

  0
XRECORD
  5
C74AD
102
{ACAD_REACTORS
330
C74A4
102
}
330
C74A4
100
AcDbXrecord
 90
        0
  0
XRECORD
  5
C74A9
102
{ACAD_REACTORS
330
C74A4
102
}
330
C74A4
100
AcDbXrecord
340
19
  0
XRECORD
  5
C74AC
102
{ACAD_REACTORS
330
C74A4
102
}
330
C74A4
100
AcDbXrecord
 90
    10781
  0
XRECORD
  5
C74AA
102
{ACAD_REACTORS
330
C74A4
102
}
330
C74A4
100
AcDbXrecord
340
18
  0
XRECORD
  5
C74AB
102
{ACAD_REACTORS
330
C74A4
102
}
330
C74A4
100
AcDbXrecord
340
E
  0
XRECORD
  5
C74B1
102
{ACAD_REACTORS
330
C74A4
102
}
330
C74A4
100
AcDbXrecord
 40
0.0
  0
XRECORD
  5
C74B5
102
{ACAD_REACTORS
330
C74A4
102
}
330
C74A4
100
AcDbXrecord
340
0
  0
XRECORD
  5
C74BB
102
{ACAD_REACTORS
330
C74A4
102
}
330
C74A4
100
AcDbXrecord
 10
0.0
 20
0.0
 30
0.0
  0
XRECORD
  5
C74B7
102
{ACAD_REACTORS
330
C74A4
102
}
330
C74A4
100
AcDbXrecord
 10
0.0
 20
0.0
 30
0.0
  0
XRECORD
  5
C74BA
102
{ACAD_REACTORS
330
C74A4
102
}
330
C74A4
100
AcDbXrecord
 10
0.0
 20
0.0
 30
0.0
  0
XRECORD
  5
C74B8
102
{ACAD_REACTORS
330
C74A4
102
}
330
C74A4
100
AcDbXrecord
 10
0.0
 20
0.0
 30
0.0
  0
XRECORD
  5
C74B9
102
{ACAD_REACTORS
330
C74A4
102
}
330
C74A4
100
AcDbXrecord
 10
0.0
 20
0.0
 30
0.0
  0
XRECORD
  5
C74B6
102
{ACAD_REACTORS
330
C74A4
102
}
330
C74A4
100
AcDbXrecord
 10
0.0
 20
0.0
 30
0.0
  0
XRECORD
  5
C74B3
102
{ACAD_REACTORS
330
C74A4
102
}
330
C74A4
100
AcDbXrecord
340
0
  0
XRECORD
  5
C74B4
102
{ACAD_REACTORS
330
C74A4
102
}
330
C74A4
100
AcDbXrecord
 70
     0
  0
XRECORD
  5
C74A8
102
{ACAD_REACTORS
330
C74A4
102
}
330
C74A4
100
AcDbXrecord
  1

  0
XRECORD
  5
C74A5
102
{ACAD_REACTORS
330
C74A4
102
}
330
C74A4
100
AcDbXrecord
 90
        1
  0
XRECORD
  5
C74A6
102
{ACAD_REACTORS
330
C74A4
102
}
330
C74A4
100
AcDbXrecord
 90
       70
  0
XRECORD
  5
C74BE
102
{ACAD_REACTORS
330
C74A4
102
}
330
C74A4
100
AcDbXrecord
340
0
  0
XRECORD
  5
C74C4
102
{ACAD_REACTORS
330
C74A4
102
}
330
C74A4
100
AcDbXrecord
 10
0.0
 20
0.0
 30
0.0
  0
XRECORD
  5
C74C0
102
{ACAD_REACTORS
330
C74A4
102
}
330
C74A4
100
AcDbXrecord
 10
0.0
 20
0.0
 30
0.0
  0
XRECORD
  5
C74C3
102
{ACAD_REACTORS
330
C74A4
102
}
330
C74A4
100
AcDbXrecord
 10
0.0
 20
0.0
 30
0.0
  0
XRECORD
  5
C74C1
102
{ACAD_REACTORS
330
C74A4
102
}
330
C74A4
100
AcDbXrecord
 10
0.0
 20
0.0
 30
0.0
  0
XRECORD
  5
C74C2
102
{ACAD_REACTORS
330
C74A4
102
}
330
C74A4
100
AcDbXrecord
 10
0.0
 20
0.0
 30
0.0
  0
XRECORD
  5
C74BF
102
{ACAD_REACTORS
330
C74A4
102
}
330
C74A4
100
AcDbXrecord
 10
0.0
 20
0.0
 30
0.0
  0
XRECORD
  5
C74BC
102
{ACAD_REACTORS
330
C74A4
102
}
330
C74A4
100
AcDbXrecord
340
0
  0
XRECORD
  5
C74BD
102
{ACAD_REACTORS
330
C74A4
102
}
330
C74A4
100
AcDbXrecord
 70
     0
  0
XRECORD
  5
C74B0
102
{ACAD_REACTORS
330
C74A4
102
}
330
C74A4
100
AcDbXrecord
  1
{60E5DDA0-2ECE-454E-A799-E77E1DAC91D3}
  0
DICTIONARYVAR
  5
A2E2F
102
{ACAD_REACTORS
330
A2E2E
102
}
330
A2E2E
100
DictionaryVariables
280
     0
  1
96
  0
ENDSEC
  0
EOF
