  0
SECTION
  2
HEADER
  9
$ACADVER
  1
AC1014
  9
$ACADMAINTVER
 70
     9
  9
$DWGCODEPAGE
  3
ANSI_932
  9
$INSBASE
 10
0.0
 20
0.0
 30
0.0
  9
$EXTMIN
 10
-4027.79601016677
 20
-5593.116312394538
 30
0.0
  9
$EXTMAX
 10
6136.652668704758
 20
1053.963767074958
 30
0.0
  9
$LIMMIN
 10
-4027.79601016677
 20
-5593.116312394538
  9
$LIMMAX
 10
6136.652668704758
 20
1053.963767074958
  9
$ORTHOMODE
 70
     1
  9
$REGENMODE
 70
     1
  9
$FILLMODE
 70
     1
  9
$QTEXTMODE
 70
     0
  9
$MIRRTEXT
 70
     0
  9
$DRAGMODE
 70
     2
  9
$LTSCALE
 40
20.0
  9
$OSMODE
 70
    39
  9
$ATTMODE
 70
     1
  9
$TEXTSIZE
 40
64.0
  9
$TRACEWID
 40
0.05
  9
$TEXTSTYLE
  7
STANDARD
  9
$CLAYER
  8
SIZE
  9
$CELTYPE
  6
BYLAYER
  9
$CECOLOR
 62
   256
  9
$CELTSCALE
 40
1.0
  9
$DELOBJ
 70
     1
  9
$DISPSILH
 70
     0
  9
$DIMSCALE
 40
1.0
  9
$DIMASZ
 40
10.0
  9
$DIMEXO
 40
20.0
  9
$DIMDLI
 40
200.0
  9
$DIMRND
 40
0.0
  9
$DIMDLE
 40
0.0
  9
$DIMEXE
 40
30.0
  9
$DIMTP
 40
0.0
  9
$DIMTM
 40
0.0
  9
$DIMTXT
 40
64.0
  9
$DIMCEN
 40
0.09
  9
$DIMTSZ
 40
0.0
  9
$DIMTOL
 70
     0
  9
$DIMLIM
 70
     0
  9
$DIMTIH
 70
     0
  9
$DIMTOH
 70
     0
  9
$DIMSE1
 70
     0
  9
$DIMSE2
 70
     0
  9
$DIMTAD
 70
     1
  9
$DIMZIN
 70
     8
  9
$DIMBLK
  1
ORIGIN
  9
$DIMASO
 70
     1
  9
$DIMSHO
 70
     0
  9
$DIMPOST
  1

  9
$DIMAPOST
  1

  9
$DIMALT
 70
     0
  9
$DIMALTD
 70
     2
  9
$DIMALTF
 40
25.4
  9
$DIMLFAC
 40
1.0
  9
$DIMTOFL
 70
     1
  9
$DIMTVP
 40
0.0
  9
$DIMTIX
 70
     0
  9
$DIMSOXD
 70
     0
  9
$DIMSAH
 70
     0
  9
$DIMBLK1
  1

  9
$DIMBLK2
  1

  9
$DIMSTYLE
  2
STANDARD
  9
$DIMCLRD
 70
     0
  9
$DIMCLRE
 70
     0
  9
$DIMCLRT
 70
     0
  9
$DIMTFAC
 40
1.0
  9
$DIMGAP
 40
20.0
  9
$DIMJUST
 70
     0
  9
$DIMSD1
 70
     0
  9
$DIMSD2
 70
     0
  9
$DIMTOLJ
 70
     1
  9
$DIMTZIN
 70
     0
  9
$DIMALTZ
 70
     0
  9
$DIMALTTZ
 70
     0
  9
$DIMFIT
 70
     3
  9
$DIMUPT
 70
     0
  9
$DIMUNIT
 70
     2
  9
$DIMDEC
 70
     4
  9
$DIMTDEC
 70
     4
  9
$DIMALTU
 70
     2
  9
$DIMALTTD
 70
     2
  9
$DIMTXSTY
  7
STANDARD
  9
$DIMAUNIT
 70
     0
  9
$LUNITS
 70
     2
  9
$LUPREC
 70
     4
  9
$SKETCHINC
 40
0.1
  9
$FILLETRAD
 40
6.0
  9
$AUNITS
 70
     1
  9
$AUPREC
 70
     3
  9
$MENU
  1
ACAD
  9
$ELEVATION
 40
0.0
  9
$PELEVATION
 40
0.0
  9
$THICKNESS
 40
0.0
  9
$LIMCHECK
 70
     0
  9
$BLIPMODE
 70
     0
  9
$CHAMFERA
 40
0.0
  9
$CHAMFERB
 40
0.0
  9
$CHAMFERC
 40
0.0
  9
$CHAMFERD
 40
0.0
  9
$SKPOLY
 70
     0
  9
$TDCREATE
 40
2450330.393205995
  9
$TDUPDATE
 40
2455376.544119826
  9
$TDINDWG
 40
1.3810172801
  9
$TDUSRTIMER
 40
1.3810171644
  9
$USRTIMER
 70
     1
  9
$ANGBASE
 50
0.0
  9
$ANGDIR
 70
     0
  9
$PDMODE
 70
     3
  9
$PDSIZE
 40
-2.0
  9
$PLINEWID
 40
0.0
  9
$COORDS
 70
     0
  9
$SPLFRAME
 70
     0
  9
$SPLINETYPE
 70
     6
  9
$SPLINESEGS
 70
     8
  9
$ATTDIA
 70
     0
  9
$ATTREQ
 70
     1
  9
$HANDLING
 70
-16383
  9
$HANDSEED
  5
232B4
  9
$SURFTAB1
 70
     6
  9
$SURFTAB2
 70
     6
  9
$SURFTYPE
 70
     6
  9
$SURFU
 70
     6
  9
$SURFV
 70
     6
  9
$UCSNAME
  2

  9
$UCSORG
 10
0.0
 20
0.0
 30
0.0
  9
$UCSXDIR
 10
1.0
 20
0.0
 30
0.0
  9
$UCSYDIR
 10
0.0
 20
1.0
 30
0.0
  9
$PUCSNAME
  2

  9
$PUCSORG
 10
0.0
 20
0.0
 30
0.0
  9
$PUCSXDIR
 10
1.0
 20
0.0
 30
0.0
  9
$PUCSYDIR
 10
0.0
 20
1.0
 30
0.0
  9
$USERI1
 70
     0
  9
$USERI2
 70
     0
  9
$USERI3
 70
     0
  9
$USERI4
 70
     0
  9
$USERI5
 70
     0
  9
$USERR1
 40
20.0
  9
$USERR2
 40
0.0
  9
$USERR3
 40
0.0
  9
$USERR4
 40
0.0
  9
$USERR5
 40
0.0
  9
$WORLDVIEW
 70
     1
  9
$SHADEDGE
 70
     3
  9
$SHADEDIF
 70
    70
  9
$TILEMODE
 70
     1
  9
$MAXACTVP
 70
    64
  9
$PINSBASE
 10
0.0
 20
0.0
 30
0.0
  9
$PLIMCHECK
 70
     0
  9
$PEXTMIN
 10
1.000000000000000E+20
 20
1.000000000000000E+20
 30
1.000000000000000E+20
  9
$PEXTMAX
 10
-1.000000000000000E+20
 20
-1.000000000000000E+20
 30
-1.000000000000000E+20
  9
$PLIMMIN
 10
0.0
 20
0.0
  9
$PLIMMAX
 10
12.0
 20
9.0
  9
$UNITMODE
 70
     0
  9
$VISRETAIN
 70
     1
  9
$PLINEGEN
 70
     0
  9
$PSLTSCALE
 70
     1
  9
$TREEDEPTH
 70
  3020
  9
$PICKSTYLE
 70
     1
  9
$CMLSTYLE
  2
STANDARD
  9
$CMLJUST
 70
     0
  9
$CMLSCALE
 40
1.0
  9
$PROXYGRAPHICS
 70
     1
  9
$MEASUREMENT
 70
     0
  0
ENDSEC
  0
SECTION
  2
CLASSES
  0
CLASS
  1
ACDBDICTIONARYWDFLT
  2
AcDbDictionaryWithDefault
  3
AutoCAD 2000
 90
        0
280
     0
281
     0
  0
CLASS
  1
ACDBPLACEHOLDER
  2
AcDbPlaceHolder
  3
AutoCAD 2000
 90
        0
280
     0
281
     0
  0
CLASS
  1
LAYOUT
  2
AcDbLayout
  3
AutoCAD 2000
 90
        0
280
     0
281
     0
  0
CLASS
  1
LONG_TRANSACTION
  2
AcDbLongTransaction
  3
AutoCAD 2000
 90
        0
280
     0
281
     0
  0
CLASS
  1
LWPOLYLINE
  2
AcDbPolyline
  3
AutoCAD 2000
 90
        0
280
     0
281
     1
  0
CLASS
  1
HATCH
  2
AcDbHatch
  3
AutoCAD 2000
 90
        0
280
     0
281
     1
  0
CLASS
  1
XRECORD
  2
AcDbXrecord
  3
AutoCAD 2000
 90
        0
280
     0
281
     0
  0
ENDSEC
  0
SECTION
  2
TABLES
  0
TABLE
  2
VPORT
  5
3D1
330
0
100
AcDbSymbolTable
 70
     7
  0
VPORT
  5
2328E
330
3D1
100
AcDbSymbolTableRecord
100
AcDbViewportTableRecord
  2
*ACTIVE
 70
     0
 10
0.0
 20
0.0
 11
1.0
 21
1.0
 12
186.2274548933419
 22
-75.00038634527732
 13
0.0
 23
0.0
 14
50.0
 24
50.0
 15
100.0
 25
100.0
 16
0.0
 26
0.0
 36
1.0
 17
0.0
 27
0.0
 37
0.0
 40
2832.399496120115
 41
1.23406862745098
 42
50.0
 43
0.0
 44
0.0
 50
0.0
 51
0.0
 71
     0
 72
   500
 73
     1
 74
     0
 75
     0
 76
     0
 77
     0
 78
     0
  0
ENDTAB
  0
TABLE
  2
LTYPE
  5
3CE
330
0
100
AcDbSymbolTable
 70
     5
  0
LTYPE
  5
3DC
330
3CE
100
AcDbSymbolTableRecord
100
AcDbLinetypeTableRecord
  2
BYBLOCK
 70
     0
  3

 72
    65
 73
     0
 40
0.0
  0
LTYPE
  5
3DD
330
3CE
100
AcDbSymbolTableRecord
100
AcDbLinetypeTableRecord
  2
BYLAYER
 70
     0
  3

 72
    65
 73
     0
 40
0.0
  0
LTYPE
  5
3DE
330
3CE
100
AcDbSymbolTableRecord
100
AcDbLinetypeTableRecord
  2
CONTINUOUS
 70
     0
  3
実線
 72
    65
 73
     0
 40
0.0
  0
LTYPE
  5
3ED
330
3CE
100
AcDbSymbolTableRecord
100
AcDbLinetypeTableRecord
  2
DASHDOT
 70
     0
  3
____ _ ____ _ ____ _ ____ _ ____ _ ____ _ ____
 72
    65
 73
     4
 40
5.5
 49
4.0
 74
     0
 49
-0.6
 74
     0
 49
0.3
 74
     0
 49
-0.6
 74
     0
  0
LTYPE
  5
3EE
330
3CE
100
AcDbSymbolTableRecord
100
AcDbLinetypeTableRecord
  2
CONTINOUS
 70
     0
  3
Solid line
 72
    65
 73
     0
 40
0.0
  0
LTYPE
  5
26A7
330
3CE
100
AcDbSymbolTableRecord
100
AcDbLinetypeTableRecord
  2
DOT_CENTER
 70
     0
  3
Dot_Center
 72
    65
 73
     4
 40
14.0
 49
12.0
 74
     0
 49
-1.0
 74
     0
 49
0.0
 74
     0
 49
-1.0
 74
     0
  0
ENDTAB
  0
TABLE
  2
LAYER
  5
3CB
330
0
100
AcDbSymbolTable
 70
    10
  0
LAYER
  5
3D9
330
3CB
100
AcDbSymbolTableRecord
100
AcDbLayerTableRecord
  2
0
 70
     0
 62
     7
  6
CONTINUOUS
  0
LAYER
  5
3EB
330
3CB
100
AcDbSymbolTableRecord
100
AcDbLayerTableRecord
  2
SIZE
 70
     0
 62
    32
  6
CONTINUOUS
  0
LAYER
  5
3F4
330
3CB
100
AcDbSymbolTableRecord
100
AcDbLayerTableRecord
  2
DETAIL
 70
     0
 62
     5
  6
CONTINUOUS
  0
LAYER
  5
3F5
330
3CB
100
AcDbSymbolTableRecord
100
AcDbLayerTableRecord
  2
OUTLINE
 70
     0
 62
     3
  6
CONTINUOUS
  0
LAYER
  5
3F6
330
3CB
100
AcDbSymbolTableRecord
100
AcDbLayerTableRecord
  2
BASIS
 70
     0
 62
     6
  6
CONTINUOUS
  0
LAYER
  5
3F7
330
3CB
100
AcDbSymbolTableRecord
100
AcDbLayerTableRecord
  2
NOTE
 70
     0
 62
     4
  6
CONTINUOUS
  0
LAYER
  5
3F8
330
3CB
100
AcDbSymbolTableRecord
100
AcDbLayerTableRecord
  2
ARRANGE
 70
     0
 62
     1
  6
CONTINUOUS
  0
LAYER
  5
3F9
330
3CB
100
AcDbSymbolTableRecord
100
AcDbLayerTableRecord
  2
FIX
 70
     0
 62
   241
  6
CONTINUOUS
  0
LAYER
  5
3FA
330
3CB
100
AcDbSymbolTableRecord
100
AcDbLayerTableRecord
  2
ETC
 70
     0
 62
    83
  6
CONTINUOUS
  0
LAYER
  5
3FD
330
3CB
100
AcDbSymbolTableRecord
100
AcDbLayerTableRecord
  2
DEFPOINTS
 70
     0
 62
     7
  6
CONTINUOUS
  0
ENDTAB
  0
TABLE
  2
STYLE
  5
3CC
330
0
100
AcDbSymbolTable
 70
     1
  0
STYLE
  5
3DA
330
3CC
100
AcDbSymbolTableRecord
100
AcDbTextStyleTableRecord
  2
STANDARD
 70
     0
 40
0.0
 41
0.9
 50
0.0
 71
     0
 42
64.0
  3
SIMPLEX
  4
BIGFONT
  0
ENDTAB
  0
TABLE
  2
VIEW
  5
3CF
330
0
100
AcDbSymbolTable
 70
     1
  0
VIEW
  5
3FF
330
3CF
100
AcDbSymbolTableRecord
100
AcDbViewTableRecord
  2
ALL
 70
     0
 40
4282.62
 10
0.0
 20
41.30990399999999
 41
5940.0
 11
0.0
 21
0.0
 31
1.0
 12
0.0
 22
0.0
 32
0.0
 42
50.0
 43
0.0
 44
0.0
 50
0.0
 71
     0
  0
ENDTAB
  0
TABLE
  2
UCS
  5
3D0
330
0
100
AcDbSymbolTable
 70
     0
  0
ENDTAB
  0
TABLE
  2
APPID
  5
3D2
330
0
100
AcDbSymbolTable
 70
     1
  0
APPID
  5
3DB
330
3D2
100
AcDbSymbolTableRecord
100
AcDbRegAppTableRecord
  2
ACAD
 70
     0
  0
ENDTAB
  0
TABLE
  2
DIMSTYLE
  5
3D3
330
0
100
AcDbSymbolTable
 70
     1
  0
DIMSTYLE
105
400
330
3D3
100
AcDbSymbolTableRecord
100
AcDbDimStyleTableRecord
  2
STANDARD
 70
     0
  3

  4

  5

  6

  7

 40
1.0
 41
0.18
 42
0.0625
 43
0.38
 44
0.18
 45
0.0
 46
0.0
 47
0.0
 48
0.0
140
0.18
141
0.09
142
0.0
143
25.4
144
1.0
145
0.0
146
1.0
147
0.09
 71
     0
 72
     0
 73
     1
 74
     1
 75
     0
 76
     0
 77
     0
 78
     0
170
     0
171
     2
172
     0
173
     0
174
     0
175
     0
176
     0
177
     0
178
     0
270
     2
271
     4
272
     4
273
     2
274
     2
340
3DA
275
     1
280
     0
281
     0
282
     0
283
     1
284
     8
285
     8
286
     8
287
     5
288
     0
  0
ENDTAB
  0
TABLE
  2
BLOCK_RECORD
  5
3CA
330
0
100
AcDbSymbolTable
 70
   100
  0
BLOCK_RECORD
  5
3E7
102
{ACAD_XDICTIONARY
360
232B2
102
}
330
3CA
100
AcDbSymbolTableRecord
100
AcDbBlockTableRecord
  2
*MODEL_SPACE
  0
BLOCK_RECORD
  5
3E3
102
{ACAD_XDICTIONARY
360
232B0
102
}
330
3CA
100
AcDbSymbolTableRecord
100
AcDbBlockTableRecord
  2
*PAPER_SPACE
  0
BLOCK_RECORD
  5
4A9
330
3CA
100
AcDbSymbolTableRecord
100
AcDbBlockTableRecord
  2
_ORIGIN
  0
ENDTAB
  0
ENDSEC
  0
SECTION
  2
BLOCKS
  0
BLOCK
  5
3E8
330
3E7
100
AcDbEntity
  8
0
100
AcDbBlockBegin
  2
*MODEL_SPACE
 70
     0
 10
0.0
 20
0.0
 30
0.0
  3
*MODEL_SPACE
  1

  0
ENDBLK
  5
3E9
330
3E7
100
AcDbEntity
  8
0
100
AcDbBlockEnd
  0
BLOCK
  5
3E4
330
3E3
100
AcDbEntity
 67
     1
  8
0
100
AcDbBlockBegin
  2
*PAPER_SPACE
 70
     0
 10
0.0
 20
0.0
 30
0.0
  3
*PAPER_SPACE
  1

  0
ENDBLK
  5
3E5
330
3E3
100
AcDbEntity
 67
     1
  8
0
100
AcDbBlockEnd
  0
BLOCK
  5
4AA
330
4A9
100
AcDbEntity
  8
0
100
AcDbBlockBegin
  2
_ORIGIN
 70
     0
 10
0.0
 20
0.0
 30
0.0
  3
_ORIGIN
  1

  0
CIRCLE
  5
4AB
330
4A9
100
AcDbEntity
  8
0
  6
BYBLOCK
 62
     0
100
AcDbCircle
 10
0.0
 20
0.0
 30
0.0
 40
0.5
  0
LINE
  5
4AC
330
4A9
100
AcDbEntity
  8
0
  6
BYBLOCK
 62
     0
100
AcDbLine
 10
0.0
 20
0.0
 30
0.0
 11
-1.0
 21
0.0
 31
0.0
  0
ENDBLK
  5
4AD
330
4A9
100
AcDbEntity
  8
0
100
AcDbBlockEnd
  0
ENDSEC
  0
SECTION
  2
ENTITIES
  0
TEXT
  5
651
330
3E7
100
AcDbEntity
  8
ETC
  6
CONTINUOUS
100
AcDbText
 10
783.3250509780063
 20
705.0664192615358
 30
0.0
 40
64.0
  1
SPAC5241
 41
0.9
100
AcDbText
  0
POINT
  5
652
330
3E7
100
AcDbEntity
  8
ARRANGE
  6
CONTINUOUS
100
AcDbPoint
 10
0.0
 20
0.0
 30
0.0
  0
LINE
  5
657
330
3E7
100
AcDbEntity
  8
NOTE
  6
CONTINOUS
100
AcDbLine
 10
-299.9999847412091
 20
200.451452541914
 30
0.0
 11
-299.9999847412091
 21
160.451452541914
 31
0.0
  0
LINE
  5
658
330
3E7
100
AcDbEntity
  8
NOTE
  6
CONTINOUS
100
AcDbLine
 10
-279.9999847412091
 20
180.451452541914
 30
0.0
 11
-319.9999847412091
 21
180.451452541914
 31
0.0
  0
LINE
  5
661
330
3E7
100
AcDbEntity
  8
NOTE
  6
CONTINOUS
100
AcDbLine
 10
345.0000305175653
 20
-165.0000037787085
 30
0.0
 11
305.0000305175653
 21
-165.0000037787085
 31
0.0
  0
LINE
  5
663
330
3E7
100
AcDbEntity
  8
BASIS
  6
DASHDOT
100
AcDbLine
 10
518.9188715
 20
0.0
 30
0.0
 11
-518.9188715
 21
0.0
 31
0.0
  0
TEXT
  5
672
330
3E7
100
AcDbEntity
  8
ETC
  6
CONTINUOUS
100
AcDbText
 10
795.1477949780056
 20
810.2538077262829
 30
0.0
 40
64.0
  1
PAC別売
 41
0.9
100
AcDbText
  0
CIRCLE
  5
673
330
3E7
100
AcDbEntity
  8
ARRANGE
  6
CONTINUOUS
100
AcDbCircle
 10
0.0
 20
0.0
 30
0.0
 40
40.0
  0
LINE
  5
685
330
3E7
100
AcDbEntity
  8
BASIS
  6
DASHDOT
100
AcDbLine
 10
0.0
 20
202.185091897244
 30
0.0
 11
0.0
 21
-209.5297219955146
 31
0.0
  0
LINE
  5
C680
330
3E7
100
AcDbEntity
  8
0
  6
CONTINUOUS
100
AcDbLine
 10
525.0000305175653
 20
-150.0000037787085
 30
0.0
 11
525.0000305175653
 21
150.0000038506832
 31
0.0
  0
LINE
  5
C683
330
3E7
100
AcDbEntity
  8
0
  6
CONTINUOUS
100
AcDbLine
 10
-525.0000000000018
 20
150.0000038506832
 30
0.0
 11
-525.0000000000018
 21
-150.0000037787085
 31
0.0
  0
LINE
  5
D42F
330
3E7
100
AcDbEntity
  8
0
  6
CONTINUOUS
100
AcDbLine
 10
-510.0000000000018
 20
-165.0000037787085
 30
0.0
 11
509.9999999999872
 21
-165.0000037787085
 31
0.0
  0
ARC
  5
D430
330
3E7
100
AcDbEntity
  8
0
  6
CONTINUOUS
100
AcDbCircle
 10
-509.9999879443221
 20
-149.9999917230243
 30
0.0
 40
15.00001205569363
100
AcDbArc
 50
180.0000460492956
 51
269.9999539507304
  0
ARC
  5
D57E
330
3E7
100
AcDbEntity
  8
0
  6
CONTINUOUS
100
AcDbCircle
 10
-299.9999847412091
 20
-201.5999992010723
 30
0.0
 40
6.0
100
AcDbArc
 50
180.0
 51
0.0
  0
LINE
  5
D57F
330
3E7
100
AcDbEntity
  8
0
  6
CONTINUOUS
100
AcDbLine
 10
-274.9999694824345
 20
-217.5999946234369
 30
0.0
 11
-324.9999694824346
 21
-217.5999946234369
 31
0.0
  0
ARC
  5
D5ED
330
3E7
100
AcDbEntity
  8
0
  6
CONTINUOUS
100
AcDbCircle
 10
-331.999977263169
 20
-209.6000024041805
 30
0.0
 40
2.999992219268819
100
AcDbArc
 50
179.9998513984144
 51
270.0001486016376
  0
ARC
  5
D5EE
330
3E7
100
AcDbEntity
  8
0
  6
CONTINUOUS
100
AcDbCircle
 10
-324.9999772631436
 20
-212.6000024041504
 30
0.0
 40
4.999992219293091
100
AcDbArc
 50
179.9999108394603
 51
270.0000891605657
  0
LINE
  5
D5EF
330
3E7
100
AcDbEntity
  8
0
  6
CONTINUOUS
100
AcDbLine
 10
-305.9999847411914
 20
-190.0000037787085
 30
0.0
 11
-305.9999847411945
 21
-201.5999992010723
 31
0.0
  0
LINE
  5
D5F2
330
3E7
100
AcDbEntity
  8
0
  6
CONTINUOUS
100
AcDbLine
 10
-329.9999694824346
 20
-212.5999946234369
 30
0.0
 11
-329.9999694824346
 21
-190.0000037787085
 31
0.0
  0
LINE
  5
D5F3
330
3E7
100
AcDbEntity
  8
0
  6
CONTINUOUS
100
AcDbLine
 10
-331.9999694824255
 20
-212.5999946234392
 30
0.0
 11
-329.9999694824346
 21
-212.5999946234369
 31
0.0
  0
LINE
  5
D5F5
330
3E7
100
AcDbEntity
  8
0
  6
CONTINUOUS
100
AcDbLine
 10
-334.9999694824327
 20
-190.0000037787085
 30
0.0
 11
-334.9999694824346
 21
-209.5999946234396
 31
0.0
  0
LINE
  5
D5F7
330
3E7
100
AcDbEntity
  8
0
  6
CONTINUOUS
100
AcDbLine
 10
-264.9999694824328
 20
-190.0000037787085
 30
0.0
 11
-264.9999694824346
 21
-209.5999946234396
 31
0.0
  0
ARC
  5
D65E
330
3E7
100
AcDbEntity
  8
0
  6
CONTINUOUS
100
AcDbCircle
 10
-267.9999678052099
 20
-209.5999963006615
 30
0.0
 40
2.999998322775367
100
AcDbArc
 50
269.9999679673341
 51
0.0000320326658989
  0
ARC
  5
D65F
330
3E7
100
AcDbEntity
  8
0
  6
CONTINUOUS
100
AcDbCircle
 10
-274.9999678052354
 20
-212.5999963006361
 30
0.0
 40
4.999998322800193
100
AcDbArc
 50
269.9999807807131
 51
0.0000192193129332
  0
LINE
  5
D664
330
3E7
100
AcDbEntity
  8
0
  6
CONTINUOUS
100
AcDbLine
 10
-293.9999847412055
 20
-201.5999992010723
 30
0.0
 11
-293.9999847412039
 21
-190.0000037787085
 31
0.0
  0
LINE
  5
D665
330
3E7
100
AcDbEntity
  8
0
  6
CONTINUOUS
100
AcDbLine
 10
-269.9999694824346
 20
-190.0000037787085
 30
0.0
 11
-269.9999694824346
 21
-212.5999946234369
 31
0.0
  0
LINE
  5
D667
330
3E7
100
AcDbEntity
  8
0
  6
CONTINUOUS
100
AcDbLine
 10
-267.9999694824346
 20
-212.5999946234364
 30
0.0
 11
-269.9999694824346
 21
-212.5999946234369
 31
0.0
  0
ARC
  5
ECFB
330
3E7
100
AcDbEntity
  8
0
  6
CONTINUOUS
100
AcDbCircle
 10
217.2426702037573
 20
-164.0000061949731
 30
0.0
 40
2.999997583740558
100
AcDbArc
 50
224.9996305590268
 51
270.0001065221237
  0
ARC
  5
F54B
330
3E7
100
AcDbEntity
  8
0
  6
CONTINUOUS
100
AcDbCircle
 10
212.7573367328277
 20
-167.9999846161072
 30
0.0
 40
2.999980837422236
100
AcDbArc
 50
44.99949807818187
 51
90.00023900305164
  0
LINE
  5
F54C
330
3E7
100
AcDbEntity
  8
0
  6
CONTINUOUS
100
AcDbLine
 10
214.8786621093659
 20
-165.8786964056653
 30
0.0
 11
215.1213378906122
 21
-166.121311151759
 31
0.0
  0
ARC
  5
1023F
330
3E7
100
AcDbEntity
  8
0
  6
CONTINUOUS
100
AcDbCircle
 10
332.00003219479
 20
-209.5999963006615
 30
0.0
 40
2.999998322775367
100
AcDbArc
 50
269.9999679673341
 51
0.0000320326658989
  0
LINE
  5
10244
330
3E7
100
AcDbEntity
  8
0
  6
CONTINUOUS
100
AcDbLine
 10
329.9999999999982
 20
-167.0000037787112
 30
0.0
 11
336.243041992182
 21
-167.0000037787112
 31
0.0
  0
LINE
  5
10246
330
3E7
100
AcDbEntity
  8
0
  6
CONTINUOUS
100
AcDbLine
 10
330.0000305175653
 20
-167.0000037787112
 30
0.0
 11
330.0000305175653
 21
-212.5999946234369
 31
0.0
  0
LINE
  5
10247
330
3E7
100
AcDbEntity
  8
0
  6
CONTINUOUS
100
AcDbLine
 10
270.0000305175653
 20
-212.5999946234369
 30
0.0
 11
270.0000305175653
 21
-167.0000037787112
 31
0.0
  0
LINE
  5
10248
330
3E7
100
AcDbEntity
  8
0
  6
CONTINUOUS
100
AcDbLine
 10
265.0000305175653
 20
-167.0000190374994
 30
0.0
 11
265.0000305175653
 21
-209.5999946234396
 31
0.0
  0
ARC
  5
1024A
330
3E7
100
AcDbEntity
  8
0
  6
CONTINUOUS
100
AcDbCircle
 10
275.0000227368563
 20
-212.6000024041504
 30
0.0
 40
4.999992219292977
100
AcDbArc
 50
179.9999108394603
 51
270.0000891605657
  0
ARC
  5
1024B
330
3E7
100
AcDbEntity
  8
0
  6
CONTINUOUS
100
AcDbCircle
 10
268.0000227368309
 20
-209.6000024041805
 30
0.0
 40
2.999992219268135
100
AcDbArc
 50
179.9998513984144
 51
270.0001486016376
  0
LINE
  5
1024C
330
3E7
100
AcDbEntity
  8
0
  6
CONTINUOUS
100
AcDbLine
 10
269.6000213622919
 20
-212.5999946234369
 30
0.0
 11
268.0000305175763
 21
-212.5999946234369
 31
0.0
  0
LINE
  5
1024D
330
3E7
100
AcDbEntity
  8
0
  6
CONTINUOUS
100
AcDbLine
 10
269.6000213622919
 20
-212.5999946234369
 30
0.0
 11
270.0000305175653
 21
-212.5999946234369
 31
0.0
  0
ARC
  5
1024E
330
3E7
100
AcDbEntity
  8
0
  6
CONTINUOUS
100
AcDbCircle
 10
325.0000321947645
 20
-212.5999963006361
 30
0.0
 40
4.999998322800193
100
AcDbArc
 50
269.9999807807131
 51
0.0000192193129332
  0
LINE
  5
10250
330
3E7
100
AcDbEntity
  8
0
  6
CONTINUOUS
100
AcDbLine
 10
330.4000244140643
 20
-212.5999946234369
 30
0.0
 11
330.0000305175653
 21
-212.5999946234369
 31
0.0
  0
LINE
  5
10251
330
3E7
100
AcDbEntity
  8
0
  6
CONTINUOUS
100
AcDbLine
 10
332.0000305175726
 20
-212.5999946234369
 30
0.0
 11
330.4000244140643
 21
-212.5999946234369
 31
0.0
  0
LINE
  5
10252
330
3E7
100
AcDbEntity
  8
0
  6
CONTINUOUS
100
AcDbLine
 10
306.0000305175654
 20
-201.5999992010723
 30
0.0
 11
306.0000305175654
 21
-177.5999992010759
 31
0.0
  0
LINE
  5
10253
330
3E7
100
AcDbEntity
  8
0
  6
CONTINUOUS
100
AcDbLine
 10
294.0000305175654
 20
-177.5999992010759
 30
0.0
 11
294.0000305175654
 21
-201.5999992010723
 31
0.0
  0
LINE
  5
10254
330
3E7
100
AcDbEntity
  8
0
  6
CONTINUOUS
100
AcDbLine
 10
325.0000305175654
 20
-217.5999946234369
 30
0.0
 11
275.0000305175654
 21
-217.5999946234369
 31
0.0
  0
LINE
  5
10256
330
3E7
100
AcDbEntity
  8
0
  6
CONTINUOUS
100
AcDbLine
 10
329.9999999999982
 20
-167.0000037787112
 30
0.0
 11
223.9999999999945
 21
-167.0000037787112
 31
0.0
  0
LINE
  5
10257
330
3E7
100
AcDbEntity
  8
0
  6
CONTINUOUS
100
AcDbLine
 10
217.2426757812518
 20
-167.0000037787112
 30
0.0
 11
223.9999999999945
 21
-167.0000037787112
 31
0.0
  0
LINE
  5
1025D
330
3E7
100
AcDbEntity
  8
0
  6
CONTINUOUS
100
AcDbLine
 10
335.0000305175654
 20
-167.0000190374994
 30
0.0
 11
335.0000305175654
 21
-209.5999946234396
 31
0.0
  0
ARC
  5
10283
330
3E7
100
AcDbEntity
  8
0
  6
CONTINUOUS
100
AcDbCircle
 10
336.7573466785306
 20
-164.0000226266774
 30
0.0
 40
2.999974027183649
100
AcDbArc
 50
278.1825644195621
 51
315.0003633585593
  0
ARC
  5
10284
330
3E7
100
AcDbEntity
  8
0
  6
CONTINUOUS
100
AcDbCircle
 10
341.2426704177942
 20
-168.0000018791806
 30
0.0
 40
2.999998100476906
100
AcDbArc
 50
89.99989756571368
 51
135.0003653530951
  0
LINE
  5
10285
330
3E7
100
AcDbEntity
  8
0
  6
CONTINUOUS
100
AcDbLine
 10
336.243041992182
 20
-167.0000037787112
 30
0.0
 11
337.1843261718622
 21
-166.9694556830099
 31
0.0
  0
LINE
  5
10286
330
3E7
100
AcDbEntity
  8
0
  6
CONTINUOUS
100
AcDbLine
 10
339.1213378906268
 20
-165.8786964056653
 30
0.0
 11
338.8786621093622
 21
-166.121311151759
 31
0.0
  0
LINE
  5
103BF
330
3E7
100
AcDbEntity
  8
0
  6
CONTINUOUS
100
AcDbLine
 10
191.9000244140606
 20
177.7999992730437
 30
0.0
 11
-461.3665161132867
 21
177.7999992730437
 31
0.0
  0
LINE
  5
103C3
330
3E7
100
AcDbEntity
  8
0
  6
CONTINUOUS
100
AcDbLine
 10
191.9000244140606
 20
180.7999992730456
 30
0.0
 11
-461.3665161132867
 21
180.7999992730456
 31
0.0
  0
ARC
  5
103C8
330
3E7
100
AcDbEntity
  8
0
  6
CONTINUOUS
100
AcDbCircle
 10
-509.9999838269122
 20
149.9999876775982
 30
0.0
 40
15.00001617309575
100
AcDbArc
 50
90.00006177654723
 51
179.9999382234267
  0
LINE
  5
103CB
330
3E7
100
AcDbEntity
  8
0
  6
CONTINUOUS
100
AcDbLine
 10
510.0000305175781
 20
165.0000038506841
 30
0.0
 11
-510.0000000000018
 21
165.0000038506832
 31
0.0
  0
LINE
  5
103EA
330
3E7
100
AcDbEntity
  8
0
  6
CONTINUOUS
100
AcDbLine
 10
-498.2635498046893
 20
167.9265785577135
 30
0.0
 11
-471.643371582033
 21
167.9999962212887
 31
0.0
  0
LINE
  5
103EF
330
3E7
100
AcDbEntity
  8
0
  6
CONTINUOUS
100
AcDbLine
 10
-470.7773437499981
 20
168.4999962212905
 30
0.0
 11
-464.830627441408
 21
178.7999992730474
 31
0.0
  0
LINE
  5
103F0
330
3E7
100
AcDbEntity
  8
0
  6
CONTINUOUS
100
AcDbLine
 10
-462.2325439453216
 20
177.2999992730465
 30
0.0
 11
-468.1792602539116
 21
166.9999962212896
 31
0.0
  0
ARC
  5
10402
330
3E7
100
AcDbEntity
  8
0
  6
CONTINUOUS
100
AcDbCircle
 10
-310.9999734484354
 20
194.399993781154
 30
0.0
 40
5.000003966017837
100
AcDbArc
 50
0.0000454471622229
 51
89.99995455281171
  0
LINE
  5
10403
330
3E7
100
AcDbEntity
  8
0
  6
CONTINUOUS
100
AcDbLine
 10
-334.9999694824346
 20
177.7999992730437
 30
0.0
 11
-334.9999694824346
 21
165.0000038506832
 31
0.0
  0
LINE
  5
10404
330
3E7
100
AcDbEntity
  8
0
  6
CONTINUOUS
100
AcDbLine
 10
-334.9999694824346
 20
191.3999977471676
 30
0.0
 11
-334.9999694824346
 21
180.7999992730456
 31
0.0
  0
ARC
  5
10405
330
3E7
100
AcDbEntity
  8
0
  6
CONTINUOUS
100
AcDbCircle
 10
-331.9999716198817
 20
191.3999998846256
 30
0.0
 40
2.999997862540873
100
AcDbArc
 50
89.99995917748845
 51
180.0000408225115
  0
ARC
  5
10406
330
3E7
100
AcDbEntity
  8
0
  6
CONTINUOUS
100
AcDbCircle
 10
-324.9999716199108
 20
194.3999998846548
 30
0.0
 40
4.999997862511465
100
AcDbArc
 50
89.99997550611787
 51
180.00002449383
  0
LINE
  5
10407
330
3E7
100
AcDbEntity
  8
0
  6
CONTINUOUS
100
AcDbLine
 10
-305.99996948242
 20
194.3999977471694
 30
0.0
 11
-305.99996948242
 21
180.7999992730456
 31
0.0
  0
LINE
  5
10408
330
3E7
100
AcDbEntity
  8
0
  6
CONTINUOUS
100
AcDbLine
 10
-329.9999694824346
 20
167.1320534112292
 30
0.0
 11
-329.9999694824346
 21
165.0000038506832
 31
0.0
  0
LINE
  5
10409
330
3E7
100
AcDbEntity
  8
0
  6
CONTINUOUS
100
AcDbLine
 10
-329.9999694824346
 20
177.7999992730437
 30
0.0
 11
-329.9999694824346
 21
167.1320534112292
 31
0.0
  0
LINE
  5
1040A
330
3E7
100
AcDbEntity
  8
0
  6
CONTINUOUS
100
AcDbLine
 10
-329.9999694824346
 20
194.3999977471694
 30
0.0
 11
-329.9999694824346
 21
180.7999992730456
 31
0.0
  0
LINE
  5
1040B
330
3E7
100
AcDbEntity
  8
0
  6
CONTINUOUS
100
AcDbLine
 10
-324.9999694824346
 20
199.3999977471694
 30
0.0
 11
-310.99996948242
 21
199.3999977471694
 31
0.0
  0
LINE
  5
1040C
330
3E7
100
AcDbEntity
  8
0
  6
CONTINUOUS
100
AcDbLine
 10
-330.3999633789153
 20
194.3999977471694
 30
0.0
 11
-329.9999694824346
 21
194.3999977471694
 31
0.0
  0
LINE
  5
1040D
330
3E7
100
AcDbEntity
  8
0
  6
CONTINUOUS
100
AcDbLine
 10
-331.9999694824236
 20
194.3999977471694
 30
0.0
 11
-330.3999633789153
 21
194.3999977471694
 31
0.0
  0
LINE
  5
1040E
330
3E7
100
AcDbEntity
  8
0
  6
CONTINUOUS
100
AcDbLine
 10
-264.9999694824346
 20
177.7999992730437
 30
0.0
 11
-264.9999694824346
 21
165.0000038506832
 31
0.0
  0
LINE
  5
1040F
330
3E7
100
AcDbEntity
  8
0
  6
CONTINUOUS
100
AcDbLine
 10
-264.9999694824346
 20
191.3999977471676
 30
0.0
 11
-264.9999694824346
 21
180.7999992730456
 31
0.0
  0
LINE
  5
10411
330
3E7
100
AcDbEntity
  8
BASIS
  6
DOT_CENTER
100
AcDbLine
 10
-299.9999847412091
 20
201.0404141190047
 30
0.0
 11
-299.9999847412091
 21
159.8624909648233
 31
0.0
  0
ARC
  5
10412
330
3E7
100
AcDbEntity
  8
0
  6
CONTINUOUS
100
AcDbCircle
 10
-274.9999734484499
 20
194.399993781154
 30
0.0
 40
5.000003966017837
100
AcDbArc
 50
0.0000454471622229
 51
89.99995455281171
  0
ARC
  5
10413
330
3E7
100
AcDbEntity
  8
0
  6
CONTINUOUS
100
AcDbCircle
 10
-267.999973448479
 20
191.3999937811249
 30
0.0
 40
3.000003966047763
100
AcDbArc
 50
0.0000757457827885
 51
89.99992425416509
  0
ARC
  5
10414
330
3E7
100
AcDbEntity
  8
0
  6
CONTINUOUS
100
AcDbCircle
 10
-288.9999716199254
 20
194.3999998846548
 30
0.0
 40
4.999997862511465
100
AcDbArc
 50
89.99997550611787
 51
180.00002449383
  0
ARC
  5
10415
330
3E7
100
AcDbEntity
  8
0
  6
CONTINUOUS
100
AcDbCircle
 10
-299.9999847412091
 20
180.3999959186476
 30
0.0
 40
6.000003639181832
100
AcDbArc
 50
220.9090919934946
 51
319.0909080065053
  0
LINE
  5
10416
330
3E7
100
AcDbEntity
  8
0
  6
CONTINUOUS
100
AcDbLine
 10
-288.9999694824309
 20
199.3999977471694
 30
0.0
 11
-274.9999694824345
 21
199.3999977471694
 31
0.0
  0
LINE
  5
10417
330
3E7
100
AcDbEntity
  8
0
  6
CONTINUOUS
100
AcDbLine
 10
-269.9999694824346
 20
177.7999992730437
 30
0.0
 11
-269.9999694824346
 21
167.1320534112292
 31
0.0
  0
LINE
  5
10418
330
3E7
100
AcDbEntity
  8
0
  6
CONTINUOUS
100
AcDbLine
 10
-269.9999694824346
 20
194.3999977471694
 30
0.0
 11
-269.9999694824346
 21
180.7999992730456
 31
0.0
  0
LINE
  5
10419
330
3E7
100
AcDbEntity
  8
0
  6
CONTINUOUS
100
AcDbLine
 10
-269.9999694824346
 20
167.1320534112292
 30
0.0
 11
-269.9999694824346
 21
165.0000038506832
 31
0.0
  0
LINE
  5
1041A
330
3E7
100
AcDbEntity
  8
0
  6
CONTINUOUS
100
AcDbLine
 10
-293.9999694824309
 20
180.7999992730456
 30
0.0
 11
-293.9999694824309
 21
194.3999977471694
 31
0.0
  0
LINE
  5
1041B
330
3E7
100
AcDbEntity
  8
0
  6
CONTINUOUS
100
AcDbLine
 10
-295.4654846191461
 20
176.4708290459939
 30
0.0
 11
-294.6112670898419
 21
177.7999992730437
 31
0.0
  0
LINE
  5
1041C
330
3E7
100
AcDbEntity
  8
0
  6
CONTINUOUS
100
AcDbLine
 10
-269.5999755859356
 20
194.3999977471694
 30
0.0
 11
-269.9999694824346
 21
194.3999977471694
 31
0.0
  0
LINE
  5
1041D
330
3E7
100
AcDbEntity
  8
0
  6
CONTINUOUS
100
AcDbLine
 10
-269.5999755859356
 20
194.3999977471694
 30
0.0
 11
-267.9999694824273
 21
194.3999977471694
 31
0.0
  0
LINE
  5
1041E
330
3E7
100
AcDbEntity
  8
0
  6
CONTINUOUS
100
AcDbLine
 10
-305.388671875009
 20
177.7999992730437
 30
0.0
 11
-304.5344848632903
 21
176.4708290459939
 31
0.0
  0
ARC
  5
10425
330
3E7
100
AcDbEntity
  8
0
  6
CONTINUOUS
100
AcDbCircle
 10
215.7414204740034
 20
180.0500018147713
 30
0.0
 40
2.999997458277343
100
AcDbArc
 50
17.99989939344546
 51
89.99992195297833
  0
LINE
  5
10427
330
3E7
100
AcDbEntity
  8
0
  6
CONTINUOUS
100
AcDbLine
 10
231.3883209228497
 20
180.7999992730456
 30
0.0
 11
207.9000244140643
 21
180.7999992730456
 31
0.0
  0
LINE
  5
10428
330
3E7
100
AcDbEntity
  8
0
  6
CONTINUOUS
100
AcDbLine
 10
231.3883209228497
 20
177.7999992730437
 30
0.0
 11
207.9000244140643
 21
177.7999992730437
 31
0.0
  0
ARC
  5
10447
330
3E7
100
AcDbEntity
  8
0
  6
CONTINUOUS
100
AcDbCircle
 10
184.0586184914518
 20
174.049997727935
 30
0.0
 40
3.000001188498706
100
AcDbArc
 50
183.0000662369811
 51
255.000088556168
  0
LINE
  5
10448
330
3E7
100
AcDbEntity
  8
0
  6
CONTINUOUS
100
AcDbLine
 10
184.0586242675799
 20
171.0499992730465
 30
0.0
 11
183.2821655273419
 21
171.1522179009771
 31
0.0
  0
LINE
  5
1044E
330
3E7
100
AcDbEntity
  8
0
  6
CONTINUOUS
100
AcDbLine
 10
205.900024414057
 20
171.0813713433581
 30
0.0
 11
205.900024414057
 21
175.0499992730428
 31
0.0
  0
LINE
  5
10454
330
3E7
100
AcDbEntity
  8
0
  6
CONTINUOUS
100
AcDbLine
 10
193.9000244140497
 20
171.0874325625955
 30
0.0
 11
193.9000244140497
 21
175.0499992730428
 31
0.0
  0
LINE
  5
10456
330
3E7
100
AcDbEntity
  8
0
  6
CONTINUOUS
100
AcDbLine
 10
205.900024414057
 20
175.0499992730428
 30
0.0
 11
193.9000244140497
 21
175.0499992730428
 31
0.0
  0
LINE
  5
10457
330
3E7
100
AcDbEntity
  8
0
  6
CONTINUOUS
100
AcDbLine
 10
221.900024414057
 20
171.0499992730478
 30
0.0
 11
184.0586242675799
 21
171.0499992730465
 31
0.0
  0
LINE
  5
1045C
330
3E7
100
AcDbEntity
  8
0
  6
CONTINUOUS
100
AcDbLine
 10
180.8972778320258
 20
177.0499992730456
 30
0.0
 11
181.0627288818231
 21
173.8929863335952
 31
0.0
  0
ARC
  5
10463
330
3E7
100
AcDbEntity
  8
0
  6
CONTINUOUS
100
AcDbCircle
 10
184.0586269399664
 20
180.0500005002286
 30
0.0
 40
2.999998772820216
100
AcDbArc
 50
90.00005103892624
 51
156.521862997538
  0
LINE
  5
10464
330
3E7
100
AcDbEntity
  8
0
  6
CONTINUOUS
100
AcDbLine
 10
184.0586269399664
 20
183.0499992730447
 30
0.0
 11
221.9000235221192
 21
183.0499992730447
 31
0.0
  0
LINE
  5
10465
330
3E7
100
AcDbEntity
  8
0
  6
CONTINUOUS
100
AcDbLine
 10
207.9000244140643
 20
183.0499992730447
 30
0.0
 11
207.9000244140643
 21
171.0687159178219
 31
0.0
  0
LINE
  5
10469
330
3E7
100
AcDbEntity
  8
0
  6
CONTINUOUS
100
AcDbLine
 10
225.900024414057
 20
177.0499992730456
 30
0.0
 11
180.8972778320258
 21
177.0499992730456
 31
0.0
  0
LINE
  5
10470
330
3E7
100
AcDbEntity
  8
0
  6
CONTINUOUS
100
AcDbLine
 10
180.9365844726544
 20
177.7999992730437
 30
0.0
 11
180.8972778320258
 21
177.0499992730456
 31
0.0
  0
LINE
  5
10471
330
3E7
100
AcDbEntity
  8
0
  6
CONTINUOUS
100
AcDbLine
 10
181.3069915771466
 20
181.2451973321285
 30
0.0
 11
181.1656188964825
 21
180.7999992730456
 31
0.0
  0
LINE
  5
10472
330
3E7
100
AcDbEntity
  8
0
  6
CONTINUOUS
100
AcDbLine
 10
191.9000244140606
 20
183.0499992730447
 30
0.0
 11
191.9000244140606
 21
171.0901063689916
 31
0.0
  0
ARC
  5
10487
330
3E7
100
AcDbEntity
  8
0
  6
CONTINUOUS
100
AcDbCircle
 10
332.0000265515209
 20
191.3999937811249
 30
0.0
 40
3.000003966047536
100
AcDbArc
 50
0.0000757457827885
 51
89.99992425426931
  0
ARC
  5
10488
330
3E7
100
AcDbEntity
  8
0
  6
CONTINUOUS
100
AcDbCircle
 10
275.0000283800891
 20
194.3999998846548
 30
0.0
 40
4.999997862511465
100
AcDbArc
 50
89.99997550611787
 51
180.00002449383
  0
ARC
  5
10489
330
3E7
100
AcDbEntity
  8
0
  6
CONTINUOUS
100
AcDbCircle
 10
268.0000283801182
 20
191.3999998846256
 30
0.0
 40
2.999997862540873
100
AcDbArc
 50
89.99995917748845
 51
180.0000408225115
  0
LINE
  5
1048B
330
3E7
100
AcDbEntity
  8
0
  6
CONTINUOUS
100
AcDbLine
 10
270.0000305175653
 20
194.3999977471694
 30
0.0
 11
270.0000305175653
 21
165.0000038506837
 31
0.0
  0
LINE
  5
1048C
330
3E7
100
AcDbEntity
  8
0
  6
CONTINUOUS
100
AcDbLine
 10
269.6000213622919
 20
194.3999977471694
 30
0.0
 11
270.0000305175653
 21
194.3999977471694
 31
0.0
  0
LINE
  5
1048D
330
3E7
100
AcDbEntity
  8
0
  6
CONTINUOUS
100
AcDbLine
 10
268.0000305175763
 20
194.3999977471694
 30
0.0
 11
269.6000213622919
 21
194.3999977471694
 31
0.0
  0
LINE
  5
1048E
330
3E7
100
AcDbEntity
  8
0
  6
CONTINUOUS
100
AcDbLine
 10
265.0000305175653
 20
191.3999977471676
 30
0.0
 11
265.0000305175653
 21
165.0000038506832
 31
0.0
  0
LINE
  5
10490
330
3E7
100
AcDbEntity
  8
0
  6
CONTINUOUS
100
AcDbLine
 10
223.1500244140606
 20
171.2772484185561
 30
0.0
 11
223.1500244140606
 21
165.0000038506832
 31
0.0
  0
LINE
  5
10491
330
3E7
100
AcDbEntity
  8
0
  6
CONTINUOUS
100
AcDbLine
 10
220.6500244140606
 20
171.0499992730465
 30
0.0
 11
220.6500244140606
 21
165.0000038506832
 31
0.0
  0
LINE
  5
104A3
330
3E7
100
AcDbEntity
  8
0
  6
CONTINUOUS
100
AcDbLine
 10
225.900024414057
 20
175.0499992730428
 30
0.0
 11
225.900024414057
 21
177.7999992730437
 31
0.0
  0
ARC
  5
104AB
330
3E7
100
AcDbEntity
  8
0
  6
CONTINUOUS
100
AcDbCircle
 10
221.9000235221192
 20
179.0499963080365
 30
0.0
 40
4.000002965009712
100
AcDbArc
 50
35.21733670015661
 51
89.99998722393188
  0
LINE
  5
104B1
330
3E7
100
AcDbEntity
  8
0
  6
CONTINUOUS
100
AcDbLine
 10
218.5945892333966
 20
180.9770470025396
 30
0.0
 11
218.6363983154278
 21
180.7999992730456
 31
0.0
  0
LINE
  5
104B2
330
3E7
100
AcDbEntity
  8
0
  6
CONTINUOUS
100
AcDbLine
 10
225.4563751220648
 20
180.7999992730456
 30
0.0
 11
225.1679077148383
 21
181.3567161919909
 31
0.0
  0
LINE
  5
104B6
330
3E7
100
AcDbEntity
  8
0
  6
CONTINUOUS
100
AcDbLine
 10
234.8524322509711
 20
178.7999992730474
 30
0.0
 11
242.8198547363153
 21
165.0000038506832
 31
0.0
  0
LINE
  5
104B7
330
3E7
100
AcDbEntity
  8
0
  6
CONTINUOUS
100
AcDbLine
 10
239.355743408194
 20
165.0000038506832
 30
0.0
 11
232.2543487548846
 21
177.2999992730465
 31
0.0
  0
LINE
  5
104B9
330
3E7
100
AcDbEntity
  8
0
  6
CONTINUOUS
100
AcDbLine
 10
234.8524322509711
 20
178.7999992730474
 30
0.0
 11
242.8198547363153
 21
165.0000038506832
 31
0.0
  0
LINE
  5
104BA
330
3E7
100
AcDbEntity
  8
0
  6
CONTINUOUS
100
AcDbLine
 10
239.355743408194
 20
165.0000038506832
 30
0.0
 11
232.2543487548846
 21
177.2999992730465
 31
0.0
  0
LINE
  5
104C6
330
3E7
100
AcDbEntity
  8
0
  6
CONTINUOUS
100
AcDbLine
 10
234.8524322509711
 20
178.7999992730474
 30
0.0
 11
242.8198547363153
 21
165.0000038506832
 31
0.0
  0
LINE
  5
104C7
330
3E7
100
AcDbEntity
  8
0
  6
CONTINUOUS
100
AcDbLine
 10
239.355743408194
 20
165.0000038506832
 30
0.0
 11
232.2543487548846
 21
177.2999992730465
 31
0.0
  0
ARC
  5
104CA
330
3E7
100
AcDbEntity
  8
0
  6
CONTINUOUS
100
AcDbCircle
 10
325.00002655155
 20
194.399993781154
 30
0.0
 40
5.000003966018521
100
AcDbArc
 50
0.0000454471622229
 51
89.99995455281171
  0
ARC
  5
104CB
330
3E7
100
AcDbEntity
  8
0
  6
CONTINUOUS
100
AcDbCircle
 10
311.0000283800745
 20
194.3999998846548
 30
0.0
 40
4.999997862511465
100
AcDbArc
 50
89.99997550611787
 51
180.00002449383
  0
ARC
  5
104CC
330
3E7
100
AcDbEntity
  8
0
  6
CONTINUOUS
100
AcDbCircle
 10
289.0000265515464
 20
194.399993781154
 30
0.0
 40
5.000003966018521
100
AcDbArc
 50
0.0000454471622229
 51
89.99995455281171
  0
ARC
  5
104CD
330
3E7
100
AcDbEntity
  8
0
  6
CONTINUOUS
100
AcDbCircle
 10
300.0000305175654
 20
180.3999977471685
 30
0.0
 40
6.0
100
AcDbArc
 50
180.0
 51
0.0
  0
LINE
  5
104CF
330
3E7
100
AcDbEntity
  8
0
  6
CONTINUOUS
100
AcDbLine
 10
311.000030517569
 20
199.3999977471694
 30
0.0
 11
325.0000305175654
 21
199.3999977471694
 31
0.0
  0
LINE
  5
104D0
330
3E7
100
AcDbEntity
  8
0
  6
CONTINUOUS
100
AcDbLine
 10
330.4000244140643
 20
194.3999977471694
 30
0.0
 11
330.0000305175653
 21
194.3999977471694
 31
0.0
  0
LINE
  5
104D1
330
3E7
100
AcDbEntity
  8
0
  6
CONTINUOUS
100
AcDbLine
 10
330.4000244140643
 20
194.3999977471694
 30
0.0
 11
332.0000305175726
 21
194.3999977471694
 31
0.0
  0
LINE
  5
104D2
330
3E7
100
AcDbEntity
  8
0
  6
CONTINUOUS
100
AcDbLine
 10
306.000030517569
 20
180.3999977471685
 30
0.0
 11
306.000030517569
 21
194.3999977471694
 31
0.0
  0
LINE
  5
104D3
330
3E7
100
AcDbEntity
  8
0
  6
CONTINUOUS
100
AcDbLine
 10
330.0000305175653
 20
194.3999977471694
 30
0.0
 11
330.0000305175653
 21
165.0000038506841
 31
0.0
  0
LINE
  5
104D4
330
3E7
100
AcDbEntity
  8
0
  6
CONTINUOUS
100
AcDbLine
 10
294.0000305175799
 20
194.3999977471694
 30
0.0
 11
294.0000305175799
 21
180.3999977471685
 31
0.0
  0
LINE
  5
104D5
330
3E7
100
AcDbEntity
  8
0
  6
CONTINUOUS
100
AcDbLine
 10
275.0000305175654
 20
199.3999977471694
 30
0.0
 11
289.0000305175799
 21
199.3999977471694
 31
0.0
  0
LINE
  5
104D6
330
3E7
100
AcDbEntity
  8
BASIS
  6
DOT_CENTER
100
AcDbLine
 10
340.8958131453709
 20
180.3999977471685
 30
0.0
 11
259.1042478897597
 21
180.3999977471685
 31
0.0
  0
LINE
  5
104D7
330
3E7
100
AcDbEntity
  8
BASIS
  6
DOT_CENTER
100
AcDbLine
 10
300.0000305175654
 20
202.8427815268223
 30
0.0
 11
300.0000305175654
 21
157.9572139675146
 31
0.0
  0
LINE
  5
104D8
330
3E7
100
AcDbEntity
  8
0
  6
CONTINUOUS
100
AcDbLine
 10
335.0000305175654
 20
191.3999977471676
 30
0.0
 11
335.0000305175654
 21
165.0000038506832
 31
0.0
  0
ARC
  5
10514
330
3E7
100
AcDbEntity
  8
0
  6
CONTINUOUS
100
AcDbCircle
 10
524.0000155509533
 20
-63.75738479171923
 30
0.0
 40
2.999984449147369
100
AcDbArc
 50
315.000350915865
 51
0.0005018502232593
  0
ARC
  5
10515
330
3E7
100
AcDbEntity
  8
0
  6
CONTINUOUS
100
AcDbCircle
 10
528.0000047609592
 20
-68.24269221385657
 30
0.0
 40
3.000004761271592
100
AcDbArc
 50
134.9988630794738
 51
179.9991754869128
  0
LINE
  5
10516
330
3E7
100
AcDbEntity
  8
0
  6
CONTINUOUS
100
AcDbLine
 10
526.9999999999872
 20
-63.75735851503941
 30
0.0
 11
526.9999999999872
 21
-57.00000377871129
 31
0.0
  0
LINE
  5
10517
330
3E7
100
AcDbEntity
  8
0
  6
CONTINUOUS
100
AcDbLine
 10
525.8787231445221
 20
-66.12132641054722
 30
0.0
 11
526.1213378906159
 21
-65.87868114687717
 31
0.0
  0
ARC
  5
10522
330
3E7
100
AcDbEntity
  8
0
  6
CONTINUOUS
100
AcDbCircle
 10
524.000025163712
 20
-38.24264626588865
 30
0.0
 40
2.999994268992653
100
AcDbArc
 50
8.182005363900422
 51
45.00009626795093
  0
ARC
  5
10523
330
3E7
100
AcDbEntity
  8
0
  6
CONTINUOUS
100
AcDbCircle
 10
528.0000045470642
 20
-33.75731543216625
 30
0.0
 40
3.000004547383368
100
AcDbArc
 50
180.0008228210426
 51
225.0011386125625
  0
LINE
  5
10524
330
3E7
100
AcDbEntity
  8
0
  6
CONTINUOUS
100
AcDbLine
 10
526.9999999999872
 20
-38.75702282168186
 30
0.0
 11
526.9694824218622
 21
-37.81569286562353
 31
0.0
  0
LINE
  5
10525
330
3E7
100
AcDbEntity
  8
0
  6
CONTINUOUS
100
AcDbLine
 10
526.9999999999872
 20
-57.00000377871129
 30
0.0
 11
526.9999999999872
 21
-45.00000377871311
 31
0.0
  0
LINE
  5
10526
330
3E7
100
AcDbEntity
  8
0
  6
CONTINUOUS
100
AcDbLine
 10
526.9999999999872
 20
-45.00000377871311
 30
0.0
 11
526.9999999999872
 21
-38.75702282168186
 31
0.0
  0
LINE
  5
10527
330
3E7
100
AcDbEntity
  8
0
  6
CONTINUOUS
100
AcDbLine
 10
525.8787231445221
 20
-35.87868114687717
 30
0.0
 11
526.1213378906159
 21
-36.12132641054722
 31
0.0
  0
LINE
  5
138BB
330
3E7
100
AcDbEntity
  8
0
100
AcDbLine
 10
149.139262140301
 20
-184.0000037787099
 30
0.0
 11
149.1392621403028
 21
-165.0000037787085
 31
0.0
  0
LINE
  5
138BD
330
3E7
100
AcDbEntity
  8
0
100
AcDbLine
 10
-475.1577148437554
 20
-184.000003778709
 30
0.0
 11
-475.1577148437554
 21
-165.0000037787085
 31
0.0
  0
LINE
  5
138BF
330
3E7
100
AcDbEntity
  8
0
  6
CONTINUOUS
100
AcDbLine
 10
143.139262140301
 20
-190.0000037787085
 30
0.0
 11
-469.1577148437554
 21
-190.0000037787085
 31
0.0
  0
ARC
  5
138C0
330
3E7
100
AcDbEntity
  8
0
100
AcDbCircle
 10
143.139262140301
 20
-184.0000037787085
 30
0.0
 40
6.0
100
AcDbArc
 50
270.0
 51
359.9999999999889
  0
ARC
  5
138C1
330
3E7
100
AcDbEntity
  8
0
100
AcDbCircle
 10
-469.1577148437554
 20
-184.0000037787085
 30
0.0
 40
6.0
100
AcDbArc
 50
180.0000000000055
 51
270.0
  0
LINE
  5
138C6
330
3E7
100
AcDbEntity
  8
BASIS
  6
DOT_CENTER
100
AcDbLine
 10
-261.1046752512647
 20
180.451452541914
 30
0.0
 11
-339.4254962694776
 21
180.451452541914
 31
0.0
  0
LINE
  5
138C8
330
3E7
100
AcDbEntity
  8
BASIS
100
AcDbLine
 10
-162.9999785875061
 20
-256.0219598076709
 30
0.0
 11
-162.9999785875061
 21
-123.9780477497461
 31
0.0
  0
ARC
  5
138CF
330
3E7
100
AcDbEntity
  8
0
100
AcDbCircle
 10
510.5502903990145
 20
-150.5502647796979
 30
0.0
 40
14.46021357597423
100
AcDbArc
 50
267.8190548570496
 51
2.180828574516186
  0
ARC
  5
138D0
330
3E7
100
AcDbEntity
  8
0
100
AcDbCircle
 10
510.0000234997878
 20
149.9999968329134
 30
0.0
 40
15.00000701777258
100
AcDbArc
 50
359.9999999998775
 51
89.99997319402831
  0
ARC
  5
138D9
330
3E7
100
AcDbEntity
  8
0
100
AcDbCircle
 10
-497.7494529994856
 20
166.4632912041984
 30
0.0
 40
1.550969182181833
100
AcDbArc
 50
109.3579073171617
 51
250.642092682841
  0
ARC
  5
138DA
330
3E7
100
AcDbEntity
  8
0
100
AcDbCircle
 10
-490.1494163783882
 20
166.4632912041984
 30
0.0
 40
1.550969182181833
100
AcDbArc
 50
109.3579073171617
 51
250.642092682841
  0
ARC
  5
138DB
330
3E7
100
AcDbEntity
  8
0
100
AcDbCircle
 10
-471.6433454072066
 20
168.9999677084338
 30
0.0
 40
3.999971487232676
100
AcDbArc
 50
269.9996250705566
 51
330.0002358015441
  0
ARC
  5
138DC
330
3E7
100
AcDbEntity
  8
0
100
AcDbCircle
 10
-471.6433771034753
 20
169.0000099905905
 30
0.0
 40
1.000013769316874
100
AcDbArc
 50
270.0003163509841
 51
329.9995445210357
  0
ARC
  5
138DD
330
3E7
100
AcDbEntity
  8
0
100
AcDbCircle
 10
-461.2821022024927
 20
176.6537854748635
 30
0.0
 40
1.149317962738672
100
AcDbArc
 50
94.21199355029655
 51
145.7878673211844
  0
ARC
  5
138DE
330
3E7
100
AcDbEntity
  8
0
100
AcDbCircle
 10
-461.0286861700878
 20
176.2148421830338
 30
0.0
 40
4.597585737168428
100
AcDbArc
 50
94.21388350712204
 51
145.7859773649081
  0
ARC
  5
138E0
330
3E7
100
AcDbEntity
  8
0
100
AcDbCircle
 10
231.3883154014183
 20
176.7999855037533
 30
0.0
 40
1.000013769305619
100
AcDbArc
 50
30.00045547894405
 51
89.99968364964114
  0
ARC
  5
138E1
330
3E7
100
AcDbEntity
  8
0
100
AcDbCircle
 10
231.3882859354817
 20
176.799921849567
 30
0.0
 40
4.000077423630019
100
AcDbArc
 50
30.00064027546269
 51
89.99949885256873
  0
ARC
  5
138E2
330
3E7
100
AcDbEntity
  8
0
100
AcDbCircle
 10
221.9000260200973
 20
175.0499976670107
 30
0.0
 40
3.999998393963077
100
AcDbArc
 50
269.9999769951578
 51
0.0000230048047259
  0
TEXT
  5
1557E
330
3E7
100
AcDbEntity
  8
NOTE
  6
CONTINUOUS
100
AcDbText
 10
-955.951087780866
 20
-539.5478083177659
 30
0.0
 40
64.0
  1
AH
 41
0.9
100
AcDbText
  0
LINE
  5
1557F
330
3E7
100
AcDbEntity
  8
NOTE
  6
CONTINUOUS
100
AcDbLine
 10
-991.7265994518475
 20
-554.6501093177648
 30
0.0
 11
-809.568387156858
 21
-554.6501093177648
 31
0.0
  0
LINE
  5
15586
330
3E7
100
AcDbEntity
  8
NOTE
  6
CONTINUOUS
100
AcDbLine
 10
-481.9999785875061
 20
-165.0000037787085
 30
0.0
 11
-809.568387156858
 21
-554.6501093177648
 31
0.0
  0
LWPOLYLINE
  5
15587
330
3E7
100
AcDbEntity
  8
NOTE
  6
CONTINUOUS
100
AcDbPolyline
 90
        3
 70
     0
 43
0.0
 10
-499.2153057818268
 20
-201.1058554796454
 10
-481.9999785875061
 20
-165.0000037787085
 10
-514.9618147086348
 20
-187.6609252757389
  0
LINE
  5
199D6
330
3E7
100
AcDbEntity
  8
NOTE
  6
CONTINUOUS
100
AcDbLine
 10
457.9027691044757
 20
-575.7050363435237
 30
0.0
 11
1415.235063330414
 21
-575.7050363435237
 31
0.0
  0
LINE
  5
199D8
330
3E7
100
AcDbEntity
  8
NOTE
  6
CONTINUOUS
100
AcDbLine
 10
156.000021412587
 20
-165.0000037787421
 30
0.0
 11
457.9027691044757
 21
-575.7050363435237
 31
0.0
  0
LWPOLYLINE
  5
199D9
330
3E7
100
AcDbEntity
  8
NOTE
  6
CONTINUOUS
100
AcDbPolyline
 90
        3
 70
     0
 43
0.0
 10
187.0330712232853
 20
-190.237868920315
 10
156.000021412587
 20
-165.0000037787421
 10
170.2564987199148
 20
-202.3731607012765
  0
TEXT
  5
1A5D6
330
3E7
100
AcDbEntity
  8
NOTE
100
AcDbText
 10
-308.3754393704403
 20
-716.0537080617277
 30
0.0
 40
50.0
  1
(取付ピッチ)
 41
0.9
100
AcDbText
  0
LINE
  5
1B369
330
3E7
100
AcDbEntity
  8
BASIS
  6
DOT_CENTER
100
AcDbLine
 10
300.0000305175654
 20
-167.3572154214202
 30
0.0
 11
300.0000305175654
 21
-212.2427829807279
 31
0.0
  0
LINE
  5
1B36A
330
3E7
100
AcDbEntity
  8
BASIS
  6
DOT_CENTER
100
AcDbLine
 10
-261.1046905100392
 20
-187.7485489839648
 30
0.0
 11
-339.4255115282521
 21
-187.7485489839648
 31
0.0
  0
LINE
  5
1B36B
330
3E7
100
AcDbEntity
  8
BASIS
  6
DOT_CENTER
100
AcDbLine
 10
-299.9999847412091
 20
-169.1595828292379
 30
0.0
 11
-299.9999847412091
 21
-210.3375059834192
 31
0.0
  0
LINE
  5
1B389
330
3E7
100
AcDbEntity
  8
BASIS
  6
DOT_CENTER
100
AcDbLine
 10
340.8958131453709
 20
-189.5999992010741
 30
0.0
 11
259.1042478897597
 21
-189.5999992010741
 31
0.0
  0
ARC
  5
1B38B
330
3E7
100
AcDbEntity
  8
0
  6
CONTINUOUS
100
AcDbCircle
 10
300.0000305175654
 20
-201.5999992010723
 30
0.0
 40
6.0
100
AcDbArc
 50
180.0
 51
0.0
  0
ARC
  5
1B38D
330
3E7
100
AcDbEntity
  8
0
  6
CONTINUOUS
100
AcDbCircle
 10
300.0000305175654
 20
-177.5999992010759
 30
0.0
 40
6.0
100
AcDbArc
 50
0.0
 51
180.0
  0
LINE
  5
1B3B7
330
3E7
100
AcDbEntity
  8
NOTE
  6
CONTINOUS
100
AcDbLine
 10
128.1337394846759
 20
-165.0000037787085
 30
0.0
 11
183.8663033403117
 21
-165.0000037787085
 31
0.0
  0
CIRCLE
  5
1B3B8
330
3E7
100
AcDbEntity
  8
FIX
100
AcDbCircle
 10
156.0000214124938
 20
-165.0000037787085
 30
0.0
 40
5.916848038192256
  0
LINE
  5
1B3B9
330
3E7
100
AcDbEntity
  8
NOTE
  6
CONTINOUS
100
AcDbLine
 10
156.0000214124938
 20
-139.195015768757
 30
0.0
 11
156.0000214124938
 21
-190.8049917886601
 31
0.0
  0
LINE
  5
1B3BA
330
3E7
100
AcDbEntity
  8
NOTE
  6
CONTINOUS
100
AcDbLine
 10
-509.866260515324
 20
-165.0000037787085
 30
0.0
 11
-454.1336966596881
 21
-165.0000037787085
 31
0.0
  0
LINE
  5
1B3BB
330
3E7
100
AcDbEntity
  8
NOTE
  6
CONTINOUS
100
AcDbLine
 10
-481.9999785875061
 20
-139.195015768757
 30
0.0
 11
-481.9999785875061
 21
-190.8049917886601
 31
0.0
  0
CIRCLE
  5
1B3BC
330
3E7
100
AcDbEntity
  8
FIX
100
AcDbCircle
 10
-481.9999785875061
 20
-165.0000037787085
 30
0.0
 40
5.916848038192256
  0
TEXT
  5
1B3BF
330
3E7
100
AcDbEntity
  8
NOTE
100
AcDbText
 10
473.998308973396
 20
-546.1752118564918
 30
0.0
 40
64.0
  1
AH 2×6-%%c7穴（M5ネジ）
 41
0.9
100
AcDbText
  0
SPLINE
  5
211E7
330
3E7
100
AcDbEntity
  8
DETAIL
  6
CONTINUOUS
100
AcDbSpline
210
0.0
220
0.0
230
1.0
 70
     8
 71
     3
 72
     9
 73
     5
 74
     3
 42
0.0000000001
 43
0.0000000001
 44
0.00000001
 40
0.0
 40
0.0
 40
0.0
 40
0.0
 40
0.0502462890049659
 40
0.1229392340212557
 40
0.1229392340212557
 40
0.1229392340212557
 40
0.1229392340212557
 10
-464.3671146911874
 20
-217.1000037786964
 30
0.0
 10
-464.3515252998041
 20
-217.1084388903795
 30
0.0
 10
-464.3133822401405
 20
-217.1290773671686
 30
0.0
 10
-464.3108669341901
 20
-217.1736489613659
 30
0.0
 10
-464.3093796642679
 20
-217.2000037786963
 30
0.0
 11
-464.3671146911874
 21
-217.1000037786964
 31
0.0
 11
-464.3262978680941
 21
-217.1293069672972
 31
0.0
 11
-464.3093796642679
 21
-217.2000037786963
 31
0.0
  0
SPLINE
  5
211E8
330
3E7
100
AcDbEntity
  8
DETAIL
  6
CONTINUOUS
100
AcDbSpline
210
0.0
220
0.0
230
1.0
 70
     8
 71
     3
 72
     9
 73
     5
 74
     3
 42
0.0000000001
 43
0.0000000001
 44
0.00000001
 40
0.0
 40
0.0
 40
0.0
 40
0.0
 40
0.0867336635470477
 40
0.1651105799775216
 40
0.1651105799775216
 40
0.1651105799775216
 40
0.1651105799775216
 10
-466.7342507948651
 20
-217.1000037786964
 30
0.0
 10
-466.7031707408593
 20
-217.1054875022851
 30
0.0
 10
-466.6440051903568
 20
-217.1159266101315
 30
0.0
 10
-466.6269003096202
 20
-217.1729399248718
 30
0.0
 10
-466.618780741026
 20
-217.2000037786963
 30
0.0
 11
-466.7342507948651
 21
-217.1000037786964
 31
0.0
 11
-466.6526171486802
 21
-217.1293069672972
 31
0.0
 11
-466.618780741026
 21
-217.2000037786963
 31
0.0
  0
SPLINE
  5
211E9
330
3E7
100
AcDbEntity
  8
DETAIL
  6
CONTINUOUS
100
AcDbSpline
210
0.0
220
0.0
230
1.0
 70
     8
 71
     3
 72
    11
 73
     7
 74
     5
 42
0.0000000001
 43
0.0000000001
 44
0.00000001
 40
0.0
 40
0.0
 40
0.0
 40
0.0
 40
1.227283460912903
 40
2.343202176584603
 40
3.458776458528293
 40
4.685677922804804
 40
4.685677922804804
 40
4.685677922804804
 40
4.685677922804804
 10
-464.3093796642697
 20
-219.9540630541969
 30
0.0
 10
-463.9125708772358
 20
-220.0563521182955
 30
0.0
 10
-463.1549600670198
 20
-220.2516484356686
 30
0.0
 10
-461.9997273651732
 20
-220.3397702570707
 30
0.0
 10
-460.8446347412454
 20
-220.2515656535011
 30
0.0
 10
-460.087261419104
 20
-220.0563235804815
 30
0.0
 10
-459.690577510757
 20
-219.9540630541969
 30
0.0
 11
-464.3093796642697
 21
-219.9540630541969
 31
0.0
 11
-463.1120897115287
 21
-220.2237322306325
 31
0.0
 11
-461.9996143396983
 21
-220.3113286345264
 31
0.0
 11
-460.8874890794758
 21
-220.2236737029741
 31
0.0
 11
-459.690577510757
 21
-219.9540630541969
 31
0.0
  0
SPLINE
  5
211EA
330
3E7
100
AcDbEntity
  8
DETAIL
  6
CONTINUOUS
100
AcDbSpline
210
0.0
220
0.0
230
1.0
 70
     8
 71
     3
 72
    11
 73
     7
 74
     5
 42
0.0000000001
 43
0.0000000001
 44
0.00000001
 40
0.0
 40
0.0
 40
0.0
 40
0.0
 40
0.6564343421776952
 40
1.21931420066183
 40
1.782356408384233
 40
2.438985477873911
 40
2.438985477873911
 40
2.438985477873911
 40
2.438985477873911
 10
-459.690577510757
 20
-219.9540630541969
 30
0.0
 10
-459.4955550534278
 20
-220.0557401179387
 30
0.0
 10
-459.1333045738432
 20
-220.2446033009326
 30
0.0
 10
-458.5360070306144
 20
-220.3421126520179
 30
0.0
 10
-457.9386189271704
 20
-220.2446845478529
 30
0.0
 10
-457.5762587099357
 20
-220.0557688017329
 30
0.0
 10
-457.3811764339916
 20
-219.9540630541932
 30
0.0
 11
-459.690577510757
 21
-219.9540630541969
 31
0.0
 11
-459.0920727399425
 21
-220.2236888828465
 31
0.0
 11
-458.5360574420247
 21
-220.3113286346995
 31
0.0
 11
-457.9798686572503
 21
-220.2237468677258
 31
0.0
 11
-457.3811764339916
 21
-219.9540630541932
 31
0.0
  0
SPLINE
  5
211F0
330
3E7
100
AcDbEntity
  8
DETAIL
  6
CONTINUOUS
100
AcDbSpline
210
0.0
220
0.0
230
1.0
 70
     8
 71
     3
 72
    11
 73
     7
 74
     5
 42
0.0000000001
 43
0.0000000001
 44
0.00000001
 40
0.0
 40
0.0
 40
0.0
 40
0.0
 40
0.6566299644609002
 40
1.219672913759918
 40
1.782552026508492
 40
2.438985477864562
 40
2.438985477864562
 40
2.438985477864562
 40
2.438985477864562
 10
-466.618780741026
 20
-219.9540630541937
 30
0.0
 10
-466.4236981901442
 20
-220.055768933562
 30
0.0
 10
-466.0613374698958
 20
-220.2446849205484
 30
0.0
 10
-465.4639489519602
 20
-220.3421126516774
 30
0.0
 10
-464.866651824633
 20
-220.24460292878
 30
0.0
 10
-464.5044018479536
 20
-220.0557399867181
 30
0.0
 10
-464.3093796642697
 20
-219.9540630541969
 30
0.0
 11
-466.618780741026
 21
-219.9540630541937
 31
0.0
 11
-466.0200876562176
 21
-220.22374713419
 31
0.0
 11
-465.4638980787422
 21
-220.3113286345264
 31
0.0
 11
-464.9078835775562
 21
-220.223688617548
 31
0.0
 11
-464.3093796642697
 21
-219.9540630541969
 31
0.0
  0
SPLINE
  5
211F2
330
3E7
100
AcDbEntity
  8
DETAIL
  6
CONTINUOUS
100
AcDbSpline
210
0.0
220
0.0
230
1.0
 70
     8
 71
     3
 72
     9
 73
     5
 74
     3
 42
0.0000000001
 43
0.0000000001
 44
0.00000001
 40
0.0
 40
0.0
 40
0.0
 40
0.0
 40
0.0867336635470477
 40
0.1651105799767363
 40
0.1651105799767363
 40
0.1651105799767363
 40
0.1651105799767363
 10
-457.2657063801544
 20
-217.1000037786964
 30
0.0
 10
-457.2967864341603
 20
-217.105487502285
 30
0.0
 10
-457.3559519846629
 20
-217.1159266101312
 30
0.0
 10
-457.3730568653981
 20
-217.1729399248718
 30
0.0
 10
-457.3811764339916
 20
-217.2000037786963
 30
0.0
 11
-457.2657063801544
 21
-217.1000037786964
 31
0.0
 11
-457.3473400263392
 21
-217.1293069672972
 31
0.0
 11
-457.3811764339916
 21
-217.2000037786963
 31
0.0
  0
SPLINE
  5
211F6
330
3E7
100
AcDbEntity
  8
DETAIL
  6
CONTINUOUS
100
AcDbSpline
210
0.0
220
0.0
230
1.0
 70
     8
 71
     3
 72
     9
 73
     5
 74
     3
 42
0.0000000001
 43
0.0000000001
 44
0.00000001
 40
0.0
 40
0.0
 40
0.0
 40
0.0
 40
0.0502462890034882
 40
0.1229392340202015
 40
0.1229392340202015
 40
0.1229392340202015
 40
0.1229392340202015
 10
-459.632842483832
 20
-217.1000037786964
 30
0.0
 10
-459.6484318752145
 20
-217.1084388903797
 30
0.0
 10
-459.6865749348769
 20
-217.1290773671695
 30
0.0
 10
-459.6890902408285
 20
-217.173648961366
 30
0.0
 10
-459.6905775107516
 20
-217.2000037786963
 30
0.0
 11
-459.632842483832
 21
-217.1000037786964
 31
0.0
 11
-459.6736593069236
 21
-217.1293069672972
 31
0.0
 11
-459.6905775107516
 21
-217.2000037786963
 31
0.0
  0
ARC
  5
211F7
330
3E7
100
AcDbEntity
  8
DETAIL
  6
CONTINUOUS
100
AcDbCircle
 10
-457.0999785875101
 20
-217.0000037786962
 30
0.0
 40
0.1000000000000227
100
AcDbArc
 50
270.0
 51
0.0
  0
ARC
  5
211F8
330
3E7
100
AcDbEntity
  8
DETAIL
  6
CONTINUOUS
100
AcDbCircle
 10
-466.8999785875094
 20
-217.0000037786965
 30
0.0
 40
0.1000000000000227
100
AcDbArc
 50
180.0
 51
270.0
  0
LINE
  5
211F9
330
3E7
100
AcDbEntity
  8
DETAIL
  6
CONTINUOUS
100
AcDbLine
 10
-466.9999785875098
 20
-216.3000037786964
 30
0.0
 11
-456.9999785875097
 21
-216.3000037786964
 31
0.0
  0
LINE
  5
211FA
330
3E7
100
AcDbEntity
  8
DETAIL
  6
CONTINUOUS
100
AcDbLine
 10
-456.9999785875097
 20
-216.3000037786964
 30
0.0
 11
-455.9999785875097
 21
-216.3000037786964
 31
0.0
  0
LINE
  5
211FB
330
3E7
100
AcDbEntity
  8
DETAIL
  6
CONTINUOUS
100
AcDbLine
 10
-459.632842483832
 20
-217.1000037786964
 30
0.0
 11
-457.2657063801544
 21
-217.1000037786964
 31
0.0
  0
LINE
  5
211FC
330
3E7
100
AcDbEntity
  8
DETAIL
  6
CONTINUOUS
100
AcDbLine
 10
-457.2657063801544
 20
-217.1000037786964
 30
0.0
 11
-457.0999785875101
 21
-217.1000037786964
 31
0.0
  0
LINE
  5
211FD
330
3E7
100
AcDbEntity
  8
DETAIL
  6
CONTINUOUS
100
AcDbLine
 10
-466.7342507948651
 20
-217.1000037786964
 30
0.0
 11
-464.3671146911874
 21
-217.1000037786964
 31
0.0
  0
LINE
  5
211FE
330
3E7
100
AcDbEntity
  8
DETAIL
  6
CONTINUOUS
100
AcDbLine
 10
-466.8999785875094
 20
-217.1000037786964
 30
0.0
 11
-466.7342507948651
 21
-217.1000037786964
 31
0.0
  0
LINE
  5
211FF
330
3E7
100
AcDbEntity
  8
DETAIL
  6
CONTINUOUS
100
AcDbLine
 10
-464.3671146911874
 20
-217.1000037786964
 30
0.0
 11
-459.632842483832
 21
-217.1000037786964
 31
0.0
  0
LINE
  5
21200
330
3E7
100
AcDbEntity
  8
DETAIL
  6
CONTINUOUS
100
AcDbLine
 10
-465.4999785875097
 20
-220.6000037786964
 30
0.0
 11
-458.4999785875097
 21
-220.6000037786964
 31
0.0
  0
LINE
  5
21201
330
3E7
100
AcDbEntity
  8
DETAIL
  6
CONTINUOUS
100
AcDbLine
 10
-458.4999785875097
 20
-220.6000037786964
 30
0.0
 11
-457.3811764339916
 21
-219.9540630541932
 31
0.0
  0
LINE
  5
21202
330
3E7
100
AcDbEntity
  8
DETAIL
  6
CONTINUOUS
100
AcDbLine
 10
-464.493448061683
 20
-215.8000037786964
 30
0.0
 11
-464.4999785875097
 21
-215.8000037786964
 31
0.0
  0
LINE
  5
21203
330
3E7
100
AcDbEntity
  8
DETAIL
  6
CONTINUOUS
100
AcDbLine
 10
-466.9999785875098
 20
-217.0000037786965
 30
0.0
 11
-466.9999785875098
 21
-216.3000037786964
 31
0.0
  0
LINE
  5
21206
330
3E7
100
AcDbEntity
  8
DETAIL
  6
CONTINUOUS
100
AcDbLine
 10
-462.3194573490454
 20
-215.8000037786964
 30
0.0
 11
-464.493448061683
 21
-215.8000037786964
 31
0.0
  0
LINE
  5
21207
330
3E7
100
AcDbEntity
  8
DETAIL
  6
CONTINUOUS
100
AcDbLine
 10
-464.3093796642697
 20
-219.9540630541969
 30
0.0
 11
-464.3093796642679
 21
-217.2000037786963
 31
0.0
  0
LINE
  5
21208
330
3E7
100
AcDbEntity
  8
DETAIL
  6
CONTINUOUS
100
AcDbLine
 10
-465.4999785875097
 20
-220.6000037786964
 30
0.0
 11
-466.618780741026
 21
-219.9540630541937
 31
0.0
  0
LINE
  5
21209
330
3E7
100
AcDbEntity
  8
DETAIL
  6
CONTINUOUS
100
AcDbLine
 10
-457.3811764339916
 20
-219.9540630541932
 30
0.0
 11
-457.3811764339916
 21
-217.2000037786963
 31
0.0
  0
LINE
  5
2120A
330
3E7
100
AcDbEntity
  8
DETAIL
  6
CONTINUOUS
100
AcDbLine
 10
-464.4999785875097
 20
-215.8000037786964
 30
0.0
 11
-467.9999785875097
 21
-215.8000037786964
 31
0.0
  0
LINE
  5
2120B
330
3E7
100
AcDbEntity
  8
DETAIL
  6
CONTINUOUS
100
AcDbLine
 10
-467.9999785875097
 20
-216.3000037786964
 30
0.0
 11
-466.9999785875098
 21
-216.3000037786964
 31
0.0
  0
LINE
  5
2120C
330
3E7
100
AcDbEntity
  8
DETAIL
  6
CONTINUOUS
100
AcDbLine
 10
-466.618780741026
 20
-219.9540630541937
 30
0.0
 11
-466.618780741026
 21
-217.2000037786963
 31
0.0
  0
LINE
  5
2120D
330
3E7
100
AcDbEntity
  8
DETAIL
  6
CONTINUOUS
100
AcDbLine
 10
-467.9999785875097
 20
-216.3000037786964
 30
0.0
 11
-467.9999785875097
 21
-215.8000037786964
 31
0.0
  0
LINE
  5
2120E
330
3E7
100
AcDbEntity
  8
DETAIL
  6
CONTINUOUS
100
AcDbLine
 10
-459.690577510757
 20
-219.9540630541969
 30
0.0
 11
-459.6905775107516
 21
-217.2000037786963
 31
0.0
  0
LINE
  5
21210
330
3E7
100
AcDbEntity
  8
DETAIL
  6
CONTINUOUS
100
AcDbLine
 10
-460.0195935865086
 20
-215.8000037786964
 30
0.0
 11
-462.3194573490454
 21
-215.8000037786964
 31
0.0
  0
LINE
  5
21211
330
3E7
100
AcDbEntity
  8
DETAIL
  6
CONTINUOUS
100
AcDbLine
 10
-455.9999785875097
 20
-215.8000037786964
 30
0.0
 11
-460.0195935865086
 21
-215.8000037786964
 31
0.0
  0
LINE
  5
21213
330
3E7
100
AcDbEntity
  8
DETAIL
  6
CONTINUOUS
100
AcDbLine
 10
-456.9999785875097
 20
-217.0000037786962
 30
0.0
 11
-456.9999785875097
 21
-216.3000037786964
 31
0.0
  0
LINE
  5
21214
330
3E7
100
AcDbEntity
  8
DETAIL
  6
CONTINUOUS
100
AcDbLine
 10
-455.9999785875097
 20
-216.3000037786964
 30
0.0
 11
-455.9999785875097
 21
-215.8000037786964
 31
0.0
  0
LINE
  5
21216
330
3E7
100
AcDbEntity
  8
DETAIL
  6
DOT_CENTER
100
AcDbLine
 10
-461.9999785875097
 20
-217.0000037786965
 30
0.0
 11
-461.9999785875097
 21
-215.8000037786962
 31
0.0
  0
SPLINE
  5
21220
330
3E7
100
AcDbEntity
  8
DETAIL
  6
CONTINUOUS
100
AcDbSpline
210
0.0
220
0.0
230
1.0
 70
     8
 71
     3
 72
    11
 73
     7
 74
     5
 42
0.0000000001
 43
0.0000000001
 44
0.00000001
 40
0.0
 40
0.0
 40
0.0
 40
0.0
 40
1.227283460915399
 40
2.343202176583501
 40
3.458776458529033
 40
4.685677922812613
 40
4.685677922812613
 40
4.685677922812613
 40
4.685677922812613
 10
133.6906203357357
 20
-219.9540630541937
 30
0.0
 10
134.0874291227702
 20
-220.0563521182937
 30
0.0
 10
134.8450399329853
 20
-220.251648435669
 30
0.0
 10
136.0002726348322
 20
-220.3397702570708
 30
0.0
 10
137.1553652587618
 20
-220.2515656535009
 30
0.0
 10
137.9127385809062
 20
-220.0563235804817
 30
0.0
 10
138.3094224892556
 20
-219.9540630541971
 30
0.0
 11
133.6906203357357
 21
-219.9540630541937
 31
0.0
 11
134.8879102884784
 21
-220.2237322306327
 31
0.0
 11
136.0003856603052
 21
-220.3113286345267
 31
0.0
 11
137.1125109205295
 21
-220.2236737029743
 31
0.0
 11
138.3094224892556
 21
-219.9540630541971
 31
0.0
  0
LINE
  5
21221
330
3E7
100
AcDbEntity
  8
DETAIL
  6
CONTINUOUS
100
AcDbLine
 10
135.6805426509599
 20
-215.8000037786964
 30
0.0
 11
133.5065519383206
 21
-215.8000037786964
 31
0.0
  0
LINE
  5
21222
330
3E7
100
AcDbEntity
  8
DETAIL
  6
CONTINUOUS
100
AcDbLine
 10
132.5000214124938
 20
-220.6000037786964
 30
0.0
 11
139.5000214124938
 21
-220.6000037786964
 31
0.0
  0
LINE
  5
21223
330
3E7
100
AcDbEntity
  8
DETAIL
  6
CONTINUOUS
100
AcDbLine
 10
131.0000214124938
 20
-216.3000037786964
 30
0.0
 11
141.0000214124938
 21
-216.3000037786964
 31
0.0
  0
LINE
  5
21224
330
3E7
100
AcDbEntity
  8
DETAIL
  6
CONTINUOUS
100
AcDbLine
 10
133.6328853088161
 20
-217.1000037786964
 30
0.0
 11
138.3671575161715
 21
-217.1000037786964
 31
0.0
  0
SPLINE
  5
21229
330
3E7
100
AcDbEntity
  8
DETAIL
  6
CONTINUOUS
100
AcDbSpline
210
0.0
220
0.0
230
1.0
 70
     8
 71
     3
 72
    11
 73
     7
 74
     5
 42
0.0000000001
 43
0.0000000001
 44
0.00000001
 40
0.0
 40
0.0
 40
0.0
 40
0.0
 40
0.6566299644608744
 40
1.219672913759956
 40
1.782552026510539
 40
2.438985477867449
 40
2.438985477867449
 40
2.438985477867449
 40
2.438985477867449
 10
131.3812192589775
 20
-219.9540630541937
 30
0.0
 10
131.5763018098594
 20
-220.055768933562
 30
0.0
 10
131.9386625301077
 20
-220.2446849205482
 30
0.0
 10
132.5360510480439
 20
-220.342112651678
 30
0.0
 10
133.1333481753723
 20
-220.2446029287789
 30
0.0
 10
133.4955981520518
 20
-220.0557399867157
 30
0.0
 10
133.6906203357357
 20
-219.9540630541937
 30
0.0
 11
131.3812192589775
 21
-219.9540630541937
 31
0.0
 11
131.979912343786
 21
-220.22374713419
 31
0.0
 11
132.5361019212614
 21
-220.3113286345267
 31
0.0
 11
133.0921164224491
 21
-220.2236886175469
 31
0.0
 11
133.6906203357357
 21
-219.9540630541937
 31
0.0
  0
SPLINE
  5
2122A
330
3E7
100
AcDbEntity
  8
DETAIL
  6
CONTINUOUS
100
AcDbSpline
210
0.0
220
0.0
230
1.0
 70
     8
 71
     3
 72
     9
 73
     5
 74
     3
 42
0.0000000001
 43
0.0000000001
 44
0.00000001
 40
0.0
 40
0.0
 40
0.0
 40
0.0
 40
0.0502462890049659
 40
0.1229392340214769
 40
0.1229392340214769
 40
0.1229392340214769
 40
0.1229392340214769
 10
133.6328853088161
 20
-217.1000037786964
 30
0.0
 10
133.6484747001994
 20
-217.1084388903795
 30
0.0
 10
133.6866177598633
 20
-217.1290773671687
 30
0.0
 10
133.6891330658134
 20
-217.173648961366
 30
0.0
 10
133.6906203357357
 20
-217.2000037786965
 30
0.0
 11
133.6328853088161
 21
-217.1000037786964
 31
0.0
 11
133.6737021319095
 21
-217.1293069672972
 31
0.0
 11
133.6906203357357
 21
-217.2000037786965
 31
0.0
  0
SPLINE
  5
2122B
330
3E7
100
AcDbEntity
  8
DETAIL
  6
CONTINUOUS
100
AcDbSpline
210
0.0
220
0.0
230
1.0
 70
     8
 71
     3
 72
     9
 73
     5
 74
     3
 42
0.0000000001
 43
0.0000000001
 44
0.00000001
 40
0.0
 40
0.0
 40
0.0
 40
0.0
 40
0.0867336635453357
 40
0.1651105799758096
 40
0.1651105799758096
 40
0.1651105799758096
 40
0.1651105799758096
 10
131.2657492051403
 20
-217.1000037786966
 30
0.0
 10
131.2968292591454
 20
-217.1054875022855
 30
0.0
 10
131.3559948096469
 20
-217.1159266101323
 30
0.0
 10
131.3730996903835
 20
-217.172939924872
 30
0.0
 10
131.3812192589775
 20
-217.2000037786965
 30
0.0
 11
131.2657492051403
 21
-217.1000037786966
 31
0.0
 11
131.3473828513233
 21
-217.1293069672974
 31
0.0
 11
131.3812192589775
 21
-217.2000037786965
 31
0.0
  0
ARC
  5
2122C
330
3E7
100
AcDbEntity
  8
DETAIL
  6
CONTINUOUS
100
AcDbCircle
 10
131.1000214124942
 20
-217.0000037786967
 30
0.0
 40
0.1000000000000227
100
AcDbArc
 50
180.0
 51
270.0
  0
LINE
  5
2122D
330
3E7
100
AcDbEntity
  8
DETAIL
  6
CONTINUOUS
100
AcDbLine
 10
133.5065519383206
 20
-215.8000037786964
 30
0.0
 11
133.5000214124938
 21
-215.8000037786964
 31
0.0
  0
LINE
  5
2122E
330
3E7
100
AcDbEntity
  8
DETAIL
  6
CONTINUOUS
100
AcDbLine
 10
133.5000214124938
 20
-215.8000037786964
 30
0.0
 11
130.0000214124938
 21
-215.8000037786964
 31
0.0
  0
LINE
  5
21231
330
3E7
100
AcDbEntity
  8
DETAIL
  6
CONTINUOUS
100
AcDbLine
 10
130.0000214124938
 20
-216.3000037786964
 30
0.0
 11
131.0000214124938
 21
-216.3000037786964
 31
0.0
  0
LINE
  5
21232
330
3E7
100
AcDbEntity
  8
DETAIL
  6
CONTINUOUS
100
AcDbLine
 10
131.0000214124938
 20
-217.0000037786967
 30
0.0
 11
131.0000214124938
 21
-216.3000037786964
 31
0.0
  0
LINE
  5
21233
330
3E7
100
AcDbEntity
  8
DETAIL
  6
CONTINUOUS
100
AcDbLine
 10
130.0000214124938
 20
-216.3000037786964
 30
0.0
 11
130.0000214124938
 21
-215.8000037786964
 31
0.0
  0
LINE
  5
21234
330
3E7
100
AcDbEntity
  8
DETAIL
  6
CONTINUOUS
100
AcDbLine
 10
133.6906203357357
 20
-219.9540630541937
 30
0.0
 11
133.6906203357357
 21
-217.2000037786965
 31
0.0
  0
LINE
  5
21235
330
3E7
100
AcDbEntity
  8
DETAIL
  6
CONTINUOUS
100
AcDbLine
 10
132.5000214124938
 20
-220.6000037786964
 30
0.0
 11
131.3812192589775
 21
-219.9540630541937
 31
0.0
  0
LINE
  5
21236
330
3E7
100
AcDbEntity
  8
DETAIL
  6
CONTINUOUS
100
AcDbLine
 10
131.3812192589775
 20
-219.9540630541937
 30
0.0
 11
131.3812192589775
 21
-217.2000037786965
 31
0.0
  0
LINE
  5
21237
330
3E7
100
AcDbEntity
  8
DETAIL
  6
CONTINUOUS
100
AcDbLine
 10
131.2657492051403
 20
-217.1000037786966
 30
0.0
 11
133.6328853088161
 21
-217.1000037786964
 31
0.0
  0
LINE
  5
21238
330
3E7
100
AcDbEntity
  8
DETAIL
  6
CONTINUOUS
100
AcDbLine
 10
131.1000214124942
 20
-217.1000037786966
 30
0.0
 11
131.2657492051403
 21
-217.1000037786966
 31
0.0
  0
SPLINE
  5
2123D
330
3E7
100
AcDbEntity
  8
DETAIL
  6
CONTINUOUS
100
AcDbSpline
210
0.0
220
0.0
230
1.0
 70
     8
 71
     3
 72
     9
 73
     5
 74
     3
 42
0.0000000001
 43
0.0000000001
 44
0.00000001
 40
0.0
 40
0.0
 40
0.0
 40
0.0
 40
0.0502462890034882
 40
0.1229392340204226
 40
0.1229392340204226
 40
0.1229392340204226
 40
0.1229392340204226
 10
138.3671575161715
 20
-217.1000037786964
 30
0.0
 10
138.3515681247891
 20
-217.1084388903797
 30
0.0
 10
138.3134250651265
 20
-217.1290773671695
 30
0.0
 10
138.3109097591751
 20
-217.1736489613661
 30
0.0
 10
138.309422489252
 20
-217.2000037786965
 30
0.0
 11
138.3671575161715
 21
-217.1000037786964
 31
0.0
 11
138.32634069308
 21
-217.1293069672972
 31
0.0
 11
138.309422489252
 21
-217.2000037786965
 31
0.0
  0
SPLINE
  5
2123E
330
3E7
100
AcDbEntity
  8
DETAIL
  6
CONTINUOUS
100
AcDbSpline
210
0.0
220
0.0
230
1.0
 70
     8
 71
     3
 72
    11
 73
     7
 74
     5
 42
0.0000000001
 43
0.0000000001
 44
0.00000001
 40
0.0
 40
0.0
 40
0.0
 40
0.0
 40
0.6564343421730001
 40
1.219314200653435
 40
1.78235640837583
 40
2.438985477865577
 40
2.438985477865577
 40
2.438985477865577
 40
2.438985477865577
 10
138.3094224892556
 20
-219.9540630541971
 30
0.0
 10
138.5044449465829
 20
-220.0557401179394
 30
0.0
 10
138.8666954261641
 20
-220.2446033009341
 30
0.0
 10
139.4639929693904
 20
-220.3421126520178
 30
0.0
 10
140.0613810728331
 20
-220.2446845478535
 30
0.0
 10
140.4237412900679
 20
-220.0557688017332
 30
0.0
 10
140.618823566012
 20
-219.9540630541935
 30
0.0
 11
138.3094224892556
 21
-219.9540630541971
 31
0.0
 11
138.9079272600647
 21
-220.2236888828474
 31
0.0
 11
139.4639425579789
 21
-220.3113286346997
 31
0.0
 11
140.0201313427533
 21
-220.2237468677262
 31
0.0
 11
140.618823566012
 21
-219.9540630541935
 31
0.0
  0
SPLINE
  5
2123F
330
3E7
100
AcDbEntity
  8
DETAIL
  6
CONTINUOUS
100
AcDbSpline
210
0.0
220
0.0
230
1.0
 70
     8
 71
     3
 72
     9
 73
     5
 74
     3
 42
0.0000000001
 43
0.0000000001
 44
0.00000001
 40
0.0
 40
0.0
 40
0.0
 40
0.0
 40
0.0867336635470477
 40
0.1651105799769414
 40
0.1651105799769414
 40
0.1651105799769414
 40
0.1651105799769414
 10
140.7342936198492
 20
-217.1000037786964
 30
0.0
 10
140.7032135658432
 20
-217.1054875022849
 30
0.0
 10
140.6440480153406
 20
-217.1159266101312
 30
0.0
 10
140.6269431346053
 20
-217.1729399248719
 30
0.0
 10
140.618823566012
 20
-217.2000037786965
 30
0.0
 11
140.7342936198492
 21
-217.1000037786964
 31
0.0
 11
140.6526599736644
 21
-217.1293069672972
 31
0.0
 11
140.618823566012
 21
-217.2000037786965
 31
0.0
  0
ARC
  5
21240
330
3E7
100
AcDbEntity
  8
DETAIL
  6
CONTINUOUS
100
AcDbCircle
 10
140.9000214124935
 20
-217.0000037786965
 30
0.0
 40
0.0999999999999659
100
AcDbArc
 50
269.9999999999478
 51
0.0
  0
LINE
  5
21241
330
3E7
100
AcDbEntity
  8
DETAIL
  6
CONTINUOUS
100
AcDbLine
 10
142.0000214124938
 20
-215.8000037786964
 30
0.0
 11
137.980406413495
 21
-215.8000037786964
 31
0.0
  0
LINE
  5
21242
330
3E7
100
AcDbEntity
  8
DETAIL
  6
CONTINUOUS
100
AcDbLine
 10
137.980406413495
 20
-215.8000037786964
 30
0.0
 11
135.6805426509599
 21
-215.8000037786964
 31
0.0
  0
LINE
  5
21245
330
3E7
100
AcDbEntity
  8
DETAIL
  6
CONTINUOUS
100
AcDbLine
 10
138.3094224892556
 20
-219.9540630541971
 30
0.0
 11
138.309422489252
 21
-217.2000037786965
 31
0.0
  0
LINE
  5
21246
330
3E7
100
AcDbEntity
  8
DETAIL
  6
CONTINUOUS
100
AcDbLine
 10
141.0000214124938
 20
-216.3000037786964
 30
0.0
 11
142.0000214124938
 21
-216.3000037786964
 31
0.0
  0
LINE
  5
21247
330
3E7
100
AcDbEntity
  8
DETAIL
  6
CONTINUOUS
100
AcDbLine
 10
141.0000214124938
 20
-217.0000037786965
 30
0.0
 11
141.0000214124938
 21
-216.3000037786964
 31
0.0
  0
LINE
  5
21248
330
3E7
100
AcDbEntity
  8
DETAIL
  6
CONTINUOUS
100
AcDbLine
 10
138.3671575161715
 20
-217.1000037786964
 30
0.0
 11
140.7342936198492
 21
-217.1000037786964
 31
0.0
  0
LINE
  5
21249
330
3E7
100
AcDbEntity
  8
DETAIL
  6
CONTINUOUS
100
AcDbLine
 10
140.7342936198492
 20
-217.1000037786964
 30
0.0
 11
140.9000214124935
 21
-217.1000037786964
 31
0.0
  0
LINE
  5
2124A
330
3E7
100
AcDbEntity
  8
DETAIL
  6
CONTINUOUS
100
AcDbLine
 10
139.5000214124938
 20
-220.6000037786964
 30
0.0
 11
140.618823566012
 21
-219.9540630541935
 31
0.0
  0
LINE
  5
2124B
330
3E7
100
AcDbEntity
  8
DETAIL
  6
CONTINUOUS
100
AcDbLine
 10
142.0000214124938
 20
-216.3000037786964
 30
0.0
 11
142.0000214124938
 21
-215.8000037786964
 31
0.0
  0
LINE
  5
2124C
330
3E7
100
AcDbEntity
  8
DETAIL
  6
CONTINUOUS
100
AcDbLine
 10
140.618823566012
 20
-219.9540630541935
 30
0.0
 11
140.618823566012
 21
-217.2000037786965
 31
0.0
  0
LINE
  5
2124E
330
3E7
100
AcDbEntity
  8
DETAIL
  6
DOT_CENTER
100
AcDbLine
 10
136.0000214124938
 20
-217.0000037786967
 30
0.0
 11
136.0000214124938
 21
-215.8000037786964
 31
0.0
  0
LINE
  5
214F5
330
3E7
100
AcDbEntity
  8
DETAIL
  6
CONTINUOUS
100
AcDbLine
 10
134.500021412492
 20
-167.0000037786967
 30
0.0
 11
147.9000214124935
 21
-167.0000037786969
 31
0.0
  0
LINE
  5
214F6
330
3E7
100
AcDbEntity
  8
DETAIL
  6
CONTINUOUS
100
AcDbLine
 10
134.500021412492
 20
-167.0000037786967
 30
0.0
 11
-460.4999785875079
 21
-167.0000037786967
 31
0.0
  0
LINE
  5
214F7
330
3E7
100
AcDbEntity
  8
DETAIL
  6
CONTINUOUS
100
AcDbLine
 10
147.9000214124935
 20
-167.0000037786969
 30
0.0
 11
148.7000214124927
 21
-167.0000037786969
 31
0.0
  0
LINE
  5
214F8
330
3E7
100
AcDbEntity
  8
DETAIL
  6
CONTINUOUS
100
AcDbLine
 10
-455.4999785875079
 20
-214.2000037786965
 30
0.0
 11
129.500021412492
 21
-214.2000037786965
 31
0.0
  0
LINE
  5
214F9
330
3E7
100
AcDbEntity
  8
DETAIL
  6
CONTINUOUS
100
AcDbLine
 10
147.9000214124935
 20
-213.4000037786965
 30
0.0
 11
147.8293107343743
 21
-213.4000037786965
 31
0.0
  0
LINE
  5
214FA
330
3E7
100
AcDbEntity
  8
DETAIL
  6
CONTINUOUS
100
AcDbLine
 10
147.9000214124935
 20
-213.3292931005787
 30
0.0
 11
147.9000214124935
 21
-213.4000037786965
 31
0.0
  0
LINE
  5
214FB
330
3E7
100
AcDbEntity
  8
DETAIL
  6
CONTINUOUS
100
AcDbLine
 10
148.7000214124927
 20
-214.0000037786965
 30
0.0
 11
148.7000214124927
 21
-214.2000037786965
 31
0.0
  0
LINE
  5
214FC
330
3E7
100
AcDbEntity
  8
DETAIL
  6
CONTINUOUS
100
AcDbLine
 10
148.500021412492
 20
-214.2000037786965
 30
0.0
 11
148.7000214124927
 21
-214.2000037786965
 31
0.0
  0
LINE
  5
214FD
330
3E7
100
AcDbEntity
  8
DETAIL
  6
CONTINUOUS
100
AcDbLine
 10
147.770732090612
 20
-213.2000037786965
 30
0.0
 11
147.7000214124927
 21
-213.2000037786965
 31
0.0
  0
LINE
  5
214FE
330
3E7
100
AcDbEntity
  8
DETAIL
  6
CONTINUOUS
100
AcDbLine
 10
147.7000214124927
 20
-213.270714456816
 30
0.0
 11
147.7000214124927
 21
-213.2000037786965
 31
0.0
  0
LINE
  5
214FF
330
3E7
100
AcDbEntity
  8
DETAIL
  6
CONTINUOUS
100
AcDbLine
 10
-473.6999785875086
 20
-213.270714456816
 30
0.0
 11
-473.6999785875086
 21
-213.2000037786965
 31
0.0
  0
LINE
  5
21500
330
3E7
100
AcDbEntity
  8
DETAIL
  6
CONTINUOUS
100
AcDbLine
 10
-473.6999785875086
 20
-213.2000037786965
 30
0.0
 11
-473.7706892656278
 21
-213.2000037786965
 31
0.0
  0
LINE
  5
21501
330
3E7
100
AcDbEntity
  8
DETAIL
  6
CONTINUOUS
100
AcDbLine
 10
-473.8292679093901
 20
-213.4000037786965
 30
0.0
 11
-473.8999785875093
 21
-213.4000037786965
 31
0.0
  0
LINE
  5
21502
330
3E7
100
AcDbEntity
  8
DETAIL
  6
CONTINUOUS
100
AcDbLine
 10
-473.8999785875093
 20
-213.3292931005787
 30
0.0
 11
-473.8999785875093
 21
-213.4000037786965
 31
0.0
  0
LINE
  5
21503
330
3E7
100
AcDbEntity
  8
DETAIL
  6
CONTINUOUS
100
AcDbLine
 10
-474.6999785875086
 20
-214.2000037786965
 30
0.0
 11
-474.6999785875086
 21
-214.0000037786965
 31
0.0
  0
LINE
  5
21504
330
3E7
100
AcDbEntity
  8
DETAIL
  6
CONTINUOUS
100
AcDbLine
 10
-474.4999785875079
 20
-214.2000037786965
 30
0.0
 11
-474.6999785875086
 21
-214.2000037786965
 31
0.0
  0
LINE
  5
21505
330
3E7
100
AcDbEntity
  8
DETAIL
  6
CONTINUOUS
100
AcDbLine
 10
-473.8999785875093
 20
-167.0000037786969
 30
0.0
 11
-474.6999785875086
 21
-167.0000037786967
 31
0.0
  0
LINE
  5
21506
330
3E7
100
AcDbEntity
  8
DETAIL
  6
CONTINUOUS
100
AcDbLine
 10
-460.4999785875079
 20
-167.0000037786967
 30
0.0
 11
-473.8999785875093
 21
-167.0000037786969
 31
0.0
  0
LINE
  5
21507
330
3E7
100
AcDbEntity
  8
DETAIL
  6
CONTINUOUS
100
AcDbLine
 10
134.500021412492
 20
-167.0000037786967
 30
0.0
 11
147.9000214124935
 21
-167.0000037786969
 31
0.0
  0
LINE
  5
21508
330
3E7
100
AcDbEntity
  8
DETAIL
  6
CONTINUOUS
100
AcDbLine
 10
134.500021412492
 20
-167.0000037786967
 30
0.0
 11
-460.4999785875079
 21
-167.0000037786967
 31
0.0
  0
LINE
  5
21509
330
3E7
100
AcDbEntity
  8
DETAIL
  6
CONTINUOUS
100
AcDbLine
 10
147.9000214124935
 20
-167.0000037786969
 30
0.0
 11
148.7000214124927
 21
-167.0000037786969
 31
0.0
  0
LINE
  5
2150A
330
3E7
100
AcDbEntity
  8
DETAIL
  6
CONTINUOUS
100
AcDbLine
 10
-455.4999785875079
 20
-214.2000037786965
 30
0.0
 11
129.500021412492
 21
-214.2000037786965
 31
0.0
  0
LINE
  5
2150B
330
3E7
100
AcDbEntity
  8
DETAIL
  6
CONTINUOUS
100
AcDbLine
 10
147.9000214124935
 20
-213.4000037786965
 30
0.0
 11
147.8293107343743
 21
-213.4000037786965
 31
0.0
  0
LINE
  5
2150C
330
3E7
100
AcDbEntity
  8
DETAIL
  6
CONTINUOUS
100
AcDbLine
 10
147.9000214124935
 20
-213.3292931005787
 30
0.0
 11
147.9000214124935
 21
-213.4000037786965
 31
0.0
  0
LINE
  5
2150D
330
3E7
100
AcDbEntity
  8
DETAIL
  6
CONTINUOUS
100
AcDbLine
 10
148.7000214124927
 20
-214.0000037786965
 30
0.0
 11
148.7000214124927
 21
-214.2000037786965
 31
0.0
  0
LINE
  5
2150E
330
3E7
100
AcDbEntity
  8
DETAIL
  6
CONTINUOUS
100
AcDbLine
 10
148.500021412492
 20
-214.2000037786965
 30
0.0
 11
148.7000214124927
 21
-214.2000037786965
 31
0.0
  0
LINE
  5
2150F
330
3E7
100
AcDbEntity
  8
DETAIL
  6
CONTINUOUS
100
AcDbLine
 10
147.770732090612
 20
-213.2000037786965
 30
0.0
 11
147.7000214124927
 21
-213.2000037786965
 31
0.0
  0
LINE
  5
21510
330
3E7
100
AcDbEntity
  8
DETAIL
  6
CONTINUOUS
100
AcDbLine
 10
147.7000214124927
 20
-213.270714456816
 30
0.0
 11
147.7000214124927
 21
-213.2000037786965
 31
0.0
  0
LINE
  5
21511
330
3E7
100
AcDbEntity
  8
DETAIL
  6
CONTINUOUS
100
AcDbLine
 10
-473.6999785875086
 20
-213.270714456816
 30
0.0
 11
-473.6999785875086
 21
-213.2000037786965
 31
0.0
  0
LINE
  5
21512
330
3E7
100
AcDbEntity
  8
DETAIL
  6
CONTINUOUS
100
AcDbLine
 10
-473.6999785875086
 20
-213.2000037786965
 30
0.0
 11
-473.7706892656278
 21
-213.2000037786965
 31
0.0
  0
LINE
  5
21513
330
3E7
100
AcDbEntity
  8
DETAIL
  6
CONTINUOUS
100
AcDbLine
 10
-473.8292679093901
 20
-213.4000037786965
 30
0.0
 11
-473.8999785875093
 21
-213.4000037786965
 31
0.0
  0
LINE
  5
21514
330
3E7
100
AcDbEntity
  8
DETAIL
  6
CONTINUOUS
100
AcDbLine
 10
-473.8999785875093
 20
-213.3292931005787
 30
0.0
 11
-473.8999785875093
 21
-213.4000037786965
 31
0.0
  0
LINE
  5
21515
330
3E7
100
AcDbEntity
  8
DETAIL
  6
CONTINUOUS
100
AcDbLine
 10
-474.6999785875086
 20
-214.2000037786965
 30
0.0
 11
-474.6999785875086
 21
-214.0000037786965
 31
0.0
  0
LINE
  5
21516
330
3E7
100
AcDbEntity
  8
DETAIL
  6
CONTINUOUS
100
AcDbLine
 10
-474.4999785875079
 20
-214.2000037786965
 30
0.0
 11
-474.6999785875086
 21
-214.2000037786965
 31
0.0
  0
LINE
  5
21517
330
3E7
100
AcDbEntity
  8
DETAIL
  6
CONTINUOUS
100
AcDbLine
 10
-473.8999785875093
 20
-167.0000037786969
 30
0.0
 11
-474.6999785875086
 21
-167.0000037786967
 31
0.0
  0
LINE
  5
21518
330
3E7
100
AcDbEntity
  8
DETAIL
  6
CONTINUOUS
100
AcDbLine
 10
-460.4999785875079
 20
-167.0000037786967
 30
0.0
 11
-473.8999785875093
 21
-167.0000037786969
 31
0.0
  0
LINE
  5
21519
330
3E7
100
AcDbEntity
  8
DETAIL
  6
CONTINUOUS
100
AcDbLine
 10
128.5000214124938
 20
-280.602738418175
 30
0.0
 11
128.7000214124927
 21
-280.602738418175
 31
0.0
  0
LINE
  5
2151A
330
3E7
100
AcDbEntity
  8
DETAIL
  6
CONTINUOUS
100
AcDbLine
 10
128.7000214124927
 20
-280.6951263714261
 30
0.0
 11
128.5000214124938
 21
-280.6951263714261
 31
0.0
  0
LINE
  5
2151B
330
3E7
100
AcDbEntity
  8
DETAIL
  6
CONTINUOUS
100
AcDbLine
 10
128.7000214124927
 20
-281.0710715905627
 30
0.0
 11
128.5000214124938
 21
-281.0710715905627
 31
0.0
  0
LINE
  5
2151C
330
3E7
100
AcDbEntity
  8
DETAIL
  6
CONTINUOUS
100
AcDbLine
 10
128.7000214124927
 20
-280.602738418175
 30
0.0
 11
128.7000214124927
 21
-280.6951263714261
 31
0.0
  0
LINE
  5
2151D
330
3E7
100
AcDbEntity
  8
DETAIL
  6
CONTINUOUS
100
AcDbLine
 10
128.7000214124927
 20
-280.402442440461
 30
0.0
 11
128.7000214124927
 21
-280.602738418175
 31
0.0
  0
LINE
  5
2151E
330
3E7
100
AcDbEntity
  8
DETAIL
  6
CONTINUOUS
100
AcDbLine
 10
128.7000214124927
 20
-280.6951263714261
 30
0.0
 11
128.7000214124927
 21
-280.9882288780877
 31
0.0
  0
LINE
  5
2151F
330
3E7
100
AcDbEntity
  8
DETAIL
  6
CONTINUOUS
100
AcDbLine
 10
128.7000214124927
 20
-280.9882288780877
 30
0.0
 11
128.7000214124927
 21
-281.0710715905627
 31
0.0
  0
LINE
  5
21520
330
3E7
100
AcDbEntity
  8
DETAIL
  6
CONTINUOUS
100
AcDbLine
 10
128.7000214124927
 20
-281.4024424404619
 30
0.0
 11
128.7000214124927
 21
-281.5438637966985
 31
0.0
  0
LINE
  5
21521
330
3E7
100
AcDbEntity
  8
DETAIL
  6
CONTINUOUS
100
AcDbLine
 10
128.7000214124927
 20
-281.0710715905627
 30
0.0
 11
128.7000214124927
 21
-281.4024424404619
 31
0.0
  0
LINE
  5
21522
330
3E7
100
AcDbEntity
  8
DETAIL
  6
CONTINUOUS
100
AcDbLine
 10
-454.6999785875086
 20
-281.4027384181761
 30
0.0
 11
-454.4999785875079
 21
-281.4027384181761
 31
0.0
  0
LINE
  5
21523
330
3E7
100
AcDbEntity
  8
DETAIL
  6
CONTINUOUS
100
AcDbLine
 10
-454.6999785875086
 20
-281.4951263714274
 30
0.0
 11
-454.6999785875086
 21
-281.4027384181761
 31
0.0
  0
LINE
  5
21524
330
3E7
100
AcDbEntity
  8
DETAIL
  6
CONTINUOUS
100
AcDbLine
 10
-454.6999785875086
 20
-281.4027384181761
 30
0.0
 11
-454.6999785875068
 21
-281.2024424404624
 31
0.0
  0
LINE
  5
21525
330
3E7
100
AcDbEntity
  8
DETAIL
  6
CONTINUOUS
100
AcDbLine
 10
-454.6999785875086
 20
-281.8710715905638
 30
0.0
 11
-454.4999785875079
 21
-281.871071590564
 31
0.0
  0
LINE
  5
21526
330
3E7
100
AcDbEntity
  8
DETAIL
  6
CONTINUOUS
100
AcDbLine
 10
-454.6999785875068
 20
-281.7882288780893
 30
0.0
 11
-454.6999785875086
 21
-281.4951263714274
 31
0.0
  0
LINE
  5
21527
330
3E7
100
AcDbEntity
  8
DETAIL
  6
CONTINUOUS
100
AcDbLine
 10
-454.4999785875079
 20
-281.4951263714274
 30
0.0
 11
-454.6999785875086
 21
-281.4951263714274
 31
0.0
  0
LINE
  5
21528
330
3E7
100
AcDbEntity
  8
DETAIL
  6
CONTINUOUS
100
AcDbLine
 10
-454.6999785875086
 20
-281.8710715905638
 30
0.0
 11
-454.6999785875068
 21
-281.7882288780893
 31
0.0
  0
LINE
  5
21529
330
3E7
100
AcDbEntity
  8
DETAIL
  6
CONTINUOUS
100
AcDbLine
 10
-454.6999785875068
 20
-282.3438637966996
 30
0.0
 11
-454.6999785875068
 21
-282.2024424404623
 31
0.0
  0
LINE
  5
2152A
330
3E7
100
AcDbEntity
  8
DETAIL
  6
CONTINUOUS
100
AcDbLine
 10
-454.6999785875068
 20
-282.2024424404623
 30
0.0
 11
-454.6999785875086
 21
-281.8710715905638
 31
0.0
  0
LINE
  5
2152B
330
3E7
100
AcDbEntity
  8
DETAIL
  6
CONTINUOUS
100
AcDbLine
 10
-444.6999785875068
 20
-231.0710715905624
 30
0.0
 11
118.7000214124927
 21
-231.0710715905624
 31
0.0
  0
LINE
  5
2152C
330
3E7
100
AcDbEntity
  8
DETAIL
  6
CONTINUOUS
100
AcDbLine
 10
-444.6999785875068
 20
-281.0710715905624
 30
0.0
 11
118.7000214124927
 21
-281.0710715905627
 31
0.0
  0
LINE
  5
2152D
330
3E7
100
AcDbEntity
  8
DETAIL
  6
CONTINUOUS
100
AcDbLine
 10
118.7000214124927
 20
-364.2000037786965
 30
0.0
 11
-444.6999785875068
 21
-364.2000037786965
 31
0.0
  0
LINE
  5
2152E
330
3E7
100
AcDbEntity
  8
DETAIL
  6
CONTINUOUS
100
AcDbLine
 10
-470.4999785875079
 20
-215.8000037786964
 30
0.0
 11
-475.4999785875079
 21
-215.8000037786964
 31
0.0
  0
LINE
  5
2152F
330
3E7
100
AcDbEntity
  8
DETAIL
  6
CONTINUOUS
100
AcDbLine
 10
-475.4999785875079
 20
-215.8000037786964
 30
0.0
 11
-475.4999785875079
 21
-215.0000037786962
 31
0.0
  0
LINE
  5
21530
330
3E7
100
AcDbEntity
  8
DETAIL
  6
CONTINUOUS
100
AcDbLine
 10
-455.4999785875079
 20
-215.8000037786964
 30
0.0
 11
-455.4999785875079
 21
-216.0000037786963
 31
0.0
  0
LINE
  5
21531
330
3E7
100
AcDbEntity
  8
DETAIL
  6
CONTINUOUS
100
AcDbLine
 10
-470.4999785875079
 20
-215.0000037786962
 30
0.0
 11
-470.4999785875079
 21
-215.8000037786964
 31
0.0
  0
LINE
  5
21532
330
3E7
100
AcDbEntity
  8
DETAIL
  6
CONTINUOUS
100
AcDbLine
 10
-454.6999785875068
 20
-216.0000037786965
 30
0.0
 11
-455.4999785875079
 21
-216.0000037786963
 31
0.0
  0
LINE
  5
21533
330
3E7
100
AcDbEntity
  8
DETAIL
  6
CONTINUOUS
100
AcDbLine
 10
-467.9999785875097
 20
-215.8000037786964
 30
0.0
 11
-470.4999785875079
 21
-215.8000037786964
 31
0.0
  0
LINE
  5
21534
330
3E7
100
AcDbEntity
  8
DETAIL
  6
CONTINUOUS
100
AcDbLine
 10
-454.6999785875068
 20
-215.0000037786962
 30
0.0
 11
-470.4999785875079
 21
-215.0000037786962
 31
0.0
  0
LINE
  5
21535
330
3E7
100
AcDbEntity
  8
DETAIL
  6
CONTINUOUS
100
AcDbLine
 10
-470.4999785875079
 20
-215.0000037786962
 30
0.0
 11
-475.4999785875079
 21
-215.0000037786962
 31
0.0
  0
LINE
  5
21536
330
3E7
100
AcDbEntity
  8
DETAIL
  6
CONTINUOUS
100
AcDbLine
 10
-455.4999785875079
 20
-281.7882288780893
 30
0.0
 11
-455.4999785875079
 21
-282.2024424404623
 31
0.0
  0
LINE
  5
21537
330
3E7
100
AcDbEntity
  8
DETAIL
  6
CONTINUOUS
100
AcDbLine
 10
-455.4999785875079
 20
-282.1095492216475
 30
0.0
 11
-455.4999785875079
 21
-364.2928969975096
 31
0.0
  0
LINE
  5
21538
330
3E7
100
AcDbEntity
  8
DETAIL
  6
CONTINUOUS
100
AcDbLine
 10
-455.4999785875079
 20
-216.0000037786963
 30
0.0
 11
-455.4999785875079
 21
-280.402442440461
 31
0.0
  0
LINE
  5
21539
330
3E7
100
AcDbEntity
  8
DETAIL
  6
CONTINUOUS
100
AcDbLine
 10
-455.4999785875079
 20
-282.2024424404623
 30
0.0
 11
-455.4999785875079
 21
-282.9095492216488
 31
0.0
  0
LINE
  5
2153A
330
3E7
100
AcDbEntity
  8
DETAIL
  6
CONTINUOUS
100
AcDbLine
 10
-449.6999785875068
 20
-216.0000037786965
 30
0.0
 11
-444.6999785875068
 21
-221.0000037786965
 31
0.0
  0
LINE
  5
2153B
330
3E7
100
AcDbEntity
  8
DETAIL
  6
CONTINUOUS
100
AcDbLine
 10
-455.4999785875079
 20
-281.2024424404624
 30
0.0
 11
-455.4999785875079
 21
-281.7882288780893
 31
0.0
  0
LINE
  5
2153C
330
3E7
100
AcDbEntity
  8
DETAIL
  6
CONTINUOUS
100
AcDbLine
 10
-455.4999785875079
 20
-281.2024424404624
 30
0.0
 11
-454.6999785875068
 21
-281.2024424404624
 31
0.0
  0
LINE
  5
2153D
330
3E7
100
AcDbEntity
  8
DETAIL
  6
CONTINUOUS
100
AcDbLine
 10
-454.6999785875086
 20
-281.4951263714274
 30
0.0
 11
-454.6999785875086
 21
-281.4027384181761
 31
0.0
  0
LINE
  5
2153E
330
3E7
100
AcDbEntity
  8
DETAIL
  6
CONTINUOUS
100
AcDbLine
 10
-454.6999785875086
 20
-281.4027384181761
 30
0.0
 11
-454.6999785875068
 21
-281.2024424404624
 31
0.0
  0
LINE
  5
2153F
330
3E7
100
AcDbEntity
  8
DETAIL
  6
CONTINUOUS
100
AcDbLine
 10
-455.4999785875079
 20
-281.7882288780893
 30
0.0
 11
-454.6999785875068
 21
-281.7882288780893
 31
0.0
  0
LINE
  5
21540
330
3E7
100
AcDbEntity
  8
DETAIL
  6
CONTINUOUS
100
AcDbLine
 10
-454.4999785875079
 20
-282.2024424404623
 30
0.0
 11
-454.4999785875079
 21
-281.2024424404624
 31
0.0
  0
LINE
  5
21541
330
3E7
100
AcDbEntity
  8
DETAIL
  6
CONTINUOUS
100
AcDbLine
 10
-455.4999785875079
 20
-282.2024424404623
 30
0.0
 11
-454.6999785875068
 21
-282.2024424404623
 31
0.0
  0
LINE
  5
21542
330
3E7
100
AcDbEntity
  8
DETAIL
  6
CONTINUOUS
100
AcDbLine
 10
-454.6999785875068
 20
-281.7882288780893
 30
0.0
 11
-454.6999785875086
 21
-281.4951263714274
 31
0.0
  0
LINE
  5
21543
330
3E7
100
AcDbEntity
  8
DETAIL
  6
CONTINUOUS
100
AcDbLine
 10
-454.6999785875086
 20
-281.8710715905638
 30
0.0
 11
-454.6999785875068
 21
-281.7882288780893
 31
0.0
  0
LINE
  5
21544
330
3E7
100
AcDbEntity
  8
DETAIL
  6
CONTINUOUS
100
AcDbLine
 10
-454.6999785875068
 20
-282.3438637966996
 30
0.0
 11
-454.6999785875068
 21
-282.2024424404623
 31
0.0
  0
LINE
  5
21545
330
3E7
100
AcDbEntity
  8
DETAIL
  6
CONTINUOUS
100
AcDbLine
 10
-454.6999785875068
 20
-282.2024424404623
 30
0.0
 11
-454.6999785875086
 21
-281.8710715905638
 31
0.0
  0
LINE
  5
21546
330
3E7
100
AcDbEntity
  8
DETAIL
  6
CONTINUOUS
100
AcDbLine
 10
-454.5706892656271
 20
-282.3438637966996
 30
0.0
 11
-454.6999785875068
 21
-282.3438637966996
 31
0.0
  0
LINE
  5
21547
330
3E7
100
AcDbEntity
  8
DETAIL
  6
CONTINUOUS
100
AcDbLine
 10
-454.5706892656271
 20
-282.9095492216488
 30
0.0
 11
-454.5706892656271
 21
-282.3438637966996
 31
0.0
  0
LINE
  5
21548
330
3E7
100
AcDbEntity
  8
DETAIL
  6
CONTINUOUS
100
AcDbLine
 10
-454.6999785875068
 20
-281.2024424404624
 30
0.0
 11
-454.4999785875079
 21
-281.2024424404624
 31
0.0
  0
LINE
  5
21549
330
3E7
100
AcDbEntity
  8
DETAIL
  6
CONTINUOUS
100
AcDbLine
 10
-454.5706892656271
 20
-282.9095492216488
 30
0.0
 11
-455.4999785875079
 21
-282.9095492216488
 31
0.0
  0
LINE
  5
2154A
330
3E7
100
AcDbEntity
  8
DETAIL
  6
CONTINUOUS
100
AcDbLine
 10
-447.4706892656268
 20
-359.2724388510846
 30
0.0
 11
-454.5706892656271
 21
-364.2928969975096
 31
0.0
  0
LINE
  5
2154B
330
3E7
100
AcDbEntity
  8
DETAIL
  6
CONTINUOUS
100
AcDbLine
 10
-454.4999785875079
 20
-364.2428969975094
 30
0.0
 11
-454.4999785875079
 21
-364.3428969975093
 31
0.0
  0
LINE
  5
2154C
330
3E7
100
AcDbEntity
  8
DETAIL
  6
CONTINUOUS
100
AcDbLine
 10
-447.4292679093887
 20
-359.2724388510846
 30
0.0
 11
-447.4292679093887
 21
-359.3431495292033
 31
0.0
  0
LINE
  5
2154D
330
3E7
100
AcDbEntity
  8
DETAIL
  6
CONTINUOUS
100
AcDbLine
 10
-447.4292679093887
 20
-359.3431495292033
 30
0.0
 11
-444.6999785875068
 21
-359.3431495292033
 31
0.0
  0
LINE
  5
2154E
330
3E7
100
AcDbEntity
  8
DETAIL
  6
CONTINUOUS
100
AcDbLine
 10
-454.4999785875079
 20
-364.3428969975093
 30
0.0
 11
-447.4292679093887
 21
-359.3431495292033
 31
0.0
  0
LINE
  5
2154F
330
3E7
100
AcDbEntity
  8
DETAIL
  6
CONTINUOUS
100
AcDbLine
 10
-455.4999785875079
 20
-215.8000037786964
 30
0.0
 11
-455.9999785875097
 21
-215.8000037786964
 31
0.0
  0
LINE
  5
21550
330
3E7
100
AcDbEntity
  8
DETAIL
  6
CONTINUOUS
100
AcDbLine
 10
-455.9999785875097
 20
-215.8000037786964
 30
0.0
 11
-460.0195935865086
 21
-215.8000037786964
 31
0.0
  0
LINE
  5
21551
330
3E7
100
AcDbEntity
  8
DETAIL
  6
CONTINUOUS
100
AcDbLine
 10
-460.0195935865086
 20
-215.8000037786964
 30
0.0
 11
-462.3194573490454
 21
-215.8000037786964
 31
0.0
  0
LINE
  5
21552
330
3E7
100
AcDbEntity
  8
DETAIL
  6
CONTINUOUS
100
AcDbLine
 10
-464.4999785875097
 20
-215.8000037786964
 30
0.0
 11
-467.9999785875097
 21
-215.8000037786964
 31
0.0
  0
LINE
  5
21553
330
3E7
100
AcDbEntity
  8
DETAIL
  6
CONTINUOUS
100
AcDbLine
 10
-462.3194573490454
 20
-215.8000037786964
 30
0.0
 11
-464.493448061683
 21
-215.8000037786964
 31
0.0
  0
LINE
  5
21554
330
3E7
100
AcDbEntity
  8
DETAIL
  6
CONTINUOUS
100
AcDbLine
 10
-464.493448061683
 20
-215.8000037786964
 30
0.0
 11
-464.4999785875097
 21
-215.8000037786964
 31
0.0
  0
LINE
  5
21555
330
3E7
100
AcDbEntity
  8
DETAIL
  6
CONTINUOUS
100
AcDbLine
 10
-449.6999785875068
 20
-216.0000037786965
 30
0.0
 11
-454.6999785875068
 21
-216.0000037786965
 31
0.0
  0
LINE
  5
21556
330
3E7
100
AcDbEntity
  8
DETAIL
  6
CONTINUOUS
100
AcDbLine
 10
-454.6999785875068
 20
-216.0000037786965
 30
0.0
 11
-454.6999785875068
 21
-215.0000037786962
 31
0.0
  0
LINE
  5
21557
330
3E7
100
AcDbEntity
  8
DETAIL
  6
CONTINUOUS
100
AcDbLine
 10
-454.5706892656271
 20
-282.3438637966996
 30
0.0
 11
-454.4999785875079
 21
-282.3938637966996
 31
0.0
  0
LINE
  5
21558
330
3E7
100
AcDbEntity
  8
DETAIL
  6
CONTINUOUS
100
AcDbLine
 10
-454.4999785875079
 20
-282.8595492216488
 30
0.0
 11
-454.4999785875079
 21
-282.2024424404623
 31
0.0
  0
LINE
  5
21559
330
3E7
100
AcDbEntity
  8
DETAIL
  6
CONTINUOUS
100
AcDbLine
 10
-447.4706892656268
 20
-287.8300073680737
 30
0.0
 11
-447.4706892656268
 21
-287.9300073680735
 31
0.0
  0
LINE
  5
2155A
330
3E7
100
AcDbEntity
  8
DETAIL
  6
CONTINUOUS
100
AcDbLine
 10
-444.6999785875068
 20
-287.8592966899548
 30
0.0
 11
-447.4292679093887
 21
-287.8592966899548
 31
0.0
  0
LINE
  5
2155B
330
3E7
100
AcDbEntity
  8
DETAIL
  6
CONTINUOUS
100
AcDbLine
 10
-447.4706892656268
 20
-287.9300073680735
 30
0.0
 11
-444.6999785875086
 21
-287.9300073680735
 31
0.0
  0
LINE
  5
2155C
330
3E7
100
AcDbEntity
  8
DETAIL
  6
CONTINUOUS
100
AcDbLine
 10
-444.6999785875068
 20
-282.2024424404623
 30
0.0
 11
-454.4999785875079
 21
-282.2024424404623
 31
0.0
  0
LINE
  5
2155D
330
3E7
100
AcDbEntity
  8
DETAIL
  6
CONTINUOUS
100
AcDbLine
 10
-447.4292679093887
 20
-287.8592966899548
 30
0.0
 11
-454.4999785875079
 21
-282.8595492216488
 31
0.0
  0
LINE
  5
2155E
330
3E7
100
AcDbEntity
  8
DETAIL
  6
CONTINUOUS
100
AcDbLine
 10
-454.5706892656271
 20
-282.9095492216488
 30
0.0
 11
-447.4706892656268
 21
-287.9300073680735
 31
0.0
  0
LINE
  5
2155F
330
3E7
100
AcDbEntity
  8
DETAIL
  6
CONTINUOUS
100
AcDbLine
 10
-444.6999785875086
 20
-359.2724388510846
 30
0.0
 11
-447.4706892656268
 21
-359.2724388510846
 31
0.0
  0
LINE
  5
21560
330
3E7
100
AcDbEntity
  8
DETAIL
  6
CONTINUOUS
100
AcDbLine
 10
-455.4999785875079
 20
-364.2928969975096
 30
0.0
 11
-454.5706892656271
 21
-364.2928969975096
 31
0.0
  0
LINE
  5
21561
330
3E7
100
AcDbEntity
  8
DETAIL
  6
CONTINUOUS
100
AcDbLine
 10
-455.4999785875079
 20
-364.2928969975096
 30
0.0
 11
-455.4999785875079
 21
-365.0000037786962
 31
0.0
  0
LINE
  5
21562
330
3E7
100
AcDbEntity
  8
DETAIL
  6
CONTINUOUS
100
AcDbLine
 10
-454.4999785875079
 20
-365.0000037786962
 30
0.0
 11
-454.4999785875079
 21
-364.3428969975093
 31
0.0
  0
LINE
  5
21563
330
3E7
100
AcDbEntity
  8
DETAIL
  6
CONTINUOUS
100
AcDbLine
 10
-444.6999785875068
 20
-365.0000037786962
 30
0.0
 11
-454.4999785875079
 21
-365.0000037786962
 31
0.0
  0
LINE
  5
21564
330
3E7
100
AcDbEntity
  8
DETAIL
  6
CONTINUOUS
100
AcDbLine
 10
-455.4999785875079
 20
-365.0000037786962
 30
0.0
 11
-454.4999785875079
 21
-365.0000037786962
 31
0.0
  0
LINE
  5
21565
330
3E7
100
AcDbEntity
  8
DETAIL
  6
CONTINUOUS
100
AcDbLine
 10
-444.6999785875068
 20
-365.0000037786962
 30
0.0
 11
-444.6999785875068
 21
-364.2000037786965
 31
0.0
  0
LINE
  5
21566
330
3E7
100
AcDbEntity
  8
DETAIL
  6
CONTINUOUS
100
AcDbLine
 10
-444.6999785875086
 20
-359.2724388510846
 30
0.0
 11
-444.6999785875086
 21
-287.1300073680722
 31
0.0
  0
LINE
  5
21567
330
3E7
100
AcDbEntity
  8
DETAIL
  6
CONTINUOUS
100
AcDbLine
 10
-444.6999785875068
 20
-359.3431495292033
 30
0.0
 11
-444.6999785875086
 21
-359.2724388510846
 31
0.0
  0
LINE
  5
21568
330
3E7
100
AcDbEntity
  8
DETAIL
  6
CONTINUOUS
100
AcDbLine
 10
-444.6999785875068
 20
-364.2000037786965
 30
0.0
 11
-444.6999785875068
 21
-359.3431495292033
 31
0.0
  0
LINE
  5
21569
330
3E7
100
AcDbEntity
  8
DETAIL
  6
CONTINUOUS
100
AcDbLine
 10
-444.6999785875086
 20
-287.9300073680735
 30
0.0
 11
-444.6999785875068
 21
-287.8592966899548
 31
0.0
  0
LINE
  5
2156A
330
3E7
100
AcDbEntity
  8
DETAIL
  6
CONTINUOUS
100
AcDbLine
 10
-444.6999785875068
 20
-287.8592966899548
 30
0.0
 11
-444.6999785875068
 21
-282.2024424404623
 31
0.0
  0
LINE
  5
2156B
330
3E7
100
AcDbEntity
  8
DETAIL
  6
CONTINUOUS
100
AcDbLine
 10
-444.6999785875068
 20
-281.402442440461
 30
0.0
 11
-444.6999785875068
 21
-221.0000037786965
 31
0.0
  0
LINE
  5
2156C
330
3E7
100
AcDbEntity
  8
DETAIL
  6
CONTINUOUS
100
AcDbLine
 10
-484.6999785875087
 20
-165.0000037786967
 30
0.0
 11
-474.6999785875086
 21
-165.0000037786965
 31
0.0
  0
LINE
  5
2156D
330
3E7
100
AcDbEntity
  8
DETAIL
  6
CONTINUOUS
100
AcDbLine
 10
-474.4999785875079
 20
-215.0000037786965
 30
0.0
 11
-475.4999785875079
 21
-215.0000037786965
 31
0.0
  0
LINE
  5
2156E
330
3E7
100
AcDbEntity
  8
DETAIL
  6
CONTINUOUS
100
AcDbLine
 10
-455.4999785875079
 20
-215.0000037786965
 30
0.0
 11
-474.4999785875079
 21
-215.0000037786965
 31
0.0
  0
LINE
  5
2156F
330
3E7
100
AcDbEntity
  8
DETAIL
  6
CONTINUOUS
100
AcDbLine
 10
-475.4999785875079
 20
-215.0000037786965
 30
0.0
 11
-475.4999785875079
 21
-214.0000037786965
 31
0.0
  0
LINE
  5
21570
330
3E7
100
AcDbEntity
  8
DETAIL
  6
CONTINUOUS
100
AcDbLine
 10
-475.4999785875079
 20
-214.0000037786965
 30
0.0
 11
-475.4999785875079
 21
-167.0000037786967
 31
0.0
  0
LINE
  5
21571
330
3E7
100
AcDbEntity
  8
DETAIL
  6
CONTINUOUS
100
AcDbLine
 10
-474.6999785875086
 20
-167.0000037786967
 30
0.0
 11
-475.4999785875079
 21
-167.0000037786967
 31
0.0
  0
LINE
  5
21572
330
3E7
100
AcDbEntity
  8
DETAIL
  6
CONTINUOUS
100
AcDbLine
 10
-489.6999785875086
 20
-165.8000037786966
 30
0.0
 11
-484.6999785875087
 21
-165.8000037786966
 31
0.0
  0
LINE
  5
21573
330
3E7
100
AcDbEntity
  8
DETAIL
  6
CONTINUOUS
100
AcDbLine
 10
-474.4999785875079
 20
-214.2000037786965
 30
0.0
 11
-474.4999785875079
 21
-214.0707144568152
 31
0.0
  0
LINE
  5
21574
330
3E7
100
AcDbEntity
  8
DETAIL
  6
CONTINUOUS
100
AcDbLine
 10
-474.6999785875086
 20
-214.0000037786965
 30
0.0
 11
-474.5706892656271
 21
-214.0000037786965
 31
0.0
  0
LINE
  5
21575
330
3E7
100
AcDbEntity
  8
DETAIL
  6
CONTINUOUS
100
AcDbLine
 10
-474.6999785875086
 20
-214.2000037786965
 30
0.0
 11
-474.6999785875086
 21
-214.0000037786965
 31
0.0
  0
LINE
  5
21576
330
3E7
100
AcDbEntity
  8
DETAIL
  6
CONTINUOUS
100
AcDbLine
 10
-474.4999785875079
 20
-214.2000037786965
 30
0.0
 11
-474.6999785875086
 21
-214.2000037786965
 31
0.0
  0
LINE
  5
21577
330
3E7
100
AcDbEntity
  8
DETAIL
  6
CONTINUOUS
100
AcDbLine
 10
-474.4999785875079
 20
-215.0000037786965
 30
0.0
 11
-474.4999785875079
 21
-214.2000037786965
 31
0.0
  0
LINE
  5
21578
330
3E7
100
AcDbEntity
  8
DETAIL
  6
CONTINUOUS
100
AcDbLine
 10
-475.4999785875079
 20
-214.0000037786965
 30
0.0
 11
-474.6999785875086
 21
-214.0000037786965
 31
0.0
  0
LINE
  5
21579
330
3E7
100
AcDbEntity
  8
DETAIL
  6
CONTINUOUS
100
AcDbLine
 10
-455.4999785875079
 20
-172.0000037786967
 30
0.0
 11
-455.4999785875079
 21
-199.9000037786966
 31
0.0
  0
LINE
  5
2157A
330
3E7
100
AcDbEntity
  8
DETAIL
  6
CONTINUOUS
100
AcDbLine
 10
-455.4999785875079
 20
-199.9000037786966
 30
0.0
 11
-460.4706892656268
 21
-199.9000037786966
 31
0.0
  0
LINE
  5
2157B
330
3E7
100
AcDbEntity
  8
DETAIL
  6
CONTINUOUS
100
AcDbLine
 10
-455.4999785875079
 20
-200.0000037786965
 30
0.0
 11
-460.4292679093905
 21
-200.0000037786965
 31
0.0
  0
LINE
  5
2157C
330
3E7
100
AcDbEntity
  8
DETAIL
  6
CONTINUOUS
100
AcDbLine
 10
-455.4999785875079
 20
-214.2000037786965
 30
0.0
 11
-455.4999785875079
 21
-215.0000037786965
 31
0.0
  0
LINE
  5
2157D
330
3E7
100
AcDbEntity
  8
DETAIL
  6
CONTINUOUS
100
AcDbLine
 10
-455.4999785875079
 20
-200.0000037786965
 30
0.0
 11
-455.4999785875079
 21
-214.2000037786965
 31
0.0
  0
LINE
  5
2157E
330
3E7
100
AcDbEntity
  8
DETAIL
  6
CONTINUOUS
100
AcDbLine
 10
-484.6999785875087
 20
-165.0000037786967
 30
0.0
 11
-489.6999785875086
 21
-165.0000037786967
 31
0.0
  0
LINE
  5
2157F
330
3E7
100
AcDbEntity
  8
DETAIL
  6
CONTINUOUS
100
AcDbLine
 10
-473.8999785875093
 20
-167.0000037786969
 30
0.0
 11
-474.6999785875086
 21
-167.0000037786967
 31
0.0
  0
LINE
  5
21580
330
3E7
100
AcDbEntity
  8
DETAIL
  6
CONTINUOUS
100
AcDbLine
 10
-460.4999785875079
 20
-167.0000037786967
 30
0.0
 11
-473.8999785875093
 21
-167.0000037786969
 31
0.0
  0
LINE
  5
21581
330
3E7
100
AcDbEntity
  8
DETAIL
  6
CONTINUOUS
100
AcDbLine
 10
-484.6999785875087
 20
-165.8000037786966
 30
0.0
 11
-475.4999785875079
 21
-165.8000037786966
 31
0.0
  0
LINE
  5
21582
330
3E7
100
AcDbEntity
  8
DETAIL
  6
CONTINUOUS
100
AcDbLine
 10
-474.6999785875086
 20
-167.0000037786967
 30
0.0
 11
-474.6999785875086
 21
-165.0000037786965
 31
0.0
  0
LINE
  5
21583
330
3E7
100
AcDbEntity
  8
DETAIL
  6
CONTINUOUS
100
AcDbLine
 10
-475.4999785875079
 20
-165.8000037786966
 30
0.0
 11
-475.4999785875079
 21
-167.0000037786967
 31
0.0
  0
LINE
  5
21584
330
3E7
100
AcDbEntity
  8
DETAIL
  6
CONTINUOUS
100
AcDbLine
 10
-484.6999785875087
 20
-165.8000037786966
 30
0.0
 11
-484.6999785875087
 21
-165.0000037786967
 31
0.0
  0
LINE
  5
21585
330
3E7
100
AcDbEntity
  8
DETAIL
  6
CONTINUOUS
100
AcDbLine
 10
-460.4999785875079
 20
-167.0000037786967
 30
0.0
 11
-455.4999785875079
 21
-172.0000037786967
 31
0.0
  0
LINE
  5
21586
330
3E7
100
AcDbEntity
  8
DETAIL
  6
CONTINUOUS
100
AcDbLine
 10
-489.6999785875086
 20
-165.8000037786966
 30
0.0
 11
-489.6999785875086
 21
-165.0000037786967
 31
0.0
  0
LINE
  5
21587
330
3E7
100
AcDbEntity
  8
DETAIL
  6
CONTINUOUS
100
AcDbLine
 10
-460.4292679093905
 20
-200.0000037786965
 30
0.0
 11
-474.4999785875079
 21
-214.0707144568152
 31
0.0
  0
LINE
  5
21588
330
3E7
100
AcDbEntity
  8
DETAIL
  6
CONTINUOUS
100
AcDbLine
 10
-474.5706892656271
 20
-214.0000037786965
 30
0.0
 11
-460.4706892656268
 21
-199.9000037786966
 31
0.0
  0
LINE
  5
21589
330
3E7
100
AcDbEntity
  8
DETAIL
  6
CONTINUOUS
100
AcDbLine
 10
144.500021412492
 20
-215.8000037786964
 30
0.0
 11
149.500021412492
 21
-215.8000037786964
 31
0.0
  0
LINE
  5
2158A
330
3E7
100
AcDbEntity
  8
DETAIL
  6
CONTINUOUS
100
AcDbLine
 10
144.500021412492
 20
-215.0000037786965
 30
0.0
 11
149.500021412492
 21
-215.0000037786967
 31
0.0
  0
LINE
  5
2158B
330
3E7
100
AcDbEntity
  8
DETAIL
  6
CONTINUOUS
100
AcDbLine
 10
149.500021412492
 20
-215.8000037786964
 30
0.0
 11
149.500021412492
 21
-215.0000037786967
 31
0.0
  0
LINE
  5
2158C
330
3E7
100
AcDbEntity
  8
DETAIL
  6
CONTINUOUS
100
AcDbLine
 10
144.500021412492
 20
-215.0000037786965
 30
0.0
 11
128.7000214124927
 21
-215.0000037786967
 31
0.0
  0
LINE
  5
2158D
330
3E7
100
AcDbEntity
  8
DETAIL
  6
CONTINUOUS
100
AcDbLine
 10
144.500021412492
 20
-215.8000037786964
 30
0.0
 11
142.0000214124938
 21
-215.8000037786964
 31
0.0
  0
LINE
  5
2158E
330
3E7
100
AcDbEntity
  8
DETAIL
  6
CONTINUOUS
100
AcDbLine
 10
135.6805426509581
 20
-215.8000037786964
 30
0.0
 11
133.5065519383206
 21
-215.8000037786964
 31
0.0
  0
LINE
  5
2158F
330
3E7
100
AcDbEntity
  8
DETAIL
  6
CONTINUOUS
100
AcDbLine
 10
137.980406413495
 20
-215.8000037786964
 30
0.0
 11
135.6805426509581
 21
-215.8000037786964
 31
0.0
  0
LINE
  5
21590
330
3E7
100
AcDbEntity
  8
DETAIL
  6
CONTINUOUS
100
AcDbLine
 10
130.0000214124938
 20
-215.8000037786964
 30
0.0
 11
129.500021412492
 21
-215.8000037786964
 31
0.0
  0
LINE
  5
21591
330
3E7
100
AcDbEntity
  8
DETAIL
  6
CONTINUOUS
100
AcDbLine
 10
133.5000214124938
 20
-215.8000037786964
 30
0.0
 11
130.0000214124938
 21
-215.8000037786964
 31
0.0
  0
LINE
  5
21592
330
3E7
100
AcDbEntity
  8
DETAIL
  6
CONTINUOUS
100
AcDbLine
 10
133.5065519383206
 20
-215.8000037786964
 30
0.0
 11
133.5000214124938
 21
-215.8000037786964
 31
0.0
  0
LINE
  5
21593
330
3E7
100
AcDbEntity
  8
DETAIL
  6
CONTINUOUS
100
AcDbLine
 10
142.0000214124938
 20
-215.8000037786964
 30
0.0
 11
137.980406413495
 21
-215.8000037786964
 31
0.0
  0
LINE
  5
21594
330
3E7
100
AcDbEntity
  8
DETAIL
  6
CONTINUOUS
100
AcDbLine
 10
144.500021412492
 20
-215.0000037786965
 30
0.0
 11
144.500021412492
 21
-215.8000037786964
 31
0.0
  0
LINE
  5
21595
330
3E7
100
AcDbEntity
  8
DETAIL
  6
CONTINUOUS
100
AcDbLine
 10
129.5000214124938
 20
-216.0000037786965
 30
0.0
 11
129.500021412492
 21
-215.8000037786964
 31
0.0
  0
LINE
  5
21596
330
3E7
100
AcDbEntity
  8
DETAIL
  6
CONTINUOUS
100
AcDbLine
 10
129.5000214124938
 20
-216.0000037786965
 30
0.0
 11
128.7000214124927
 21
-216.0000037786967
 31
0.0
  0
LINE
  5
21597
330
3E7
100
AcDbEntity
  8
DETAIL
  6
CONTINUOUS
100
AcDbLine
 10
128.7000214124927
 20
-215.0000037786967
 30
0.0
 11
128.7000214124927
 21
-216.0000037786967
 31
0.0
  0
LINE
  5
21598
330
3E7
100
AcDbEntity
  8
DETAIL
  6
CONTINUOUS
100
AcDbLine
 10
128.7000214124927
 20
-216.0000037786967
 30
0.0
 11
123.7000214124927
 21
-216.0000037786967
 31
0.0
  0
LINE
  5
21599
330
3E7
100
AcDbEntity
  8
DETAIL
  6
CONTINUOUS
100
AcDbLine
 10
128.5000214124938
 20
-280.402442440461
 30
0.0
 11
128.7000214124927
 21
-280.402442440461
 31
0.0
  0
LINE
  5
2159A
330
3E7
100
AcDbEntity
  8
DETAIL
  6
CONTINUOUS
100
AcDbLine
 10
129.5000214124938
 20
-280.402442440461
 30
0.0
 11
129.5000214124938
 21
-216.0000037786965
 31
0.0
  0
LINE
  5
2159B
330
3E7
100
AcDbEntity
  8
DETAIL
  6
CONTINUOUS
100
AcDbLine
 10
123.7000214124927
 20
-216.0000037786967
 30
0.0
 11
118.7000214124927
 21
-221.0000037786967
 31
0.0
  0
LINE
  5
2159C
330
3E7
100
AcDbEntity
  8
DETAIL
  6
CONTINUOUS
100
AcDbLine
 10
129.5000214124938
 20
-280.9882288780879
 30
0.0
 11
128.7000214124927
 21
-280.9882288780877
 31
0.0
  0
LINE
  5
2159D
330
3E7
100
AcDbEntity
  8
DETAIL
  6
CONTINUOUS
100
AcDbLine
 10
129.5000214124938
 20
-281.4024424404619
 30
0.0
 11
128.7000214124927
 21
-281.4024424404619
 31
0.0
  0
LINE
  5
2159E
330
3E7
100
AcDbEntity
  8
DETAIL
  6
CONTINUOUS
100
AcDbLine
 10
128.7000214124927
 20
-280.602738418175
 30
0.0
 11
128.7000214124927
 21
-280.6951263714261
 31
0.0
  0
LINE
  5
2159F
330
3E7
100
AcDbEntity
  8
DETAIL
  6
CONTINUOUS
100
AcDbLine
 10
128.7000214124927
 20
-280.402442440461
 30
0.0
 11
128.7000214124927
 21
-280.602738418175
 31
0.0
  0
LINE
  5
215A0
330
3E7
100
AcDbEntity
  8
DETAIL
  6
CONTINUOUS
100
AcDbLine
 10
128.7000214124927
 20
-280.6951263714261
 30
0.0
 11
128.7000214124927
 21
-280.9882288780877
 31
0.0
  0
LINE
  5
215A1
330
3E7
100
AcDbEntity
  8
DETAIL
  6
CONTINUOUS
100
AcDbLine
 10
128.5707320906112
 20
-281.5438637966985
 30
0.0
 11
128.7000214124927
 21
-281.5438637966985
 31
0.0
  0
LINE
  5
215A2
330
3E7
100
AcDbEntity
  8
DETAIL
  6
CONTINUOUS
100
AcDbLine
 10
128.5707320906112
 20
-281.5438637966985
 30
0.0
 11
128.5000214124938
 21
-281.5938637966985
 31
0.0
  0
LINE
  5
215A3
330
3E7
100
AcDbEntity
  8
DETAIL
  6
CONTINUOUS
100
AcDbLine
 10
129.5000214124938
 20
-280.9882288780879
 30
0.0
 11
129.5000214124938
 21
-280.402442440461
 31
0.0
  0
LINE
  5
215A4
330
3E7
100
AcDbEntity
  8
DETAIL
  6
CONTINUOUS
100
AcDbLine
 10
128.7000214124927
 20
-280.9882288780877
 30
0.0
 11
128.7000214124927
 21
-281.0710715905627
 31
0.0
  0
LINE
  5
215A5
330
3E7
100
AcDbEntity
  8
DETAIL
  6
CONTINUOUS
100
AcDbLine
 10
128.7000214124927
 20
-281.4024424404619
 30
0.0
 11
128.7000214124927
 21
-281.5438637966985
 31
0.0
  0
LINE
  5
215A6
330
3E7
100
AcDbEntity
  8
DETAIL
  6
CONTINUOUS
100
AcDbLine
 10
128.7000214124927
 20
-281.0710715905627
 30
0.0
 11
128.7000214124927
 21
-281.4024424404619
 31
0.0
  0
LINE
  5
215A7
330
3E7
100
AcDbEntity
  8
DETAIL
  6
CONTINUOUS
100
AcDbLine
 10
128.5707320906112
 20
-282.1095492216477
 30
0.0
 11
128.5707320906112
 21
-281.5438637966985
 31
0.0
  0
LINE
  5
215A8
330
3E7
100
AcDbEntity
  8
DETAIL
  6
CONTINUOUS
100
AcDbLine
 10
128.5707320906112
 20
-282.1095492216477
 30
0.0
 11
129.500021412492
 21
-282.1095492216477
 31
0.0
  0
LINE
  5
215A9
330
3E7
100
AcDbEntity
  8
DETAIL
  6
CONTINUOUS
100
AcDbLine
 10
129.5000214124938
 20
-281.4024424404619
 30
0.0
 11
129.5000214124938
 21
-280.9882288780879
 31
0.0
  0
LINE
  5
215AA
330
3E7
100
AcDbEntity
  8
DETAIL
  6
CONTINUOUS
100
AcDbLine
 10
129.500021412492
 20
-282.1095492216477
 30
0.0
 11
129.5000214124938
 21
-281.4024424404619
 31
0.0
  0
LINE
  5
215AB
330
3E7
100
AcDbEntity
  8
DETAIL
  6
CONTINUOUS
100
AcDbLine
 10
128.7000214124927
 20
-280.402442440461
 30
0.0
 11
129.5000214124938
 21
-280.402442440461
 31
0.0
  0
LINE
  5
215AC
330
3E7
100
AcDbEntity
  8
DETAIL
  6
CONTINUOUS
100
AcDbLine
 10
128.5000214124938
 20
-280.402442440461
 30
0.0
 11
128.5000214124938
 21
-281.402442440461
 31
0.0
  0
LINE
  5
215AD
330
3E7
100
AcDbEntity
  8
DETAIL
  6
CONTINUOUS
100
AcDbLine
 10
128.5000214124938
 20
-281.402442440461
 30
0.0
 11
118.7000214124927
 21
-281.4024424404608
 31
0.0
  0
LINE
  5
215AE
330
3E7
100
AcDbEntity
  8
DETAIL
  6
CONTINUOUS
100
AcDbLine
 10
118.7000214124927
 20
-287.0592966899539
 30
0.0
 11
121.4293107343746
 21
-287.0592966899534
 31
0.0
  0
LINE
  5
215AF
330
3E7
100
AcDbEntity
  8
DETAIL
  6
CONTINUOUS
100
AcDbLine
 10
128.5000214124938
 20
-282.0595492216475
 30
0.0
 11
128.5000214124938
 21
-281.402442440461
 31
0.0
  0
LINE
  5
215B0
330
3E7
100
AcDbEntity
  8
DETAIL
  6
CONTINUOUS
100
AcDbLine
 10
121.4707320906127
 20
-287.1300073680722
 30
0.0
 11
118.7000214124927
 21
-287.1300073680722
 31
0.0
  0
LINE
  5
215B1
330
3E7
100
AcDbEntity
  8
DETAIL
  6
CONTINUOUS
100
AcDbLine
 10
121.4707320906127
 20
-287.0300073680723
 30
0.0
 11
121.4707320906127
 21
-287.1300073680722
 31
0.0
  0
LINE
  5
215B2
330
3E7
100
AcDbEntity
  8
DETAIL
  6
CONTINUOUS
100
AcDbLine
 10
121.4293107343746
 20
-287.0592966899534
 30
0.0
 11
128.5000214124938
 21
-282.0595492216475
 31
0.0
  0
LINE
  5
215B3
330
3E7
100
AcDbEntity
  8
DETAIL
  6
CONTINUOUS
100
AcDbLine
 10
128.5707320906112
 20
-282.1095492216477
 30
0.0
 11
121.4707320906127
 21
-287.1300073680722
 31
0.0
  0
LINE
  5
215B4
330
3E7
100
AcDbEntity
  8
DETAIL
  6
CONTINUOUS
100
AcDbLine
 10
129.500021412492
 20
-282.1095492216477
 30
0.0
 11
129.5000214124938
 21
-364.2928969975109
 31
0.0
  0
LINE
  5
215B5
330
3E7
100
AcDbEntity
  8
DETAIL
  6
CONTINUOUS
100
AcDbLine
 10
118.7000214124927
 20
-287.0592966899539
 30
0.0
 11
118.7000214124927
 21
-287.1300073680722
 31
0.0
  0
LINE
  5
215B6
330
3E7
100
AcDbEntity
  8
DETAIL
  6
CONTINUOUS
100
AcDbLine
 10
118.7000214124927
 20
-281.4024424404608
 30
0.0
 11
118.7000214124927
 21
-287.0592966899539
 31
0.0
  0
LINE
  5
215B7
330
3E7
100
AcDbEntity
  8
DETAIL
  6
CONTINUOUS
100
AcDbLine
 10
118.7000214124927
 20
-287.1300073680722
 30
0.0
 11
118.7000214124927
 21
-359.2724388510851
 31
0.0
  0
LINE
  5
215B8
330
3E7
100
AcDbEntity
  8
DETAIL
  6
CONTINUOUS
100
AcDbLine
 10
118.7000214124927
 20
-221.0000037786967
 30
0.0
 11
118.7000214124927
 21
-281.4024424404608
 31
0.0
  0
LINE
  5
215B9
330
3E7
100
AcDbEntity
  8
DETAIL
  6
CONTINUOUS
100
AcDbLine
 10
129.5000214124938
 20
-364.2928969975109
 30
0.0
 11
128.5707320906112
 21
-364.2928969975096
 31
0.0
  0
LINE
  5
215BA
330
3E7
100
AcDbEntity
  8
DETAIL
  6
CONTINUOUS
100
AcDbLine
 10
129.500021412492
 20
-365.0000037786962
 30
0.0
 11
128.5000214124938
 21
-365.0000037786962
 31
0.0
  0
LINE
  5
215BB
330
3E7
100
AcDbEntity
  8
DETAIL
  6
CONTINUOUS
100
AcDbLine
 10
129.500021412492
 20
-365.0000037786962
 30
0.0
 11
129.5000214124938
 21
-364.2928969975109
 31
0.0
  0
LINE
  5
215BC
330
3E7
100
AcDbEntity
  8
DETAIL
  6
CONTINUOUS
100
AcDbLine
 10
118.7000214124927
 20
-365.0000037786962
 30
0.0
 11
128.5000214124938
 21
-365.0000037786962
 31
0.0
  0
LINE
  5
215BD
330
3E7
100
AcDbEntity
  8
DETAIL
  6
CONTINUOUS
100
AcDbLine
 10
118.7000214124927
 20
-365.0000037786962
 30
0.0
 11
118.7000214124927
 21
-364.2000037786965
 31
0.0
  0
LINE
  5
215BE
330
3E7
100
AcDbEntity
  8
DETAIL
  6
CONTINUOUS
100
AcDbLine
 10
128.5000214124938
 20
-365.0000037786962
 30
0.0
 11
128.5000214124938
 21
-364.3428969975098
 31
0.0
  0
LINE
  5
215BF
330
3E7
100
AcDbEntity
  8
DETAIL
  6
CONTINUOUS
100
AcDbLine
 10
118.7000214124927
 20
-359.2724388510851
 30
0.0
 11
121.4707320906127
 21
-359.2724388510851
 31
0.0
  0
LINE
  5
215C0
330
3E7
100
AcDbEntity
  8
DETAIL
  6
CONTINUOUS
100
AcDbLine
 10
128.5000214124938
 20
-364.2428969975094
 30
0.0
 11
128.5000214124938
 21
-364.3428969975098
 31
0.0
  0
LINE
  5
215C1
330
3E7
100
AcDbEntity
  8
DETAIL
  6
CONTINUOUS
100
AcDbLine
 10
118.7000214124927
 20
-364.2000037786965
 30
0.0
 11
118.7000214124927
 21
-359.3431495292043
 31
0.0
  0
LINE
  5
215C2
330
3E7
100
AcDbEntity
  8
DETAIL
  6
CONTINUOUS
100
AcDbLine
 10
121.4293107343746
 20
-359.2724388510851
 30
0.0
 11
121.4293107343746
 21
-359.3431495292038
 31
0.0
  0
LINE
  5
215C3
330
3E7
100
AcDbEntity
  8
DETAIL
  6
CONTINUOUS
100
AcDbLine
 10
121.4293107343746
 20
-359.3431495292038
 30
0.0
 11
118.7000214124927
 21
-359.3431495292043
 31
0.0
  0
LINE
  5
215C4
330
3E7
100
AcDbEntity
  8
DETAIL
  6
CONTINUOUS
100
AcDbLine
 10
118.7000214124927
 20
-359.3431495292043
 30
0.0
 11
118.7000214124927
 21
-359.2724388510851
 31
0.0
  0
LINE
  5
215C5
330
3E7
100
AcDbEntity
  8
DETAIL
  6
CONTINUOUS
100
AcDbLine
 10
128.5000214124938
 20
-364.3428969975098
 30
0.0
 11
121.4293107343746
 21
-359.3431495292038
 31
0.0
  0
LINE
  5
215C6
330
3E7
100
AcDbEntity
  8
DETAIL
  6
CONTINUOUS
100
AcDbLine
 10
121.4707320906127
 20
-359.2724388510851
 30
0.0
 11
128.5707320906112
 21
-364.2928969975096
 31
0.0
  0
LINE
  5
215C7
330
3E7
100
AcDbEntity
  8
DETAIL
  6
CONTINUOUS
100
AcDbLine
 10
129.500021412492
 20
-200.0000037786965
 30
0.0
 11
129.500021412492
 21
-214.2000037786965
 31
0.0
  0
LINE
  5
215C8
330
3E7
100
AcDbEntity
  8
DETAIL
  6
CONTINUOUS
100
AcDbLine
 10
149.500021412492
 20
-167.0000037786969
 30
0.0
 11
148.7000214124927
 21
-167.0000037786969
 31
0.0
  0
LINE
  5
215C9
330
3E7
100
AcDbEntity
  8
DETAIL
  6
CONTINUOUS
100
AcDbLine
 10
163.7000214124928
 20
-165.8000037786966
 30
0.0
 11
158.7000214124928
 21
-165.8000037786966
 31
0.0
  0
LINE
  5
215CA
330
3E7
100
AcDbEntity
  8
DETAIL
  6
CONTINUOUS
100
AcDbLine
 10
149.500021412492
 20
-165.8000037786966
 30
0.0
 11
149.500021412492
 21
-167.0000037786969
 31
0.0
  0
LINE
  5
215CB
330
3E7
100
AcDbEntity
  8
DETAIL
  6
CONTINUOUS
100
AcDbLine
 10
134.500021412492
 20
-167.0000037786967
 30
0.0
 11
147.9000214124935
 21
-167.0000037786969
 31
0.0
  0
LINE
  5
215CC
330
3E7
100
AcDbEntity
  8
DETAIL
  6
CONTINUOUS
100
AcDbLine
 10
147.9000214124935
 20
-167.0000037786969
 30
0.0
 11
148.7000214124927
 21
-167.0000037786969
 31
0.0
  0
LINE
  5
215CD
330
3E7
100
AcDbEntity
  8
DETAIL
  6
CONTINUOUS
100
AcDbLine
 10
148.500021412492
 20
-214.2000037786965
 30
0.0
 11
148.500021412492
 21
-214.0707144568152
 31
0.0
  0
LINE
  5
215CE
330
3E7
100
AcDbEntity
  8
DETAIL
  6
CONTINUOUS
100
AcDbLine
 10
148.7000214124927
 20
-167.0000037786969
 30
0.0
 11
148.7000214124927
 21
-165.0000037786967
 31
0.0
  0
LINE
  5
215CF
330
3E7
100
AcDbEntity
  8
DETAIL
  6
CONTINUOUS
100
AcDbLine
 10
148.5707320906112
 20
-214.0000037786965
 30
0.0
 11
148.7000214124927
 21
-214.0000037786965
 31
0.0
  0
LINE
  5
215D0
330
3E7
100
AcDbEntity
  8
DETAIL
  6
CONTINUOUS
100
AcDbLine
 10
149.500021412492
 20
-214.0000037786967
 30
0.0
 11
149.500021412492
 21
-167.0000037786969
 31
0.0
  0
LINE
  5
215D1
330
3E7
100
AcDbEntity
  8
DETAIL
  6
CONTINUOUS
100
AcDbLine
 10
129.500021412492
 20
-215.0000037786967
 30
0.0
 11
148.500021412492
 21
-215.0000037786967
 31
0.0
  0
LINE
  5
215D2
330
3E7
100
AcDbEntity
  8
DETAIL
  6
CONTINUOUS
100
AcDbLine
 10
148.500021412492
 20
-214.2000037786965
 30
0.0
 11
148.500021412492
 21
-215.0000037786967
 31
0.0
  0
LINE
  5
215D3
330
3E7
100
AcDbEntity
  8
DETAIL
  6
CONTINUOUS
100
AcDbLine
 10
129.500021412492
 20
-214.2000037786965
 30
0.0
 11
129.500021412492
 21
-215.0000037786967
 31
0.0
  0
LINE
  5
215D4
330
3E7
100
AcDbEntity
  8
DETAIL
  6
CONTINUOUS
100
AcDbLine
 10
158.7000214124928
 20
-165.0000037786967
 30
0.0
 11
163.7000214124928
 21
-165.0000037786967
 31
0.0
  0
LINE
  5
215D5
330
3E7
100
AcDbEntity
  8
DETAIL
  6
CONTINUOUS
100
AcDbLine
 10
158.7000214124928
 20
-165.0000037786967
 30
0.0
 11
148.7000214124927
 21
-165.0000037786967
 31
0.0
  0
LINE
  5
215D6
330
3E7
100
AcDbEntity
  8
DETAIL
  6
CONTINUOUS
100
AcDbLine
 10
158.7000214124928
 20
-165.8000037786966
 30
0.0
 11
158.7000214124928
 21
-165.0000037786967
 31
0.0
  0
LINE
  5
215D7
330
3E7
100
AcDbEntity
  8
DETAIL
  6
CONTINUOUS
100
AcDbLine
 10
158.7000214124928
 20
-165.8000037786966
 30
0.0
 11
149.500021412492
 21
-165.8000037786966
 31
0.0
  0
LINE
  5
215D8
330
3E7
100
AcDbEntity
  8
DETAIL
  6
CONTINUOUS
100
AcDbLine
 10
149.500021412492
 20
-215.0000037786967
 30
0.0
 11
149.500021412492
 21
-214.0000037786967
 31
0.0
  0
LINE
  5
215D9
330
3E7
100
AcDbEntity
  8
DETAIL
  6
CONTINUOUS
100
AcDbLine
 10
149.500021412492
 20
-214.0000037786967
 30
0.0
 11
148.7000214124927
 21
-214.0000037786965
 31
0.0
  0
LINE
  5
215DA
330
3E7
100
AcDbEntity
  8
DETAIL
  6
CONTINUOUS
100
AcDbLine
 10
148.7000214124927
 20
-214.0000037786965
 30
0.0
 11
148.7000214124927
 21
-214.2000037786965
 31
0.0
  0
LINE
  5
215DB
330
3E7
100
AcDbEntity
  8
DETAIL
  6
CONTINUOUS
100
AcDbLine
 10
148.500021412492
 20
-214.2000037786965
 30
0.0
 11
148.7000214124927
 21
-214.2000037786965
 31
0.0
  0
LINE
  5
215DC
330
3E7
100
AcDbEntity
  8
DETAIL
  6
CONTINUOUS
100
AcDbLine
 10
148.500021412492
 20
-215.0000037786967
 30
0.0
 11
149.500021412492
 21
-215.0000037786967
 31
0.0
  0
LINE
  5
215DD
330
3E7
100
AcDbEntity
  8
DETAIL
  6
CONTINUOUS
100
AcDbLine
 10
163.7000214124928
 20
-165.8000037786966
 30
0.0
 11
163.7000214124928
 21
-165.0000037786967
 31
0.0
  0
LINE
  5
215DE
330
3E7
100
AcDbEntity
  8
DETAIL
  6
CONTINUOUS
100
AcDbLine
 10
129.500021412492
 20
-200.0000037786965
 30
0.0
 11
134.4293107343746
 21
-200.0000037786965
 31
0.0
  0
LINE
  5
215DF
330
3E7
100
AcDbEntity
  8
DETAIL
  6
CONTINUOUS
100
AcDbLine
 10
134.4707320906109
 20
-199.9000037786966
 30
0.0
 11
129.500021412492
 21
-199.9000037786966
 31
0.0
  0
LINE
  5
215E0
330
3E7
100
AcDbEntity
  8
DETAIL
  6
CONTINUOUS
100
AcDbLine
 10
129.500021412492
 20
-199.9000037786966
 30
0.0
 11
129.500021412492
 21
-172.0000037786967
 31
0.0
  0
LINE
  5
215E1
330
3E7
100
AcDbEntity
  8
DETAIL
  6
CONTINUOUS
100
AcDbLine
 10
134.500021412492
 20
-167.0000037786967
 30
0.0
 11
129.500021412492
 21
-172.0000037786967
 31
0.0
  0
LINE
  5
215E2
330
3E7
100
AcDbEntity
  8
DETAIL
  6
CONTINUOUS
100
AcDbLine
 10
134.4707320906109
 20
-199.9000037786966
 30
0.0
 11
148.5707320906112
 21
-214.0000037786965
 31
0.0
  0
LINE
  5
215E3
330
3E7
100
AcDbEntity
  8
DETAIL
  6
CONTINUOUS
100
AcDbLine
 10
134.4293107343746
 20
-200.0000037786965
 30
0.0
 11
148.500021412492
 21
-214.0707144568152
 31
0.0
  0
LINE
  5
21DA0
330
3E7
100
AcDbEntity
  8
BASIS
  6
DASHDOT
100
AcDbLine
 10
156.0000214124938
 20
-174.1590086750047
 30
0.0
 11
156.0000214124939
 21
-161.9604770303385
 31
0.0
  0
LINE
  5
21DA1
330
3E7
100
AcDbEntity
  8
BASIS
  6
DASHDOT
100
AcDbLine
 10
-481.9999785875061
 20
-176.3111566219859
 30
0.0
 11
-481.9999785875061
 21
-161.9604770303385
 31
0.0
  0
LINE
  5
230A0
330
3E7
100
AcDbEntity
  8
SIZE
100
AcDbLine
 10
-481.9999785875061
 20
-210.8049917886601
 30
0.0
 11
-481.9999785875062
 21
-672.6255371240158
 31
0.0
  0
LINE
  5
230A1
330
3E7
100
AcDbEntity
  8
SIZE
100
AcDbLine
 10
156.0000214124938
 20
-210.8049917886601
 30
0.0
 11
156.0000214124938
 21
-672.6255371240158
 31
0.0
  0
LINE
  5
230A2
330
3E7
100
AcDbEntity
  8
SIZE
100
AcDbLine
 10
-471.9999785875061
 20
-642.6255371240158
 30
0.0
 11
146.0000214124938
 21
-642.6255371240158
 31
0.0
  0
LINE
  5
230A6
330
3E7
100
AcDbEntity
  8
SIZE
  6
CONTINUOUS
100
AcDbLine
 10
-545.0
 20
-165.0000037787085
 30
0.0
 11
-607.824969357267
 21
-165.0000037787085
 31
0.0
  0
LINE
  5
230A7
330
3E7
100
AcDbEntity
  8
SIZE
  6
CONTINUOUS
100
AcDbLine
 10
-489.1577148437554
 20
-190.0000037787085
 30
0.0
 11
-607.824969357267
 21
-190.0000037787085
 31
0.0
  0
LINE
  5
230A8
330
3E7
100
AcDbEntity
  8
SIZE
  6
CONTINUOUS
100
AcDbLine
 10
-577.824969357267
 20
-200.0000037787085
 30
0.0
 11
-577.824969357267
 21
-210.0000037787085
 31
0.0
  0
LINE
  5
230A9
330
3E7
100
AcDbEntity
  8
SIZE
  6
CONTINUOUS
100
AcDbLine
 10
-577.824969357267
 20
-155.0000037787085
 30
0.0
 11
-577.824969357267
 21
-11.7428609215657
 31
0.0
  0
LINE
  5
230AA
330
3E7
100
AcDbEntity
  8
SIZE
  6
CONTINUOUS
100
AcDbLine
 10
-577.824969357267
 20
-190.0000037787085
 30
0.0
 11
-577.824969357267
 21
-165.0000037787085
 31
0.0
  0
LINE
  5
230AE
330
3E7
100
AcDbEntity
  8
SIZE
  6
CONTINUOUS
100
AcDbLine
 10
360.895813145371
 20
-189.5999992010741
 30
0.0
 11
1007.559004732227
 21
-189.5999992010743
 31
0.0
  0
LINE
  5
230AF
330
3E7
100
AcDbEntity
  8
SIZE
  6
CONTINUOUS
100
AcDbLine
 10
360.895813145371
 20
180.3999977471685
 30
0.0
 11
1007.559004732227
 21
180.3999977471683
 31
0.0
  0
LINE
  5
230B0
330
3E7
100
AcDbEntity
  8
SIZE
  6
CONTINUOUS
100
AcDbLine
 10
977.5590047322275
 20
-179.5999992010743
 30
0.0
 11
977.5590047322275
 21
170.3999977471683
 31
0.0
  0
LINE
  5
230B4
330
3E7
100
AcDbEntity
  8
SIZE
  6
CONTINUOUS
100
AcDbLine
 10
360.895813145371
 20
-189.5999992010741
 30
0.0
 11
1007.559004732227
 21
-189.5999992010743
 31
0.0
  0
LINE
  5
230B5
330
3E7
100
AcDbEntity
  8
SIZE
  6
CONTINUOUS
100
AcDbLine
 10
345.0000305175653
 20
-217.599994623436
 30
0.0
 11
1007.559004732227
 21
-217.5999946234361
 31
0.0
  0
LINE
  5
230B6
330
3E7
100
AcDbEntity
  8
SIZE
  6
CONTINUOUS
100
AcDbLine
 10
977.5590047322275
 20
-179.5999992010743
 30
0.0
 11
977.5590047322275
 21
-169.5999992010742
 31
0.0
  0
LINE
  5
230B7
330
3E7
100
AcDbEntity
  8
SIZE
  6
CONTINUOUS
100
AcDbLine
 10
977.5590047322275
 20
-227.5999946234362
 30
0.0
 11
977.5590047322275
 21
-411.9999946234361
 31
0.0
  0
LINE
  5
230B8
330
3E7
100
AcDbEntity
  8
SIZE
  6
CONTINUOUS
100
AcDbLine
 10
977.5590047322275
 20
-189.5999992010743
 30
0.0
 11
977.5590047322275
 21
-217.5999946234361
 31
0.0
  0
LINE
  5
230BC
330
3E7
100
AcDbEntity
  8
SIZE
  6
CONTINUOUS
100
AcDbLine
 10
345.0000305175653
 20
-217.599994623436
 30
0.0
 11
1222.365115136575
 21
-217.5999946234362
 31
0.0
  0
LINE
  5
230BD
330
3E7
100
AcDbEntity
  8
SIZE
  6
CONTINUOUS
100
AcDbLine
 10
345.000030517569
 20
199.399997747171
 30
0.0
 11
1222.365115136575
 21
199.3999977471707
 31
0.0
  0
LINE
  5
230BE
330
3E7
100
AcDbEntity
  8
SIZE
  6
CONTINUOUS
100
AcDbLine
 10
1192.365115136575
 20
-207.5999946234362
 30
0.0
 11
1192.365115136575
 21
189.3999977471708
 31
0.0
  0
LINE
  5
230C2
330
3E7
100
AcDbEntity
  8
SIZE
  6
CONTINUOUS
100
AcDbLine
 10
-525.0
 20
-185.0000037787085
 30
0.0
 11
-525.0
 21
-538.5867473571898
 31
0.0
  0
LINE
  5
230C3
330
3E7
100
AcDbEntity
  8
SIZE
  6
CONTINUOUS
100
AcDbLine
 10
-162.9999785875061
 20
-276.021959807671
 30
0.0
 11
-162.9999785875061
 21
-538.5867473571898
 31
0.0
  0
LINE
  5
230C4
330
3E7
100
AcDbEntity
  8
SIZE
  6
CONTINUOUS
100
AcDbLine
 10
-515.0
 20
-508.5867473571897
 30
0.0
 11
-172.9999785875061
 21
-508.5867473571897
 31
0.0
  0
LINE
  5
230C8
330
3E7
100
AcDbEntity
  8
SIZE
100
AcDbLine
 10
-509.6999785875068
 20
-165.0000037787085
 30
0.0
 11
-869.5628094646325
 21
-165.0000037787084
 31
0.0
  0
LINE
  5
230C9
330
3E7
100
AcDbEntity
  8
SIZE
100
AcDbLine
 10
-475.4999785875079
 20
-365.0000037786962
 30
0.0
 11
-869.5628094646327
 21
-365.0000037786962
 31
0.0
  0
LINE
  5
230CA
330
3E7
100
AcDbEntity
  8
SIZE
100
AcDbLine
 10
-839.5628094646324
 20
-175.0000037787084
 30
0.0
 11
-839.5628094646326
 21
-355.0000037786962
 31
0.0
  0
LINE
  5
230CE
330
3E7
100
AcDbEntity
  8
SIZE
100
AcDbLine
 10
-489.6999785875068
 20
-185.8000037787087
 30
0.0
 11
-489.6999785875069
 21
-877.4540321939102
 31
0.0
  0
LINE
  5
230CF
330
3E7
100
AcDbEntity
  8
SIZE
100
AcDbLine
 10
163.7000214124928
 20
-185.8000037786976
 30
0.0
 11
163.7000214124927
 21
-877.4540321939102
 31
0.0
  0
LINE
  5
230D0
330
3E7
100
AcDbEntity
  8
SIZE
100
AcDbLine
 10
-479.6999785875069
 20
-847.4540321939102
 30
0.0
 11
153.7000214124927
 21
-847.4540321939102
 31
0.0
  0
LINE
  5
230D4
330
3E7
100
AcDbEntity
  8
SIZE
100
AcDbLine
 10
-495.4999785875079
 20
-215.0000037786962
 30
0.0
 11
-730.1593932085616
 21
-215.0000037786961
 31
0.0
  0
LINE
  5
230D5
330
3E7
100
AcDbEntity
  8
SIZE
100
AcDbLine
 10
-509.6999785875087
 20
-165.0000037786967
 30
0.0
 11
-730.1593932085616
 21
-165.0000037786966
 31
0.0
  0
LINE
  5
230D6
330
3E7
100
AcDbEntity
  8
SIZE
100
AcDbLine
 10
-700.1593932085616
 20
-225.0000037786962
 30
0.0
 11
-700.1593932085616
 21
-235.0000037786962
 31
0.0
  0
LINE
  5
230D7
330
3E7
100
AcDbEntity
  8
SIZE
100
AcDbLine
 10
-700.1593932085616
 20
-155.0000037786967
 30
0.0
 11
-700.1593932085616
 21
-11.74286092155385
 31
0.0
  0
LINE
  5
230D8
330
3E7
100
AcDbEntity
  8
SIZE
100
AcDbLine
 10
-700.1593932085616
 20
-215.0000037786962
 30
0.0
 11
-700.1593932085616
 21
-165.0000037786966
 31
0.0
  0
LINE
  5
230DC
330
3E7
100
AcDbEntity
  8
SIZE
100
AcDbLine
 10
-495.4999785875079
 20
-215.0000037786962
 30
0.0
 11
-730.1593932085615
 21
-215.0000037786961
 31
0.0
  0
LINE
  5
230DD
330
3E7
100
AcDbEntity
  8
SIZE
100
AcDbLine
 10
-475.4999785875079
 20
-365.0000037786962
 30
0.0
 11
-730.1593932085616
 21
-365.0000037786962
 31
0.0
  0
LINE
  5
230DE
330
3E7
100
AcDbEntity
  8
SIZE
100
AcDbLine
 10
-700.1593932085614
 20
-225.0000037786962
 30
0.0
 11
-700.1593932085616
 21
-355.0000037786962
 31
0.0
  0
LINE
  5
230E2
330
3E7
100
AcDbEntity
  8
SIZE
  6
CONTINUOUS
100
AcDbLine
 10
-299.9999847412091
 20
221.0404141190047
 30
0.0
 11
-299.9999847412091
 21
487.6425898373154
 31
0.0
  0
LINE
  5
230E3
330
3E7
100
AcDbEntity
  8
SIZE
  6
CONTINUOUS
100
AcDbLine
 10
300.0000305175654
 20
222.8427815268223
 30
0.0
 11
300.0000305175654
 21
487.6425898373154
 31
0.0
  0
LINE
  5
230E4
330
3E7
100
AcDbEntity
  8
SIZE
  6
CONTINUOUS
100
AcDbLine
 10
-289.9999847412091
 20
457.6425898373154
 30
0.0
 11
290.0000305175653
 21
457.6425898373154
 31
0.0
  0
LINE
  5
230E8
330
3E7
100
AcDbEntity
  8
SIZE
  6
CONTINUOUS
100
AcDbLine
 10
-525.0000000000018
 20
170.0000038506832
 30
0.0
 11
-525.0000000000018
 21
659.5737992429158
 31
0.0
  0
LINE
  5
230E9
330
3E7
100
AcDbEntity
  8
SIZE
  6
CONTINUOUS
100
AcDbLine
 10
525.0000305175653
 20
185.0000038506835
 30
0.0
 11
525.0000305175653
 21
659.5737992429158
 31
0.0
  0
LINE
  5
230EA
330
3E7
100
AcDbEntity
  8
SIZE
  6
CONTINUOUS
100
AcDbLine
 10
-515.0000000000018
 20
629.5737992429158
 30
0.0
 11
515.0000305175653
 21
629.5737992429158
 31
0.0
  0
LINE
  5
230EE
330
3E7
100
AcDbEntity
  8
SIZE
  6
CONTINUOUS
100
AcDbLine
 10
-524.9999999999992
 20
170.0000038506847
 30
0.0
 11
-524.9999999999992
 21
487.6425898373154
 31
0.0
  0
LINE
  5
230EF
330
3E7
100
AcDbEntity
  8
SIZE
  6
CONTINUOUS
100
AcDbLine
 10
-299.9999847412091
 20
221.0404141190047
 30
0.0
 11
-299.9999847412091
 21
487.6425898373154
 31
0.0
  0
LINE
  5
230F0
330
3E7
100
AcDbEntity
  8
SIZE
  6
CONTINUOUS
100
AcDbLine
 10
-514.9999999999993
 20
457.6425898373154
 30
0.0
 11
-309.9999847412091
 21
457.6425898373154
 31
0.0
  0
LINE
  5
230F4
330
3E7
100
AcDbEntity
  8
SIZE
  6
CONTINUOUS
100
AcDbLine
 10
-545.0
 20
-165.0000037787085
 30
0.0
 11
-869.5628094646325
 21
-165.0000037787084
 31
0.0
  0
LINE
  5
230F5
330
3E7
100
AcDbEntity
  8
SIZE
  6
CONTINUOUS
100
AcDbLine
 10
-529.999999999992
 20
165.0000038506852
 30
0.0
 11
-869.5628094646325
 21
165.0000038506854
 31
0.0
  0
LINE
  5
230F6
330
3E7
100
AcDbEntity
  8
SIZE
  6
CONTINUOUS
100
AcDbLine
 10
-839.5628094646324
 20
-155.0000037787084
 30
0.0
 11
-839.5628094646324
 21
155.0000038506853
 31
0.0
  0
LINE
  5
230FA
330
3E7
100
AcDbEntity
  8
SIZE
  6
CONTINUOUS
100
AcDbLine
 10
300.0000305175654
 20
222.8427815268223
 30
0.0
 11
300.0000305175654
 21
487.6425898373154
 31
0.0
  0
LINE
  5
230FB
330
3E7
100
AcDbEntity
  8
SIZE
  6
CONTINUOUS
100
AcDbLine
 10
525.0000305175653
 20
185.0000038506835
 30
0.0
 11
525.0000305175653
 21
487.6425898373154
 31
0.0
  0
LINE
  5
230FC
330
3E7
100
AcDbEntity
  8
SIZE
  6
CONTINUOUS
100
AcDbLine
 10
310.0000305175654
 20
457.6425898373154
 30
0.0
 11
515.0000305175653
 21
457.6425898373154
 31
0.0
  0
LINE
  5
23100
330
3E7
100
AcDbEntity
  8
SIZE
  6
CONTINUOUS
100
AcDbLine
 10
360.895813145371
 20
180.3999977471685
 30
0.0
 11
1007.559004732227
 21
180.3999977471683
 31
0.0
  0
LINE
  5
23101
330
3E7
100
AcDbEntity
  8
SIZE
  6
CONTINUOUS
100
AcDbLine
 10
345.000030517569
 20
199.399997747171
 30
0.0
 11
1007.559004732227
 21
199.3999977471708
 31
0.0
  0
LINE
  5
23102
330
3E7
100
AcDbEntity
  8
SIZE
  6
CONTINUOUS
100
AcDbLine
 10
977.5590047322275
 20
170.3999977471683
 30
0.0
 11
977.5590047322275
 21
160.3999977471683
 31
0.0
  0
LINE
  5
23103
330
3E7
100
AcDbEntity
  8
SIZE
  6
CONTINUOUS
100
AcDbLine
 10
977.5590047322275
 20
209.3999977471708
 30
0.0
 11
977.5590047322276
 21
338.9428548900298
 31
0.0
  0
LINE
  5
23104
330
3E7
100
AcDbEntity
  8
SIZE
  6
CONTINUOUS
100
AcDbLine
 10
977.5590047322275
 20
180.3999977471683
 30
0.0
 11
977.5590047322275
 21
199.3999977471708
 31
0.0
  0
TEXT
  5
23108
330
3E7
100
AcDbEntity
  8
SIZE
100
AcDbText
 10
-859.5628094646325
 20
-339.0571466358453
 30
0.0
 40
64.0
  1
200
 50
90.0
 41
0.9
100
AcDbText
  0
CIRCLE
  5
23109
330
3E7
100
AcDbEntity
  8
SIZE
  6
BYBLOCK
100
AcDbCircle
 10
977.5590047322275
 20
-189.5999992010743
 30
0.0
 40
5.0
  0
LINE
  5
2310A
330
3E7
100
AcDbEntity
  8
SIZE
  6
BYBLOCK
100
AcDbLine
 10
977.5590047322275
 20
-189.5999992010743
 30
0.0
 11
977.5590047322275
 21
-179.5999992010743
 31
0.0
  0
CIRCLE
  5
2310B
330
3E7
100
AcDbEntity
  8
SIZE
  6
BYBLOCK
100
AcDbCircle
 10
977.5590047322275
 20
-189.5999992010743
 30
0.0
 40
5.0
  0
LINE
  5
2310C
330
3E7
100
AcDbEntity
  8
SIZE
  6
BYBLOCK
100
AcDbLine
 10
977.5590047322275
 20
-189.5999992010743
 30
0.0
 11
977.5590047322275
 21
-179.5999992010743
 31
0.0
  0
CIRCLE
  5
2310D
330
3E7
100
AcDbEntity
  8
SIZE
  6
BYBLOCK
100
AcDbCircle
 10
-577.824969357267
 20
-190.0000037787085
 30
0.0
 40
5.0
  0
LINE
  5
2310E
330
3E7
100
AcDbEntity
  8
SIZE
  6
BYBLOCK
100
AcDbLine
 10
-577.824969357267
 20
-190.0000037787085
 30
0.0
 11
-577.824969357267
 21
-200.0000037787085
 31
0.0
  0
CIRCLE
  5
2310F
330
3E7
100
AcDbEntity
  8
SIZE
  6
BYBLOCK
100
AcDbCircle
 10
156.0000214124938
 20
-642.6255371240158
 30
0.0
 40
5.0
  0
LINE
  5
23110
330
3E7
100
AcDbEntity
  8
SIZE
  6
BYBLOCK
100
AcDbLine
 10
156.0000214124938
 20
-642.6255371240158
 30
0.0
 11
146.0000214124938
 21
-642.6255371240158
 31
0.0
  0
CIRCLE
  5
23111
330
3E7
100
AcDbEntity
  8
SIZE
  6
BYBLOCK
100
AcDbCircle
 10
-489.6999785875069
 20
-847.4540321939102
 30
0.0
 40
5.0
  0
LINE
  5
23112
330
3E7
100
AcDbEntity
  8
SIZE
  6
BYBLOCK
100
AcDbLine
 10
-489.6999785875069
 20
-847.4540321939102
 30
0.0
 11
-479.6999785875069
 21
-847.4540321939102
 31
0.0
  0
TEXT
  5
23113
330
3E7
100
AcDbEntity
  8
SIZE
100
AcDbText
 10
-240.9660913682045
 20
-827.4540321939102
 30
0.0
 40
64.0
  1
653
 41
0.9
100
AcDbText
  0
TEXT
  5
23114
330
3E7
100
AcDbEntity
  8
SIZE
100
AcDbText
 10
-430.5559073360917
 20
-488.5867473571898
 30
0.0
 40
64.0
  1
362
 41
0.9
100
AcDbText
  0
CIRCLE
  5
23115
330
3E7
100
AcDbEntity
  8
SIZE
  6
BYBLOCK
100
AcDbCircle
 10
-481.9999785875061
 20
-642.6255371240158
 30
0.0
 40
5.0
  0
LINE
  5
23116
330
3E7
100
AcDbEntity
  8
SIZE
  6
BYBLOCK
100
AcDbLine
 10
-481.9999785875061
 20
-642.6255371240158
 30
0.0
 11
-471.9999785875061
 21
-642.6255371240158
 31
0.0
  0
CIRCLE
  5
23117
330
3E7
100
AcDbEntity
  8
SIZE
  6
BYBLOCK
100
AcDbCircle
 10
-525.0
 20
-508.5867473571897
 30
0.0
 40
5.0
  0
LINE
  5
23118
330
3E7
100
AcDbEntity
  8
SIZE
  6
BYBLOCK
100
AcDbLine
 10
-525.0
 20
-508.5867473571897
 30
0.0
 11
-515.0
 21
-508.5867473571897
 31
0.0
  0
TEXT
  5
23119
330
3E7
100
AcDbEntity
  8
SIZE
100
AcDbText
 10
-237.0571214446489
 20
-622.6255371240158
 30
0.0
 40
64.0
  1
638
 41
0.9
100
AcDbText
  0
CIRCLE
  5
2311A
330
3E7
100
AcDbEntity
  8
SIZE
  6
BYBLOCK
100
AcDbCircle
 10
-162.9999785875061
 20
-508.5867473571897
 30
0.0
 40
5.0
  0
LINE
  5
2311B
330
3E7
100
AcDbEntity
  8
SIZE
  6
BYBLOCK
100
AcDbLine
 10
-162.9999785875061
 20
-508.5867473571897
 30
0.0
 11
-172.9999785875061
 21
-508.5867473571897
 31
0.0
  0
TEXT
  5
2311C
330
3E7
100
AcDbEntity
  8
SIZE
100
AcDbText
 10
-720.1593932085614
 20
-358.5714323501249
 30
0.0
 40
64.0
  1
150
 50
90.0
 41
0.9
100
AcDbText
  0
CIRCLE
  5
2311D
330
3E7
100
AcDbEntity
  8
SIZE
  6
BYBLOCK
100
AcDbCircle
 10
-700.1593932085616
 20
-365.0000037786962
 30
0.0
 40
5.0
  0
LINE
  5
2311E
330
3E7
100
AcDbEntity
  8
SIZE
  6
BYBLOCK
100
AcDbLine
 10
-700.1593932085616
 20
-365.0000037786962
 30
0.0
 11
-700.1593932085616
 21
-355.0000037786962
 31
0.0
  0
CIRCLE
  5
2311F
330
3E7
100
AcDbEntity
  8
SIZE
  6
BYBLOCK
100
AcDbCircle
 10
-839.5628094646326
 20
-365.0000037786962
 30
0.0
 40
5.0
  0
LINE
  5
23120
330
3E7
100
AcDbEntity
  8
SIZE
  6
BYBLOCK
100
AcDbLine
 10
-839.5628094646326
 20
-365.0000037786962
 30
0.0
 11
-839.5628094646326
 21
-355.0000037786962
 31
0.0
  0
CIRCLE
  5
23121
330
3E7
100
AcDbEntity
  8
SIZE
  6
BYBLOCK
100
AcDbCircle
 10
-700.1593932085614
 20
-215.0000037786962
 30
0.0
 40
5.0
  0
LINE
  5
23122
330
3E7
100
AcDbEntity
  8
SIZE
  6
BYBLOCK
100
AcDbLine
 10
-700.1593932085614
 20
-215.0000037786962
 30
0.0
 11
-700.1593932085614
 21
-225.0000037786962
 31
0.0
  0
CIRCLE
  5
23123
330
3E7
100
AcDbEntity
  8
SIZE
  6
BYBLOCK
100
AcDbCircle
 10
-700.1593932085616
 20
-215.0000037786962
 30
0.0
 40
5.0
  0
LINE
  5
23124
330
3E7
100
AcDbEntity
  8
SIZE
  6
BYBLOCK
100
AcDbLine
 10
-700.1593932085616
 20
-215.0000037786962
 30
0.0
 11
-700.1593932085616
 21
-225.0000037786962
 31
0.0
  0
CIRCLE
  5
23125
330
3E7
100
AcDbEntity
  8
SIZE
  6
BYBLOCK
100
AcDbCircle
 10
163.7000214124927
 20
-847.4540321939102
 30
0.0
 40
5.0
  0
LINE
  5
23126
330
3E7
100
AcDbEntity
  8
SIZE
  6
BYBLOCK
100
AcDbLine
 10
163.7000214124927
 20
-847.4540321939102
 30
0.0
 11
153.7000214124927
 21
-847.4540321939102
 31
0.0
  0
TEXT
  5
23127
330
3E7
100
AcDbEntity
  8
SIZE
100
AcDbText
 10
957.5590047322275
 20
-391.999994623436
 30
0.0
 40
64.0
  1
28
 50
90.0
 41
0.9
100
AcDbText
  0
CIRCLE
  5
23128
330
3E7
100
AcDbEntity
  8
SIZE
  6
BYBLOCK
100
AcDbCircle
 10
977.5590047322275
 20
-217.5999946234361
 30
0.0
 40
5.0
  0
LINE
  5
23129
330
3E7
100
AcDbEntity
  8
SIZE
  6
BYBLOCK
100
AcDbLine
 10
977.5590047322275
 20
-217.5999946234361
 30
0.0
 11
977.5590047322275
 21
-227.5999946234362
 31
0.0
  0
CIRCLE
  5
2312A
330
3E7
100
AcDbEntity
  8
SIZE
  6
BYBLOCK
100
AcDbCircle
 10
1192.365115136575
 20
-217.5999946234362
 30
0.0
 40
5.0
  0
LINE
  5
2312B
330
3E7
100
AcDbEntity
  8
SIZE
  6
BYBLOCK
100
AcDbLine
 10
1192.365115136575
 20
-217.5999946234362
 30
0.0
 11
1192.365115136575
 21
-207.5999946234362
 31
0.0
  0
TEXT
  5
2312C
330
3E7
100
AcDbEntity
  8
SIZE
100
AcDbText
 10
-859.5628094646325
 20
-75.58916146169834
 30
0.0
 40
64.0
  1
330
 50
90.0
 41
0.9
100
AcDbText
  0
TEXT
  5
2312D
330
3E7
100
AcDbEntity
  8
SIZE
100
AcDbText
 10
-720.1593932085615
 20
-125.0000037786968
 30
0.0
 40
64.0
  1
50
 50
90.0
 41
0.9
100
AcDbText
  0
TEXT
  5
2312E
330
3E7
100
AcDbEntity
  8
SIZE
100
AcDbText
 10
-597.824969357267
 20
-125.0000037787086
 30
0.0
 40
64.0
  1
25
 50
90.0
 41
0.9
100
AcDbText
  0
CIRCLE
  5
2312F
330
3E7
100
AcDbEntity
  8
SIZE
  6
BYBLOCK
100
AcDbCircle
 10
-839.5628094646324
 20
-165.0000037787084
 30
0.0
 40
5.0
  0
LINE
  5
23130
330
3E7
100
AcDbEntity
  8
SIZE
  6
BYBLOCK
100
AcDbLine
 10
-839.5628094646324
 20
-165.0000037787084
 30
0.0
 11
-839.5628094646324
 21
-155.0000037787084
 31
0.0
  0
CIRCLE
  5
23131
330
3E7
100
AcDbEntity
  8
SIZE
  6
BYBLOCK
100
AcDbCircle
 10
-700.1593932085616
 20
-165.0000037786966
 30
0.0
 40
5.0
  0
LINE
  5
23132
330
3E7
100
AcDbEntity
  8
SIZE
  6
BYBLOCK
100
AcDbLine
 10
-700.1593932085616
 20
-165.0000037786966
 30
0.0
 11
-700.1593932085616
 21
-155.0000037786967
 31
0.0
  0
CIRCLE
  5
23133
330
3E7
100
AcDbEntity
  8
SIZE
  6
BYBLOCK
100
AcDbCircle
 10
-839.5628094646324
 20
-165.0000037787084
 30
0.0
 40
5.0
  0
LINE
  5
23134
330
3E7
100
AcDbEntity
  8
SIZE
  6
BYBLOCK
100
AcDbLine
 10
-839.5628094646324
 20
-165.0000037787084
 30
0.0
 11
-839.5628094646324
 21
-175.0000037787084
 31
0.0
  0
CIRCLE
  5
23135
330
3E7
100
AcDbEntity
  8
SIZE
  6
BYBLOCK
100
AcDbCircle
 10
-577.824969357267
 20
-165.0000037787085
 30
0.0
 40
5.0
  0
LINE
  5
23136
330
3E7
100
AcDbEntity
  8
SIZE
  6
BYBLOCK
100
AcDbLine
 10
-577.824969357267
 20
-165.0000037787085
 30
0.0
 11
-577.824969357267
 21
-155.0000037787085
 31
0.0
  0
CIRCLE
  5
23137
330
3E7
100
AcDbEntity
  8
SIZE
  6
BYBLOCK
100
AcDbCircle
 10
-839.5628094646324
 20
165.0000038506854
 30
0.0
 40
5.0
  0
LINE
  5
23138
330
3E7
100
AcDbEntity
  8
SIZE
  6
BYBLOCK
100
AcDbLine
 10
-839.5628094646324
 20
165.0000038506854
 30
0.0
 11
-839.5628094646324
 21
155.0000038506853
 31
0.0
  0
TEXT
  5
23139
330
3E7
100
AcDbEntity
  8
SIZE
100
AcDbText
 10
-481.9195952980834
 20
477.6425898373154
 30
0.0
 40
64.0
  1
225
 41
0.9
100
AcDbText
  0
CIRCLE
  5
2313A
330
3E7
100
AcDbEntity
  8
SIZE
  6
BYBLOCK
100
AcDbCircle
 10
-524.9999999999992
 20
457.6425898373154
 30
0.0
 40
5.0
  0
LINE
  5
2313B
330
3E7
100
AcDbEntity
  8
SIZE
  6
BYBLOCK
100
AcDbLine
 10
-524.9999999999992
 20
457.6425898373154
 30
0.0
 11
-514.9999999999993
 21
457.6425898373154
 31
0.0
  0
CIRCLE
  5
2313C
330
3E7
100
AcDbEntity
  8
SIZE
  6
BYBLOCK
100
AcDbCircle
 10
-299.9999847412091
 20
457.6425898373154
 30
0.0
 40
5.0
  0
LINE
  5
2313D
330
3E7
100
AcDbEntity
  8
SIZE
  6
BYBLOCK
100
AcDbLine
 10
-299.9999847412091
 20
457.6425898373154
 30
0.0
 11
-309.9999847412091
 21
457.6425898373154
 31
0.0
  0
CIRCLE
  5
2313E
330
3E7
100
AcDbEntity
  8
SIZE
  6
BYBLOCK
100
AcDbCircle
 10
-299.9999847412091
 20
457.6425898373154
 30
0.0
 40
5.0
  0
LINE
  5
2313F
330
3E7
100
AcDbEntity
  8
SIZE
  6
BYBLOCK
100
AcDbLine
 10
-299.9999847412091
 20
457.6425898373154
 30
0.0
 11
-289.9999847412091
 21
457.6425898373154
 31
0.0
  0
TEXT
  5
23140
330
3E7
100
AcDbEntity
  8
SIZE
100
AcDbText
 10
-69.23150074816923
 20
477.6425898373154
 30
0.0
 40
64.0
  1
600
 41
0.9
100
AcDbText
  0
CIRCLE
  5
23141
330
3E7
100
AcDbEntity
  8
SIZE
  6
BYBLOCK
100
AcDbCircle
 10
-525.0000000000018
 20
629.5737992429158
 30
0.0
 40
5.0
  0
LINE
  5
23142
330
3E7
100
AcDbEntity
  8
SIZE
  6
BYBLOCK
100
AcDbLine
 10
-525.0000000000018
 20
629.5737992429158
 30
0.0
 11
-515.0000000000018
 21
629.5737992429158
 31
0.0
  0
TEXT
  5
23143
330
3E7
100
AcDbEntity
  8
SIZE
100
AcDbText
 10
-94.17055430033542
 20
649.5737992429158
 30
0.0
 40
64.0
  1
1050
 41
0.9
100
AcDbText
  0
TEXT
  5
23144
330
3E7
100
AcDbEntity
  8
SIZE
100
AcDbText
 10
1172.365115136575
 20
-68.53589420456751
 30
0.0
 40
64.0
  1
417
 50
90.0
 41
0.9
100
AcDbText
  0
TEXT
  5
23145
330
3E7
100
AcDbEntity
  8
SIZE
100
AcDbText
 10
957.5590047322275
 20
-84.27537383822395
 30
0.0
 40
64.0
  1
370
 50
90.0
 41
0.9
100
AcDbText
  0
CIRCLE
  5
23146
330
3E7
100
AcDbEntity
  8
SIZE
  6
BYBLOCK
100
AcDbCircle
 10
977.5590047322275
 20
199.3999977471708
 30
0.0
 40
5.0
  0
LINE
  5
23147
330
3E7
100
AcDbEntity
  8
SIZE
  6
BYBLOCK
100
AcDbLine
 10
977.5590047322275
 20
199.3999977471708
 30
0.0
 11
977.5590047322275
 21
209.3999977471708
 31
0.0
  0
CIRCLE
  5
23148
330
3E7
100
AcDbEntity
  8
SIZE
  6
BYBLOCK
100
AcDbCircle
 10
977.5590047322275
 20
180.3999977471683
 30
0.0
 40
5.0
  0
LINE
  5
23149
330
3E7
100
AcDbEntity
  8
SIZE
  6
BYBLOCK
100
AcDbLine
 10
977.5590047322275
 20
180.3999977471683
 30
0.0
 11
977.5590047322275
 21
170.3999977471683
 31
0.0
  0
CIRCLE
  5
2314A
330
3E7
100
AcDbEntity
  8
SIZE
  6
BYBLOCK
100
AcDbCircle
 10
977.5590047322275
 20
180.3999977471683
 30
0.0
 40
5.0
  0
LINE
  5
2314B
330
3E7
100
AcDbEntity
  8
SIZE
  6
BYBLOCK
100
AcDbLine
 10
977.5590047322275
 20
180.3999977471683
 30
0.0
 11
977.5590047322275
 21
170.3999977471683
 31
0.0
  0
TEXT
  5
2314C
330
3E7
100
AcDbEntity
  8
SIZE
100
AcDbText
 10
957.5590047322275
 20
239.3999977471728
 30
0.0
 40
64.0
  1
19
 50
90.0
 41
0.9
100
AcDbText
  0
CIRCLE
  5
2314D
330
3E7
100
AcDbEntity
  8
SIZE
  6
BYBLOCK
100
AcDbCircle
 10
1192.365115136575
 20
199.3999977471708
 30
0.0
 40
5.0
  0
LINE
  5
2314E
330
3E7
100
AcDbEntity
  8
SIZE
  6
BYBLOCK
100
AcDbLine
 10
1192.365115136575
 20
199.3999977471708
 30
0.0
 11
1192.365115136575
 21
189.3999977471708
 31
0.0
  0
CIRCLE
  5
2314F
330
3E7
100
AcDbEntity
  8
SIZE
  6
BYBLOCK
100
AcDbCircle
 10
525.0000305175653
 20
457.6425898373154
 30
0.0
 40
5.0
  0
LINE
  5
23150
330
3E7
100
AcDbEntity
  8
SIZE
  6
BYBLOCK
100
AcDbLine
 10
525.0000305175653
 20
457.6425898373154
 30
0.0
 11
515.0000305175653
 21
457.6425898373154
 31
0.0
  0
CIRCLE
  5
23151
330
3E7
100
AcDbEntity
  8
SIZE
  6
BYBLOCK
100
AcDbCircle
 10
300.0000305175654
 20
457.6425898373154
 30
0.0
 40
5.0
  0
LINE
  5
23152
330
3E7
100
AcDbEntity
  8
SIZE
  6
BYBLOCK
100
AcDbLine
 10
300.0000305175654
 20
457.6425898373154
 30
0.0
 11
310.0000305175654
 21
457.6425898373154
 31
0.0
  0
CIRCLE
  5
23153
330
3E7
100
AcDbEntity
  8
SIZE
  6
BYBLOCK
100
AcDbCircle
 10
300.0000305175654
 20
457.6425898373154
 30
0.0
 40
5.0
  0
LINE
  5
23154
330
3E7
100
AcDbEntity
  8
SIZE
  6
BYBLOCK
100
AcDbLine
 10
300.0000305175654
 20
457.6425898373154
 30
0.0
 11
290.0000305175653
 21
457.6425898373154
 31
0.0
  0
TEXT
  5
23155
330
3E7
100
AcDbEntity
  8
SIZE
100
AcDbText
 10
346.5347040101452
 20
477.6425898373154
 30
0.0
 40
64.0
  1
225
 41
0.9
100
AcDbText
  0
CIRCLE
  5
23156
330
3E7
100
AcDbEntity
  8
SIZE
  6
BYBLOCK
100
AcDbCircle
 10
525.0000305175653
 20
629.5737992429158
 30
0.0
 40
5.0
  0
LINE
  5
23157
330
3E7
100
AcDbEntity
  8
SIZE
  6
BYBLOCK
100
AcDbLine
 10
525.0000305175653
 20
629.5737992429158
 30
0.0
 11
515.0000305175653
 21
629.5737992429158
 31
0.0
  0
LINE
  5
23158
330
3E7
100
AcDbEntity
  8
OUTLINE
  6
CONTINUOUS
100
AcDbLine
 10
-475.4999785875079
 20
-214.0000037786965
 30
0.0
 11
-475.4999785875079
 21
-167.0000037786967
 31
0.0
  0
LINE
  5
23159
330
3E7
100
AcDbEntity
  8
OUTLINE
  6
CONTINUOUS
100
AcDbLine
 10
-455.4999785875079
 20
-172.0000037786967
 30
0.0
 11
-455.4999785875079
 21
-199.9000037786966
 31
0.0
  0
LINE
  5
2315A
330
3E7
100
AcDbEntity
  8
OUTLINE
  6
CONTINUOUS
100
AcDbLine
 10
149.500021412492
 20
-214.0000037786967
 30
0.0
 11
149.500021412492
 21
-167.0000037786969
 31
0.0
  0
LINE
  5
2315B
330
3E7
100
AcDbEntity
  8
OUTLINE
  6
CONTINUOUS
100
AcDbLine
 10
129.500021412492
 20
-199.9000037786966
 30
0.0
 11
129.500021412492
 21
-172.0000037786967
 31
0.0
  0
LINE
  5
2315C
330
3E7
100
AcDbEntity
  8
OUTLINE
  6
CONTINUOUS
100
AcDbLine
 10
-455.4999785875079
 20
-214.2000037786965
 30
0.0
 11
129.500021412492
 21
-214.2000037786965
 31
0.0
  0
LINE
  5
2315D
330
3E7
100
AcDbEntity
  8
OUTLINE
  6
CONTINUOUS
100
AcDbLine
 10
-455.4999785875079
 20
-214.2000037786965
 30
0.0
 11
129.500021412492
 21
-214.2000037786965
 31
0.0
  0
LINE
  5
2315E
330
3E7
100
AcDbEntity
  8
OUTLINE
  6
CONTINUOUS
100
AcDbLine
 10
-444.6999785875068
 20
-231.0710715905624
 30
0.0
 11
118.7000214124927
 21
-231.0710715905624
 31
0.0
  0
LINE
  5
2315F
330
3E7
100
AcDbEntity
  8
OUTLINE
  6
CONTINUOUS
100
AcDbLine
 10
-444.6999785875068
 20
-281.0710715905624
 30
0.0
 11
118.7000214124927
 21
-281.0710715905627
 31
0.0
  0
LINE
  5
23160
330
3E7
100
AcDbEntity
  8
OUTLINE
  6
CONTINUOUS
100
AcDbLine
 10
118.7000214124927
 20
-364.2000037786965
 30
0.0
 11
-444.6999785875068
 21
-364.2000037786965
 31
0.0
  0
LINE
  5
23161
330
3E7
100
AcDbEntity
  8
OUTLINE
  6
CONTINUOUS
100
AcDbLine
 10
-455.4999785875079
 20
-282.1095492216475
 30
0.0
 11
-455.4999785875079
 21
-364.2928969975096
 31
0.0
  0
LINE
  5
23162
330
3E7
100
AcDbEntity
  8
OUTLINE
  6
CONTINUOUS
100
AcDbLine
 10
-444.6999785875086
 20
-359.2724388510846
 30
0.0
 11
-444.6999785875086
 21
-287.1300073680722
 31
0.0
  0
LINE
  5
23163
330
3E7
100
AcDbEntity
  8
OUTLINE
  6
CONTINUOUS
100
AcDbLine
 10
-447.4706892656268
 20
-359.2724388510846
 30
0.0
 11
-454.5706892656271
 21
-364.2928969975096
 31
0.0
  0
LINE
  5
23164
330
3E7
100
AcDbEntity
  8
OUTLINE
  6
CONTINUOUS
100
AcDbLine
 10
-454.4999785875079
 20
-364.2428969975094
 30
0.0
 11
-454.4999785875079
 21
-364.3428969975093
 31
0.0
  0
LINE
  5
23165
330
3E7
100
AcDbEntity
  8
OUTLINE
  6
CONTINUOUS
100
AcDbLine
 10
-447.4292679093887
 20
-359.2724388510846
 30
0.0
 11
-447.4292679093887
 21
-359.3431495292033
 31
0.0
  0
LINE
  5
23166
330
3E7
100
AcDbEntity
  8
OUTLINE
  6
CONTINUOUS
100
AcDbLine
 10
-447.4292679093887
 20
-359.3431495292033
 30
0.0
 11
-444.6999785875068
 21
-359.3431495292033
 31
0.0
  0
LINE
  5
23167
330
3E7
100
AcDbEntity
  8
OUTLINE
  6
CONTINUOUS
100
AcDbLine
 10
-454.4999785875079
 20
-364.3428969975093
 30
0.0
 11
-447.4292679093887
 21
-359.3431495292033
 31
0.0
  0
LINE
  5
23168
330
3E7
100
AcDbEntity
  8
OUTLINE
  6
CONTINUOUS
100
AcDbLine
 10
-444.6999785875086
 20
-359.2724388510846
 30
0.0
 11
-447.4706892656268
 21
-359.2724388510846
 31
0.0
  0
LINE
  5
23169
330
3E7
100
AcDbEntity
  8
OUTLINE
  6
CONTINUOUS
100
AcDbLine
 10
-455.4999785875079
 20
-364.2928969975096
 30
0.0
 11
-454.5706892656271
 21
-364.2928969975096
 31
0.0
  0
LINE
  5
2316A
330
3E7
100
AcDbEntity
  8
OUTLINE
  6
CONTINUOUS
100
AcDbLine
 10
-455.4999785875079
 20
-364.2928969975096
 30
0.0
 11
-455.4999785875079
 21
-365.0000037786962
 31
0.0
  0
LINE
  5
2316B
330
3E7
100
AcDbEntity
  8
OUTLINE
  6
CONTINUOUS
100
AcDbLine
 10
-454.4999785875079
 20
-365.0000037786962
 30
0.0
 11
-454.4999785875079
 21
-364.3428969975093
 31
0.0
  0
LINE
  5
2316C
330
3E7
100
AcDbEntity
  8
OUTLINE
  6
CONTINUOUS
100
AcDbLine
 10
-444.6999785875068
 20
-365.0000037786962
 30
0.0
 11
-454.4999785875079
 21
-365.0000037786962
 31
0.0
  0
LINE
  5
2316D
330
3E7
100
AcDbEntity
  8
OUTLINE
  6
CONTINUOUS
100
AcDbLine
 10
-455.4999785875079
 20
-365.0000037786962
 30
0.0
 11
-454.4999785875079
 21
-365.0000037786962
 31
0.0
  0
LINE
  5
2316E
330
3E7
100
AcDbEntity
  8
OUTLINE
  6
CONTINUOUS
100
AcDbLine
 10
-444.6999785875068
 20
-365.0000037786962
 30
0.0
 11
-444.6999785875068
 21
-364.2000037786965
 31
0.0
  0
LINE
  5
2316F
330
3E7
100
AcDbEntity
  8
OUTLINE
  6
CONTINUOUS
100
AcDbLine
 10
-444.6999785875068
 20
-359.3431495292033
 30
0.0
 11
-444.6999785875086
 21
-359.2724388510846
 31
0.0
  0
LINE
  5
23170
330
3E7
100
AcDbEntity
  8
OUTLINE
  6
CONTINUOUS
100
AcDbLine
 10
-444.6999785875068
 20
-364.2000037786965
 30
0.0
 11
-444.6999785875068
 21
-359.3431495292033
 31
0.0
  0
SPLINE
  5
23171
330
3E7
100
AcDbEntity
  8
OUTLINE
  6
CONTINUOUS
100
AcDbSpline
210
0.0
220
0.0
230
1.0
 70
     8
 71
     3
 72
     9
 73
     5
 74
     3
 42
0.0000000001
 43
0.0000000001
 44
0.00000001
 40
0.0
 40
0.0
 40
0.0
 40
0.0
 40
0.0502462890049659
 40
0.1229392340212557
 40
0.1229392340212557
 40
0.1229392340212557
 40
0.1229392340212557
 10
-464.3671146911874
 20
-217.1000037786964
 30
0.0
 10
-464.3515252998041
 20
-217.1084388903796
 30
0.0
 10
-464.3133822401404
 20
-217.1290773671686
 30
0.0
 10
-464.3108669341901
 20
-217.1736489613658
 30
0.0
 10
-464.3093796642679
 20
-217.2000037786963
 30
0.0
 11
-464.3671146911874
 21
-217.1000037786964
 31
0.0
 11
-464.3262978680941
 21
-217.1293069672972
 31
0.0
 11
-464.3093796642679
 21
-217.2000037786963
 31
0.0
  0
SPLINE
  5
23172
330
3E7
100
AcDbEntity
  8
OUTLINE
  6
CONTINUOUS
100
AcDbSpline
210
0.0
220
0.0
230
1.0
 70
     8
 71
     3
 72
     9
 73
     5
 74
     3
 42
0.0000000001
 43
0.0000000001
 44
0.00000001
 40
0.0
 40
0.0
 40
0.0
 40
0.0
 40
0.0867336635470477
 40
0.1651105799775216
 40
0.1651105799775216
 40
0.1651105799775216
 40
0.1651105799775216
 10
-466.7342507948651
 20
-217.1000037786964
 30
0.0
 10
-466.7031707408593
 20
-217.105487502285
 30
0.0
 10
-466.6440051903569
 20
-217.1159266101315
 30
0.0
 10
-466.62690030962
 20
-217.1729399248718
 30
0.0
 10
-466.618780741026
 20
-217.2000037786963
 30
0.0
 11
-466.7342507948651
 21
-217.1000037786964
 31
0.0
 11
-466.6526171486802
 21
-217.1293069672972
 31
0.0
 11
-466.618780741026
 21
-217.2000037786963
 31
0.0
  0
SPLINE
  5
23173
330
3E7
100
AcDbEntity
  8
OUTLINE
  6
CONTINUOUS
100
AcDbSpline
210
0.0
220
0.0
230
1.0
 70
     8
 71
     3
 72
    11
 73
     7
 74
     5
 42
0.0000000001
 43
0.0000000001
 44
0.00000001
 40
0.0
 40
0.0
 40
0.0
 40
0.0
 40
1.227283460912903
 40
2.343202176584603
 40
3.458776458528293
 40
4.685677922804804
 40
4.685677922804804
 40
4.685677922804804
 40
4.685677922804804
 10
-464.3093796642697
 20
-219.9540630541969
 30
0.0
 10
-463.9125708772358
 20
-220.0563521182955
 30
0.0
 10
-463.1549600670198
 20
-220.2516484356686
 30
0.0
 10
-461.9997273651732
 20
-220.3397702570706
 30
0.0
 10
-460.8446347412454
 20
-220.2515656535012
 30
0.0
 10
-460.087261419104
 20
-220.0563235804815
 30
0.0
 10
-459.690577510757
 20
-219.9540630541969
 30
0.0
 11
-464.3093796642697
 21
-219.9540630541969
 31
0.0
 11
-463.1120897115287
 21
-220.2237322306325
 31
0.0
 11
-461.9996143396983
 21
-220.3113286345264
 31
0.0
 11
-460.8874890794758
 21
-220.2236737029741
 31
0.0
 11
-459.690577510757
 21
-219.9540630541969
 31
0.0
  0
SPLINE
  5
23174
330
3E7
100
AcDbEntity
  8
OUTLINE
  6
CONTINUOUS
100
AcDbSpline
210
0.0
220
0.0
230
1.0
 70
     8
 71
     3
 72
    11
 73
     7
 74
     5
 42
0.0000000001
 43
0.0000000001
 44
0.00000001
 40
0.0
 40
0.0
 40
0.0
 40
0.0
 40
0.6564343421776952
 40
1.21931420066183
 40
1.782356408384233
 40
2.438985477873911
 40
2.438985477873911
 40
2.438985477873911
 40
2.438985477873911
 10
-459.690577510757
 20
-219.9540630541969
 30
0.0
 10
-459.4955550534278
 20
-220.0557401179387
 30
0.0
 10
-459.1333045738432
 20
-220.2446033009326
 30
0.0
 10
-458.5360070306144
 20
-220.342112652018
 30
0.0
 10
-457.9386189271704
 20
-220.2446845478529
 30
0.0
 10
-457.5762587099357
 20
-220.0557688017329
 30
0.0
 10
-457.3811764339916
 20
-219.9540630541932
 30
0.0
 11
-459.690577510757
 21
-219.9540630541969
 31
0.0
 11
-459.0920727399425
 21
-220.2236888828465
 31
0.0
 11
-458.5360574420247
 21
-220.3113286346995
 31
0.0
 11
-457.9798686572503
 21
-220.2237468677258
 31
0.0
 11
-457.3811764339916
 21
-219.9540630541932
 31
0.0
  0
SPLINE
  5
23175
330
3E7
100
AcDbEntity
  8
OUTLINE
  6
CONTINUOUS
100
AcDbSpline
210
0.0
220
0.0
230
1.0
 70
     8
 71
     3
 72
    11
 73
     7
 74
     5
 42
0.0000000001
 43
0.0000000001
 44
0.00000001
 40
0.0
 40
0.0
 40
0.0
 40
0.0
 40
0.6566299644609002
 40
1.219672913759918
 40
1.782552026508492
 40
2.438985477864562
 40
2.438985477864562
 40
2.438985477864562
 40
2.438985477864562
 10
-466.618780741026
 20
-219.9540630541937
 30
0.0
 10
-466.4236981901441
 20
-220.0557689335621
 30
0.0
 10
-466.0613374698958
 20
-220.2446849205484
 30
0.0
 10
-465.4639489519602
 20
-220.3421126516773
 30
0.0
 10
-464.8666518246329
 20
-220.24460292878
 30
0.0
 10
-464.5044018479536
 20
-220.0557399867182
 30
0.0
 10
-464.3093796642697
 20
-219.9540630541969
 30
0.0
 11
-466.618780741026
 21
-219.9540630541937
 31
0.0
 11
-466.0200876562176
 21
-220.22374713419
 31
0.0
 11
-465.4638980787422
 21
-220.3113286345264
 31
0.0
 11
-464.9078835775562
 21
-220.223688617548
 31
0.0
 11
-464.3093796642697
 21
-219.9540630541969
 31
0.0
  0
SPLINE
  5
23176
330
3E7
100
AcDbEntity
  8
OUTLINE
  6
CONTINUOUS
100
AcDbSpline
210
0.0
220
0.0
230
1.0
 70
     8
 71
     3
 72
     9
 73
     5
 74
     3
 42
0.0000000001
 43
0.0000000001
 44
0.00000001
 40
0.0
 40
0.0
 40
0.0
 40
0.0
 40
0.0867336635470477
 40
0.1651105799767363
 40
0.1651105799767363
 40
0.1651105799767363
 40
0.1651105799767363
 10
-457.2657063801544
 20
-217.1000037786964
 30
0.0
 10
-457.2967864341603
 20
-217.105487502285
 30
0.0
 10
-457.3559519846628
 20
-217.1159266101312
 30
0.0
 10
-457.3730568653981
 20
-217.1729399248718
 30
0.0
 10
-457.3811764339916
 20
-217.2000037786963
 30
0.0
 11
-457.2657063801544
 21
-217.1000037786964
 31
0.0
 11
-457.3473400263392
 21
-217.1293069672972
 31
0.0
 11
-457.3811764339916
 21
-217.2000037786963
 31
0.0
  0
SPLINE
  5
23177
330
3E7
100
AcDbEntity
  8
OUTLINE
  6
CONTINUOUS
100
AcDbSpline
210
0.0
220
0.0
230
1.0
 70
     8
 71
     3
 72
     9
 73
     5
 74
     3
 42
0.0000000001
 43
0.0000000001
 44
0.00000001
 40
0.0
 40
0.0
 40
0.0
 40
0.0
 40
0.0502462890034882
 40
0.1229392340202015
 40
0.1229392340202015
 40
0.1229392340202015
 40
0.1229392340202015
 10
-459.632842483832
 20
-217.1000037786964
 30
0.0
 10
-459.6484318752145
 20
-217.1084388903797
 30
0.0
 10
-459.6865749348769
 20
-217.1290773671695
 30
0.0
 10
-459.6890902408285
 20
-217.1736489613659
 30
0.0
 10
-459.6905775107516
 20
-217.2000037786963
 30
0.0
 11
-459.632842483832
 21
-217.1000037786964
 31
0.0
 11
-459.6736593069236
 21
-217.1293069672972
 31
0.0
 11
-459.6905775107516
 21
-217.2000037786963
 31
0.0
  0
ARC
  5
23178
330
3E7
100
AcDbEntity
  8
OUTLINE
  6
CONTINUOUS
100
AcDbCircle
 10
-457.0999785875101
 20
-217.0000037786962
 30
0.0
 40
0.1000000000000227
100
AcDbArc
 50
270.0
 51
0.0
  0
ARC
  5
23179
330
3E7
100
AcDbEntity
  8
OUTLINE
  6
CONTINUOUS
100
AcDbCircle
 10
-466.8999785875094
 20
-217.0000037786965
 30
0.0
 40
0.1000000000000227
100
AcDbArc
 50
180.0
 51
270.0
  0
LINE
  5
2317A
330
3E7
100
AcDbEntity
  8
OUTLINE
  6
CONTINUOUS
100
AcDbLine
 10
-466.9999785875098
 20
-216.3000037786964
 30
0.0
 11
-456.9999785875097
 21
-216.3000037786964
 31
0.0
  0
LINE
  5
2317B
330
3E7
100
AcDbEntity
  8
OUTLINE
  6
CONTINUOUS
100
AcDbLine
 10
-456.9999785875097
 20
-216.3000037786964
 30
0.0
 11
-455.9999785875097
 21
-216.3000037786964
 31
0.0
  0
LINE
  5
2317C
330
3E7
100
AcDbEntity
  8
OUTLINE
  6
CONTINUOUS
100
AcDbLine
 10
-459.632842483832
 20
-217.1000037786964
 30
0.0
 11
-457.2657063801544
 21
-217.1000037786964
 31
0.0
  0
LINE
  5
2317D
330
3E7
100
AcDbEntity
  8
OUTLINE
  6
CONTINUOUS
100
AcDbLine
 10
-457.2657063801544
 20
-217.1000037786964
 30
0.0
 11
-457.0999785875101
 21
-217.1000037786964
 31
0.0
  0
LINE
  5
2317E
330
3E7
100
AcDbEntity
  8
OUTLINE
  6
CONTINUOUS
100
AcDbLine
 10
-466.7342507948651
 20
-217.1000037786964
 30
0.0
 11
-464.3671146911874
 21
-217.1000037786964
 31
0.0
  0
LINE
  5
2317F
330
3E7
100
AcDbEntity
  8
OUTLINE
  6
CONTINUOUS
100
AcDbLine
 10
-466.8999785875094
 20
-217.1000037786964
 30
0.0
 11
-466.7342507948651
 21
-217.1000037786964
 31
0.0
  0
LINE
  5
23180
330
3E7
100
AcDbEntity
  8
OUTLINE
  6
CONTINUOUS
100
AcDbLine
 10
-464.3671146911874
 20
-217.1000037786964
 30
0.0
 11
-459.632842483832
 21
-217.1000037786964
 31
0.0
  0
LINE
  5
23181
330
3E7
100
AcDbEntity
  8
OUTLINE
  6
CONTINUOUS
100
AcDbLine
 10
-465.4999785875097
 20
-220.6000037786964
 30
0.0
 11
-458.4999785875097
 21
-220.6000037786964
 31
0.0
  0
LINE
  5
23182
330
3E7
100
AcDbEntity
  8
OUTLINE
  6
CONTINUOUS
100
AcDbLine
 10
-458.4999785875097
 20
-220.6000037786964
 30
0.0
 11
-457.3811764339916
 21
-219.9540630541932
 31
0.0
  0
LINE
  5
23183
330
3E7
100
AcDbEntity
  8
OUTLINE
  6
CONTINUOUS
100
AcDbLine
 10
-464.493448061683
 20
-215.8000037786964
 30
0.0
 11
-464.4999785875097
 21
-215.8000037786964
 31
0.0
  0
LINE
  5
23184
330
3E7
100
AcDbEntity
  8
OUTLINE
  6
CONTINUOUS
100
AcDbLine
 10
-466.9999785875098
 20
-217.0000037786965
 30
0.0
 11
-466.9999785875098
 21
-216.3000037786964
 31
0.0
  0
LINE
  5
23185
330
3E7
100
AcDbEntity
  8
OUTLINE
  6
CONTINUOUS
100
AcDbLine
 10
-462.3194573490454
 20
-215.8000037786964
 30
0.0
 11
-464.493448061683
 21
-215.8000037786964
 31
0.0
  0
LINE
  5
23186
330
3E7
100
AcDbEntity
  8
OUTLINE
  6
CONTINUOUS
100
AcDbLine
 10
-464.3093796642697
 20
-219.9540630541969
 30
0.0
 11
-464.3093796642679
 21
-217.2000037786963
 31
0.0
  0
LINE
  5
23187
330
3E7
100
AcDbEntity
  8
OUTLINE
  6
CONTINUOUS
100
AcDbLine
 10
-465.4999785875097
 20
-220.6000037786964
 30
0.0
 11
-466.618780741026
 21
-219.9540630541937
 31
0.0
  0
LINE
  5
23188
330
3E7
100
AcDbEntity
  8
OUTLINE
  6
CONTINUOUS
100
AcDbLine
 10
-457.3811764339916
 20
-219.9540630541932
 30
0.0
 11
-457.3811764339916
 21
-217.2000037786963
 31
0.0
  0
LINE
  5
23189
330
3E7
100
AcDbEntity
  8
OUTLINE
  6
CONTINUOUS
100
AcDbLine
 10
-464.4999785875097
 20
-215.8000037786964
 30
0.0
 11
-467.9999785875097
 21
-215.8000037786964
 31
0.0
  0
LINE
  5
2318A
330
3E7
100
AcDbEntity
  8
OUTLINE
  6
CONTINUOUS
100
AcDbLine
 10
-467.9999785875097
 20
-216.3000037786964
 30
0.0
 11
-466.9999785875098
 21
-216.3000037786964
 31
0.0
  0
LINE
  5
2318B
330
3E7
100
AcDbEntity
  8
OUTLINE
  6
CONTINUOUS
100
AcDbLine
 10
-466.618780741026
 20
-219.9540630541937
 30
0.0
 11
-466.618780741026
 21
-217.2000037786963
 31
0.0
  0
LINE
  5
2318C
330
3E7
100
AcDbEntity
  8
OUTLINE
  6
CONTINUOUS
100
AcDbLine
 10
-467.9999785875097
 20
-216.3000037786964
 30
0.0
 11
-467.9999785875097
 21
-215.8000037786964
 31
0.0
  0
LINE
  5
2318D
330
3E7
100
AcDbEntity
  8
OUTLINE
  6
CONTINUOUS
100
AcDbLine
 10
-459.690577510757
 20
-219.9540630541969
 30
0.0
 11
-459.6905775107516
 21
-217.2000037786963
 31
0.0
  0
LINE
  5
2318E
330
3E7
100
AcDbEntity
  8
OUTLINE
  6
CONTINUOUS
100
AcDbLine
 10
-460.0195935865086
 20
-215.8000037786964
 30
0.0
 11
-462.3194573490454
 21
-215.8000037786964
 31
0.0
  0
LINE
  5
2318F
330
3E7
100
AcDbEntity
  8
OUTLINE
  6
CONTINUOUS
100
AcDbLine
 10
-455.9999785875097
 20
-215.8000037786964
 30
0.0
 11
-460.0195935865086
 21
-215.8000037786964
 31
0.0
  0
LINE
  5
23190
330
3E7
100
AcDbEntity
  8
OUTLINE
  6
CONTINUOUS
100
AcDbLine
 10
-456.9999785875097
 20
-217.0000037786962
 30
0.0
 11
-456.9999785875097
 21
-216.3000037786964
 31
0.0
  0
LINE
  5
23191
330
3E7
100
AcDbEntity
  8
OUTLINE
  6
CONTINUOUS
100
AcDbLine
 10
-455.9999785875097
 20
-216.3000037786964
 30
0.0
 11
-455.9999785875097
 21
-215.8000037786964
 31
0.0
  0
LINE
  5
23192
330
3E7
100
AcDbEntity
  8
OUTLINE
  6
DOT_CENTER
100
AcDbLine
 10
-461.9999785875097
 20
-217.0000037786965
 30
0.0
 11
-461.9999785875097
 21
-215.8000037786962
 31
0.0
  0
LINE
  5
23193
330
3E7
100
AcDbEntity
  8
OUTLINE
  6
CONTINUOUS
100
AcDbLine
 10
-473.6999785875086
 20
-213.270714456816
 30
0.0
 11
-473.6999785875086
 21
-213.2000037786965
 31
0.0
  0
LINE
  5
23194
330
3E7
100
AcDbEntity
  8
OUTLINE
  6
CONTINUOUS
100
AcDbLine
 10
-473.6999785875086
 20
-213.2000037786965
 30
0.0
 11
-473.7706892656278
 21
-213.2000037786965
 31
0.0
  0
LINE
  5
23195
330
3E7
100
AcDbEntity
  8
OUTLINE
  6
CONTINUOUS
100
AcDbLine
 10
-473.8292679093901
 20
-213.4000037786965
 30
0.0
 11
-473.8999785875093
 21
-213.4000037786965
 31
0.0
  0
LINE
  5
23196
330
3E7
100
AcDbEntity
  8
OUTLINE
  6
CONTINUOUS
100
AcDbLine
 10
-473.8999785875093
 20
-213.3292931005787
 30
0.0
 11
-473.8999785875093
 21
-213.4000037786965
 31
0.0
  0
LINE
  5
23197
330
3E7
100
AcDbEntity
  8
OUTLINE
  6
CONTINUOUS
100
AcDbLine
 10
-474.6999785875086
 20
-214.2000037786965
 30
0.0
 11
-474.6999785875086
 21
-214.0000037786965
 31
0.0
  0
LINE
  5
23198
330
3E7
100
AcDbEntity
  8
OUTLINE
  6
CONTINUOUS
100
AcDbLine
 10
-474.4999785875079
 20
-214.2000037786965
 30
0.0
 11
-474.6999785875086
 21
-214.2000037786965
 31
0.0
  0
LINE
  5
23199
330
3E7
100
AcDbEntity
  8
OUTLINE
  6
CONTINUOUS
100
AcDbLine
 10
-473.6999785875086
 20
-213.270714456816
 30
0.0
 11
-473.6999785875086
 21
-213.2000037786965
 31
0.0
  0
LINE
  5
2319A
330
3E7
100
AcDbEntity
  8
OUTLINE
  6
CONTINUOUS
100
AcDbLine
 10
-473.6999785875086
 20
-213.2000037786965
 30
0.0
 11
-473.7706892656278
 21
-213.2000037786965
 31
0.0
  0
LINE
  5
2319B
330
3E7
100
AcDbEntity
  8
OUTLINE
  6
CONTINUOUS
100
AcDbLine
 10
-473.8292679093901
 20
-213.4000037786965
 30
0.0
 11
-473.8999785875093
 21
-213.4000037786965
 31
0.0
  0
LINE
  5
2319C
330
3E7
100
AcDbEntity
  8
OUTLINE
  6
CONTINUOUS
100
AcDbLine
 10
-473.8999785875093
 20
-213.3292931005787
 30
0.0
 11
-473.8999785875093
 21
-213.4000037786965
 31
0.0
  0
LINE
  5
2319D
330
3E7
100
AcDbEntity
  8
OUTLINE
  6
CONTINUOUS
100
AcDbLine
 10
-474.6999785875086
 20
-214.2000037786965
 30
0.0
 11
-474.6999785875086
 21
-214.0000037786965
 31
0.0
  0
LINE
  5
2319E
330
3E7
100
AcDbEntity
  8
OUTLINE
  6
CONTINUOUS
100
AcDbLine
 10
-474.4999785875079
 20
-214.2000037786965
 30
0.0
 11
-474.6999785875086
 21
-214.2000037786965
 31
0.0
  0
LINE
  5
2319F
330
3E7
100
AcDbEntity
  8
OUTLINE
  6
CONTINUOUS
100
AcDbLine
 10
-454.6999785875086
 20
-281.4027384181761
 30
0.0
 11
-454.4999785875079
 21
-281.4027384181761
 31
0.0
  0
LINE
  5
231A0
330
3E7
100
AcDbEntity
  8
OUTLINE
  6
CONTINUOUS
100
AcDbLine
 10
-454.6999785875086
 20
-281.4951263714274
 30
0.0
 11
-454.6999785875086
 21
-281.4027384181761
 31
0.0
  0
LINE
  5
231A1
330
3E7
100
AcDbEntity
  8
OUTLINE
  6
CONTINUOUS
100
AcDbLine
 10
-454.6999785875086
 20
-281.4027384181761
 30
0.0
 11
-454.6999785875068
 21
-281.2024424404624
 31
0.0
  0
LINE
  5
231A2
330
3E7
100
AcDbEntity
  8
OUTLINE
  6
CONTINUOUS
100
AcDbLine
 10
-454.6999785875086
 20
-281.8710715905638
 30
0.0
 11
-454.4999785875079
 21
-281.871071590564
 31
0.0
  0
LINE
  5
231A3
330
3E7
100
AcDbEntity
  8
OUTLINE
  6
CONTINUOUS
100
AcDbLine
 10
-454.6999785875068
 20
-281.7882288780893
 30
0.0
 11
-454.6999785875086
 21
-281.4951263714274
 31
0.0
  0
LINE
  5
231A4
330
3E7
100
AcDbEntity
  8
OUTLINE
  6
CONTINUOUS
100
AcDbLine
 10
-454.4999785875079
 20
-281.4951263714274
 30
0.0
 11
-454.6999785875086
 21
-281.4951263714274
 31
0.0
  0
LINE
  5
231A5
330
3E7
100
AcDbEntity
  8
OUTLINE
  6
CONTINUOUS
100
AcDbLine
 10
-454.6999785875086
 20
-281.8710715905638
 30
0.0
 11
-454.6999785875068
 21
-281.7882288780893
 31
0.0
  0
LINE
  5
231A6
330
3E7
100
AcDbEntity
  8
OUTLINE
  6
CONTINUOUS
100
AcDbLine
 10
-454.6999785875068
 20
-282.3438637966996
 30
0.0
 11
-454.6999785875068
 21
-282.2024424404623
 31
0.0
  0
LINE
  5
231A7
330
3E7
100
AcDbEntity
  8
OUTLINE
  6
CONTINUOUS
100
AcDbLine
 10
-454.6999785875068
 20
-282.2024424404623
 30
0.0
 11
-454.6999785875086
 21
-281.8710715905638
 31
0.0
  0
LINE
  5
231A8
330
3E7
100
AcDbEntity
  8
OUTLINE
  6
CONTINUOUS
100
AcDbLine
 10
-470.4999785875079
 20
-215.8000037786964
 30
0.0
 11
-475.4999785875079
 21
-215.8000037786964
 31
0.0
  0
LINE
  5
231A9
330
3E7
100
AcDbEntity
  8
OUTLINE
  6
CONTINUOUS
100
AcDbLine
 10
-475.4999785875079
 20
-215.8000037786964
 30
0.0
 11
-475.4999785875079
 21
-215.0000037786962
 31
0.0
  0
LINE
  5
231AA
330
3E7
100
AcDbEntity
  8
OUTLINE
  6
CONTINUOUS
100
AcDbLine
 10
-455.4999785875079
 20
-215.8000037786964
 30
0.0
 11
-455.4999785875079
 21
-216.0000037786963
 31
0.0
  0
LINE
  5
231AB
330
3E7
100
AcDbEntity
  8
OUTLINE
  6
CONTINUOUS
100
AcDbLine
 10
-470.4999785875079
 20
-215.0000037786962
 30
0.0
 11
-470.4999785875079
 21
-215.8000037786964
 31
0.0
  0
LINE
  5
231AC
330
3E7
100
AcDbEntity
  8
OUTLINE
  6
CONTINUOUS
100
AcDbLine
 10
-454.6999785875068
 20
-216.0000037786965
 30
0.0
 11
-455.4999785875079
 21
-216.0000037786963
 31
0.0
  0
LINE
  5
231AD
330
3E7
100
AcDbEntity
  8
OUTLINE
  6
CONTINUOUS
100
AcDbLine
 10
-467.9999785875097
 20
-215.8000037786964
 30
0.0
 11
-470.4999785875079
 21
-215.8000037786964
 31
0.0
  0
LINE
  5
231AE
330
3E7
100
AcDbEntity
  8
OUTLINE
  6
CONTINUOUS
100
AcDbLine
 10
-454.6999785875068
 20
-215.0000037786962
 30
0.0
 11
-470.4999785875079
 21
-215.0000037786962
 31
0.0
  0
LINE
  5
231AF
330
3E7
100
AcDbEntity
  8
OUTLINE
  6
CONTINUOUS
100
AcDbLine
 10
-470.4999785875079
 20
-215.0000037786962
 30
0.0
 11
-475.4999785875079
 21
-215.0000037786962
 31
0.0
  0
LINE
  5
231B0
330
3E7
100
AcDbEntity
  8
OUTLINE
  6
CONTINUOUS
100
AcDbLine
 10
-455.4999785875079
 20
-281.7882288780893
 30
0.0
 11
-455.4999785875079
 21
-282.2024424404623
 31
0.0
  0
LINE
  5
231B1
330
3E7
100
AcDbEntity
  8
OUTLINE
  6
CONTINUOUS
100
AcDbLine
 10
-455.4999785875079
 20
-216.0000037786963
 30
0.0
 11
-455.4999785875079
 21
-280.402442440461
 31
0.0
  0
LINE
  5
231B2
330
3E7
100
AcDbEntity
  8
OUTLINE
  6
CONTINUOUS
100
AcDbLine
 10
-455.4999785875079
 20
-282.2024424404623
 30
0.0
 11
-455.4999785875079
 21
-282.9095492216488
 31
0.0
  0
LINE
  5
231B3
330
3E7
100
AcDbEntity
  8
OUTLINE
  6
CONTINUOUS
100
AcDbLine
 10
-449.6999785875068
 20
-216.0000037786965
 30
0.0
 11
-444.6999785875068
 21
-221.0000037786965
 31
0.0
  0
LINE
  5
231B4
330
3E7
100
AcDbEntity
  8
OUTLINE
  6
CONTINUOUS
100
AcDbLine
 10
-455.4999785875079
 20
-281.2024424404624
 30
0.0
 11
-455.4999785875079
 21
-281.7882288780893
 31
0.0
  0
LINE
  5
231B5
330
3E7
100
AcDbEntity
  8
OUTLINE
  6
CONTINUOUS
100
AcDbLine
 10
-455.4999785875079
 20
-281.2024424404624
 30
0.0
 11
-454.6999785875068
 21
-281.2024424404624
 31
0.0
  0
LINE
  5
231B6
330
3E7
100
AcDbEntity
  8
OUTLINE
  6
CONTINUOUS
100
AcDbLine
 10
-454.6999785875086
 20
-281.4951263714274
 30
0.0
 11
-454.6999785875086
 21
-281.4027384181761
 31
0.0
  0
LINE
  5
231B7
330
3E7
100
AcDbEntity
  8
OUTLINE
  6
CONTINUOUS
100
AcDbLine
 10
-454.6999785875086
 20
-281.4027384181761
 30
0.0
 11
-454.6999785875068
 21
-281.2024424404624
 31
0.0
  0
LINE
  5
231B8
330
3E7
100
AcDbEntity
  8
OUTLINE
  6
CONTINUOUS
100
AcDbLine
 10
-455.4999785875079
 20
-281.7882288780893
 30
0.0
 11
-454.6999785875068
 21
-281.7882288780893
 31
0.0
  0
LINE
  5
231B9
330
3E7
100
AcDbEntity
  8
OUTLINE
  6
CONTINUOUS
100
AcDbLine
 10
-454.4999785875079
 20
-282.2024424404623
 30
0.0
 11
-454.4999785875079
 21
-281.2024424404624
 31
0.0
  0
LINE
  5
231BA
330
3E7
100
AcDbEntity
  8
OUTLINE
  6
CONTINUOUS
100
AcDbLine
 10
-455.4999785875079
 20
-282.2024424404623
 30
0.0
 11
-454.6999785875068
 21
-282.2024424404623
 31
0.0
  0
LINE
  5
231BB
330
3E7
100
AcDbEntity
  8
OUTLINE
  6
CONTINUOUS
100
AcDbLine
 10
-454.6999785875068
 20
-281.7882288780893
 30
0.0
 11
-454.6999785875086
 21
-281.4951263714274
 31
0.0
  0
LINE
  5
231BC
330
3E7
100
AcDbEntity
  8
OUTLINE
  6
CONTINUOUS
100
AcDbLine
 10
-454.6999785875086
 20
-281.8710715905638
 30
0.0
 11
-454.6999785875068
 21
-281.7882288780893
 31
0.0
  0
LINE
  5
231BD
330
3E7
100
AcDbEntity
  8
OUTLINE
  6
CONTINUOUS
100
AcDbLine
 10
-454.6999785875068
 20
-282.3438637966996
 30
0.0
 11
-454.6999785875068
 21
-282.2024424404623
 31
0.0
  0
LINE
  5
231BE
330
3E7
100
AcDbEntity
  8
OUTLINE
  6
CONTINUOUS
100
AcDbLine
 10
-454.6999785875068
 20
-282.2024424404623
 30
0.0
 11
-454.6999785875086
 21
-281.8710715905638
 31
0.0
  0
LINE
  5
231BF
330
3E7
100
AcDbEntity
  8
OUTLINE
  6
CONTINUOUS
100
AcDbLine
 10
-454.5706892656271
 20
-282.3438637966996
 30
0.0
 11
-454.6999785875068
 21
-282.3438637966996
 31
0.0
  0
LINE
  5
231C0
330
3E7
100
AcDbEntity
  8
OUTLINE
  6
CONTINUOUS
100
AcDbLine
 10
-454.5706892656271
 20
-282.9095492216488
 30
0.0
 11
-454.5706892656271
 21
-282.3438637966996
 31
0.0
  0
LINE
  5
231C1
330
3E7
100
AcDbEntity
  8
OUTLINE
  6
CONTINUOUS
100
AcDbLine
 10
-454.6999785875068
 20
-281.2024424404624
 30
0.0
 11
-454.4999785875079
 21
-281.2024424404624
 31
0.0
  0
LINE
  5
231C2
330
3E7
100
AcDbEntity
  8
OUTLINE
  6
CONTINUOUS
100
AcDbLine
 10
-454.5706892656271
 20
-282.9095492216488
 30
0.0
 11
-455.4999785875079
 21
-282.9095492216488
 31
0.0
  0
LINE
  5
231C3
330
3E7
100
AcDbEntity
  8
OUTLINE
  6
CONTINUOUS
100
AcDbLine
 10
-455.4999785875079
 20
-215.8000037786964
 30
0.0
 11
-455.9999785875097
 21
-215.8000037786964
 31
0.0
  0
LINE
  5
231C4
330
3E7
100
AcDbEntity
  8
OUTLINE
  6
CONTINUOUS
100
AcDbLine
 10
-455.9999785875097
 20
-215.8000037786964
 30
0.0
 11
-460.0195935865086
 21
-215.8000037786964
 31
0.0
  0
LINE
  5
231C5
330
3E7
100
AcDbEntity
  8
OUTLINE
  6
CONTINUOUS
100
AcDbLine
 10
-460.0195935865086
 20
-215.8000037786964
 30
0.0
 11
-462.3194573490454
 21
-215.8000037786964
 31
0.0
  0
LINE
  5
231C6
330
3E7
100
AcDbEntity
  8
OUTLINE
  6
CONTINUOUS
100
AcDbLine
 10
-464.4999785875097
 20
-215.8000037786964
 30
0.0
 11
-467.9999785875097
 21
-215.8000037786964
 31
0.0
  0
LINE
  5
231C7
330
3E7
100
AcDbEntity
  8
OUTLINE
  6
CONTINUOUS
100
AcDbLine
 10
-462.3194573490454
 20
-215.8000037786964
 30
0.0
 11
-464.493448061683
 21
-215.8000037786964
 31
0.0
  0
LINE
  5
231C8
330
3E7
100
AcDbEntity
  8
OUTLINE
  6
CONTINUOUS
100
AcDbLine
 10
-464.493448061683
 20
-215.8000037786964
 30
0.0
 11
-464.4999785875097
 21
-215.8000037786964
 31
0.0
  0
LINE
  5
231C9
330
3E7
100
AcDbEntity
  8
OUTLINE
  6
CONTINUOUS
100
AcDbLine
 10
-449.6999785875068
 20
-216.0000037786965
 30
0.0
 11
-454.6999785875068
 21
-216.0000037786965
 31
0.0
  0
LINE
  5
231CA
330
3E7
100
AcDbEntity
  8
OUTLINE
  6
CONTINUOUS
100
AcDbLine
 10
-454.6999785875068
 20
-216.0000037786965
 30
0.0
 11
-454.6999785875068
 21
-215.0000037786962
 31
0.0
  0
LINE
  5
231CB
330
3E7
100
AcDbEntity
  8
OUTLINE
  6
CONTINUOUS
100
AcDbLine
 10
-454.5706892656271
 20
-282.3438637966996
 30
0.0
 11
-454.4999785875079
 21
-282.3938637966996
 31
0.0
  0
LINE
  5
231CC
330
3E7
100
AcDbEntity
  8
OUTLINE
  6
CONTINUOUS
100
AcDbLine
 10
-454.4999785875079
 20
-282.8595492216488
 30
0.0
 11
-454.4999785875079
 21
-282.2024424404623
 31
0.0
  0
LINE
  5
231CD
330
3E7
100
AcDbEntity
  8
OUTLINE
  6
CONTINUOUS
100
AcDbLine
 10
-447.4706892656268
 20
-287.8300073680737
 30
0.0
 11
-447.4706892656268
 21
-287.9300073680735
 31
0.0
  0
LINE
  5
231CE
330
3E7
100
AcDbEntity
  8
OUTLINE
  6
CONTINUOUS
100
AcDbLine
 10
-444.6999785875068
 20
-287.8592966899548
 30
0.0
 11
-447.4292679093887
 21
-287.8592966899548
 31
0.0
  0
LINE
  5
231CF
330
3E7
100
AcDbEntity
  8
OUTLINE
  6
CONTINUOUS
100
AcDbLine
 10
-447.4706892656268
 20
-287.9300073680735
 30
0.0
 11
-444.6999785875086
 21
-287.9300073680735
 31
0.0
  0
LINE
  5
231D0
330
3E7
100
AcDbEntity
  8
OUTLINE
  6
CONTINUOUS
100
AcDbLine
 10
-444.6999785875068
 20
-282.2024424404623
 30
0.0
 11
-454.4999785875079
 21
-282.2024424404623
 31
0.0
  0
LINE
  5
231D1
330
3E7
100
AcDbEntity
  8
OUTLINE
  6
CONTINUOUS
100
AcDbLine
 10
-447.4292679093887
 20
-287.8592966899548
 30
0.0
 11
-454.4999785875079
 21
-282.8595492216488
 31
0.0
  0
LINE
  5
231D2
330
3E7
100
AcDbEntity
  8
OUTLINE
  6
CONTINUOUS
100
AcDbLine
 10
-454.5706892656271
 20
-282.9095492216488
 30
0.0
 11
-447.4706892656268
 21
-287.9300073680735
 31
0.0
  0
LINE
  5
231D3
330
3E7
100
AcDbEntity
  8
OUTLINE
  6
CONTINUOUS
100
AcDbLine
 10
-444.6999785875086
 20
-287.9300073680735
 30
0.0
 11
-444.6999785875068
 21
-287.8592966899548
 31
0.0
  0
LINE
  5
231D4
330
3E7
100
AcDbEntity
  8
OUTLINE
  6
CONTINUOUS
100
AcDbLine
 10
-444.6999785875068
 20
-287.8592966899548
 30
0.0
 11
-444.6999785875068
 21
-282.2024424404623
 31
0.0
  0
LINE
  5
231D5
330
3E7
100
AcDbEntity
  8
OUTLINE
  6
CONTINUOUS
100
AcDbLine
 10
-444.6999785875068
 20
-281.402442440461
 30
0.0
 11
-444.6999785875068
 21
-221.0000037786965
 31
0.0
  0
LINE
  5
231D6
330
3E7
100
AcDbEntity
  8
OUTLINE
  6
CONTINUOUS
100
AcDbLine
 10
-474.4999785875079
 20
-215.0000037786965
 30
0.0
 11
-475.4999785875079
 21
-215.0000037786965
 31
0.0
  0
LINE
  5
231D7
330
3E7
100
AcDbEntity
  8
OUTLINE
  6
CONTINUOUS
100
AcDbLine
 10
-455.4999785875079
 20
-215.0000037786965
 30
0.0
 11
-474.4999785875079
 21
-215.0000037786965
 31
0.0
  0
LINE
  5
231D8
330
3E7
100
AcDbEntity
  8
OUTLINE
  6
CONTINUOUS
100
AcDbLine
 10
-475.4999785875079
 20
-215.0000037786965
 30
0.0
 11
-475.4999785875079
 21
-214.0000037786965
 31
0.0
  0
LINE
  5
231D9
330
3E7
100
AcDbEntity
  8
OUTLINE
  6
CONTINUOUS
100
AcDbLine
 10
-474.4999785875079
 20
-214.2000037786965
 30
0.0
 11
-474.4999785875079
 21
-214.0707144568152
 31
0.0
  0
LINE
  5
231DA
330
3E7
100
AcDbEntity
  8
OUTLINE
  6
CONTINUOUS
100
AcDbLine
 10
-474.6999785875086
 20
-214.0000037786965
 30
0.0
 11
-474.5706892656271
 21
-214.0000037786965
 31
0.0
  0
LINE
  5
231DB
330
3E7
100
AcDbEntity
  8
OUTLINE
  6
CONTINUOUS
100
AcDbLine
 10
-474.6999785875086
 20
-214.2000037786965
 30
0.0
 11
-474.6999785875086
 21
-214.0000037786965
 31
0.0
  0
LINE
  5
231DC
330
3E7
100
AcDbEntity
  8
OUTLINE
  6
CONTINUOUS
100
AcDbLine
 10
-474.4999785875079
 20
-214.2000037786965
 30
0.0
 11
-474.6999785875086
 21
-214.2000037786965
 31
0.0
  0
LINE
  5
231DD
330
3E7
100
AcDbEntity
  8
OUTLINE
  6
CONTINUOUS
100
AcDbLine
 10
-474.4999785875079
 20
-215.0000037786965
 30
0.0
 11
-474.4999785875079
 21
-214.2000037786965
 31
0.0
  0
LINE
  5
231DE
330
3E7
100
AcDbEntity
  8
OUTLINE
  6
CONTINUOUS
100
AcDbLine
 10
-475.4999785875079
 20
-214.0000037786965
 30
0.0
 11
-474.6999785875086
 21
-214.0000037786965
 31
0.0
  0
LINE
  5
231DF
330
3E7
100
AcDbEntity
  8
OUTLINE
  6
CONTINUOUS
100
AcDbLine
 10
-455.4999785875079
 20
-199.9000037786966
 30
0.0
 11
-460.4706892656268
 21
-199.9000037786966
 31
0.0
  0
LINE
  5
231E0
330
3E7
100
AcDbEntity
  8
OUTLINE
  6
CONTINUOUS
100
AcDbLine
 10
-455.4999785875079
 20
-200.0000037786965
 30
0.0
 11
-460.4292679093905
 21
-200.0000037786965
 31
0.0
  0
LINE
  5
231E1
330
3E7
100
AcDbEntity
  8
OUTLINE
  6
CONTINUOUS
100
AcDbLine
 10
-455.4999785875079
 20
-214.2000037786965
 30
0.0
 11
-455.4999785875079
 21
-215.0000037786965
 31
0.0
  0
LINE
  5
231E2
330
3E7
100
AcDbEntity
  8
OUTLINE
  6
CONTINUOUS
100
AcDbLine
 10
-455.4999785875079
 20
-200.0000037786965
 30
0.0
 11
-455.4999785875079
 21
-214.2000037786965
 31
0.0
  0
LINE
  5
231E3
330
3E7
100
AcDbEntity
  8
OUTLINE
  6
CONTINUOUS
100
AcDbLine
 10
-460.4292679093905
 20
-200.0000037786965
 30
0.0
 11
-474.4999785875079
 21
-214.0707144568152
 31
0.0
  0
LINE
  5
231E4
330
3E7
100
AcDbEntity
  8
OUTLINE
  6
CONTINUOUS
100
AcDbLine
 10
-474.5706892656271
 20
-214.0000037786965
 30
0.0
 11
-460.4706892656268
 21
-199.9000037786966
 31
0.0
  0
LINE
  5
231E5
330
3E7
100
AcDbEntity
  8
OUTLINE
  6
CONTINUOUS
100
AcDbLine
 10
129.500021412492
 20
-282.1095492216477
 30
0.0
 11
129.5000214124938
 21
-364.2928969975109
 31
0.0
  0
LINE
  5
231E6
330
3E7
100
AcDbEntity
  8
OUTLINE
  6
CONTINUOUS
100
AcDbLine
 10
118.7000214124927
 20
-287.1300073680722
 30
0.0
 11
118.7000214124927
 21
-359.2724388510851
 31
0.0
  0
LINE
  5
231E7
330
3E7
100
AcDbEntity
  8
OUTLINE
  6
CONTINUOUS
100
AcDbLine
 10
129.5000214124938
 20
-364.2928969975109
 30
0.0
 11
128.5707320906112
 21
-364.2928969975096
 31
0.0
  0
LINE
  5
231E8
330
3E7
100
AcDbEntity
  8
OUTLINE
  6
CONTINUOUS
100
AcDbLine
 10
129.500021412492
 20
-365.0000037786962
 30
0.0
 11
128.5000214124938
 21
-365.0000037786962
 31
0.0
  0
LINE
  5
231E9
330
3E7
100
AcDbEntity
  8
OUTLINE
  6
CONTINUOUS
100
AcDbLine
 10
129.500021412492
 20
-365.0000037786962
 30
0.0
 11
129.5000214124938
 21
-364.2928969975109
 31
0.0
  0
LINE
  5
231EA
330
3E7
100
AcDbEntity
  8
OUTLINE
  6
CONTINUOUS
100
AcDbLine
 10
118.7000214124927
 20
-365.0000037786962
 30
0.0
 11
128.5000214124938
 21
-365.0000037786962
 31
0.0
  0
LINE
  5
231EB
330
3E7
100
AcDbEntity
  8
OUTLINE
  6
CONTINUOUS
100
AcDbLine
 10
118.7000214124927
 20
-365.0000037786962
 30
0.0
 11
118.7000214124927
 21
-364.2000037786965
 31
0.0
  0
LINE
  5
231EC
330
3E7
100
AcDbEntity
  8
OUTLINE
  6
CONTINUOUS
100
AcDbLine
 10
128.5000214124938
 20
-365.0000037786962
 30
0.0
 11
128.5000214124938
 21
-364.3428969975098
 31
0.0
  0
LINE
  5
231ED
330
3E7
100
AcDbEntity
  8
OUTLINE
  6
CONTINUOUS
100
AcDbLine
 10
118.7000214124927
 20
-359.2724388510851
 30
0.0
 11
121.4707320906127
 21
-359.2724388510851
 31
0.0
  0
LINE
  5
231EE
330
3E7
100
AcDbEntity
  8
OUTLINE
  6
CONTINUOUS
100
AcDbLine
 10
128.5000214124938
 20
-364.2428969975094
 30
0.0
 11
128.5000214124938
 21
-364.3428969975098
 31
0.0
  0
LINE
  5
231EF
330
3E7
100
AcDbEntity
  8
OUTLINE
  6
CONTINUOUS
100
AcDbLine
 10
118.7000214124927
 20
-364.2000037786965
 30
0.0
 11
118.7000214124927
 21
-359.3431495292043
 31
0.0
  0
LINE
  5
231F0
330
3E7
100
AcDbEntity
  8
OUTLINE
  6
CONTINUOUS
100
AcDbLine
 10
121.4293107343746
 20
-359.2724388510851
 30
0.0
 11
121.4293107343746
 21
-359.3431495292038
 31
0.0
  0
LINE
  5
231F1
330
3E7
100
AcDbEntity
  8
OUTLINE
  6
CONTINUOUS
100
AcDbLine
 10
121.4293107343746
 20
-359.3431495292038
 30
0.0
 11
118.7000214124927
 21
-359.3431495292043
 31
0.0
  0
LINE
  5
231F2
330
3E7
100
AcDbEntity
  8
OUTLINE
  6
CONTINUOUS
100
AcDbLine
 10
118.7000214124927
 20
-359.3431495292043
 30
0.0
 11
118.7000214124927
 21
-359.2724388510851
 31
0.0
  0
LINE
  5
231F3
330
3E7
100
AcDbEntity
  8
OUTLINE
  6
CONTINUOUS
100
AcDbLine
 10
128.5000214124938
 20
-364.3428969975098
 30
0.0
 11
121.4293107343746
 21
-359.3431495292038
 31
0.0
  0
LINE
  5
231F4
330
3E7
100
AcDbEntity
  8
OUTLINE
  6
CONTINUOUS
100
AcDbLine
 10
121.4707320906127
 20
-359.2724388510851
 30
0.0
 11
128.5707320906112
 21
-364.2928969975096
 31
0.0
  0
SPLINE
  5
231F5
330
3E7
100
AcDbEntity
  8
OUTLINE
  6
CONTINUOUS
100
AcDbSpline
210
0.0
220
0.0
230
1.0
 70
     8
 71
     3
 72
    11
 73
     7
 74
     5
 42
0.0000000001
 43
0.0000000001
 44
0.00000001
 40
0.0
 40
0.0
 40
0.0
 40
0.0
 40
1.227283460915399
 40
2.343202176583501
 40
3.458776458529033
 40
4.685677922812613
 40
4.685677922812613
 40
4.685677922812613
 40
4.685677922812613
 10
133.6906203357357
 20
-219.9540630541937
 30
0.0
 10
134.0874291227702
 20
-220.0563521182937
 30
0.0
 10
134.8450399329853
 20
-220.251648435669
 30
0.0
 10
136.0002726348322
 20
-220.3397702570708
 30
0.0
 10
137.1553652587618
 20
-220.2515656535009
 30
0.0
 10
137.9127385809062
 20
-220.0563235804818
 30
0.0
 10
138.3094224892556
 20
-219.9540630541971
 30
0.0
 11
133.6906203357357
 21
-219.9540630541937
 31
0.0
 11
134.8879102884784
 21
-220.2237322306327
 31
0.0
 11
136.0003856603052
 21
-220.3113286345267
 31
0.0
 11
137.1125109205295
 21
-220.2236737029743
 31
0.0
 11
138.3094224892556
 21
-219.9540630541971
 31
0.0
  0
LINE
  5
231F6
330
3E7
100
AcDbEntity
  8
OUTLINE
  6
CONTINUOUS
100
AcDbLine
 10
135.6805426509599
 20
-215.8000037786964
 30
0.0
 11
133.5065519383206
 21
-215.8000037786964
 31
0.0
  0
LINE
  5
231F7
330
3E7
100
AcDbEntity
  8
OUTLINE
  6
CONTINUOUS
100
AcDbLine
 10
132.5000214124938
 20
-220.6000037786964
 30
0.0
 11
139.5000214124938
 21
-220.6000037786964
 31
0.0
  0
LINE
  5
231F8
330
3E7
100
AcDbEntity
  8
OUTLINE
  6
CONTINUOUS
100
AcDbLine
 10
131.0000214124938
 20
-216.3000037786964
 30
0.0
 11
141.0000214124938
 21
-216.3000037786964
 31
0.0
  0
LINE
  5
231F9
330
3E7
100
AcDbEntity
  8
OUTLINE
  6
CONTINUOUS
100
AcDbLine
 10
133.6328853088161
 20
-217.1000037786964
 30
0.0
 11
138.3671575161715
 21
-217.1000037786964
 31
0.0
  0
SPLINE
  5
231FA
330
3E7
100
AcDbEntity
  8
OUTLINE
  6
CONTINUOUS
100
AcDbSpline
210
0.0
220
0.0
230
1.0
 70
     8
 71
     3
 72
    11
 73
     7
 74
     5
 42
0.0000000001
 43
0.0000000001
 44
0.00000001
 40
0.0
 40
0.0
 40
0.0
 40
0.0
 40
0.6566299644608744
 40
1.219672913759956
 40
1.782552026510539
 40
2.438985477867449
 40
2.438985477867449
 40
2.438985477867449
 40
2.438985477867449
 10
131.3812192589775
 20
-219.9540630541937
 30
0.0
 10
131.5763018098594
 20
-220.055768933562
 30
0.0
 10
131.9386625301077
 20
-220.2446849205482
 30
0.0
 10
132.536051048044
 20
-220.342112651678
 30
0.0
 10
133.1333481753723
 20
-220.2446029287789
 30
0.0
 10
133.4955981520518
 20
-220.0557399867157
 30
0.0
 10
133.6906203357357
 20
-219.9540630541937
 30
0.0
 11
131.3812192589775
 21
-219.9540630541937
 31
0.0
 11
131.979912343786
 21
-220.22374713419
 31
0.0
 11
132.5361019212614
 21
-220.3113286345267
 31
0.0
 11
133.0921164224491
 21
-220.2236886175469
 31
0.0
 11
133.6906203357357
 21
-219.9540630541937
 31
0.0
  0
SPLINE
  5
231FB
330
3E7
100
AcDbEntity
  8
OUTLINE
  6
CONTINUOUS
100
AcDbSpline
210
0.0
220
0.0
230
1.0
 70
     8
 71
     3
 72
     9
 73
     5
 74
     3
 42
0.0000000001
 43
0.0000000001
 44
0.00000001
 40
0.0
 40
0.0
 40
0.0
 40
0.0
 40
0.0502462890049659
 40
0.1229392340214769
 40
0.1229392340214769
 40
0.1229392340214769
 40
0.1229392340214769
 10
133.6328853088161
 20
-217.1000037786964
 30
0.0
 10
133.6484747001994
 20
-217.1084388903796
 30
0.0
 10
133.6866177598633
 20
-217.1290773671687
 30
0.0
 10
133.6891330658134
 20
-217.173648961366
 30
0.0
 10
133.6906203357357
 20
-217.2000037786965
 30
0.0
 11
133.6328853088161
 21
-217.1000037786964
 31
0.0
 11
133.6737021319095
 21
-217.1293069672972
 31
0.0
 11
133.6906203357357
 21
-217.2000037786965
 31
0.0
  0
SPLINE
  5
231FC
330
3E7
100
AcDbEntity
  8
OUTLINE
  6
CONTINUOUS
100
AcDbSpline
210
0.0
220
0.0
230
1.0
 70
     8
 71
     3
 72
     9
 73
     5
 74
     3
 42
0.0000000001
 43
0.0000000001
 44
0.00000001
 40
0.0
 40
0.0
 40
0.0
 40
0.0
 40
0.0867336635453357
 40
0.1651105799758096
 40
0.1651105799758096
 40
0.1651105799758096
 40
0.1651105799758096
 10
131.2657492051403
 20
-217.1000037786966
 30
0.0
 10
131.2968292591454
 20
-217.1054875022855
 30
0.0
 10
131.355994809647
 20
-217.1159266101324
 30
0.0
 10
131.3730996903835
 20
-217.172939924872
 30
0.0
 10
131.3812192589775
 20
-217.2000037786965
 30
0.0
 11
131.2657492051403
 21
-217.1000037786966
 31
0.0
 11
131.3473828513233
 21
-217.1293069672974
 31
0.0
 11
131.3812192589775
 21
-217.2000037786965
 31
0.0
  0
ARC
  5
231FD
330
3E7
100
AcDbEntity
  8
OUTLINE
  6
CONTINUOUS
100
AcDbCircle
 10
131.1000214124942
 20
-217.0000037786967
 30
0.0
 40
0.1000000000000227
100
AcDbArc
 50
180.0
 51
270.0
  0
LINE
  5
231FE
330
3E7
100
AcDbEntity
  8
OUTLINE
  6
CONTINUOUS
100
AcDbLine
 10
133.5065519383206
 20
-215.8000037786964
 30
0.0
 11
133.5000214124938
 21
-215.8000037786964
 31
0.0
  0
LINE
  5
231FF
330
3E7
100
AcDbEntity
  8
OUTLINE
  6
CONTINUOUS
100
AcDbLine
 10
133.5000214124938
 20
-215.8000037786964
 30
0.0
 11
130.0000214124938
 21
-215.8000037786964
 31
0.0
  0
LINE
  5
23200
330
3E7
100
AcDbEntity
  8
OUTLINE
  6
CONTINUOUS
100
AcDbLine
 10
130.0000214124938
 20
-216.3000037786964
 30
0.0
 11
131.0000214124938
 21
-216.3000037786964
 31
0.0
  0
LINE
  5
23201
330
3E7
100
AcDbEntity
  8
OUTLINE
  6
CONTINUOUS
100
AcDbLine
 10
131.0000214124938
 20
-217.0000037786967
 30
0.0
 11
131.0000214124938
 21
-216.3000037786964
 31
0.0
  0
LINE
  5
23202
330
3E7
100
AcDbEntity
  8
OUTLINE
  6
CONTINUOUS
100
AcDbLine
 10
130.0000214124938
 20
-216.3000037786964
 30
0.0
 11
130.0000214124938
 21
-215.8000037786964
 31
0.0
  0
LINE
  5
23203
330
3E7
100
AcDbEntity
  8
OUTLINE
  6
CONTINUOUS
100
AcDbLine
 10
133.6906203357357
 20
-219.9540630541937
 30
0.0
 11
133.6906203357357
 21
-217.2000037786965
 31
0.0
  0
LINE
  5
23204
330
3E7
100
AcDbEntity
  8
OUTLINE
  6
CONTINUOUS
100
AcDbLine
 10
132.5000214124938
 20
-220.6000037786964
 30
0.0
 11
131.3812192589775
 21
-219.9540630541937
 31
0.0
  0
LINE
  5
23205
330
3E7
100
AcDbEntity
  8
OUTLINE
  6
CONTINUOUS
100
AcDbLine
 10
131.3812192589775
 20
-219.9540630541937
 30
0.0
 11
131.3812192589775
 21
-217.2000037786965
 31
0.0
  0
LINE
  5
23206
330
3E7
100
AcDbEntity
  8
OUTLINE
  6
CONTINUOUS
100
AcDbLine
 10
131.2657492051403
 20
-217.1000037786966
 30
0.0
 11
133.6328853088161
 21
-217.1000037786964
 31
0.0
  0
LINE
  5
23207
330
3E7
100
AcDbEntity
  8
OUTLINE
  6
CONTINUOUS
100
AcDbLine
 10
131.1000214124942
 20
-217.1000037786966
 30
0.0
 11
131.2657492051403
 21
-217.1000037786966
 31
0.0
  0
SPLINE
  5
23208
330
3E7
100
AcDbEntity
  8
OUTLINE
  6
CONTINUOUS
100
AcDbSpline
210
0.0
220
0.0
230
1.0
 70
     8
 71
     3
 72
     9
 73
     5
 74
     3
 42
0.0000000001
 43
0.0000000001
 44
0.00000001
 40
0.0
 40
0.0
 40
0.0
 40
0.0
 40
0.0502462890034882
 40
0.1229392340204226
 40
0.1229392340204226
 40
0.1229392340204226
 40
0.1229392340204226
 10
138.3671575161715
 20
-217.1000037786964
 30
0.0
 10
138.3515681247891
 20
-217.1084388903797
 30
0.0
 10
138.3134250651265
 20
-217.1290773671695
 30
0.0
 10
138.3109097591751
 20
-217.173648961366
 30
0.0
 10
138.309422489252
 20
-217.2000037786965
 30
0.0
 11
138.3671575161715
 21
-217.1000037786964
 31
0.0
 11
138.32634069308
 21
-217.1293069672972
 31
0.0
 11
138.309422489252
 21
-217.2000037786965
 31
0.0
  0
SPLINE
  5
23209
330
3E7
100
AcDbEntity
  8
OUTLINE
  6
CONTINUOUS
100
AcDbSpline
210
0.0
220
0.0
230
1.0
 70
     8
 71
     3
 72
    11
 73
     7
 74
     5
 42
0.0000000001
 43
0.0000000001
 44
0.00000001
 40
0.0
 40
0.0
 40
0.0
 40
0.0
 40
0.6564343421730001
 40
1.219314200653435
 40
1.78235640837583
 40
2.438985477865577
 40
2.438985477865577
 40
2.438985477865577
 40
2.438985477865577
 10
138.3094224892556
 20
-219.9540630541971
 30
0.0
 10
138.5044449465829
 20
-220.0557401179394
 30
0.0
 10
138.8666954261641
 20
-220.2446033009341
 30
0.0
 10
139.4639929693904
 20
-220.3421126520178
 30
0.0
 10
140.0613810728331
 20
-220.2446845478535
 30
0.0
 10
140.423741290068
 20
-220.0557688017331
 30
0.0
 10
140.618823566012
 20
-219.9540630541935
 30
0.0
 11
138.3094224892556
 21
-219.9540630541971
 31
0.0
 11
138.9079272600647
 21
-220.2236888828474
 31
0.0
 11
139.4639425579789
 21
-220.3113286346997
 31
0.0
 11
140.0201313427533
 21
-220.2237468677262
 31
0.0
 11
140.618823566012
 21
-219.9540630541935
 31
0.0
  0
SPLINE
  5
2320A
330
3E7
100
AcDbEntity
  8
OUTLINE
  6
CONTINUOUS
100
AcDbSpline
210
0.0
220
0.0
230
1.0
 70
     8
 71
     3
 72
     9
 73
     5
 74
     3
 42
0.0000000001
 43
0.0000000001
 44
0.00000001
 40
0.0
 40
0.0
 40
0.0
 40
0.0
 40
0.0867336635470477
 40
0.1651105799769414
 40
0.1651105799769414
 40
0.1651105799769414
 40
0.1651105799769414
 10
140.7342936198492
 20
-217.1000037786964
 30
0.0
 10
140.7032135658432
 20
-217.105487502285
 30
0.0
 10
140.6440480153406
 20
-217.1159266101312
 30
0.0
 10
140.6269431346053
 20
-217.172939924872
 30
0.0
 10
140.618823566012
 20
-217.2000037786965
 30
0.0
 11
140.7342936198492
 21
-217.1000037786964
 31
0.0
 11
140.6526599736644
 21
-217.1293069672972
 31
0.0
 11
140.618823566012
 21
-217.2000037786965
 31
0.0
  0
ARC
  5
2320B
330
3E7
100
AcDbEntity
  8
OUTLINE
  6
CONTINUOUS
100
AcDbCircle
 10
140.9000214124935
 20
-217.0000037786965
 30
0.0
 40
0.0999999999999659
100
AcDbArc
 50
269.9999999999478
 51
0.0
  0
LINE
  5
2320C
330
3E7
100
AcDbEntity
  8
OUTLINE
  6
CONTINUOUS
100
AcDbLine
 10
142.0000214124938
 20
-215.8000037786964
 30
0.0
 11
137.980406413495
 21
-215.8000037786964
 31
0.0
  0
LINE
  5
2320D
330
3E7
100
AcDbEntity
  8
OUTLINE
  6
CONTINUOUS
100
AcDbLine
 10
137.980406413495
 20
-215.8000037786964
 30
0.0
 11
135.6805426509599
 21
-215.8000037786964
 31
0.0
  0
LINE
  5
2320E
330
3E7
100
AcDbEntity
  8
OUTLINE
  6
CONTINUOUS
100
AcDbLine
 10
138.3094224892556
 20
-219.9540630541971
 30
0.0
 11
138.309422489252
 21
-217.2000037786965
 31
0.0
  0
LINE
  5
2320F
330
3E7
100
AcDbEntity
  8
OUTLINE
  6
CONTINUOUS
100
AcDbLine
 10
141.0000214124938
 20
-216.3000037786964
 30
0.0
 11
142.0000214124938
 21
-216.3000037786964
 31
0.0
  0
LINE
  5
23210
330
3E7
100
AcDbEntity
  8
OUTLINE
  6
CONTINUOUS
100
AcDbLine
 10
141.0000214124938
 20
-217.0000037786965
 30
0.0
 11
141.0000214124938
 21
-216.3000037786964
 31
0.0
  0
LINE
  5
23211
330
3E7
100
AcDbEntity
  8
OUTLINE
  6
CONTINUOUS
100
AcDbLine
 10
138.3671575161715
 20
-217.1000037786964
 30
0.0
 11
140.7342936198492
 21
-217.1000037786964
 31
0.0
  0
LINE
  5
23212
330
3E7
100
AcDbEntity
  8
OUTLINE
  6
CONTINUOUS
100
AcDbLine
 10
140.7342936198492
 20
-217.1000037786964
 30
0.0
 11
140.9000214124935
 21
-217.1000037786964
 31
0.0
  0
LINE
  5
23213
330
3E7
100
AcDbEntity
  8
OUTLINE
  6
CONTINUOUS
100
AcDbLine
 10
139.5000214124938
 20
-220.6000037786964
 30
0.0
 11
140.618823566012
 21
-219.9540630541935
 31
0.0
  0
LINE
  5
23214
330
3E7
100
AcDbEntity
  8
OUTLINE
  6
CONTINUOUS
100
AcDbLine
 10
142.0000214124938
 20
-216.3000037786964
 30
0.0
 11
142.0000214124938
 21
-215.8000037786964
 31
0.0
  0
LINE
  5
23215
330
3E7
100
AcDbEntity
  8
OUTLINE
  6
CONTINUOUS
100
AcDbLine
 10
140.618823566012
 20
-219.9540630541935
 30
0.0
 11
140.618823566012
 21
-217.2000037786965
 31
0.0
  0
LINE
  5
23216
330
3E7
100
AcDbEntity
  8
OUTLINE
  6
DOT_CENTER
100
AcDbLine
 10
136.0000214124938
 20
-217.0000037786967
 30
0.0
 11
136.0000214124938
 21
-215.8000037786964
 31
0.0
  0
LINE
  5
23217
330
3E7
100
AcDbEntity
  8
OUTLINE
  6
CONTINUOUS
100
AcDbLine
 10
147.9000214124935
 20
-213.4000037786965
 30
0.0
 11
147.8293107343743
 21
-213.4000037786965
 31
0.0
  0
LINE
  5
23218
330
3E7
100
AcDbEntity
  8
OUTLINE
  6
CONTINUOUS
100
AcDbLine
 10
147.9000214124935
 20
-213.3292931005787
 30
0.0
 11
147.9000214124935
 21
-213.4000037786965
 31
0.0
  0
LINE
  5
23219
330
3E7
100
AcDbEntity
  8
OUTLINE
  6
CONTINUOUS
100
AcDbLine
 10
148.7000214124927
 20
-214.0000037786965
 30
0.0
 11
148.7000214124927
 21
-214.2000037786965
 31
0.0
  0
LINE
  5
2321A
330
3E7
100
AcDbEntity
  8
OUTLINE
  6
CONTINUOUS
100
AcDbLine
 10
148.500021412492
 20
-214.2000037786965
 30
0.0
 11
148.7000214124927
 21
-214.2000037786965
 31
0.0
  0
LINE
  5
2321B
330
3E7
100
AcDbEntity
  8
OUTLINE
  6
CONTINUOUS
100
AcDbLine
 10
147.770732090612
 20
-213.2000037786965
 30
0.0
 11
147.7000214124927
 21
-213.2000037786965
 31
0.0
  0
LINE
  5
2321C
330
3E7
100
AcDbEntity
  8
OUTLINE
  6
CONTINUOUS
100
AcDbLine
 10
147.7000214124927
 20
-213.270714456816
 30
0.0
 11
147.7000214124927
 21
-213.2000037786965
 31
0.0
  0
LINE
  5
2321D
330
3E7
100
AcDbEntity
  8
OUTLINE
  6
CONTINUOUS
100
AcDbLine
 10
147.9000214124935
 20
-213.4000037786965
 30
0.0
 11
147.8293107343743
 21
-213.4000037786965
 31
0.0
  0
LINE
  5
2321E
330
3E7
100
AcDbEntity
  8
OUTLINE
  6
CONTINUOUS
100
AcDbLine
 10
147.9000214124935
 20
-213.3292931005787
 30
0.0
 11
147.9000214124935
 21
-213.4000037786965
 31
0.0
  0
LINE
  5
2321F
330
3E7
100
AcDbEntity
  8
OUTLINE
  6
CONTINUOUS
100
AcDbLine
 10
148.7000214124927
 20
-214.0000037786965
 30
0.0
 11
148.7000214124927
 21
-214.2000037786965
 31
0.0
  0
LINE
  5
23220
330
3E7
100
AcDbEntity
  8
OUTLINE
  6
CONTINUOUS
100
AcDbLine
 10
148.500021412492
 20
-214.2000037786965
 30
0.0
 11
148.7000214124927
 21
-214.2000037786965
 31
0.0
  0
LINE
  5
23221
330
3E7
100
AcDbEntity
  8
OUTLINE
  6
CONTINUOUS
100
AcDbLine
 10
147.770732090612
 20
-213.2000037786965
 30
0.0
 11
147.7000214124927
 21
-213.2000037786965
 31
0.0
  0
LINE
  5
23222
330
3E7
100
AcDbEntity
  8
OUTLINE
  6
CONTINUOUS
100
AcDbLine
 10
147.7000214124927
 20
-213.270714456816
 30
0.0
 11
147.7000214124927
 21
-213.2000037786965
 31
0.0
  0
LINE
  5
23223
330
3E7
100
AcDbEntity
  8
OUTLINE
  6
CONTINUOUS
100
AcDbLine
 10
128.5000214124938
 20
-280.602738418175
 30
0.0
 11
128.7000214124927
 21
-280.602738418175
 31
0.0
  0
LINE
  5
23224
330
3E7
100
AcDbEntity
  8
OUTLINE
  6
CONTINUOUS
100
AcDbLine
 10
128.7000214124927
 20
-280.6951263714261
 30
0.0
 11
128.5000214124938
 21
-280.6951263714261
 31
0.0
  0
LINE
  5
23225
330
3E7
100
AcDbEntity
  8
OUTLINE
  6
CONTINUOUS
100
AcDbLine
 10
128.7000214124927
 20
-281.0710715905627
 30
0.0
 11
128.5000214124938
 21
-281.0710715905627
 31
0.0
  0
LINE
  5
23226
330
3E7
100
AcDbEntity
  8
OUTLINE
  6
CONTINUOUS
100
AcDbLine
 10
128.7000214124927
 20
-280.602738418175
 30
0.0
 11
128.7000214124927
 21
-280.6951263714261
 31
0.0
  0
LINE
  5
23227
330
3E7
100
AcDbEntity
  8
OUTLINE
  6
CONTINUOUS
100
AcDbLine
 10
128.7000214124927
 20
-280.402442440461
 30
0.0
 11
128.7000214124927
 21
-280.602738418175
 31
0.0
  0
LINE
  5
23228
330
3E7
100
AcDbEntity
  8
OUTLINE
  6
CONTINUOUS
100
AcDbLine
 10
128.7000214124927
 20
-280.6951263714261
 30
0.0
 11
128.7000214124927
 21
-280.9882288780877
 31
0.0
  0
LINE
  5
23229
330
3E7
100
AcDbEntity
  8
OUTLINE
  6
CONTINUOUS
100
AcDbLine
 10
128.7000214124927
 20
-280.9882288780877
 30
0.0
 11
128.7000214124927
 21
-281.0710715905627
 31
0.0
  0
LINE
  5
2322A
330
3E7
100
AcDbEntity
  8
OUTLINE
  6
CONTINUOUS
100
AcDbLine
 10
128.7000214124927
 20
-281.4024424404619
 30
0.0
 11
128.7000214124927
 21
-281.5438637966985
 31
0.0
  0
LINE
  5
2322B
330
3E7
100
AcDbEntity
  8
OUTLINE
  6
CONTINUOUS
100
AcDbLine
 10
128.7000214124927
 20
-281.0710715905627
 30
0.0
 11
128.7000214124927
 21
-281.4024424404619
 31
0.0
  0
LINE
  5
2322C
330
3E7
100
AcDbEntity
  8
OUTLINE
  6
CONTINUOUS
100
AcDbLine
 10
144.500021412492
 20
-215.8000037786964
 30
0.0
 11
149.500021412492
 21
-215.8000037786964
 31
0.0
  0
LINE
  5
2322D
330
3E7
100
AcDbEntity
  8
OUTLINE
  6
CONTINUOUS
100
AcDbLine
 10
144.500021412492
 20
-215.0000037786965
 30
0.0
 11
149.500021412492
 21
-215.0000037786967
 31
0.0
  0
LINE
  5
2322E
330
3E7
100
AcDbEntity
  8
OUTLINE
  6
CONTINUOUS
100
AcDbLine
 10
149.500021412492
 20
-215.8000037786964
 30
0.0
 11
149.500021412492
 21
-215.0000037786967
 31
0.0
  0
LINE
  5
2322F
330
3E7
100
AcDbEntity
  8
OUTLINE
  6
CONTINUOUS
100
AcDbLine
 10
144.500021412492
 20
-215.0000037786965
 30
0.0
 11
128.7000214124927
 21
-215.0000037786967
 31
0.0
  0
LINE
  5
23230
330
3E7
100
AcDbEntity
  8
OUTLINE
  6
CONTINUOUS
100
AcDbLine
 10
144.500021412492
 20
-215.8000037786964
 30
0.0
 11
142.0000214124938
 21
-215.8000037786964
 31
0.0
  0
LINE
  5
23231
330
3E7
100
AcDbEntity
  8
OUTLINE
  6
CONTINUOUS
100
AcDbLine
 10
135.6805426509581
 20
-215.8000037786964
 30
0.0
 11
133.5065519383206
 21
-215.8000037786964
 31
0.0
  0
LINE
  5
23232
330
3E7
100
AcDbEntity
  8
OUTLINE
  6
CONTINUOUS
100
AcDbLine
 10
137.980406413495
 20
-215.8000037786964
 30
0.0
 11
135.6805426509581
 21
-215.8000037786964
 31
0.0
  0
LINE
  5
23233
330
3E7
100
AcDbEntity
  8
OUTLINE
  6
CONTINUOUS
100
AcDbLine
 10
130.0000214124938
 20
-215.8000037786964
 30
0.0
 11
129.500021412492
 21
-215.8000037786964
 31
0.0
  0
LINE
  5
23234
330
3E7
100
AcDbEntity
  8
OUTLINE
  6
CONTINUOUS
100
AcDbLine
 10
133.5000214124938
 20
-215.8000037786964
 30
0.0
 11
130.0000214124938
 21
-215.8000037786964
 31
0.0
  0
LINE
  5
23235
330
3E7
100
AcDbEntity
  8
OUTLINE
  6
CONTINUOUS
100
AcDbLine
 10
133.5065519383206
 20
-215.8000037786964
 30
0.0
 11
133.5000214124938
 21
-215.8000037786964
 31
0.0
  0
LINE
  5
23236
330
3E7
100
AcDbEntity
  8
OUTLINE
  6
CONTINUOUS
100
AcDbLine
 10
142.0000214124938
 20
-215.8000037786964
 30
0.0
 11
137.980406413495
 21
-215.8000037786964
 31
0.0
  0
LINE
  5
23237
330
3E7
100
AcDbEntity
  8
OUTLINE
  6
CONTINUOUS
100
AcDbLine
 10
144.500021412492
 20
-215.0000037786965
 30
0.0
 11
144.500021412492
 21
-215.8000037786964
 31
0.0
  0
LINE
  5
23238
330
3E7
100
AcDbEntity
  8
OUTLINE
  6
CONTINUOUS
100
AcDbLine
 10
129.5000214124938
 20
-216.0000037786965
 30
0.0
 11
129.500021412492
 21
-215.8000037786964
 31
0.0
  0
LINE
  5
23239
330
3E7
100
AcDbEntity
  8
OUTLINE
  6
CONTINUOUS
100
AcDbLine
 10
129.5000214124938
 20
-216.0000037786965
 30
0.0
 11
128.7000214124927
 21
-216.0000037786967
 31
0.0
  0
LINE
  5
2323A
330
3E7
100
AcDbEntity
  8
OUTLINE
  6
CONTINUOUS
100
AcDbLine
 10
128.7000214124927
 20
-215.0000037786967
 30
0.0
 11
128.7000214124927
 21
-216.0000037786967
 31
0.0
  0
LINE
  5
2323B
330
3E7
100
AcDbEntity
  8
OUTLINE
  6
CONTINUOUS
100
AcDbLine
 10
128.7000214124927
 20
-216.0000037786967
 30
0.0
 11
123.7000214124927
 21
-216.0000037786967
 31
0.0
  0
LINE
  5
2323C
330
3E7
100
AcDbEntity
  8
OUTLINE
  6
CONTINUOUS
100
AcDbLine
 10
128.5000214124938
 20
-280.402442440461
 30
0.0
 11
128.7000214124927
 21
-280.402442440461
 31
0.0
  0
LINE
  5
2323D
330
3E7
100
AcDbEntity
  8
OUTLINE
  6
CONTINUOUS
100
AcDbLine
 10
129.5000214124938
 20
-280.402442440461
 30
0.0
 11
129.5000214124938
 21
-216.0000037786965
 31
0.0
  0
LINE
  5
2323E
330
3E7
100
AcDbEntity
  8
OUTLINE
  6
CONTINUOUS
100
AcDbLine
 10
123.7000214124927
 20
-216.0000037786967
 30
0.0
 11
118.7000214124927
 21
-221.0000037786967
 31
0.0
  0
LINE
  5
2323F
330
3E7
100
AcDbEntity
  8
OUTLINE
  6
CONTINUOUS
100
AcDbLine
 10
129.5000214124938
 20
-280.9882288780879
 30
0.0
 11
128.7000214124927
 21
-280.9882288780877
 31
0.0
  0
LINE
  5
23240
330
3E7
100
AcDbEntity
  8
OUTLINE
  6
CONTINUOUS
100
AcDbLine
 10
129.5000214124938
 20
-281.4024424404619
 30
0.0
 11
128.7000214124927
 21
-281.4024424404619
 31
0.0
  0
LINE
  5
23241
330
3E7
100
AcDbEntity
  8
OUTLINE
  6
CONTINUOUS
100
AcDbLine
 10
128.7000214124927
 20
-280.602738418175
 30
0.0
 11
128.7000214124927
 21
-280.6951263714261
 31
0.0
  0
LINE
  5
23242
330
3E7
100
AcDbEntity
  8
OUTLINE
  6
CONTINUOUS
100
AcDbLine
 10
128.7000214124927
 20
-280.402442440461
 30
0.0
 11
128.7000214124927
 21
-280.602738418175
 31
0.0
  0
LINE
  5
23243
330
3E7
100
AcDbEntity
  8
OUTLINE
  6
CONTINUOUS
100
AcDbLine
 10
128.7000214124927
 20
-280.6951263714261
 30
0.0
 11
128.7000214124927
 21
-280.9882288780877
 31
0.0
  0
LINE
  5
23244
330
3E7
100
AcDbEntity
  8
OUTLINE
  6
CONTINUOUS
100
AcDbLine
 10
128.5707320906112
 20
-281.5438637966985
 30
0.0
 11
128.7000214124927
 21
-281.5438637966985
 31
0.0
  0
LINE
  5
23245
330
3E7
100
AcDbEntity
  8
OUTLINE
  6
CONTINUOUS
100
AcDbLine
 10
128.5707320906112
 20
-281.5438637966985
 30
0.0
 11
128.5000214124938
 21
-281.5938637966985
 31
0.0
  0
LINE
  5
23246
330
3E7
100
AcDbEntity
  8
OUTLINE
  6
CONTINUOUS
100
AcDbLine
 10
129.5000214124938
 20
-280.9882288780879
 30
0.0
 11
129.5000214124938
 21
-280.402442440461
 31
0.0
  0
LINE
  5
23247
330
3E7
100
AcDbEntity
  8
OUTLINE
  6
CONTINUOUS
100
AcDbLine
 10
128.7000214124927
 20
-280.9882288780877
 30
0.0
 11
128.7000214124927
 21
-281.0710715905627
 31
0.0
  0
LINE
  5
23248
330
3E7
100
AcDbEntity
  8
OUTLINE
  6
CONTINUOUS
100
AcDbLine
 10
128.7000214124927
 20
-281.4024424404619
 30
0.0
 11
128.7000214124927
 21
-281.5438637966985
 31
0.0
  0
LINE
  5
23249
330
3E7
100
AcDbEntity
  8
OUTLINE
  6
CONTINUOUS
100
AcDbLine
 10
128.7000214124927
 20
-281.0710715905627
 30
0.0
 11
128.7000214124927
 21
-281.4024424404619
 31
0.0
  0
LINE
  5
2324A
330
3E7
100
AcDbEntity
  8
OUTLINE
  6
CONTINUOUS
100
AcDbLine
 10
128.5707320906112
 20
-282.1095492216477
 30
0.0
 11
128.5707320906112
 21
-281.5438637966985
 31
0.0
  0
LINE
  5
2324B
330
3E7
100
AcDbEntity
  8
OUTLINE
  6
CONTINUOUS
100
AcDbLine
 10
128.5707320906112
 20
-282.1095492216477
 30
0.0
 11
129.500021412492
 21
-282.1095492216477
 31
0.0
  0
LINE
  5
2324C
330
3E7
100
AcDbEntity
  8
OUTLINE
  6
CONTINUOUS
100
AcDbLine
 10
129.5000214124938
 20
-281.4024424404619
 30
0.0
 11
129.5000214124938
 21
-280.9882288780879
 31
0.0
  0
LINE
  5
2324D
330
3E7
100
AcDbEntity
  8
OUTLINE
  6
CONTINUOUS
100
AcDbLine
 10
129.500021412492
 20
-282.1095492216477
 30
0.0
 11
129.5000214124938
 21
-281.4024424404619
 31
0.0
  0
LINE
  5
2324E
330
3E7
100
AcDbEntity
  8
OUTLINE
  6
CONTINUOUS
100
AcDbLine
 10
128.7000214124927
 20
-280.402442440461
 30
0.0
 11
129.5000214124938
 21
-280.402442440461
 31
0.0
  0
LINE
  5
2324F
330
3E7
100
AcDbEntity
  8
OUTLINE
  6
CONTINUOUS
100
AcDbLine
 10
128.5000214124938
 20
-280.402442440461
 30
0.0
 11
128.5000214124938
 21
-281.402442440461
 31
0.0
  0
LINE
  5
23250
330
3E7
100
AcDbEntity
  8
OUTLINE
  6
CONTINUOUS
100
AcDbLine
 10
128.5000214124938
 20
-281.402442440461
 30
0.0
 11
118.7000214124927
 21
-281.4024424404608
 31
0.0
  0
LINE
  5
23251
330
3E7
100
AcDbEntity
  8
OUTLINE
  6
CONTINUOUS
100
AcDbLine
 10
118.7000214124927
 20
-287.0592966899539
 30
0.0
 11
121.4293107343746
 21
-287.0592966899534
 31
0.0
  0
LINE
  5
23252
330
3E7
100
AcDbEntity
  8
OUTLINE
  6
CONTINUOUS
100
AcDbLine
 10
128.5000214124938
 20
-282.0595492216475
 30
0.0
 11
128.5000214124938
 21
-281.402442440461
 31
0.0
  0
LINE
  5
23253
330
3E7
100
AcDbEntity
  8
OUTLINE
  6
CONTINUOUS
100
AcDbLine
 10
121.4707320906127
 20
-287.1300073680722
 30
0.0
 11
118.7000214124927
 21
-287.1300073680722
 31
0.0
  0
LINE
  5
23254
330
3E7
100
AcDbEntity
  8
OUTLINE
  6
CONTINUOUS
100
AcDbLine
 10
121.4707320906127
 20
-287.0300073680723
 30
0.0
 11
121.4707320906127
 21
-287.1300073680722
 31
0.0
  0
LINE
  5
23255
330
3E7
100
AcDbEntity
  8
OUTLINE
  6
CONTINUOUS
100
AcDbLine
 10
121.4293107343746
 20
-287.0592966899534
 30
0.0
 11
128.5000214124938
 21
-282.0595492216475
 31
0.0
  0
LINE
  5
23256
330
3E7
100
AcDbEntity
  8
OUTLINE
  6
CONTINUOUS
100
AcDbLine
 10
128.5707320906112
 20
-282.1095492216477
 30
0.0
 11
121.4707320906127
 21
-287.1300073680722
 31
0.0
  0
LINE
  5
23257
330
3E7
100
AcDbEntity
  8
OUTLINE
  6
CONTINUOUS
100
AcDbLine
 10
118.7000214124927
 20
-287.0592966899539
 30
0.0
 11
118.7000214124927
 21
-287.1300073680722
 31
0.0
  0
LINE
  5
23258
330
3E7
100
AcDbEntity
  8
OUTLINE
  6
CONTINUOUS
100
AcDbLine
 10
118.7000214124927
 20
-281.4024424404608
 30
0.0
 11
118.7000214124927
 21
-287.0592966899539
 31
0.0
  0
LINE
  5
23259
330
3E7
100
AcDbEntity
  8
OUTLINE
  6
CONTINUOUS
100
AcDbLine
 10
118.7000214124927
 20
-221.0000037786967
 30
0.0
 11
118.7000214124927
 21
-281.4024424404608
 31
0.0
  0
LINE
  5
2325A
330
3E7
100
AcDbEntity
  8
OUTLINE
  6
CONTINUOUS
100
AcDbLine
 10
129.500021412492
 20
-200.0000037786965
 30
0.0
 11
129.500021412492
 21
-214.2000037786965
 31
0.0
  0
LINE
  5
2325B
330
3E7
100
AcDbEntity
  8
OUTLINE
  6
CONTINUOUS
100
AcDbLine
 10
148.500021412492
 20
-214.2000037786965
 30
0.0
 11
148.500021412492
 21
-214.0707144568152
 31
0.0
  0
LINE
  5
2325C
330
3E7
100
AcDbEntity
  8
OUTLINE
  6
CONTINUOUS
100
AcDbLine
 10
148.5707320906112
 20
-214.0000037786965
 30
0.0
 11
148.7000214124927
 21
-214.0000037786965
 31
0.0
  0
LINE
  5
2325D
330
3E7
100
AcDbEntity
  8
OUTLINE
  6
CONTINUOUS
100
AcDbLine
 10
129.500021412492
 20
-215.0000037786967
 30
0.0
 11
148.500021412492
 21
-215.0000037786967
 31
0.0
  0
LINE
  5
2325E
330
3E7
100
AcDbEntity
  8
OUTLINE
  6
CONTINUOUS
100
AcDbLine
 10
148.500021412492
 20
-214.2000037786965
 30
0.0
 11
148.500021412492
 21
-215.0000037786967
 31
0.0
  0
LINE
  5
2325F
330
3E7
100
AcDbEntity
  8
OUTLINE
  6
CONTINUOUS
100
AcDbLine
 10
129.500021412492
 20
-214.2000037786965
 30
0.0
 11
129.500021412492
 21
-215.0000037786967
 31
0.0
  0
LINE
  5
23260
330
3E7
100
AcDbEntity
  8
OUTLINE
  6
CONTINUOUS
100
AcDbLine
 10
149.500021412492
 20
-215.0000037786967
 30
0.0
 11
149.500021412492
 21
-214.0000037786967
 31
0.0
  0
LINE
  5
23261
330
3E7
100
AcDbEntity
  8
OUTLINE
  6
CONTINUOUS
100
AcDbLine
 10
149.500021412492
 20
-214.0000037786967
 30
0.0
 11
148.7000214124927
 21
-214.0000037786965
 31
0.0
  0
LINE
  5
23262
330
3E7
100
AcDbEntity
  8
OUTLINE
  6
CONTINUOUS
100
AcDbLine
 10
148.7000214124927
 20
-214.0000037786965
 30
0.0
 11
148.7000214124927
 21
-214.2000037786965
 31
0.0
  0
LINE
  5
23263
330
3E7
100
AcDbEntity
  8
OUTLINE
  6
CONTINUOUS
100
AcDbLine
 10
148.500021412492
 20
-214.2000037786965
 30
0.0
 11
148.7000214124927
 21
-214.2000037786965
 31
0.0
  0
LINE
  5
23264
330
3E7
100
AcDbEntity
  8
OUTLINE
  6
CONTINUOUS
100
AcDbLine
 10
148.500021412492
 20
-215.0000037786967
 30
0.0
 11
149.500021412492
 21
-215.0000037786967
 31
0.0
  0
LINE
  5
23265
330
3E7
100
AcDbEntity
  8
OUTLINE
  6
CONTINUOUS
100
AcDbLine
 10
129.500021412492
 20
-200.0000037786965
 30
0.0
 11
134.4293107343746
 21
-200.0000037786965
 31
0.0
  0
LINE
  5
23266
330
3E7
100
AcDbEntity
  8
OUTLINE
  6
CONTINUOUS
100
AcDbLine
 10
134.4707320906109
 20
-199.9000037786966
 30
0.0
 11
129.500021412492
 21
-199.9000037786966
 31
0.0
  0
LINE
  5
23267
330
3E7
100
AcDbEntity
  8
OUTLINE
  6
CONTINUOUS
100
AcDbLine
 10
134.4707320906109
 20
-199.9000037786966
 30
0.0
 11
148.5707320906112
 21
-214.0000037786965
 31
0.0
  0
LINE
  5
23268
330
3E7
100
AcDbEntity
  8
OUTLINE
  6
CONTINUOUS
100
AcDbLine
 10
134.4293107343746
 20
-200.0000037786965
 30
0.0
 11
148.500021412492
 21
-214.0707144568152
 31
0.0
  0
LINE
  5
23269
330
3E7
100
AcDbEntity
  8
OUTLINE
  6
CONTINUOUS
100
AcDbLine
 10
158.7000214124928
 20
-165.0000037786967
 30
0.0
 11
148.7000214124927
 21
-165.0000037786967
 31
0.0
  0
LINE
  5
2326A
330
3E7
100
AcDbEntity
  8
OUTLINE
  6
CONTINUOUS
100
AcDbLine
 10
158.7000214124928
 20
-165.8000037786966
 30
0.0
 11
149.500021412492
 21
-165.8000037786966
 31
0.0
  0
LINE
  5
2326B
330
3E7
100
AcDbEntity
  8
OUTLINE
  6
CONTINUOUS
100
AcDbLine
 10
134.500021412492
 20
-167.0000037786967
 30
0.0
 11
-460.4999785875079
 21
-167.0000037786967
 31
0.0
  0
LINE
  5
2326C
330
3E7
100
AcDbEntity
  8
OUTLINE
  6
CONTINUOUS
100
AcDbLine
 10
134.500021412492
 20
-167.0000037786967
 30
0.0
 11
-460.4999785875079
 21
-167.0000037786967
 31
0.0
  0
LINE
  5
2326D
330
3E7
100
AcDbEntity
  8
OUTLINE
  6
CONTINUOUS
100
AcDbLine
 10
-473.8999785875093
 20
-167.0000037786969
 30
0.0
 11
-474.6999785875086
 21
-167.0000037786967
 31
0.0
  0
LINE
  5
2326E
330
3E7
100
AcDbEntity
  8
OUTLINE
  6
CONTINUOUS
100
AcDbLine
 10
-460.4999785875079
 20
-167.0000037786967
 30
0.0
 11
-473.8999785875093
 21
-167.0000037786969
 31
0.0
  0
LINE
  5
2326F
330
3E7
100
AcDbEntity
  8
OUTLINE
  6
CONTINUOUS
100
AcDbLine
 10
-473.8999785875093
 20
-167.0000037786969
 30
0.0
 11
-474.6999785875086
 21
-167.0000037786967
 31
0.0
  0
LINE
  5
23270
330
3E7
100
AcDbEntity
  8
OUTLINE
  6
CONTINUOUS
100
AcDbLine
 10
-460.4999785875079
 20
-167.0000037786967
 30
0.0
 11
-473.8999785875093
 21
-167.0000037786969
 31
0.0
  0
LINE
  5
23271
330
3E7
100
AcDbEntity
  8
OUTLINE
  6
CONTINUOUS
100
AcDbLine
 10
-484.6999785875087
 20
-165.0000037786967
 30
0.0
 11
-474.6999785875086
 21
-165.0000037786965
 31
0.0
  0
LINE
  5
23272
330
3E7
100
AcDbEntity
  8
OUTLINE
  6
CONTINUOUS
100
AcDbLine
 10
-474.6999785875086
 20
-167.0000037786967
 30
0.0
 11
-475.4999785875079
 21
-167.0000037786967
 31
0.0
  0
LINE
  5
23273
330
3E7
100
AcDbEntity
  8
OUTLINE
  6
CONTINUOUS
100
AcDbLine
 10
-489.6999785875086
 20
-165.8000037786966
 30
0.0
 11
-484.6999785875087
 21
-165.8000037786966
 31
0.0
  0
LINE
  5
23274
330
3E7
100
AcDbEntity
  8
OUTLINE
  6
CONTINUOUS
100
AcDbLine
 10
-484.6999785875087
 20
-165.0000037786967
 30
0.0
 11
-489.6999785875086
 21
-165.0000037786967
 31
0.0
  0
LINE
  5
23275
330
3E7
100
AcDbEntity
  8
OUTLINE
  6
CONTINUOUS
100
AcDbLine
 10
-473.8999785875093
 20
-167.0000037786969
 30
0.0
 11
-474.6999785875086
 21
-167.0000037786967
 31
0.0
  0
LINE
  5
23276
330
3E7
100
AcDbEntity
  8
OUTLINE
  6
CONTINUOUS
100
AcDbLine
 10
-460.4999785875079
 20
-167.0000037786967
 30
0.0
 11
-473.8999785875093
 21
-167.0000037786969
 31
0.0
  0
LINE
  5
23277
330
3E7
100
AcDbEntity
  8
OUTLINE
  6
CONTINUOUS
100
AcDbLine
 10
-484.6999785875087
 20
-165.8000037786966
 30
0.0
 11
-475.4999785875079
 21
-165.8000037786966
 31
0.0
  0
LINE
  5
23278
330
3E7
100
AcDbEntity
  8
OUTLINE
  6
CONTINUOUS
100
AcDbLine
 10
-474.6999785875086
 20
-167.0000037786967
 30
0.0
 11
-474.6999785875086
 21
-165.0000037786965
 31
0.0
  0
LINE
  5
23279
330
3E7
100
AcDbEntity
  8
OUTLINE
  6
CONTINUOUS
100
AcDbLine
 10
-475.4999785875079
 20
-165.8000037786966
 30
0.0
 11
-475.4999785875079
 21
-167.0000037786967
 31
0.0
  0
LINE
  5
2327A
330
3E7
100
AcDbEntity
  8
OUTLINE
  6
CONTINUOUS
100
AcDbLine
 10
-484.6999785875087
 20
-165.8000037786966
 30
0.0
 11
-484.6999785875087
 21
-165.0000037786967
 31
0.0
  0
LINE
  5
2327B
330
3E7
100
AcDbEntity
  8
OUTLINE
  6
CONTINUOUS
100
AcDbLine
 10
-460.4999785875079
 20
-167.0000037786967
 30
0.0
 11
-455.4999785875079
 21
-172.0000037786967
 31
0.0
  0
LINE
  5
2327C
330
3E7
100
AcDbEntity
  8
OUTLINE
  6
CONTINUOUS
100
AcDbLine
 10
-489.6999785875086
 20
-165.8000037786966
 30
0.0
 11
-489.6999785875086
 21
-165.0000037786967
 31
0.0
  0
LINE
  5
2327D
330
3E7
100
AcDbEntity
  8
OUTLINE
  6
CONTINUOUS
100
AcDbLine
 10
134.500021412492
 20
-167.0000037786967
 30
0.0
 11
147.9000214124935
 21
-167.0000037786969
 31
0.0
  0
LINE
  5
2327E
330
3E7
100
AcDbEntity
  8
OUTLINE
  6
CONTINUOUS
100
AcDbLine
 10
147.9000214124935
 20
-167.0000037786969
 30
0.0
 11
148.7000214124927
 21
-167.0000037786969
 31
0.0
  0
LINE
  5
2327F
330
3E7
100
AcDbEntity
  8
OUTLINE
  6
CONTINUOUS
100
AcDbLine
 10
134.500021412492
 20
-167.0000037786967
 30
0.0
 11
147.9000214124935
 21
-167.0000037786969
 31
0.0
  0
LINE
  5
23280
330
3E7
100
AcDbEntity
  8
OUTLINE
  6
CONTINUOUS
100
AcDbLine
 10
147.9000214124935
 20
-167.0000037786969
 30
0.0
 11
148.7000214124927
 21
-167.0000037786969
 31
0.0
  0
LINE
  5
23281
330
3E7
100
AcDbEntity
  8
OUTLINE
  6
CONTINUOUS
100
AcDbLine
 10
149.500021412492
 20
-167.0000037786969
 30
0.0
 11
148.7000214124927
 21
-167.0000037786969
 31
0.0
  0
LINE
  5
23282
330
3E7
100
AcDbEntity
  8
OUTLINE
  6
CONTINUOUS
100
AcDbLine
 10
149.500021412492
 20
-165.8000037786966
 30
0.0
 11
149.500021412492
 21
-167.0000037786969
 31
0.0
  0
LINE
  5
23283
330
3E7
100
AcDbEntity
  8
OUTLINE
  6
CONTINUOUS
100
AcDbLine
 10
134.500021412492
 20
-167.0000037786967
 30
0.0
 11
147.9000214124935
 21
-167.0000037786969
 31
0.0
  0
LINE
  5
23284
330
3E7
100
AcDbEntity
  8
OUTLINE
  6
CONTINUOUS
100
AcDbLine
 10
147.9000214124935
 20
-167.0000037786969
 30
0.0
 11
148.7000214124927
 21
-167.0000037786969
 31
0.0
  0
LINE
  5
23285
330
3E7
100
AcDbEntity
  8
OUTLINE
  6
CONTINUOUS
100
AcDbLine
 10
148.7000214124927
 20
-167.0000037786969
 30
0.0
 11
148.7000214124927
 21
-165.0000037786967
 31
0.0
  0
LINE
  5
23286
330
3E7
100
AcDbEntity
  8
OUTLINE
  6
CONTINUOUS
100
AcDbLine
 10
134.500021412492
 20
-167.0000037786967
 30
0.0
 11
129.500021412492
 21
-172.0000037786967
 31
0.0
  0
LINE
  5
23287
330
3E7
100
AcDbEntity
  8
OUTLINE
  6
CONTINUOUS
100
AcDbLine
 10
163.7000214124928
 20
-165.8000037786966
 30
0.0
 11
158.7000214124928
 21
-165.8000037786966
 31
0.0
  0
LINE
  5
23288
330
3E7
100
AcDbEntity
  8
OUTLINE
  6
CONTINUOUS
100
AcDbLine
 10
158.7000214124928
 20
-165.0000037786967
 30
0.0
 11
163.7000214124928
 21
-165.0000037786967
 31
0.0
  0
LINE
  5
23289
330
3E7
100
AcDbEntity
  8
OUTLINE
  6
CONTINUOUS
100
AcDbLine
 10
158.7000214124928
 20
-165.8000037786966
 30
0.0
 11
158.7000214124928
 21
-165.0000037786967
 31
0.0
  0
LINE
  5
2328A
330
3E7
100
AcDbEntity
  8
OUTLINE
  6
CONTINUOUS
100
AcDbLine
 10
163.7000214124928
 20
-165.8000037786966
 30
0.0
 11
163.7000214124928
 21
-165.0000037786967
 31
0.0
  0
ENDSEC
  0
SECTION
  2
OBJECTS
  0
DICTIONARY
  5
3D5
330
0
100
AcDbDictionary
  3
ACAD_GROUP
350
3D6
  3
ACAD_LAYOUT
350
3E2
  3
ACAD_MLINESTYLE
350
3DF
  3
ACAD_PLOTSETTINGS
350
3E1
  3
ACAD_PLOTSTYLENAME
350
3D7
  3
ACDBHEADERROUNDTRIPXREC
350
2328F
  0
DICTIONARY
  5
232B2
330
3E7
100
AcDbDictionary
280
     1
  3
ACAD_LAYOUTSELFREF
360
232B3
  0
DICTIONARY
  5
232B0
330
3E3
100
AcDbDictionary
280
     1
  3
ACAD_LAYOUTSELFREF
360
232B1
  0
DICTIONARY
  5
3D6
102
{ACAD_REACTORS
330
3D5
102
}
330
3D5
100
AcDbDictionary
  0
DICTIONARY
  5
3E2
102
{ACAD_REACTORS
330
3D5
102
}
330
3D5
100
AcDbDictionary
  0
DICTIONARY
  5
3DF
102
{ACAD_REACTORS
330
3D5
102
}
330
3D5
100
AcDbDictionary
  3
STANDARD
350
3E0
  0
DICTIONARY
  5
3E1
102
{ACAD_REACTORS
330
3D5
102
}
330
3D5
100
AcDbDictionary
  0
ACDBDICTIONARYWDFLT
  5
3D7
102
{ACAD_REACTORS
330
3D5
102
}
330
3D5
100
AcDbDictionary
281
     1
  3
Normal
350
3D8
100
AcDbDictionaryWithDefault
340
3D8
  0
DICTIONARY
  5
2328F
102
{ACAD_REACTORS
330
3D5
102
}
330
3D5
100
AcDbDictionary
  3
CEPSNTYPE
350
23299
  3
DIMSTYLEDATA
350
2329D
  3
FINGERPRINTGUID
350
2329A
  3
HYPERLINKBASE
350
23292
  3
INSUNITS
350
23298
  3
LAYOUTDICT
350
23294
  3
LWETCUNION
350
23297
  3
PLOTSETDICT
350
23295
  3
PLOTSTYLNAMDICT
350
23296
  3
PSVPSCALE
350
2329C
  3
PUCSBASE
350
232A0
  3
PUCSORGBACK
350
232A6
  3
PUCSORGBOTTOM
350
232A2
  3
PUCSORGFRONT
350
232A5
  3
PUCSORGLEFT
350
232A3
  3
PUCSORGRIGHT
350
232A4
  3
PUCSORGTOP
350
232A1
  3
PUCSORTHOREF
350
2329E
  3
PUCSORTHOVIEW
350
2329F
  3
STYLESHEET
350
23293
  3
TSTACKALIGN
350
23290
  3
TSTACKSIZE
350
23291
  3
UCSBASE
350
232A9
  3
UCSORGBACK
350
232AF
  3
UCSORGBOTTOM
350
232AB
  3
UCSORGFRONT
350
232AE
  3
UCSORGLEFT
350
232AC
  3
UCSORGRIGHT
350
232AD
  3
UCSORGTOP
350
232AA
  3
UCSORTHOREF
350
232A7
  3
UCSORTHOVIEW
350
232A8
  3
VERSIONGUID
350
2329B
  0
XRECORD
  5
232B3
102
{ACAD_REACTORS
330
232B2
102
}
330
232B2
100
AcDbXrecord
340
3E7
  0
XRECORD
  5
232B1
102
{ACAD_REACTORS
330
232B0
102
}
330
232B0
100
AcDbXrecord
340
3E3
  0
MLINESTYLE
  5
3E0
102
{ACAD_REACTORS
330
3DF
102
}
330
3DF
100
AcDbMlineStyle
  2
STANDARD
 70
     0
  3

 62
   256
 51
90.0
 52
90.0
 71
     2
 49
0.5
 62
   256
  6
BYLAYER
 49
-0.5
 62
   256
  6
BYLAYER
  0
ACDBPLACEHOLDER
  5
3D8
102
{ACAD_REACTORS
330
3D7
102
}
330
3D7
100
AcDbPlaceHolder
280
     0
  0
XRECORD
  5
23299
102
{ACAD_REACTORS
330
2328F
102
}
330
2328F
100
AcDbXrecord
 90
        0
  0
XRECORD
  5
2329D
102
{ACAD_REACTORS
330
2328F
102
}
330
2328F
100
AcDbXrecord
1000
DSTYLE
1002
{
1070
   341
340
4A9
1070
   342
340
4A9
1002
}
  0
XRECORD
  5
2329A
102
{ACAD_REACTORS
330
2328F
102
}
330
2328F
100
AcDbXrecord
  1
{D2272796-D80D-4ABD-900F-0E7B08E93DCD}
  0
XRECORD
  5
23292
102
{ACAD_REACTORS
330
2328F
102
}
330
2328F
100
AcDbXrecord
  1

  0
XRECORD
  5
23298
102
{ACAD_REACTORS
330
2328F
102
}
330
2328F
100
AcDbXrecord
 90
        0
  0
XRECORD
  5
23294
102
{ACAD_REACTORS
330
2328F
102
}
330
2328F
100
AcDbXrecord
340
3E2
  0
XRECORD
  5
23297
102
{ACAD_REACTORS
330
2328F
102
}
330
2328F
100
AcDbXrecord
 90
    10781
  0
XRECORD
  5
23295
102
{ACAD_REACTORS
330
2328F
102
}
330
2328F
100
AcDbXrecord
340
3E1
  0
XRECORD
  5
23296
102
{ACAD_REACTORS
330
2328F
102
}
330
2328F
100
AcDbXrecord
340
3D7
  0
XRECORD
  5
2329C
102
{ACAD_REACTORS
330
2328F
102
}
330
2328F
100
AcDbXrecord
 40
0.0
  0
XRECORD
  5
232A0
102
{ACAD_REACTORS
330
2328F
102
}
330
2328F
100
AcDbXrecord
340
0
  0
XRECORD
  5
232A6
102
{ACAD_REACTORS
330
2328F
102
}
330
2328F
100
AcDbXrecord
 10
0.0
 20
0.0
 30
0.0
  0
XRECORD
  5
232A2
102
{ACAD_REACTORS
330
2328F
102
}
330
2328F
100
AcDbXrecord
 10
0.0
 20
0.0
 30
0.0
  0
XRECORD
  5
232A5
102
{ACAD_REACTORS
330
2328F
102
}
330
2328F
100
AcDbXrecord
 10
0.0
 20
0.0
 30
0.0
  0
XRECORD
  5
232A3
102
{ACAD_REACTORS
330
2328F
102
}
330
2328F
100
AcDbXrecord
 10
0.0
 20
0.0
 30
0.0
  0
XRECORD
  5
232A4
102
{ACAD_REACTORS
330
2328F
102
}
330
2328F
100
AcDbXrecord
 10
0.0
 20
0.0
 30
0.0
  0
XRECORD
  5
232A1
102
{ACAD_REACTORS
330
2328F
102
}
330
2328F
100
AcDbXrecord
 10
0.0
 20
0.0
 30
0.0
  0
XRECORD
  5
2329E
102
{ACAD_REACTORS
330
2328F
102
}
330
2328F
100
AcDbXrecord
340
0
  0
XRECORD
  5
2329F
102
{ACAD_REACTORS
330
2328F
102
}
330
2328F
100
AcDbXrecord
 70
     0
  0
XRECORD
  5
23293
102
{ACAD_REACTORS
330
2328F
102
}
330
2328F
100
AcDbXrecord
  1

  0
XRECORD
  5
23290
102
{ACAD_REACTORS
330
2328F
102
}
330
2328F
100
AcDbXrecord
 90
        1
  0
XRECORD
  5
23291
102
{ACAD_REACTORS
330
2328F
102
}
330
2328F
100
AcDbXrecord
 90
       70
  0
XRECORD
  5
232A9
102
{ACAD_REACTORS
330
2328F
102
}
330
2328F
100
AcDbXrecord
340
0
  0
XRECORD
  5
232AF
102
{ACAD_REACTORS
330
2328F
102
}
330
2328F
100
AcDbXrecord
 10
0.0
 20
0.0
 30
0.0
  0
XRECORD
  5
232AB
102
{ACAD_REACTORS
330
2328F
102
}
330
2328F
100
AcDbXrecord
 10
0.0
 20
0.0
 30
0.0
  0
XRECORD
  5
232AE
102
{ACAD_REACTORS
330
2328F
102
}
330
2328F
100
AcDbXrecord
 10
0.0
 20
0.0
 30
0.0
  0
XRECORD
  5
232AC
102
{ACAD_REACTORS
330
2328F
102
}
330
2328F
100
AcDbXrecord
 10
0.0
 20
0.0
 30
0.0
  0
XRECORD
  5
232AD
102
{ACAD_REACTORS
330
2328F
102
}
330
2328F
100
AcDbXrecord
 10
0.0
 20
0.0
 30
0.0
  0
XRECORD
  5
232AA
102
{ACAD_REACTORS
330
2328F
102
}
330
2328F
100
AcDbXrecord
 10
0.0
 20
0.0
 30
0.0
  0
XRECORD
  5
232A7
102
{ACAD_REACTORS
330
2328F
102
}
330
2328F
100
AcDbXrecord
340
0
  0
XRECORD
  5
232A8
102
{ACAD_REACTORS
330
2328F
102
}
330
2328F
100
AcDbXrecord
 70
     0
  0
XRECORD
  5
2329B
102
{ACAD_REACTORS
330
2328F
102
}
330
2328F
100
AcDbXrecord
  1
{EF23680B-DEA1-47E9-9600-9C314403397A}
  0
ENDSEC
  0
EOF
