  0
SECTION
  2
HEADER
  9
$ACADVER
  1
AC1014
  9
$ACADMAINTVER
 70
     9
  9
$DWGCODEPAGE
  3
ANSI_932
  9
$INSBASE
 10
0.0
 20
0.0
 30
0.0
  9
$EXTMIN
 10
-5280.266915432641
 20
-2815.122308696482
 30
0.0
  9
$EXTMAX
 10
5429.925950372057
 20
3902.0983
 30
0.0
  9
$LIMMIN
 10
-5280.26691543264
 20
-2815.122308696482
  9
$LIMMAX
 10
5429.925950372057
 20
3902.0983
  9
$ORTHOMODE
 70
     1
  9
$REGENMODE
 70
     1
  9
$FILLMODE
 70
     1
  9
$QTEXTMODE
 70
     0
  9
$MIRRTEXT
 70
     0
  9
$DRAGMODE
 70
     2
  9
$LTSCALE
 40
20.0
  9
$OSMODE
 70
    39
  9
$ATTMODE
 70
     1
  9
$TEXTSIZE
 40
64.0
  9
$TRACEWID
 40
0.05
  9
$TEXTSTYLE
  7
STANDARD
  9
$CLAYER
  8
SIZE
  9
$CELTYPE
  6
CONTINUOUS
  9
$CECOLOR
 62
   256
  9
$CELTSCALE
 40
1.0
  9
$DELOBJ
 70
     1
  9
$DISPSILH
 70
     0
  9
$DIMSCALE
 40
1.0
  9
$DIMASZ
 40
10.0
  9
$DIMEXO
 40
20.0
  9
$DIMDLI
 40
20.0
  9
$DIMRND
 40
0.0
  9
$DIMDLE
 40
0.0
  9
$DIMEXE
 40
30.0
  9
$DIMTP
 40
0.0
  9
$DIMTM
 40
0.0
  9
$DIMTXT
 40
64.0
  9
$DIMCEN
 40
0.0
  9
$DIMTSZ
 40
0.0
  9
$DIMTOL
 70
     0
  9
$DIMLIM
 70
     0
  9
$DIMTIH
 70
     0
  9
$DIMTOH
 70
     0
  9
$DIMSE1
 70
     0
  9
$DIMSE2
 70
     0
  9
$DIMTAD
 70
     3
  9
$DIMZIN
 70
     8
  9
$DIMBLK
  1
DOTBLANK
  9
$DIMASO
 70
     1
  9
$DIMSHO
 70
     0
  9
$DIMPOST
  1

  9
$DIMAPOST
  1

  9
$DIMALT
 70
     0
  9
$DIMALTD
 70
     2
  9
$DIMALTF
 40
25.4
  9
$DIMLFAC
 40
1.0
  9
$DIMTOFL
 70
     1
  9
$DIMTVP
 40
0.0
  9
$DIMTIX
 70
     1
  9
$DIMSOXD
 70
     0
  9
$DIMSAH
 70
     0
  9
$DIMBLK1
  1

  9
$DIMBLK2
  1

  9
$DIMSTYLE
  2
STANDARD
  9
$DIMCLRD
 70
     0
  9
$DIMCLRE
 70
     0
  9
$DIMCLRT
 70
     0
  9
$DIMTFAC
 40
1.0
  9
$DIMGAP
 40
10.0
  9
$DIMJUST
 70
     0
  9
$DIMSD1
 70
     0
  9
$DIMSD2
 70
     0
  9
$DIMTOLJ
 70
     1
  9
$DIMTZIN
 70
     0
  9
$DIMALTZ
 70
     0
  9
$DIMALTTZ
 70
     0
  9
$DIMFIT
 70
     3
  9
$DIMUPT
 70
     0
  9
$DIMUNIT
 70
     2
  9
$DIMDEC
 70
     0
  9
$DIMTDEC
 70
     0
  9
$DIMALTU
 70
     2
  9
$DIMALTTD
 70
     2
  9
$DIMTXSTY
  7
STANDARD
  9
$DIMAUNIT
 70
     0
  9
$LUNITS
 70
     2
  9
$LUPREC
 70
     4
  9
$SKETCHINC
 40
0.1
  9
$FILLETRAD
 40
2.0
  9
$AUNITS
 70
     1
  9
$AUPREC
 70
     3
  9
$MENU
  1
ACAD
  9
$ELEVATION
 40
0.0
  9
$PELEVATION
 40
0.0
  9
$THICKNESS
 40
0.0
  9
$LIMCHECK
 70
     0
  9
$BLIPMODE
 70
     0
  9
$CHAMFERA
 40
0.0
  9
$CHAMFERB
 40
0.0
  9
$CHAMFERC
 40
0.0
  9
$CHAMFERD
 40
0.0
  9
$SKPOLY
 70
     0
  9
$TDCREATE
 40
2449761.516515995
  9
$TDUPDATE
 40
2455376.594151470
  9
$TDINDWG
 40
3.2793266204
  9
$TDUSRTIMER
 40
3.2793249884
  9
$USRTIMER
 70
     1
  9
$ANGBASE
 50
0.0
  9
$ANGDIR
 70
     0
  9
$PDMODE
 70
     3
  9
$PDSIZE
 40
-2.0
  9
$PLINEWID
 40
0.0
  9
$COORDS
 70
     0
  9
$SPLFRAME
 70
     0
  9
$SPLINETYPE
 70
     6
  9
$SPLINESEGS
 70
     8
  9
$ATTDIA
 70
     0
  9
$ATTREQ
 70
     1
  9
$HANDLING
 70
-16383
  9
$HANDSEED
  5
82F52
  9
$SURFTAB1
 70
     6
  9
$SURFTAB2
 70
     6
  9
$SURFTYPE
 70
     6
  9
$SURFU
 70
     6
  9
$SURFV
 70
     6
  9
$UCSNAME
  2

  9
$UCSORG
 10
0.0
 20
0.0
 30
0.0
  9
$UCSXDIR
 10
1.0
 20
0.0
 30
0.0
  9
$UCSYDIR
 10
0.0
 20
1.0
 30
0.0
  9
$PUCSNAME
  2

  9
$PUCSORG
 10
0.0
 20
0.0
 30
0.0
  9
$PUCSXDIR
 10
1.0
 20
0.0
 30
0.0
  9
$PUCSYDIR
 10
0.0
 20
1.0
 30
0.0
  9
$USERI1
 70
     0
  9
$USERI2
 70
     0
  9
$USERI3
 70
     0
  9
$USERI4
 70
     0
  9
$USERI5
 70
     0
  9
$USERR1
 40
20.0
  9
$USERR2
 40
0.0
  9
$USERR3
 40
0.0
  9
$USERR4
 40
0.0
  9
$USERR5
 40
0.0
  9
$WORLDVIEW
 70
     1
  9
$SHADEDGE
 70
     3
  9
$SHADEDIF
 70
    70
  9
$TILEMODE
 70
     1
  9
$MAXACTVP
 70
    64
  9
$PINSBASE
 10
0.0
 20
0.0
 30
0.0
  9
$PLIMCHECK
 70
     0
  9
$PEXTMIN
 10
1.000000000000000E+20
 20
1.000000000000000E+20
 30
1.000000000000000E+20
  9
$PEXTMAX
 10
-1.000000000000000E+20
 20
-1.000000000000000E+20
 30
-1.000000000000000E+20
  9
$PLIMMIN
 10
0.0
 20
0.0
  9
$PLIMMAX
 10
12.0
 20
9.0
  9
$UNITMODE
 70
     0
  9
$VISRETAIN
 70
     1
  9
$PLINEGEN
 70
     0
  9
$PSLTSCALE
 70
     1
  9
$TREEDEPTH
 70
  3020
  9
$PICKSTYLE
 70
     1
  9
$CMLSTYLE
  2
STANDARD
  9
$CMLJUST
 70
     0
  9
$CMLSCALE
 40
1.0
  9
$PROXYGRAPHICS
 70
     1
  9
$MEASUREMENT
 70
     0
  0
ENDSEC
  0
SECTION
  2
CLASSES
  0
CLASS
  1
ACDBDICTIONARYWDFLT
  2
AcDbDictionaryWithDefault
  3
AutoCAD 2000
 90
        0
280
     0
281
     0
  0
CLASS
  1
ACDBPLACEHOLDER
  2
AcDbPlaceHolder
  3
AutoCAD 2000
 90
        0
280
     0
281
     0
  0
CLASS
  1
LAYOUT
  2
AcDbLayout
  3
AutoCAD 2000
 90
        0
280
     0
281
     0
  0
CLASS
  1
DICTIONARYVAR
  2
AcDbDictionaryVar
  3
AutoCAD 2000
 90
        0
280
     0
281
     0
  0
CLASS
  1
LONG_TRANSACTION
  2
AcDbLongTransaction
  3
AutoCAD 2000
 90
        0
280
     0
281
     0
  0
CLASS
  1
LWPOLYLINE
  2
AcDbPolyline
  3
AutoCAD 2000
 90
        0
280
     0
281
     1
  0
CLASS
  1
HATCH
  2
AcDbHatch
  3
AutoCAD 2000
 90
        0
280
     0
281
     1
  0
CLASS
  1
XRECORD
  2
AcDbXrecord
  3
AutoCAD 2000
 90
        0
280
     0
281
     0
  0
ENDSEC
  0
SECTION
  2
TABLES
  0
TABLE
  2
VPORT
  5
8
330
0
100
AcDbSymbolTable
 70
     5
  0
VPORT
  5
82F2C
330
8
100
AcDbSymbolTableRecord
100
AcDbViewportTableRecord
  2
*ACTIVE
 70
     0
 10
0.0
 20
0.0
 11
1.0
 21
1.0
 12
114.0770893266424
 22
222.9032768387696
 13
0.0
 23
0.0
 14
0.0001
 24
0.0001
 15
1.0
 25
1.0
 16
0.0
 26
0.0
 36
1.0
 17
0.0
 27
0.0
 37
0.0
 40
2516.336690960452
 41
1.23406862745098
 42
50.0
 43
0.0
 44
0.0
 50
0.0
 51
0.0
 71
     0
 72
  1000
 73
     1
 74
     0
 75
     1
 76
     0
 77
     0
 78
     0
  0
ENDTAB
  0
TABLE
  2
LTYPE
  5
5
330
0
100
AcDbSymbolTable
 70
     5
  0
LTYPE
  5
13
330
5
100
AcDbSymbolTableRecord
100
AcDbLinetypeTableRecord
  2
BYBLOCK
 70
     0
  3

 72
    65
 73
     0
 40
0.0
  0
LTYPE
  5
14
330
5
100
AcDbSymbolTableRecord
100
AcDbLinetypeTableRecord
  2
BYLAYER
 70
     0
  3

 72
    65
 73
     0
 40
0.0
  0
LTYPE
  5
15
330
5
100
AcDbSymbolTableRecord
100
AcDbLinetypeTableRecord
  2
CONTINUOUS
 70
     0
  3
実線
 72
    65
 73
     0
 40
0.0
  0
LTYPE
  5
23
330
5
100
AcDbSymbolTableRecord
100
AcDbLinetypeTableRecord
  2
DASHDOT
 70
     0
  3
____ _ ____ _ ____ _ ____ _ ____ _ ____ _ ____
 72
    65
 73
     4
 40
5.5
 49
4.0
 74
     0
 49
-0.6
 74
     0
 49
0.3
 74
     0
 49
-0.6
 74
     0
  0
LTYPE
  5
737
330
5
100
AcDbSymbolTableRecord
100
AcDbLinetypeTableRecord
  2
DOT_CENTER
 70
     0
  3
Dot_Center
 72
    65
 73
     4
 40
14.0
 49
12.0
 74
     0
 49
-1.0
 74
     0
 49
0.0
 74
     0
 49
-1.0
 74
     0
  0
LTYPE
  5
2FE76
330
5
100
AcDbSymbolTableRecord
100
AcDbLinetypeTableRecord
  2
CONTINOUS
 70
     0
  3
Solid line
 72
    65
 73
     0
 40
0.0
  0
LTYPE
  5
5D7D3
330
5
100
AcDbSymbolTableRecord
100
AcDbLinetypeTableRecord
  2
DASHED
 70
     0
  3
Dashed
 72
    65
 73
     2
 40
15.0
 49
7.0
 74
     0
 49
-8.0
 74
     0
  0
ENDTAB
  0
TABLE
  2
LAYER
  5
2
330
0
100
AcDbSymbolTable
 70
    10
  0
LAYER
  5
10
330
2
100
AcDbSymbolTableRecord
100
AcDbLayerTableRecord
  2
0
 70
     0
 62
     7
  6
CONTINUOUS
  0
LAYER
  5
22
330
2
100
AcDbSymbolTableRecord
100
AcDbLayerTableRecord
  2
OUTLINE
 70
     0
 62
     3
  6
CONTINUOUS
  0
LAYER
  5
24
330
2
100
AcDbSymbolTableRecord
100
AcDbLayerTableRecord
  2
DETAIL
 70
     0
 62
     5
  6
CONTINUOUS
  0
LAYER
  5
25
330
2
100
AcDbSymbolTableRecord
100
AcDbLayerTableRecord
  2
BASIS
 70
     0
 62
     6
  6
CONTINUOUS
  0
LAYER
  5
26
330
2
100
AcDbSymbolTableRecord
100
AcDbLayerTableRecord
  2
NOTE
 70
     0
 62
     4
  6
CONTINUOUS
  0
LAYER
  5
27
330
2
100
AcDbSymbolTableRecord
100
AcDbLayerTableRecord
  2
SIZE
 70
     0
 62
    32
  6
CONTINUOUS
  0
LAYER
  5
28
330
2
100
AcDbSymbolTableRecord
100
AcDbLayerTableRecord
  2
ARRANGE
 70
     0
 62
     1
  6
CONTINUOUS
  0
LAYER
  5
29
330
2
100
AcDbSymbolTableRecord
100
AcDbLayerTableRecord
  2
FIX
 70
     0
 62
   241
  6
CONTINUOUS
  0
LAYER
  5
2A
330
2
100
AcDbSymbolTableRecord
100
AcDbLayerTableRecord
  2
ETC
 70
     0
 62
    83
  6
CONTINUOUS
  0
LAYER
  5
2D
330
2
100
AcDbSymbolTableRecord
100
AcDbLayerTableRecord
  2
DEFPOINTS
 70
     0
 62
     7
  6
CONTINUOUS
  0
ENDTAB
  0
TABLE
  2
STYLE
  5
3
330
0
100
AcDbSymbolTable
 70
     2
  0
STYLE
  5
11
330
3
100
AcDbSymbolTableRecord
100
AcDbTextStyleTableRecord
  2
STANDARD
 70
     0
 40
0.0
 41
0.9
 50
0.0
 71
     0
 42
64.0
  3
SIMPLEX
  4
BIGFONT
  0
ENDTAB
  0
TABLE
  2
VIEW
  5
6
330
0
100
AcDbSymbolTable
 70
     1
  0
VIEW
  5
2F
330
6
100
AcDbSymbolTableRecord
100
AcDbViewTableRecord
  2
ALL
 70
     0
 40
4282.62
 10
0.0
 20
41.30990399999999
 41
5940.0
 11
0.0
 21
0.0
 31
1.0
 12
0.0
 22
0.0
 32
0.0
 42
50.0
 43
0.0
 44
0.0
 50
0.0
 71
     0
  0
ENDTAB
  0
TABLE
  2
UCS
  5
7
330
0
100
AcDbSymbolTable
 70
     0
  0
ENDTAB
  0
TABLE
  2
APPID
  5
9
330
0
100
AcDbSymbolTable
 70
     1
  0
APPID
  5
12
330
9
100
AcDbSymbolTableRecord
100
AcDbRegAppTableRecord
  2
ACAD
 70
     0
  0
ENDTAB
  0
TABLE
  2
DIMSTYLE
  5
A
330
0
100
AcDbSymbolTable
 70
     1
  0
DIMSTYLE
105
134
330
A
100
AcDbSymbolTableRecord
100
AcDbDimStyleTableRecord
  2
STANDARD
 70
     0
  3

  4

  5

  6

  7

 40
1.0
 41
0.18
 42
0.0625
 43
0.38
 44
0.18
 45
0.0
 46
0.0
 47
0.0
 48
0.0
140
0.18
141
0.09
142
0.0
143
25.4
144
1.0
145
0.0
146
1.0
147
0.09
 71
     0
 72
     0
 73
     1
 74
     1
 75
     0
 76
     0
 77
     0
 78
     0
170
     0
171
     2
172
     0
173
     0
174
     0
175
     0
176
     0
177
     0
178
     0
270
     2
271
     4
272
     4
273
     2
274
     2
340
11
275
     0
280
     0
281
     0
282
     0
283
     1
284
     0
285
     0
286
     0
287
     3
288
     0
  0
ENDTAB
  0
TABLE
  2
BLOCK_RECORD
  5
1
330
0
100
AcDbSymbolTable
 70
   108
  0
BLOCK_RECORD
  5
1E
102
{ACAD_XDICTIONARY
360
82F50
102
}
330
1
100
AcDbSymbolTableRecord
100
AcDbBlockTableRecord
  2
*MODEL_SPACE
  0
BLOCK_RECORD
  5
1A
102
{ACAD_XDICTIONARY
360
82F4E
102
}
330
1
100
AcDbSymbolTableRecord
100
AcDbBlockTableRecord
  2
*PAPER_SPACE
  0
BLOCK_RECORD
  5
989D
330
1
100
AcDbSymbolTableRecord
100
AcDbBlockTableRecord
  2
_DOTBLANK
  0
ENDTAB
  0
ENDSEC
  0
SECTION
  2
BLOCKS
  0
BLOCK
  5
1F
330
1E
100
AcDbEntity
  8
0
100
AcDbBlockBegin
  2
*MODEL_SPACE
 70
     0
 10
0.0
 20
0.0
 30
0.0
  3
*MODEL_SPACE
  1

  0
ENDBLK
  5
20
330
1E
100
AcDbEntity
  8
0
100
AcDbBlockEnd
  0
BLOCK
  5
1B
330
1A
100
AcDbEntity
 67
     1
  8
0
100
AcDbBlockBegin
  2
*PAPER_SPACE
 70
     0
 10
0.0
 20
0.0
 30
0.0
  3
*PAPER_SPACE
  1

  0
ENDBLK
  5
1C
330
1A
100
AcDbEntity
 67
     1
  8
0
100
AcDbBlockEnd
  0
BLOCK
  5
98A0
330
989D
100
AcDbEntity
  8
0
100
AcDbBlockBegin
  2
_DOTBLANK
 70
     0
 10
0.0
 20
0.0
 30
0.0
  3
_DOTBLANK
  1

  0
CIRCLE
  5
989E
330
989D
100
AcDbEntity
  8
0
  6
BYBLOCK
 62
     0
100
AcDbCircle
 10
0.0
 20
0.0
 30
0.0
 40
0.5
  0
LINE
  5
989F
330
989D
100
AcDbEntity
  8
0
  6
BYBLOCK
 62
     0
100
AcDbLine
 10
-0.5
 20
0.0
 30
0.0
 11
-1.0
 21
0.0
 31
0.0
  0
ENDBLK
  5
98A1
330
989D
100
AcDbEntity
  8
0
100
AcDbBlockEnd
  0
ENDSEC
  0
SECTION
  2
ENTITIES
  0
LINE
  5
7786D
330
1E
100
AcDbEntity
  8
0
  6
CONTINUOUS
100
AcDbLine
 10
410.0
 20
230.0
 30
0.0
 11
410.0
 21
560.0
 31
0.0
  0
LINE
  5
7786E
330
1E
100
AcDbEntity
  8
0
  6
CONTINUOUS
100
AcDbLine
 10
400.0
 20
10.0
 30
0.0
 11
400.0
 21
600.0
 31
0.0
  0
LINE
  5
7786F
330
1E
100
AcDbEntity
  8
0
  6
CONTINUOUS
100
AcDbLine
 10
87.5
 20
80.0
 30
0.0
 11
87.5
 21
540.0
 31
0.0
  0
LINE
  5
77874
330
1E
100
AcDbEntity
  8
0
  6
CONTINUOUS
100
AcDbLine
 10
-400.0
 20
600.0
 30
0.0
 11
-400.0
 21
10.0
 31
0.0
  0
LINE
  5
77885
330
1E
100
AcDbEntity
  8
BASIS
  6
DASHDOT
 62
     6
100
AcDbLine
 10
0.0
 20
-50.95043000000078
 30
0.0
 11
0.0
 21
631.6661999999996
 31
0.0
  0
LINE
  5
77886
330
1E
100
AcDbEntity
  8
0
  6
CONTINUOUS
100
AcDbLine
 10
-312.5
 20
540.0
 30
0.0
 11
-312.5
 21
80.0
 31
0.0
  0
LINE
  5
77887
330
1E
100
AcDbEntity
  8
BASIS
  6
DASHDOT
 62
     6
100
AcDbLine
 10
-112.5
 20
-50.95043000000078
 30
0.0
 11
-112.5
 21
631.6661999999996
 31
0.0
  0
LINE
  5
77888
330
1E
100
AcDbEntity
  8
0
  6
DASHDOT
100
AcDbLine
 10
400.0
 20
10.0
 30
0.0
 11
-400.0
 21
10.0
 31
0.0
  0
LINE
  5
7789D
330
1E
100
AcDbEntity
  8
0
  6
CONTINUOUS
100
AcDbLine
 10
270.0
 20
10.0
 30
0.0
 11
270.0
 21
0.0
 31
0.0
  0
LINE
  5
7789E
330
1E
100
AcDbEntity
  8
BASIS
  6
DASHDOT
 62
     6
100
AcDbLine
 10
250.0
 20
-20.0
 30
0.0
 11
250.0
 21
20.0
 31
0.0
  0
LINE
  5
778A0
330
1E
100
AcDbEntity
  8
0
  6
CONTINUOUS
100
AcDbLine
 10
230.0
 20
10.0
 30
0.0
 11
230.0
 21
0.0
 31
0.0
  0
LINE
  5
778A6
330
1E
100
AcDbEntity
  8
0
  6
CONTINUOUS
100
AcDbLine
 10
-230.0
 20
10.0
 30
0.0
 11
-230.0
 21
0.0
 31
0.0
  0
LINE
  5
778A7
330
1E
100
AcDbEntity
  8
BASIS
  6
DASHDOT
 62
     6
100
AcDbLine
 10
-250.0
 20
-20.0
 30
0.0
 11
-250.0
 21
20.0
 31
0.0
  0
LINE
  5
778A9
330
1E
100
AcDbEntity
  8
0
  6
CONTINUOUS
100
AcDbLine
 10
-270.0
 20
10.0
 30
0.0
 11
-270.0
 21
0.0
 31
0.0
  0
LINE
  5
778B5
330
1E
100
AcDbEntity
  8
0
  6
DASHDOT
100
AcDbLine
 10
-230.0
 20
0.0
 30
0.0
 11
-270.0
 21
0.0
 31
0.0
  0
LINE
  5
778B6
330
1E
100
AcDbEntity
  8
BASIS
  6
DASHDOT
 62
     6
100
AcDbLine
 10
-230.0
 20
0.0
 30
0.0
 11
-270.0
 21
0.0
 31
0.0
  0
LINE
  5
778C8
330
1E
100
AcDbEntity
  8
0
  6
DASHDOT
100
AcDbLine
 10
270.0
 20
0.0
 30
0.0
 11
230.0
 21
0.0
 31
0.0
  0
LINE
  5
778C9
330
1E
100
AcDbEntity
  8
BASIS
  6
DASHDOT
 62
     6
100
AcDbLine
 10
230.0
 20
0.0
 30
0.0
 11
270.0
 21
0.0
 31
0.0
  0
LINE
  5
778CA
330
1E
100
AcDbEntity
  8
0
  6
CONTINUOUS
100
AcDbLine
 10
-312.5
 20
80.0
 30
0.0
 11
87.5
 21
80.0
 31
0.0
  0
LINE
  5
778CB
330
1E
100
AcDbEntity
  8
BASIS
  6
DASHDOT
 62
     6
100
AcDbLine
 10
188.0
 20
310.0
 30
0.0
 11
-420.8408799999997
 21
310.0
 31
0.0
  0
ARC
  5
778F1
330
1E
100
AcDbEntity
  8
0
  6
CONTINUOUS
100
AcDbCircle
 10
449.0
 20
203.104589999999
 30
0.0
 40
20.0
100
AcDbArc
 50
0.0
 51
80.3802720000074
  0
LINE
  5
778F5
330
1E
100
AcDbEntity
  8
0
  6
CONTINUOUS
100
AcDbLine
 10
400.0
 20
158.1749999999992
 30
0.0
 11
450.0
 21
158.1749999999992
 31
0.0
  0
LINE
  5
778F6
330
1E
100
AcDbEntity
  8
0
  6
CONTINUOUS
100
AcDbLine
 10
400.0
 20
151.8250000000007
 30
0.0
 11
450.0
 21
151.8250000000007
 31
0.0
  0
LINE
  5
778FB
330
1E
100
AcDbEntity
  8
0
  6
CONTINUOUS
100
AcDbLine
 10
457.0
 20
85.23999999999977
 30
0.0
 11
457.0
 21
94.76000000000022
 31
0.0
  0
LINE
  5
778FF
330
1E
100
AcDbEntity
  8
0
  6
CONTINUOUS
100
AcDbLine
 10
400.0
 20
30.0
 30
0.0
 11
451.8685800000002
 21
37.51719000000048
 31
0.0
  0
ARC
  5
77900
330
1E
100
AcDbEntity
  8
0
  6
CONTINUOUS
100
AcDbCircle
 10
449.0
 20
57.3104000000003
 30
0.0
 40
20.0
100
AcDbArc
 50
278.2463210000359
 51
0.0
  0
LINE
  5
77901
330
1E
100
AcDbEntity
  8
0
  6
CONTINUOUS
100
AcDbLine
 10
400.0
 20
94.76000000000022
 30
0.0
 11
457.0
 21
94.76000000000022
 31
0.0
  0
LINE
  5
77902
330
1E
100
AcDbEntity
  8
0
  6
CONTINUOUS
100
AcDbLine
 10
400.0
 20
85.23999999999977
 30
0.0
 11
457.0
 21
85.23999999999977
 31
0.0
  0
LINE
  5
77904
330
1E
100
AcDbEntity
  8
0
  6
CONTINUOUS
100
AcDbLine
 10
469.0
 20
57.3104000000003
 30
0.0
 11
469.0
 21
203.104589999999
 31
0.0
  0
LINE
  5
77908
330
1E
100
AcDbEntity
  8
0
  6
CONTINUOUS
100
AcDbLine
 10
410.0
 20
230.0
 30
0.0
 11
452.3421699999999
 21
222.8233600000003
 31
0.0
  0
LINE
  5
7792F
330
1E
100
AcDbEntity
  8
0
  6
CONTINUOUS
100
AcDbLine
 10
400.0
 20
600.0
 30
0.0
 11
-400.0
 21
600.0
 31
0.0
  0
LINE
  5
7793B
330
1E
100
AcDbEntity
  8
0
  6
CONTINUOUS
100
AcDbLine
 10
87.5
 20
540.0
 30
0.0
 11
-312.5
 21
540.0
 31
0.0
  0
LINE
  5
779A7
330
1E
100
AcDbEntity
  8
0
  6
CONTINUOUS
100
AcDbLine
 10
400.0
 20
570.0
 30
0.0
 11
400.0
 21
570.0
 31
0.0
  0
ARC
  5
779A8
330
1E
100
AcDbEntity
  8
0
  6
CONTINUOUS
100
AcDbCircle
 10
400.0
 20
560.0
 30
0.0
 40
10.0
100
AcDbArc
 50
0.0
 51
90.0
  0
TEXT
  5
77B9A
330
1E
100
AcDbEntity
  8
ETC
  6
CONTINUOUS
100
AcDbText
 10
577.6997266583357
 20
757.8816960924141
 30
0.0
 40
64.0
  1
SPAC5262
 41
0.9
100
AcDbText
  0
TEXT
  5
77B9B
330
1E
100
AcDbEntity
  8
ETC
  6
CONTINUOUS
100
AcDbText
 10
589.5224706583348
 20
863.0690845571606
 30
0.0
 40
64.0
  1
PAC別売
 41
0.9
100
AcDbText
  0
POINT
  5
77EF3
330
1E
100
AcDbEntity
  8
ARRANGE
 62
     1
100
AcDbPoint
 10
0.0
 20
0.0
 30
0.0
  0
CIRCLE
  5
77EF4
330
1E
100
AcDbEntity
  8
ARRANGE
  6
CONTINUOUS
 62
     1
100
AcDbCircle
 10
0.0
 20
0.0
 30
0.0
 40
40.0
  0
ARC
  5
7B940
330
1E
100
AcDbEntity
  8
DETAIL
  6
CONTINUOUS
100
AcDbCircle
 10
142.0
 20
126.0
 30
0.0
 40
2.0
100
AcDbArc
 50
270.0
 51
90.0
  0
LINE
  5
7B941
330
1E
100
AcDbEntity
  8
DETAIL
  6
CONTINUOUS
100
AcDbLine
 10
144.0
 20
76.0
 30
0.0
 11
144.0
 21
126.0
 31
0.0
  0
LINE
  5
7B942
330
1E
100
AcDbEntity
  8
BASIS
  6
DASHDOT
100
AcDbLine
 10
146.0
 20
47.49999999999817
 30
0.0
 11
146.0
 21
554.4999999999963
 31
0.0
  0
LINE
  5
7B944
330
1E
100
AcDbEntity
  8
DETAIL
  6
CONTINUOUS
100
AcDbLine
 10
148.0
 20
47.49999999999817
 30
0.0
 11
148.0
 21
554.4999999999963
 31
0.0
  0
ARC
  5
7B945
330
1E
100
AcDbEntity
  8
DETAIL
  6
CONTINUOUS
100
AcDbCircle
 10
-366.0
 20
126.0
 30
0.0
 40
2.0
100
AcDbArc
 50
90.0
 51
270.0
  0
LINE
  5
7B946
330
1E
100
AcDbEntity
  8
DETAIL
  6
CONTINUOUS
100
AcDbLine
 10
-368.0
 20
76.0
 30
0.0
 11
-368.0
 21
126.0
 31
0.0
  0
LINE
  5
7B947
330
1E
100
AcDbEntity
  8
BASIS
  6
DASHDOT
100
AcDbLine
 10
-370.0
 20
47.49999999999817
 30
0.0
 11
-370.0
 21
554.4999999999963
 31
0.0
  0
LINE
  5
7B948
330
1E
100
AcDbEntity
  8
DETAIL
  6
CONTINUOUS
100
AcDbLine
 10
-372.0
 20
47.49999999999817
 30
0.0
 11
-372.0
 21
554.4999999999963
 31
0.0
  0
LINE
  5
7B94A
330
1E
100
AcDbEntity
  8
DETAIL
  6
CONTINUOUS
100
AcDbLine
 10
-335.5000000000018
 20
34.49999999999818
 30
0.0
 11
-335.5000000000018
 21
567.4999999999999
 31
0.0
  0
LINE
  5
7B94B
330
1E
100
AcDbEntity
  8
DETAIL
  6
CONTINUOUS
100
AcDbLine
 10
-339.5000000000018
 20
34.49999999999818
 30
0.0
 11
-339.5000000000018
 21
567.4999999999999
 31
0.0
  0
LINE
  5
7B94D
330
1E
100
AcDbEntity
  8
DETAIL
  6
CONTINUOUS
100
AcDbLine
 10
60.49999999999818
 20
34.5
 30
0.0
 11
60.49999999999818
 21
567.4999999999999
 31
0.0
  0
LINE
  5
7B94E
330
1E
100
AcDbEntity
  8
DETAIL
  6
CONTINUOUS
100
AcDbLine
 10
64.49999999999818
 20
34.49999999999818
 30
0.0
 11
64.49999999999818
 21
567.4999999999999
 31
0.0
  0
LINE
  5
7B950
330
1E
100
AcDbEntity
  8
DETAIL
  6
CONTINUOUS
100
AcDbLine
 10
14.49999999999818
 20
34.49999999999818
 30
0.0
 11
14.49999999999818
 21
567.4999999999999
 31
0.0
  0
LINE
  5
7B951
330
1E
100
AcDbEntity
  8
DETAIL
  6
CONTINUOUS
100
AcDbLine
 10
10.49999999999818
 20
34.49999999999818
 30
0.0
 11
10.49999999999818
 21
567.4999999999999
 31
0.0
  0
LINE
  5
7B953
330
1E
100
AcDbEntity
  8
DETAIL
  6
CONTINUOUS
100
AcDbLine
 10
114.4999999999981
 20
34.49999999999818
 30
0.0
 11
114.4999999999981
 21
567.4999999999999
 31
0.0
  0
LINE
  5
7B954
330
1E
100
AcDbEntity
  8
DETAIL
  6
CONTINUOUS
100
AcDbLine
 10
110.4999999999981
 20
34.49999999999818
 30
0.0
 11
110.4999999999981
 21
567.4999999999999
 31
0.0
  0
LINE
  5
7B956
330
1E
100
AcDbEntity
  8
DETAIL
  6
CONTINUOUS
100
AcDbLine
 10
-35.50000000000181
 20
34.49999999999818
 30
0.0
 11
-35.50000000000181
 21
567.4999999999999
 31
0.0
  0
LINE
  5
7B957
330
1E
100
AcDbEntity
  8
DETAIL
  6
CONTINUOUS
100
AcDbLine
 10
-39.50000000000182
 20
34.49999999999818
 30
0.0
 11
-39.50000000000182
 21
567.4999999999999
 31
0.0
  0
LINE
  5
7B959
330
1E
100
AcDbEntity
  8
DETAIL
  6
CONTINUOUS
100
AcDbLine
 10
-85.50000000000181
 20
34.49999999999818
 30
0.0
 11
-85.50000000000181
 21
567.4999999999999
 31
0.0
  0
LINE
  5
7B95A
330
1E
100
AcDbEntity
  8
DETAIL
  6
CONTINUOUS
100
AcDbLine
 10
-89.50000000000182
 20
34.49999999999818
 30
0.0
 11
-89.50000000000182
 21
567.4999999999999
 31
0.0
  0
LINE
  5
7B95C
330
1E
100
AcDbEntity
  8
DETAIL
  6
CONTINUOUS
100
AcDbLine
 10
-285.5000000000018
 20
567.4999999999999
 30
0.0
 11
-285.5000000000018
 21
34.49999999999818
 31
0.0
  0
LINE
  5
7B95D
330
1E
100
AcDbEntity
  8
DETAIL
  6
CONTINUOUS
100
AcDbLine
 10
-289.5000000000018
 20
567.4999999999999
 30
0.0
 11
-289.5000000000018
 21
34.49999999999818
 31
0.0
  0
LINE
  5
7B95F
330
1E
100
AcDbEntity
  8
DETAIL
  6
CONTINUOUS
100
AcDbLine
 10
-185.5000000000018
 20
34.49999999999818
 30
0.0
 11
-185.5000000000018
 21
567.4999999999999
 31
0.0
  0
LINE
  5
7B960
330
1E
100
AcDbEntity
  8
DETAIL
  6
CONTINUOUS
100
AcDbLine
 10
-189.5000000000018
 20
34.49999999999818
 30
0.0
 11
-189.5000000000018
 21
567.4999999999999
 31
0.0
  0
LINE
  5
7B962
330
1E
100
AcDbEntity
  8
DETAIL
  6
CONTINUOUS
100
AcDbLine
 10
-135.5000000000018
 20
34.49999999999818
 30
0.0
 11
-135.5000000000018
 21
567.4999999999999
 31
0.0
  0
LINE
  5
7B963
330
1E
100
AcDbEntity
  8
DETAIL
  6
CONTINUOUS
100
AcDbLine
 10
-139.5000000000018
 20
34.49999999999818
 30
0.0
 11
-139.5000000000018
 21
567.4999999999999
 31
0.0
  0
LINE
  5
7B965
330
1E
100
AcDbEntity
  8
DETAIL
  6
CONTINUOUS
100
AcDbLine
 10
-235.5000000000018
 20
34.49999999999818
 30
0.0
 11
-235.5000000000018
 21
567.4999999999999
 31
0.0
  0
LINE
  5
7B966
330
1E
100
AcDbEntity
  8
DETAIL
  6
CONTINUOUS
100
AcDbLine
 10
-239.5000000000018
 20
34.49999999999818
 30
0.0
 11
-239.5000000000018
 21
567.4999999999999
 31
0.0
  0
LINE
  5
7B967
330
1E
100
AcDbEntity
  8
DETAIL
  6
CONTINUOUS
100
AcDbLine
 10
-239.5000000000018
 20
124.0
 30
0.0
 11
-285.5000000000018
 21
124.0
 31
0.0
  0
LINE
  5
7B968
330
1E
100
AcDbEntity
  8
DETAIL
  6
CONTINUOUS
100
AcDbLine
 10
-239.5000000000018
 20
78.0
 30
0.0
 11
-285.5000000000018
 21
78.0
 31
0.0
  0
LINE
  5
7B969
330
1E
100
AcDbEntity
  8
DETAIL
  6
CONTINUOUS
100
AcDbLine
 10
-272.4999999999981
 20
32.0
 30
0.0
 11
-280.5000000000018
 21
32.0
 31
0.0
  0
LINE
  5
7B96B
330
1E
100
AcDbEntity
  8
DETAIL
  6
DASHED
100
AcDbLine
 10
-272.4999999999981
 20
32.0
 30
0.0
 11
-280.5000000000018
 21
32.0
 31
0.0
  0
LINE
  5
7B96C
330
1E
100
AcDbEntity
  8
DETAIL
  6
CONTINUOUS
100
AcDbLine
 10
-239.5000000000018
 20
52.49999999999818
 30
0.0
 11
-285.5000000000018
 21
52.49999999999818
 31
0.0
  0
LINE
  5
7B96D
330
1E
100
AcDbEntity
  8
DETAIL
  6
CONTINUOUS
100
AcDbLine
 10
-239.5000000000018
 20
56.49999999999818
 30
0.0
 11
-285.5000000000018
 21
56.49999999999818
 31
0.0
  0
LINE
  5
7B96E
330
1E
100
AcDbEntity
  8
DETAIL
  6
CONTINUOUS
100
AcDbLine
 10
-239.5000000000018
 20
74.0
 30
0.0
 11
-285.5000000000018
 21
74.0
 31
0.0
  0
LINE
  5
7B96F
330
1E
100
AcDbEntity
  8
DETAIL
  6
CONTINUOUS
100
AcDbLine
 10
-280.5000000000018
 20
36.0
 30
0.0
 11
-239.5000000000018
 21
36.0
 31
0.0
  0
LINE
  5
7B970
330
1E
100
AcDbEntity
  8
DETAIL
  6
CONTINUOUS
100
AcDbLine
 10
-272.4999999999981
 20
28.49999999999818
 30
0.0
 11
-283.4999999999981
 21
28.5
 31
0.0
  0
LINE
  5
7B971
330
1E
100
AcDbEntity
  8
BASIS
  6
DASHDOT
100
AcDbLine
 10
-344.5000000000018
 20
34.0
 30
0.0
 11
119.4999999999981
 21
34.0
 31
0.0
  0
LINE
  5
7B974
330
1E
100
AcDbEntity
  8
DETAIL
  6
CONTINUOUS
100
AcDbLine
 10
-289.5000000000018
 20
78.0
 30
0.0
 11
-335.5000000000018
 21
78.0
 31
0.0
  0
LINE
  5
7B975
330
1E
100
AcDbEntity
  8
DETAIL
  6
CONTINUOUS
100
AcDbLine
 10
-289.5000000000018
 20
124.0
 30
0.0
 11
-335.5000000000018
 21
124.0
 31
0.0
  0
LINE
  5
7B976
330
1E
100
AcDbEntity
  8
DETAIL
  6
CONTINUOUS
100
AcDbLine
 10
-289.5000000000018
 20
52.49999999999818
 30
0.0
 11
-335.5000000000018
 21
52.49999999999818
 31
0.0
  0
LINE
  5
7B977
330
1E
100
AcDbEntity
  8
DETAIL
  6
CONTINUOUS
100
AcDbLine
 10
-289.5000000000018
 20
56.49999999999818
 30
0.0
 11
-335.5000000000018
 21
56.49999999999818
 31
0.0
  0
LINE
  5
7B978
330
1E
100
AcDbEntity
  8
DETAIL
  6
CONTINUOUS
100
AcDbLine
 10
-289.5000000000018
 20
74.0
 30
0.0
 11
-335.5000000000018
 21
74.0
 31
0.0
  0
LINE
  5
7B979
330
1E
100
AcDbEntity
  8
DETAIL
  6
CONTINUOUS
100
AcDbLine
 10
-335.5000000000018
 20
32.0
 30
0.0
 11
-289.5000000000018
 21
32.0
 31
0.0
  0
LINE
  5
7B97A
330
1E
100
AcDbEntity
  8
DETAIL
  6
CONTINUOUS
100
AcDbLine
 10
-335.5000000000018
 20
36.0
 30
0.0
 11
-289.5000000000018
 21
36.0
 31
0.0
  0
LINE
  5
7B97B
330
1E
100
AcDbEntity
  8
DETAIL
  6
DASHED
100
AcDbLine
 10
-335.5000000000018
 20
32.0
 30
0.0
 11
-289.5000000000018
 21
32.0
 31
0.0
  0
LINE
  5
7B97C
330
1E
100
AcDbEntity
  8
DETAIL
  6
DASHED
100
AcDbLine
 10
-335.5000000000018
 20
36.0
 30
0.0
 11
-289.5000000000018
 21
36.0
 31
0.0
  0
LINE
  5
7B97D
330
1E
100
AcDbEntity
  8
DETAIL
  6
CONTINUOUS
100
AcDbLine
 10
-335.5000000000018
 20
34.49999999999818
 30
0.0
 11
-335.5000000000018
 21
30.49999999999818
 31
0.0
  0
LINE
  5
7B97E
330
1E
100
AcDbEntity
  8
DETAIL
  6
CONTINUOUS
100
AcDbLine
 10
-339.5000000000018
 20
34.49999999999818
 30
0.0
 11
-339.5000000000018
 21
30.49999999999818
 31
0.0
  0
LINE
  5
7B97F
330
1E
100
AcDbEntity
  8
DETAIL
  6
CONTINUOUS
100
AcDbLine
 10
-344.5000000000018
 20
36.0
 30
0.0
 11
-344.5000000000018
 21
32.0
 31
0.0
  0
LINE
  5
7B980
330
1E
100
AcDbEntity
  8
DETAIL
  6
DASHED
100
AcDbLine
 10
-344.5000000000018
 20
36.0
 30
0.0
 11
-344.5000000000018
 21
32.0
 31
0.0
  0
LINE
  5
7B981
330
1E
100
AcDbEntity
  8
DETAIL
  6
CONTINUOUS
100
AcDbLine
 10
-344.5000000000018
 20
32.0
 30
0.0
 11
-339.5000000000018
 21
32.0
 31
0.0
  0
LINE
  5
7B982
330
1E
100
AcDbEntity
  8
DETAIL
  6
CONTINUOUS
100
AcDbLine
 10
-344.5000000000018
 20
36.0
 30
0.0
 11
-339.5000000000018
 21
36.0
 31
0.0
  0
LINE
  5
7B983
330
1E
100
AcDbEntity
  8
DETAIL
  6
DASHED
100
AcDbLine
 10
-344.5000000000018
 20
32.0
 30
0.0
 11
-339.5000000000018
 21
32.0
 31
0.0
  0
LINE
  5
7B984
330
1E
100
AcDbEntity
  8
DETAIL
  6
DASHED
100
AcDbLine
 10
-344.5000000000018
 20
36.0
 30
0.0
 11
-339.5000000000018
 21
36.0
 31
0.0
  0
ARC
  5
7B985
330
1E
100
AcDbEntity
  8
DETAIL
  6
CONTINUOUS
100
AcDbCircle
 10
-337.5000000000018
 20
30.49999999999818
 30
0.0
 40
2.0
100
AcDbArc
 50
180.0
 51
0.0
  0
LINE
  5
7B986
330
1E
100
AcDbEntity
  8
DETAIL
  6
CONTINUOUS
100
AcDbLine
 10
-362.5000000000018
 20
124.0
 30
0.0
 11
-366.0
 21
124.0
 31
0.0
  0
LINE
  5
7B987
330
1E
100
AcDbEntity
  8
DETAIL
  6
CONTINUOUS
100
AcDbLine
 10
-362.5000000000018
 20
78.0
 30
0.0
 11
-366.0
 21
78.0
 31
0.0
  0
LINE
  5
7B988
330
1E
100
AcDbEntity
  8
DETAIL
  6
CONTINUOUS
100
AcDbLine
 10
-362.5000000000018
 20
56.49999999999818
 30
0.0
 11
-366.0
 21
56.49999999999818
 31
0.0
  0
LINE
  5
7B989
330
1E
100
AcDbEntity
  8
DETAIL
  6
CONTINUOUS
100
AcDbLine
 10
-362.5000000000018
 20
52.49999999999818
 30
0.0
 11
-366.0
 21
52.49999999999818
 31
0.0
  0
ARC
  5
7B98A
330
1E
100
AcDbEntity
  8
DETAIL
  6
CONTINUOUS
100
AcDbCircle
 10
-366.0
 20
54.49999999999818
 30
0.0
 40
2.0
100
AcDbArc
 50
90.0
 51
270.0
  0
LINE
  5
7B98B
330
1E
100
AcDbEntity
  8
DETAIL
  6
CONTINUOUS
100
AcDbLine
 10
-362.5000000000018
 20
74.0
 30
0.0
 11
-366.0
 21
74.0
 31
0.0
  0
LINE
  5
7B98C
330
1E
100
AcDbEntity
  8
DETAIL
  6
CONTINUOUS
100
AcDbLine
 10
-372.0
 20
47.49999999999817
 30
0.0
 11
-368.0
 21
47.49999999999817
 31
0.0
  0
LINE
  5
7B98D
330
1E
100
AcDbEntity
  8
DETAIL
  6
CONTINUOUS
100
AcDbLine
 10
-368.0
 20
47.49999999999817
 30
0.0
 11
-368.0
 21
54.49999999999818
 31
0.0
  0
ARC
  5
7B98E
330
1E
100
AcDbEntity
  8
DETAIL
  6
CONTINUOUS
100
AcDbCircle
 10
-366.0
 20
76.0
 30
0.0
 40
2.0
100
AcDbArc
 50
90.0
 51
270.0
  0
LINE
  5
7B98F
330
1E
100
AcDbEntity
  8
DETAIL
  6
CONTINUOUS
100
AcDbLine
 10
-368.0
 20
54.49999999999818
 30
0.0
 11
-368.0
 21
76.0
 31
0.0
  0
LINE
  5
7B990
330
1E
100
AcDbEntity
  8
DETAIL
  6
CONTINUOUS
100
AcDbLine
 10
-339.5000000000018
 20
52.49999999999818
 30
0.0
 11
-362.5000000000018
 21
52.49999999999818
 31
0.0
  0
LINE
  5
7B991
330
1E
100
AcDbEntity
  8
DETAIL
  6
CONTINUOUS
100
AcDbLine
 10
-339.5000000000018
 20
56.49999999999818
 30
0.0
 11
-362.5000000000018
 21
56.49999999999818
 31
0.0
  0
LINE
  5
7B992
330
1E
100
AcDbEntity
  8
DETAIL
  6
CONTINUOUS
100
AcDbLine
 10
-339.5000000000018
 20
74.0
 30
0.0
 11
-362.5000000000018
 21
74.0
 31
0.0
  0
LINE
  5
7B993
330
1E
100
AcDbEntity
  8
DETAIL
  6
CONTINUOUS
100
AcDbLine
 10
-339.5000000000018
 20
78.0
 30
0.0
 11
-362.5000000000018
 21
78.0
 31
0.0
  0
LINE
  5
7B994
330
1E
100
AcDbEntity
  8
DETAIL
  6
CONTINUOUS
100
AcDbLine
 10
-339.5000000000018
 20
124.0
 30
0.0
 11
-362.5000000000018
 21
124.0
 31
0.0
  0
LINE
  5
7B995
330
1E
100
AcDbEntity
  8
DETAIL
  6
CONTINUOUS
100
AcDbLine
 10
-280.5000000000018
 20
32.0
 30
0.0
 11
-283.4999999999981
 21
32.00000000000182
 31
0.0
  0
LINE
  5
7B996
330
1E
100
AcDbEntity
  8
DETAIL
  6
CONTINUOUS
100
AcDbLine
 10
-283.4999999999981
 20
32.00000000000182
 30
0.0
 11
-285.5000000000018
 21
32.00000000000182
 31
0.0
  0
LINE
  5
7B997
330
1E
100
AcDbEntity
  8
DETAIL
  6
CONTINUOUS
100
AcDbLine
 10
-285.5000000000018
 20
36.0
 30
0.0
 11
-280.5000000000018
 21
36.0
 31
0.0
  0
LINE
  5
7B998
330
1E
100
AcDbEntity
  8
DETAIL
  6
DASHED
100
AcDbLine
 10
-280.5000000000018
 20
32.0
 30
0.0
 11
-283.4999999999981
 21
32.00000000000182
 31
0.0
  0
LINE
  5
7B999
330
1E
100
AcDbEntity
  8
DETAIL
  6
DASHED
100
AcDbLine
 10
-283.4999999999981
 20
32.00000000000182
 30
0.0
 11
-285.5000000000018
 21
32.00000000000182
 31
0.0
  0
LINE
  5
7B99A
330
1E
100
AcDbEntity
  8
DETAIL
  6
CONTINUOUS
100
AcDbLine
 10
-289.5000000000018
 20
34.49999999999818
 30
0.0
 11
-289.5000000000018
 21
30.49999999999818
 31
0.0
  0
LINE
  5
7B99B
330
1E
100
AcDbEntity
  8
DETAIL
  6
CONTINUOUS
100
AcDbLine
 10
-285.5000000000018
 20
34.49999999999818
 30
0.0
 11
-285.5000000000018
 21
30.49999999999818
 31
0.0
  0
LINE
  5
7B99C
330
1E
100
AcDbEntity
  8
DETAIL
  6
DASHED
100
AcDbLine
 10
-280.5000000000018
 20
32.0
 30
0.0
 11
-283.4999999999981
 21
32.00000000000182
 31
0.0
  0
LINE
  5
7B99D
330
1E
100
AcDbEntity
  8
DETAIL
  6
DASHED
100
AcDbLine
 10
-283.4999999999981
 20
32.00000000000182
 30
0.0
 11
-285.5000000000018
 21
32.00000000000182
 31
0.0
  0
LINE
  5
7B99E
330
1E
100
AcDbEntity
  8
DETAIL
  6
DASHED
100
AcDbLine
 10
-285.5000000000018
 20
36.0
 30
0.0
 11
-280.5000000000018
 21
36.0
 31
0.0
  0
LINE
  5
7B99F
330
1E
100
AcDbEntity
  8
DETAIL
  6
CONTINUOUS
100
AcDbLine
 10
-283.4999999999981
 20
28.5
 30
0.0
 11
-287.5000000000018
 21
28.49999999999818
 31
0.0
  0
ARC
  5
7B9A0
330
1E
100
AcDbEntity
  8
DETAIL
  6
CONTINUOUS
100
AcDbCircle
 10
-287.5000000000018
 20
30.49999999999818
 30
0.0
 40
2.0
100
AcDbArc
 50
180.0
 51
270.0
  0
ARC
  5
7B9A1
330
1E
100
AcDbEntity
  8
DETAIL
  6
CONTINUOUS
100
AcDbCircle
 10
-287.5000000000018
 20
30.49999999999818
 30
0.0
 40
2.0
100
AcDbArc
 50
270.0
 51
0.0
  0
LINE
  5
7B9A2
330
1E
100
AcDbEntity
  8
DETAIL
  6
CONTINUOUS
100
AcDbLine
 10
10.49999999999818
 20
78.0
 30
0.0
 11
-35.50000000000181
 21
78.0
 31
0.0
  0
LINE
  5
7B9A3
330
1E
100
AcDbEntity
  8
DETAIL
  6
CONTINUOUS
100
AcDbLine
 10
10.49999999999818
 20
124.0
 30
0.0
 11
-35.50000000000181
 21
124.0
 31
0.0
  0
LINE
  5
7B9A4
330
1E
100
AcDbEntity
  8
DETAIL
  6
CONTINUOUS
100
AcDbLine
 10
10.49999999999818
 20
52.49999999999818
 30
0.0
 11
-35.50000000000181
 21
52.49999999999818
 31
0.0
  0
LINE
  5
7B9A5
330
1E
100
AcDbEntity
  8
DETAIL
  6
CONTINUOUS
100
AcDbLine
 10
10.49999999999818
 20
56.49999999999818
 30
0.0
 11
-35.50000000000181
 21
56.49999999999818
 31
0.0
  0
LINE
  5
7B9A6
330
1E
100
AcDbEntity
  8
DETAIL
  6
CONTINUOUS
100
AcDbLine
 10
10.49999999999818
 20
74.0
 30
0.0
 11
-35.50000000000181
 21
74.0
 31
0.0
  0
LINE
  5
7B9A7
330
1E
100
AcDbEntity
  8
DETAIL
  6
CONTINUOUS
100
AcDbLine
 10
-35.50000000000181
 20
32.0
 30
0.0
 11
10.49999999999818
 21
32.0
 31
0.0
  0
LINE
  5
7B9A8
330
1E
100
AcDbEntity
  8
DETAIL
  6
CONTINUOUS
100
AcDbLine
 10
-35.50000000000181
 20
36.0
 30
0.0
 11
10.49999999999818
 21
36.0
 31
0.0
  0
LINE
  5
7B9A9
330
1E
100
AcDbEntity
  8
DETAIL
  6
DASHED
100
AcDbLine
 10
-35.50000000000181
 20
32.0
 30
0.0
 11
10.49999999999818
 21
32.0
 31
0.0
  0
LINE
  5
7B9AA
330
1E
100
AcDbEntity
  8
DETAIL
  6
DASHED
100
AcDbLine
 10
-35.50000000000181
 20
36.0
 30
0.0
 11
10.49999999999818
 21
36.0
 31
0.0
  0
LINE
  5
7B9AB
330
1E
100
AcDbEntity
  8
DETAIL
  6
CONTINUOUS
100
AcDbLine
 10
-39.50000000000182
 20
124.0
 30
0.0
 11
-85.50000000000181
 21
124.0
 31
0.0
  0
LINE
  5
7B9AC
330
1E
100
AcDbEntity
  8
DETAIL
  6
CONTINUOUS
100
AcDbLine
 10
-39.50000000000182
 20
78.0
 30
0.0
 11
-85.50000000000181
 21
78.0
 31
0.0
  0
LINE
  5
7B9AD
330
1E
100
AcDbEntity
  8
DETAIL
  6
CONTINUOUS
100
AcDbLine
 10
-39.50000000000182
 20
52.49999999999818
 30
0.0
 11
-85.50000000000181
 21
52.49999999999818
 31
0.0
  0
LINE
  5
7B9AE
330
1E
100
AcDbEntity
  8
DETAIL
  6
CONTINUOUS
100
AcDbLine
 10
-39.50000000000182
 20
56.49999999999818
 30
0.0
 11
-85.50000000000181
 21
56.49999999999818
 31
0.0
  0
LINE
  5
7B9AF
330
1E
100
AcDbEntity
  8
DETAIL
  6
CONTINUOUS
100
AcDbLine
 10
-39.50000000000182
 20
74.0
 30
0.0
 11
-85.50000000000181
 21
74.0
 31
0.0
  0
LINE
  5
7B9B0
330
1E
100
AcDbEntity
  8
DETAIL
  6
CONTINUOUS
100
AcDbLine
 10
-85.50000000000181
 20
36.0
 30
0.0
 11
-39.50000000000182
 21
36.0
 31
0.0
  0
LINE
  5
7B9B1
330
1E
100
AcDbEntity
  8
DETAIL
  6
CONTINUOUS
100
AcDbLine
 10
-85.50000000000181
 20
32.0
 30
0.0
 11
-39.50000000000182
 21
32.0
 31
0.0
  0
LINE
  5
7B9B2
330
1E
100
AcDbEntity
  8
DETAIL
  6
DASHED
100
AcDbLine
 10
-85.50000000000181
 20
36.0
 30
0.0
 11
-39.50000000000182
 21
36.0
 31
0.0
  0
LINE
  5
7B9B3
330
1E
100
AcDbEntity
  8
DETAIL
  6
DASHED
100
AcDbLine
 10
-85.50000000000181
 20
32.0
 30
0.0
 11
-39.50000000000182
 21
32.0
 31
0.0
  0
LINE
  5
7B9B4
330
1E
100
AcDbEntity
  8
DETAIL
  6
CONTINUOUS
100
AcDbLine
 10
-85.50000000000181
 20
34.49999999999818
 30
0.0
 11
-85.50000000000181
 21
30.49999999999818
 31
0.0
  0
LINE
  5
7B9B5
330
1E
100
AcDbEntity
  8
DETAIL
  6
CONTINUOUS
100
AcDbLine
 10
-89.50000000000182
 20
34.49999999999818
 30
0.0
 11
-89.50000000000182
 21
30.49999999999818
 31
0.0
  0
ARC
  5
7B9B6
330
1E
100
AcDbEntity
  8
DETAIL
  6
CONTINUOUS
100
AcDbCircle
 10
-87.50000000000182
 20
30.49999999999818
 30
0.0
 40
2.0
100
AcDbArc
 50
180.0
 51
0.0
  0
LINE
  5
7B9B7
330
1E
100
AcDbEntity
  8
DETAIL
  6
CONTINUOUS
100
AcDbLine
 10
-135.5000000000018
 20
34.49999999999818
 30
0.0
 11
-135.5000000000018
 21
30.49999999999818
 31
0.0
  0
LINE
  5
7B9B8
330
1E
100
AcDbEntity
  8
DETAIL
  6
CONTINUOUS
100
AcDbLine
 10
-89.50000000000182
 20
52.49999999999818
 30
0.0
 11
-135.5000000000018
 21
52.49999999999818
 31
0.0
  0
LINE
  5
7B9B9
330
1E
100
AcDbEntity
  8
DETAIL
  6
CONTINUOUS
100
AcDbLine
 10
-89.50000000000182
 20
56.49999999999818
 30
0.0
 11
-135.5000000000018
 21
56.49999999999818
 31
0.0
  0
LINE
  5
7B9BA
330
1E
100
AcDbEntity
  8
DETAIL
  6
CONTINUOUS
100
AcDbLine
 10
-89.50000000000182
 20
74.0
 30
0.0
 11
-135.5000000000018
 21
74.0
 31
0.0
  0
LINE
  5
7B9BB
330
1E
100
AcDbEntity
  8
DETAIL
  6
CONTINUOUS
100
AcDbLine
 10
-89.50000000000182
 20
78.0
 30
0.0
 11
-135.5000000000018
 21
78.0
 31
0.0
  0
LINE
  5
7B9BC
330
1E
100
AcDbEntity
  8
DETAIL
  6
CONTINUOUS
100
AcDbLine
 10
-89.50000000000182
 20
124.0
 30
0.0
 11
-135.5000000000018
 21
124.0
 31
0.0
  0
LINE
  5
7B9BD
330
1E
100
AcDbEntity
  8
DETAIL
  6
CONTINUOUS
100
AcDbLine
 10
-135.5000000000018
 20
32.0
 30
0.0
 11
-89.50000000000182
 21
32.0
 31
0.0
  0
LINE
  5
7B9BE
330
1E
100
AcDbEntity
  8
DETAIL
  6
CONTINUOUS
100
AcDbLine
 10
-135.5000000000018
 20
36.0
 30
0.0
 11
-89.50000000000182
 21
36.0
 31
0.0
  0
LINE
  5
7B9BF
330
1E
100
AcDbEntity
  8
DETAIL
  6
DASHED
100
AcDbLine
 10
-135.5000000000018
 20
32.0
 30
0.0
 11
-89.50000000000182
 21
32.0
 31
0.0
  0
LINE
  5
7B9C0
330
1E
100
AcDbEntity
  8
DETAIL
  6
DASHED
100
AcDbLine
 10
-135.5000000000018
 20
36.0
 30
0.0
 11
-89.50000000000182
 21
36.0
 31
0.0
  0
LINE
  5
7B9C1
330
1E
100
AcDbEntity
  8
DETAIL
  6
CONTINUOUS
100
AcDbLine
 10
-39.50000000000182
 20
34.49999999999818
 30
0.0
 11
-39.50000000000182
 21
30.49999999999818
 31
0.0
  0
LINE
  5
7B9C2
330
1E
100
AcDbEntity
  8
DETAIL
  6
CONTINUOUS
100
AcDbLine
 10
-35.50000000000181
 20
34.49999999999818
 30
0.0
 11
-35.50000000000181
 21
30.49999999999818
 31
0.0
  0
ARC
  5
7B9C3
330
1E
100
AcDbEntity
  8
DETAIL
  6
CONTINUOUS
100
AcDbCircle
 10
-37.50000000000182
 20
30.49999999999818
 30
0.0
 40
2.0
100
AcDbArc
 50
180.0
 51
0.0
  0
LINE
  5
7B9C4
330
1E
100
AcDbEntity
  8
BASIS
  6
DOT_CENTER
100
AcDbLine
 10
-263.9999999999981
 20
58.06390975479553
 30
0.0
 11
-263.9999999999981
 21
38.84999999999854
 31
0.0
  0
LINE
  5
7B9C5
330
1E
100
AcDbEntity
  8
DETAIL
  6
CONTINUOUS
100
AcDbLine
 10
-139.5000000000018
 20
78.0
 30
0.0
 11
-185.5000000000018
 21
78.0
 31
0.0
  0
LINE
  5
7B9C6
330
1E
100
AcDbEntity
  8
DETAIL
  6
CONTINUOUS
100
AcDbLine
 10
-139.5000000000018
 20
124.0
 30
0.0
 11
-185.5000000000018
 21
124.0
 31
0.0
  0
LINE
  5
7B9C7
330
1E
100
AcDbEntity
  8
DETAIL
  6
CONTINUOUS
100
AcDbLine
 10
-189.5000000000018
 20
78.0
 30
0.0
 11
-235.5000000000018
 21
78.0
 31
0.0
  0
LINE
  5
7B9C8
330
1E
100
AcDbEntity
  8
DETAIL
  6
CONTINUOUS
100
AcDbLine
 10
-189.5000000000018
 20
124.0
 30
0.0
 11
-235.5000000000018
 21
124.0
 31
0.0
  0
LINE
  5
7B9C9
330
1E
100
AcDbEntity
  8
DETAIL
  6
CONTINUOUS
100
AcDbLine
 10
-139.5000000000018
 20
34.49999999999818
 30
0.0
 11
-139.5000000000018
 21
30.49999999999818
 31
0.0
  0
LINE
  5
7B9CA
330
1E
100
AcDbEntity
  8
DETAIL
  6
CONTINUOUS
100
AcDbLine
 10
-194.4999999999981
 20
32.0
 30
0.0
 11
-189.5000000000018
 21
32.0
 31
0.0
  0
LINE
  5
7B9CB
330
1E
100
AcDbEntity
  8
DETAIL
  6
CONTINUOUS
100
AcDbLine
 10
-194.4999999999981
 20
36.0
 30
0.0
 11
-189.5000000000018
 21
36.0
 31
0.0
  0
LINE
  5
7B9CC
330
1E
100
AcDbEntity
  8
DETAIL
  6
DASHED
100
AcDbLine
 10
-194.4999999999981
 20
32.0
 30
0.0
 11
-189.5000000000018
 21
32.0
 31
0.0
  0
LINE
  5
7B9CD
330
1E
100
AcDbEntity
  8
DETAIL
  6
DASHED
100
AcDbLine
 10
-194.4999999999981
 20
36.0
 30
0.0
 11
-189.5000000000018
 21
36.0
 31
0.0
  0
LINE
  5
7B9CE
330
1E
100
AcDbEntity
  8
DETAIL
  6
CONTINUOUS
100
AcDbLine
 10
-185.5000000000018
 20
34.49999999999818
 30
0.0
 11
-185.5000000000018
 21
30.49999999999818
 31
0.0
  0
LINE
  5
7B9CF
330
1E
100
AcDbEntity
  8
DETAIL
  6
CONTINUOUS
100
AcDbLine
 10
-189.5000000000018
 20
34.49999999999818
 30
0.0
 11
-189.5000000000018
 21
30.49999999999818
 31
0.0
  0
ARC
  5
7B9D0
330
1E
100
AcDbEntity
  8
DETAIL
  6
CONTINUOUS
100
AcDbCircle
 10
-187.5000000000018
 20
30.49999999999818
 30
0.0
 40
2.0
100
AcDbArc
 50
180.0
 51
0.0
  0
LINE
  5
7B9D1
330
1E
100
AcDbEntity
  8
DETAIL
  6
CONTINUOUS
100
AcDbLine
 10
-139.5000000000018
 20
52.49999999999818
 30
0.0
 11
-185.5000000000018
 21
52.49999999999818
 31
0.0
  0
LINE
  5
7B9D2
330
1E
100
AcDbEntity
  8
DETAIL
  6
CONTINUOUS
100
AcDbLine
 10
-139.5000000000018
 20
56.49999999999818
 30
0.0
 11
-185.5000000000018
 21
56.49999999999818
 31
0.0
  0
LINE
  5
7B9D3
330
1E
100
AcDbEntity
  8
DETAIL
  6
CONTINUOUS
100
AcDbLine
 10
-139.5000000000018
 20
74.0
 30
0.0
 11
-185.5000000000018
 21
74.0
 31
0.0
  0
LINE
  5
7B9D4
330
1E
100
AcDbEntity
  8
DETAIL
  6
CONTINUOUS
100
AcDbLine
 10
-185.5000000000018
 20
32.0
 30
0.0
 11
-139.5000000000018
 21
32.0
 31
0.0
  0
LINE
  5
7B9D5
330
1E
100
AcDbEntity
  8
DETAIL
  6
CONTINUOUS
100
AcDbLine
 10
-185.5000000000018
 20
36.0
 30
0.0
 11
-139.5000000000018
 21
36.0
 31
0.0
  0
LINE
  5
7B9D6
330
1E
100
AcDbEntity
  8
DETAIL
  6
DASHED
100
AcDbLine
 10
-185.5000000000018
 20
32.0
 30
0.0
 11
-139.5000000000018
 21
32.0
 31
0.0
  0
LINE
  5
7B9D7
330
1E
100
AcDbEntity
  8
DETAIL
  6
DASHED
100
AcDbLine
 10
-185.5000000000018
 20
36.0
 30
0.0
 11
-139.5000000000018
 21
36.0
 31
0.0
  0
LINE
  5
7B9D8
330
1E
100
AcDbEntity
  8
DETAIL
  6
CONTINUOUS
100
AcDbLine
 10
-239.5000000000018
 20
34.49999999999818
 30
0.0
 11
-239.5000000000018
 21
30.49999999999818
 31
0.0
  0
LINE
  5
7B9D9
330
1E
100
AcDbEntity
  8
DETAIL
  6
CONTINUOUS
100
AcDbLine
 10
-235.5000000000018
 20
34.49999999999818
 30
0.0
 11
-235.5000000000018
 21
30.49999999999818
 31
0.0
  0
LINE
  5
7B9DB
330
1E
100
AcDbEntity
  8
DETAIL
  6
CONTINUOUS
100
AcDbLine
 10
-257.4999999999981
 20
37.99999999999818
 30
0.0
 11
-257.4999999999981
 21
45.99999999999818
 31
0.0
  0
LINE
  5
7B9DE
330
1E
100
AcDbEntity
  8
DETAIL
  6
CONTINUOUS
100
AcDbLine
 10
-261.4999999999982
 20
37.99999999999818
 30
0.0
 11
-261.4999999999982
 21
45.99999999999818
 31
0.0
  0
LINE
  5
7B9DF
330
1E
100
AcDbEntity
  8
DETAIL
  6
CONTINUOUS
100
AcDbLine
 10
-266.4999999999981
 20
45.99999999999818
 30
0.0
 11
-266.4999999999981
 21
36.0
 31
0.0
  0
LINE
  5
7B9E0
330
1E
100
AcDbEntity
  8
DETAIL
  6
CONTINUOUS
100
AcDbLine
 10
-270.4999999999981
 20
45.99999999999818
 30
0.0
 11
-270.4999999999981
 21
36.0
 31
0.0
  0
ARC
  5
7B9E1
330
1E
100
AcDbEntity
  8
DETAIL
  6
CONTINUOUS
100
AcDbCircle
 10
-263.9999999999981
 20
45.99999999999818
 30
0.0
 40
2.5
100
AcDbArc
 50
0.0
 51
180.0
  0
ARC
  5
7B9E2
330
1E
100
AcDbEntity
  8
DETAIL
  6
CONTINUOUS
100
AcDbCircle
 10
-263.9999999999981
 20
45.99999999999818
 30
0.0
 40
6.5
100
AcDbArc
 50
90.0
 51
180.0
  0
LINE
  5
7B9E3
330
1E
100
AcDbEntity
  8
DETAIL
  6
CONTINUOUS
100
AcDbLine
 10
-272.4999999999981
 20
32.0
 30
0.0
 11
-239.5000000000018
 21
32.0
 31
0.0
  0
LINE
  5
7B9E4
330
1E
100
AcDbEntity
  8
BASIS
  6
DOT_CENTER
100
AcDbLine
 10
-256.8500000000003
 20
45.99999999999818
 30
0.0
 11
-271.1499999999996
 21
45.99999999999818
 31
0.0
  0
LINE
  5
7B9E5
330
1E
100
AcDbEntity
  8
DETAIL
  6
CONTINUOUS
100
AcDbLine
 10
-261.4999999999982
 20
37.99999999999818
 30
0.0
 11
-257.4999999999981
 21
37.99999999999818
 31
0.0
  0
ARC
  5
7B9E7
330
1E
100
AcDbEntity
  8
DETAIL
  6
CONTINUOUS
100
AcDbCircle
 10
-263.9999999999981
 20
45.99999999999818
 30
0.0
 40
6.5
100
AcDbArc
 50
0.0
 51
90.0
  0
ARC
  5
7B9E8
330
1E
100
AcDbEntity
  8
DETAIL
  6
CONTINUOUS
100
AcDbCircle
 10
-272.4999999999981
 20
34.49999999999818
 30
0.0
 40
6.0
100
AcDbArc
 50
270.0
 51
335.3756816478731
  0
ARC
  5
7B9E9
330
1E
100
AcDbEntity
  8
DETAIL
  6
CONTINUOUS
100
AcDbCircle
 10
-237.5000000000018
 20
30.49999999999818
 30
0.0
 40
2.0
100
AcDbArc
 50
180.0
 51
0.0
  0
LINE
  5
7B9EA
330
1E
100
AcDbEntity
  8
DETAIL
  6
CONTINUOUS
100
AcDbLine
 10
-189.5000000000018
 20
52.49999999999818
 30
0.0
 11
-235.5000000000018
 21
52.49999999999818
 31
0.0
  0
LINE
  5
7B9EB
330
1E
100
AcDbEntity
  8
DETAIL
  6
CONTINUOUS
100
AcDbLine
 10
-189.5000000000018
 20
56.49999999999818
 30
0.0
 11
-235.5000000000018
 21
56.49999999999818
 31
0.0
  0
LINE
  5
7B9EC
330
1E
100
AcDbEntity
  8
DETAIL
  6
CONTINUOUS
100
AcDbLine
 10
-189.5000000000018
 20
74.0
 30
0.0
 11
-235.5000000000018
 21
74.0
 31
0.0
  0
LINE
  5
7B9ED
330
1E
100
AcDbEntity
  8
DETAIL
  6
CONTINUOUS
100
AcDbLine
 10
-235.5000000000018
 20
36.0
 30
0.0
 11
-194.4999999999981
 21
36.0
 31
0.0
  0
LINE
  5
7B9EE
330
1E
100
AcDbEntity
  8
DETAIL
  6
CONTINUOUS
100
AcDbLine
 10
-235.5000000000018
 20
32.0
 30
0.0
 11
-194.4999999999981
 21
32.0
 31
0.0
  0
ARC
  5
7B9EF
330
1E
100
AcDbEntity
  8
DETAIL
  6
CONTINUOUS
100
AcDbCircle
 10
-137.5000000000018
 20
30.49999999999818
 30
0.0
 40
2.0
100
AcDbArc
 50
180.0
 51
0.0
  0
LINE
  5
7B9F0
330
1E
100
AcDbEntity
  8
DETAIL
  6
CONTINUOUS
100
AcDbLine
 10
137.4999999999981
 20
124.0
 30
0.0
 11
142.0
 21
124.0
 31
0.0
  0
LINE
  5
7B9F1
330
1E
100
AcDbEntity
  8
DETAIL
  6
CONTINUOUS
100
AcDbLine
 10
137.4999999999981
 20
78.0
 30
0.0
 11
142.0
 21
78.0
 31
0.0
  0
LINE
  5
7B9F2
330
1E
100
AcDbEntity
  8
DETAIL
  6
CONTINUOUS
100
AcDbLine
 10
137.4999999999981
 20
56.49999999999818
 30
0.0
 11
142.0
 21
56.49999999999818
 31
0.0
  0
LINE
  5
7B9F3
330
1E
100
AcDbEntity
  8
DETAIL
  6
CONTINUOUS
100
AcDbLine
 10
137.4999999999981
 20
52.49999999999818
 30
0.0
 11
142.0
 21
52.49999999999818
 31
0.0
  0
ARC
  5
7B9F4
330
1E
100
AcDbEntity
  8
DETAIL
  6
CONTINUOUS
100
AcDbCircle
 10
142.0
 20
54.49999999999818
 30
0.0
 40
2.000000000000113
100
AcDbArc
 50
270.0
 51
90.0
  0
LINE
  5
7B9F5
330
1E
100
AcDbEntity
  8
DETAIL
  6
CONTINUOUS
100
AcDbLine
 10
137.4999999999981
 20
74.0
 30
0.0
 11
142.0
 21
74.0
 31
0.0
  0
LINE
  5
7B9F6
330
1E
100
AcDbEntity
  8
DETAIL
  6
CONTINUOUS
100
AcDbLine
 10
144.0
 20
47.49999999999817
 30
0.0
 11
148.0
 21
47.49999999999817
 31
0.0
  0
LINE
  5
7B9F7
330
1E
100
AcDbEntity
  8
DETAIL
  6
CONTINUOUS
100
AcDbLine
 10
144.0
 20
47.49999999999817
 30
0.0
 11
144.0
 21
54.49999999999818
 31
0.0
  0
ARC
  5
7B9F8
330
1E
100
AcDbEntity
  8
DETAIL
  6
CONTINUOUS
100
AcDbCircle
 10
142.0
 20
76.0
 30
0.0
 40
2.000000000000113
100
AcDbArc
 50
270.0
 51
90.0
  0
LINE
  5
7B9F9
330
1E
100
AcDbEntity
  8
DETAIL
  6
CONTINUOUS
100
AcDbLine
 10
144.0
 20
54.49999999999818
 30
0.0
 11
144.0
 21
76.0
 31
0.0
  0
LINE
  5
7B9FA
330
1E
100
AcDbEntity
  8
BASIS
  6
DOT_CENTER
100
AcDbLine
 10
38.99999999999818
 20
58.07470975479555
 30
0.0
 11
38.99999999999818
 21
38.84999999999854
 31
0.0
  0
LINE
  5
7B9FB
330
1E
100
AcDbEntity
  8
DETAIL
  6
CONTINUOUS
100
AcDbLine
 10
110.4999999999981
 20
78.0
 30
0.0
 11
64.49999999999818
 21
78.0
 31
0.0
  0
LINE
  5
7B9FC
330
1E
100
AcDbEntity
  8
DETAIL
  6
CONTINUOUS
100
AcDbLine
 10
110.4999999999981
 20
124.0
 30
0.0
 11
64.49999999999818
 21
124.0
 31
0.0
  0
LINE
  5
7B9FD
330
1E
100
AcDbEntity
  8
DETAIL
  6
CONTINUOUS
100
AcDbLine
 10
60.49999999999818
 20
78.0
 30
0.0
 11
14.49999999999818
 21
78.0
 31
0.0
  0
LINE
  5
7B9FE
330
1E
100
AcDbEntity
  8
DETAIL
  6
CONTINUOUS
100
AcDbLine
 10
60.49999999999818
 20
124.0
 30
0.0
 11
14.49999999999818
 21
124.0
 31
0.0
  0
LINE
  5
7B9FF
330
1E
100
AcDbEntity
  8
DETAIL
  6
CONTINUOUS
100
AcDbLine
 10
119.4999999999981
 20
36.0
 30
0.0
 11
119.4999999999981
 21
32.0
 31
0.0
  0
LINE
  5
7BA00
330
1E
100
AcDbEntity
  8
DETAIL
  6
DASHED
100
AcDbLine
 10
119.4999999999981
 20
36.0
 30
0.0
 11
119.4999999999981
 21
32.0
 31
0.0
  0
LINE
  5
7BA01
330
1E
100
AcDbEntity
  8
DETAIL
  6
CONTINUOUS
100
AcDbLine
 10
114.4999999999981
 20
34.49999999999818
 30
0.0
 11
114.4999999999981
 21
30.49999999999818
 31
0.0
  0
LINE
  5
7BA02
330
1E
100
AcDbEntity
  8
DETAIL
  6
CONTINUOUS
100
AcDbLine
 10
110.4999999999981
 20
34.49999999999818
 30
0.0
 11
110.4999999999981
 21
30.49999999999818
 31
0.0
  0
LINE
  5
7BA03
330
1E
100
AcDbEntity
  8
DETAIL
  6
CONTINUOUS
100
AcDbLine
 10
114.4999999999981
 20
32.0
 30
0.0
 11
119.4999999999981
 21
32.0
 31
0.0
  0
LINE
  5
7BA04
330
1E
100
AcDbEntity
  8
DETAIL
  6
CONTINUOUS
100
AcDbLine
 10
114.4999999999981
 20
36.0
 30
0.0
 11
119.4999999999981
 21
36.0
 31
0.0
  0
LINE
  5
7BA05
330
1E
100
AcDbEntity
  8
DETAIL
  6
DASHED
100
AcDbLine
 10
114.4999999999981
 20
32.0
 30
0.0
 11
119.4999999999981
 21
32.0
 31
0.0
  0
LINE
  5
7BA06
330
1E
100
AcDbEntity
  8
DETAIL
  6
DASHED
100
AcDbLine
 10
114.4999999999981
 20
36.0
 30
0.0
 11
119.4999999999981
 21
36.0
 31
0.0
  0
ARC
  5
7BA07
330
1E
100
AcDbEntity
  8
DETAIL
  6
CONTINUOUS
100
AcDbCircle
 10
112.4999999999981
 20
30.49999999999818
 30
0.0
 40
2.0
100
AcDbArc
 50
180.0
 51
0.0
  0
LINE
  5
7BA08
330
1E
100
AcDbEntity
  8
DETAIL
  6
DASHED
100
AcDbLine
 10
58.49999999999818
 20
32.00000000000182
 30
0.0
 11
60.49999999999818
 21
32.0
 31
0.0
  0
LINE
  5
7BA09
330
1E
100
AcDbEntity
  8
DETAIL
  6
CONTINUOUS
100
AcDbLine
 10
60.49999999999818
 20
34.5
 30
0.0
 11
60.49999999999818
 21
30.49999999999818
 31
0.0
  0
LINE
  5
7BA0A
330
1E
100
AcDbEntity
  8
DETAIL
  6
CONTINUOUS
100
AcDbLine
 10
64.49999999999818
 20
34.49999999999818
 30
0.0
 11
64.49999999999818
 21
30.49999999999818
 31
0.0
  0
LINE
  5
7BA0B
330
1E
100
AcDbEntity
  8
DETAIL
  6
CONTINUOUS
100
AcDbLine
 10
58.49999999999818
 20
32.00000000000182
 30
0.0
 11
60.49999999999818
 21
32.0
 31
0.0
  0
LINE
  5
7BA0C
330
1E
100
AcDbEntity
  8
DETAIL
  6
DASHED
100
AcDbLine
 10
58.49999999999818
 20
32.00000000000182
 30
0.0
 11
60.49999999999818
 21
32.0
 31
0.0
  0
LINE
  5
7BA10
330
1E
100
AcDbEntity
  8
DETAIL
  6
CONTINUOUS
100
AcDbLine
 10
36.49999999999818
 20
37.99999999999818
 30
0.0
 11
36.49999999999818
 21
45.99999999999818
 31
0.0
  0
LINE
  5
7BA11
330
1E
100
AcDbEntity
  8
DETAIL
  6
CONTINUOUS
100
AcDbLine
 10
45.49999999999818
 20
45.99999999999818
 30
0.0
 11
45.49999999999909
 21
36.0
 31
0.0
  0
LINE
  5
7BA12
330
1E
100
AcDbEntity
  8
DETAIL
  6
CONTINUOUS
100
AcDbLine
 10
41.49999999999818
 20
45.99999999999818
 30
0.0
 11
41.49999999999908
 21
36.0
 31
0.0
  0
ARC
  5
7BA14
330
1E
100
AcDbEntity
  8
DETAIL
  6
CONTINUOUS
100
AcDbCircle
 10
38.99999999999818
 20
45.99999999999818
 30
0.0
 40
2.5
100
AcDbArc
 50
0.0
 51
180.0
  0
LINE
  5
7BA16
330
1E
100
AcDbEntity
  8
DETAIL
  6
DASHED
100
AcDbLine
 10
47.49999999999817
 20
32.0
 30
0.0
 11
58.49999999999818
 21
32.00000000000182
 31
0.0
  0
LINE
  5
7BA17
330
1E
100
AcDbEntity
  8
DETAIL
  6
CONTINUOUS
100
AcDbLine
 10
47.49999999999817
 20
32.0
 30
0.0
 11
58.49999999999818
 21
32.00000000000182
 31
0.0
  0
LINE
  5
7BA18
330
1E
100
AcDbEntity
  8
DETAIL
  6
DASHED
100
AcDbLine
 10
47.49999999999817
 20
32.0
 30
0.0
 11
58.49999999999818
 21
32.00000000000182
 31
0.0
  0
ARC
  5
7BA19
330
1E
100
AcDbEntity
  8
DETAIL
  6
CONTINUOUS
100
AcDbCircle
 10
38.99999999999818
 20
45.99999999999818
 30
0.0
 40
6.5
100
AcDbArc
 50
0.0
 51
90.0
  0
LINE
  5
7BA1A
330
1E
100
AcDbEntity
  8
DETAIL
  6
CONTINUOUS
100
AcDbLine
 10
58.49999999999818
 20
28.5
 30
0.0
 11
62.50000000000182
 21
28.5
 31
0.0
  0
LINE
  5
7BA1B
330
1E
100
AcDbEntity
  8
DETAIL
  6
CONTINUOUS
100
AcDbLine
 10
47.49999999999817
 20
28.49999999999818
 30
0.0
 11
58.49999999999818
 21
28.5
 31
0.0
  0
ARC
  5
7BA1C
330
1E
100
AcDbEntity
  8
DETAIL
  6
CONTINUOUS
100
AcDbCircle
 10
62.49999999999818
 20
30.49999999999818
 30
0.0
 40
1.9999999999999
100
AcDbArc
 50
270.0
 51
0.0
  0
ARC
  5
7BA1D
330
1E
100
AcDbEntity
  8
DETAIL
  6
CONTINUOUS
100
AcDbCircle
 10
62.49999999999818
 20
30.49999999999818
 30
0.0
 40
2.0
100
AcDbArc
 50
180.0
 51
270.0
  0
ARC
  5
7BA1E
330
1E
100
AcDbEntity
  8
DETAIL
  6
CONTINUOUS
100
AcDbCircle
 10
47.49999999999817
 20
34.49999999999818
 30
0.0
 40
5.999999999999547
100
AcDbArc
 50
204.6243183521462
 51
270.0
  0
LINE
  5
7BA1F
330
1E
100
AcDbEntity
  8
DETAIL
  6
CONTINUOUS
100
AcDbLine
 10
110.4999999999981
 20
52.49999999999818
 30
0.0
 11
64.49999999999818
 21
52.49999999999818
 31
0.0
  0
LINE
  5
7BA20
330
1E
100
AcDbEntity
  8
DETAIL
  6
CONTINUOUS
100
AcDbLine
 10
110.4999999999981
 20
56.49999999999818
 30
0.0
 11
64.49999999999818
 21
56.49999999999818
 31
0.0
  0
LINE
  5
7BA21
330
1E
100
AcDbEntity
  8
DETAIL
  6
CONTINUOUS
100
AcDbLine
 10
110.4999999999981
 20
74.0
 30
0.0
 11
64.49999999999818
 21
74.0
 31
0.0
  0
LINE
  5
7BA22
330
1E
100
AcDbEntity
  8
DETAIL
  6
CONTINUOUS
100
AcDbLine
 10
64.49999999999818
 20
32.0
 30
0.0
 11
110.4999999999981
 21
32.0
 31
0.0
  0
LINE
  5
7BA23
330
1E
100
AcDbEntity
  8
DETAIL
  6
CONTINUOUS
100
AcDbLine
 10
64.49999999999818
 20
36.0
 30
0.0
 11
110.4999999999981
 21
36.0
 31
0.0
  0
LINE
  5
7BA24
330
1E
100
AcDbEntity
  8
DETAIL
  6
DASHED
100
AcDbLine
 10
64.49999999999818
 20
32.0
 30
0.0
 11
110.4999999999981
 21
32.0
 31
0.0
  0
LINE
  5
7BA25
330
1E
100
AcDbEntity
  8
DETAIL
  6
DASHED
100
AcDbLine
 10
64.49999999999818
 20
36.0
 30
0.0
 11
110.4999999999981
 21
36.0
 31
0.0
  0
LINE
  5
7BA26
330
1E
100
AcDbEntity
  8
DETAIL
  6
CONTINUOUS
100
AcDbLine
 10
32.49999999999818
 20
37.99999999999818
 30
0.0
 11
32.49999999999818
 21
45.99999999999818
 31
0.0
  0
LINE
  5
7BA27
330
1E
100
AcDbEntity
  8
DETAIL
  6
CONTINUOUS
100
AcDbLine
 10
10.49999999999818
 20
34.49999999999818
 30
0.0
 11
10.49999999999818
 21
30.49999999999818
 31
0.0
  0
LINE
  5
7BA28
330
1E
100
AcDbEntity
  8
DETAIL
  6
CONTINUOUS
100
AcDbLine
 10
14.49999999999818
 20
34.49999999999818
 30
0.0
 11
14.49999999999818
 21
30.49999999999818
 31
0.0
  0
ARC
  5
7BA29
330
1E
100
AcDbEntity
  8
DETAIL
  6
CONTINUOUS
100
AcDbCircle
 10
12.49999999999818
 20
30.49999999999818
 30
0.0
 40
2.0
100
AcDbArc
 50
180.0
 51
0.0
  0
LINE
  5
7BA2A
330
1E
100
AcDbEntity
  8
DETAIL
  6
CONTINUOUS
100
AcDbLine
 10
60.49999999999818
 20
52.49999999999818
 30
0.0
 11
14.49999999999818
 21
52.49999999999818
 31
0.0
  0
LINE
  5
7BA2B
330
1E
100
AcDbEntity
  8
DETAIL
  6
CONTINUOUS
100
AcDbLine
 10
60.49999999999818
 20
56.49999999999818
 30
0.0
 11
14.49999999999818
 21
56.49999999999818
 31
0.0
  0
LINE
  5
7BA2C
330
1E
100
AcDbEntity
  8
DETAIL
  6
CONTINUOUS
100
AcDbLine
 10
60.49999999999818
 20
74.0
 30
0.0
 11
14.49999999999818
 21
74.0
 31
0.0
  0
LINE
  5
7BA2D
330
1E
100
AcDbEntity
  8
DETAIL
  6
CONTINUOUS
100
AcDbLine
 10
32.49999999999818
 20
37.99999999999818
 30
0.0
 11
36.49999999999818
 21
37.99999999999818
 31
0.0
  0
ARC
  5
7BA2E
330
1E
100
AcDbEntity
  8
DETAIL
  6
CONTINUOUS
100
AcDbCircle
 10
38.99999999999818
 20
45.99999999999818
 30
0.0
 40
6.499999999999985
100
AcDbArc
 50
90.0
 51
180.0
  0
LINE
  5
7BA2F
330
1E
100
AcDbEntity
  8
DETAIL
  6
CONTINUOUS
100
AcDbLine
 10
14.49999999999818
 20
36.0
 30
0.0
 11
60.49999999999818
 21
36.0
 31
0.0
  0
LINE
  5
7BA30
330
1E
100
AcDbEntity
  8
DETAIL
  6
CONTINUOUS
100
AcDbLine
 10
14.49999999999818
 20
32.0
 30
0.0
 11
47.49999999999817
 21
32.0
 31
0.0
  0
LINE
  5
7BA31
330
1E
100
AcDbEntity
  8
DETAIL
  6
DASHED
100
AcDbLine
 10
14.49999999999818
 20
36.0
 30
0.0
 11
60.49999999999818
 21
36.0
 31
0.0
  0
LINE
  5
7BA32
330
1E
100
AcDbEntity
  8
DETAIL
  6
DASHED
100
AcDbLine
 10
14.49999999999818
 20
32.0
 30
0.0
 11
47.49999999999817
 21
32.0
 31
0.0
  0
LINE
  5
7BA33
330
1E
100
AcDbEntity
  8
BASIS
  6
DOT_CENTER
100
AcDbLine
 10
48.02609971366655
 20
45.99999999999818
 30
0.0
 11
29.48169971366406
 21
45.99999999999818
 31
0.0
  0
LINE
  5
7BA34
330
1E
100
AcDbEntity
  8
DETAIL
  6
CONTINUOUS
100
AcDbLine
 10
137.4999999999981
 20
124.0
 30
0.0
 11
114.4999999999981
 21
124.0
 31
0.0
  0
LINE
  5
7BA35
330
1E
100
AcDbEntity
  8
DETAIL
  6
CONTINUOUS
100
AcDbLine
 10
137.4999999999981
 20
78.0
 30
0.0
 11
114.4999999999981
 21
78.0
 31
0.0
  0
LINE
  5
7BA36
330
1E
100
AcDbEntity
  8
DETAIL
  6
CONTINUOUS
100
AcDbLine
 10
137.4999999999981
 20
52.49999999999818
 30
0.0
 11
114.4999999999981
 21
52.49999999999818
 31
0.0
  0
LINE
  5
7BA37
330
1E
100
AcDbEntity
  8
DETAIL
  6
CONTINUOUS
100
AcDbLine
 10
137.4999999999981
 20
56.49999999999818
 30
0.0
 11
114.4999999999981
 21
56.49999999999818
 31
0.0
  0
LINE
  5
7BA38
330
1E
100
AcDbEntity
  8
DETAIL
  6
CONTINUOUS
100
AcDbLine
 10
137.4999999999981
 20
74.0
 30
0.0
 11
114.4999999999981
 21
74.0
 31
0.0
  0
LINE
  5
7BA39
330
1E
100
AcDbEntity
  8
DETAIL
  6
CONTINUOUS
100
AcDbLine
 10
-272.4999999999981
 20
569.0
 30
0.0
 11
-283.4999999999981
 21
569.0
 31
0.0
  0
LINE
  5
7BA3B
330
1E
100
AcDbEntity
  8
DETAIL
  6
CONTINUOUS
100
AcDbLine
 10
-272.4999999999981
 20
573.5
 30
0.0
 11
-283.4999999999981
 21
573.5
 31
0.0
  0
LINE
  5
7BA3C
330
1E
100
AcDbEntity
  8
DETAIL
  6
DASHED
100
AcDbLine
 10
-272.4999999999981
 20
569.5
 30
0.0
 11
-285.5000000000018
 21
569.5
 31
0.0
  0
LINE
  5
7BA3D
330
1E
100
AcDbEntity
  8
DETAIL
  6
CONTINUOUS
100
AcDbLine
 10
-239.5000000000018
 20
545.5
 30
0.0
 11
-285.5000000000018
 21
545.5
 31
0.0
  0
LINE
  5
7BA3E
330
1E
100
AcDbEntity
  8
DETAIL
  6
CONTINUOUS
100
AcDbLine
 10
-239.5000000000018
 20
549.5
 30
0.0
 11
-285.5000000000018
 21
549.5
 31
0.0
  0
LINE
  5
7BA3F
330
1E
100
AcDbEntity
  8
DETAIL
  6
CONTINUOUS
100
AcDbLine
 10
-285.5000000000018
 20
565.0
 30
0.0
 11
-239.5000000000018
 21
565.0
 31
0.0
  0
LINE
  5
7BA40
330
1E
100
AcDbEntity
  8
DETAIL
  6
CONTINUOUS
100
AcDbLine
 10
-239.5000000000018
 20
524.0
 30
0.0
 11
-285.5000000000018
 21
524.0
 31
0.0
  0
LINE
  5
7BA41
330
1E
100
AcDbEntity
  8
DETAIL
  6
CONTINUOUS
100
AcDbLine
 10
-239.5000000000018
 20
528.0
 30
0.0
 11
-285.5000000000018
 21
528.0
 31
0.0
  0
LINE
  5
7BA42
330
1E
100
AcDbEntity
  8
DETAIL
  6
CONTINUOUS
100
AcDbLine
 10
-239.5000000000018
 20
474.0
 30
0.0
 11
-285.5000000000018
 21
474.0
 31
0.0
  0
LINE
  5
7BA43
330
1E
100
AcDbEntity
  8
DETAIL
  6
CONTINUOUS
100
AcDbLine
 10
-239.5000000000018
 20
478.0
 30
0.0
 11
-285.5000000000018
 21
478.0
 31
0.0
  0
LINE
  5
7BA44
330
1E
100
AcDbEntity
  8
DETAIL
  6
CONTINUOUS
100
AcDbLine
 10
-239.5000000000018
 20
424.0
 30
0.0
 11
-285.5000000000018
 21
424.0
 31
0.0
  0
LINE
  5
7BA45
330
1E
100
AcDbEntity
  8
DETAIL
  6
CONTINUOUS
100
AcDbLine
 10
-239.5000000000018
 20
428.0
 30
0.0
 11
-285.5000000000018
 21
428.0
 31
0.0
  0
LINE
  5
7BA46
330
1E
100
AcDbEntity
  8
DETAIL
  6
CONTINUOUS
100
AcDbLine
 10
-239.5000000000018
 20
378.0
 30
0.0
 11
-285.5000000000018
 21
378.0
 31
0.0
  0
LINE
  5
7BA47
330
1E
100
AcDbEntity
  8
DETAIL
  6
CONTINUOUS
100
AcDbLine
 10
-239.5000000000018
 20
374.0
 30
0.0
 11
-285.5000000000018
 21
374.0
 31
0.0
  0
LINE
  5
7BA48
330
1E
100
AcDbEntity
  8
BASIS
  6
DASHDOT
100
AcDbLine
 10
-344.5000000000018
 20
567.0
 30
0.0
 11
119.4999999999981
 21
567.0
 31
0.0
  0
LINE
  5
7BA49
330
1E
100
AcDbEntity
  8
DETAIL
  6
CONTINUOUS
100
AcDbLine
 10
-239.5000000000018
 20
328.0
 30
0.0
 11
-285.5000000000018
 21
328.0
 31
0.0
  0
LINE
  5
7BA4A
330
1E
100
AcDbEntity
  8
DETAIL
  6
CONTINUOUS
100
AcDbLine
 10
-239.5000000000018
 20
324.0
 30
0.0
 11
-285.5000000000018
 21
324.0
 31
0.0
  0
LINE
  5
7BA4B
330
1E
100
AcDbEntity
  8
DETAIL
  6
CONTINUOUS
100
AcDbLine
 10
-239.5000000000018
 20
278.0
 30
0.0
 11
-285.5000000000018
 21
278.0
 31
0.0
  0
LINE
  5
7BA4C
330
1E
100
AcDbEntity
  8
DETAIL
  6
CONTINUOUS
100
AcDbLine
 10
-239.5000000000018
 20
274.0
 30
0.0
 11
-285.5000000000018
 21
274.0
 31
0.0
  0
LINE
  5
7BA4D
330
1E
100
AcDbEntity
  8
DETAIL
  6
CONTINUOUS
100
AcDbLine
 10
-239.5000000000018
 20
228.0
 30
0.0
 11
-285.5000000000018
 21
228.0
 31
0.0
  0
LINE
  5
7BA4E
330
1E
100
AcDbEntity
  8
DETAIL
  6
CONTINUOUS
100
AcDbLine
 10
-239.5000000000018
 20
224.0
 30
0.0
 11
-285.5000000000018
 21
224.0
 31
0.0
  0
LINE
  5
7BA4F
330
1E
100
AcDbEntity
  8
DETAIL
  6
CONTINUOUS
100
AcDbLine
 10
-239.5000000000018
 20
178.0
 30
0.0
 11
-285.5000000000018
 21
178.0
 31
0.0
  0
LINE
  5
7BA50
330
1E
100
AcDbEntity
  8
DETAIL
  6
CONTINUOUS
100
AcDbLine
 10
-239.5000000000018
 20
174.0
 30
0.0
 11
-285.5000000000018
 21
174.0
 31
0.0
  0
LINE
  5
7BA51
330
1E
100
AcDbEntity
  8
DETAIL
  6
CONTINUOUS
100
AcDbLine
 10
-239.5000000000018
 20
128.0
 30
0.0
 11
-285.5000000000018
 21
128.0
 31
0.0
  0
LINE
  5
7BA5C
330
1E
100
AcDbEntity
  8
DETAIL
  6
CONTINUOUS
100
AcDbLine
 10
-368.0
 20
426.0
 30
0.0
 11
-368.0
 21
476.0
 31
0.0
  0
LINE
  5
7BA5D
330
1E
100
AcDbEntity
  8
DETAIL
  6
CONTINUOUS
100
AcDbLine
 10
-289.5000000000018
 20
424.0
 30
0.0
 11
-335.5000000000018
 21
424.0
 31
0.0
  0
LINE
  5
7BA5E
330
1E
100
AcDbEntity
  8
DETAIL
  6
CONTINUOUS
100
AcDbLine
 10
-289.5000000000018
 20
428.0
 30
0.0
 11
-335.5000000000018
 21
428.0
 31
0.0
  0
LINE
  5
7BA5F
330
1E
100
AcDbEntity
  8
DETAIL
  6
CONTINUOUS
100
AcDbLine
 10
-289.5000000000018
 20
374.0
 30
0.0
 11
-335.5000000000018
 21
374.0
 31
0.0
  0
LINE
  5
7BA60
330
1E
100
AcDbEntity
  8
DETAIL
  6
CONTINUOUS
100
AcDbLine
 10
-289.5000000000018
 20
378.0
 30
0.0
 11
-335.5000000000018
 21
378.0
 31
0.0
  0
LINE
  5
7BA61
330
1E
100
AcDbEntity
  8
DETAIL
  6
CONTINUOUS
100
AcDbLine
 10
-362.5000000000018
 20
428.0
 30
0.0
 11
-366.0
 21
428.0
 31
0.0
  0
LINE
  5
7BA62
330
1E
100
AcDbEntity
  8
DETAIL
  6
CONTINUOUS
100
AcDbLine
 10
-362.5000000000018
 20
424.0
 30
0.0
 11
-366.0
 21
424.0
 31
0.0
  0
ARC
  5
7BA63
330
1E
100
AcDbEntity
  8
DETAIL
  6
CONTINUOUS
100
AcDbCircle
 10
-366.0
 20
426.0
 30
0.0
 40
2.0
100
AcDbArc
 50
90.0
 51
270.0
  0
LINE
  5
7BA64
330
1E
100
AcDbEntity
  8
DETAIL
  6
CONTINUOUS
100
AcDbLine
 10
-362.5000000000018
 20
378.0
 30
0.0
 11
-366.0
 21
378.0
 31
0.0
  0
LINE
  5
7BA65
330
1E
100
AcDbEntity
  8
DETAIL
  6
CONTINUOUS
100
AcDbLine
 10
-362.5000000000018
 20
374.0
 30
0.0
 11
-366.0
 21
374.0
 31
0.0
  0
ARC
  5
7BA66
330
1E
100
AcDbEntity
  8
DETAIL
  6
CONTINUOUS
100
AcDbCircle
 10
-366.0
 20
376.0
 30
0.0
 40
2.0
100
AcDbArc
 50
90.0
 51
270.0
  0
LINE
  5
7BA67
330
1E
100
AcDbEntity
  8
DETAIL
  6
CONTINUOUS
100
AcDbLine
 10
-368.0
 20
376.0
 30
0.0
 11
-368.0
 21
426.0
 31
0.0
  0
LINE
  5
7BA68
330
1E
100
AcDbEntity
  8
DETAIL
  6
CONTINUOUS
100
AcDbLine
 10
-339.5000000000018
 20
428.0
 30
0.0
 11
-362.5000000000018
 21
428.0
 31
0.0
  0
LINE
  5
7BA69
330
1E
100
AcDbEntity
  8
DETAIL
  6
CONTINUOUS
100
AcDbLine
 10
-339.5000000000018
 20
424.0
 30
0.0
 11
-362.5000000000018
 21
424.0
 31
0.0
  0
LINE
  5
7BA6A
330
1E
100
AcDbEntity
  8
DETAIL
  6
CONTINUOUS
100
AcDbLine
 10
-339.5000000000018
 20
374.0
 30
0.0
 11
-362.5000000000018
 21
374.0
 31
0.0
  0
LINE
  5
7BA6B
330
1E
100
AcDbEntity
  8
DETAIL
  6
CONTINUOUS
100
AcDbLine
 10
-339.5000000000018
 20
378.0
 30
0.0
 11
-362.5000000000018
 21
378.0
 31
0.0
  0
LINE
  5
7BA6C
330
1E
100
AcDbEntity
  8
DETAIL
  6
CONTINUOUS
100
AcDbLine
 10
-289.5000000000018
 20
324.0
 30
0.0
 11
-335.5000000000018
 21
324.0
 31
0.0
  0
LINE
  5
7BA6D
330
1E
100
AcDbEntity
  8
DETAIL
  6
CONTINUOUS
100
AcDbLine
 10
-289.5000000000018
 20
328.0
 30
0.0
 11
-335.5000000000018
 21
328.0
 31
0.0
  0
LINE
  5
7BA6E
330
1E
100
AcDbEntity
  8
DETAIL
  6
CONTINUOUS
100
AcDbLine
 10
-289.5000000000018
 20
274.0
 30
0.0
 11
-335.5000000000018
 21
274.0
 31
0.0
  0
LINE
  5
7BA6F
330
1E
100
AcDbEntity
  8
DETAIL
  6
CONTINUOUS
100
AcDbLine
 10
-289.5000000000018
 20
278.0
 30
0.0
 11
-335.5000000000018
 21
278.0
 31
0.0
  0
LINE
  5
7BA70
330
1E
100
AcDbEntity
  8
DETAIL
  6
CONTINUOUS
100
AcDbLine
 10
-289.5000000000018
 20
174.0
 30
0.0
 11
-335.5000000000018
 21
174.0
 31
0.0
  0
LINE
  5
7BA71
330
1E
100
AcDbEntity
  8
DETAIL
  6
CONTINUOUS
100
AcDbLine
 10
-289.5000000000018
 20
178.0
 30
0.0
 11
-335.5000000000018
 21
178.0
 31
0.0
  0
LINE
  5
7BA72
330
1E
100
AcDbEntity
  8
DETAIL
  6
CONTINUOUS
100
AcDbLine
 10
-289.5000000000018
 20
224.0
 30
0.0
 11
-335.5000000000018
 21
224.0
 31
0.0
  0
LINE
  5
7BA73
330
1E
100
AcDbEntity
  8
DETAIL
  6
CONTINUOUS
100
AcDbLine
 10
-289.5000000000018
 20
228.0
 30
0.0
 11
-335.5000000000018
 21
228.0
 31
0.0
  0
LINE
  5
7BA74
330
1E
100
AcDbEntity
  8
DETAIL
  6
CONTINUOUS
100
AcDbLine
 10
-289.5000000000018
 20
128.0
 30
0.0
 11
-335.5000000000018
 21
128.0
 31
0.0
  0
LINE
  5
7BA75
330
1E
100
AcDbEntity
  8
DETAIL
  6
CONTINUOUS
100
AcDbLine
 10
-362.5000000000018
 20
328.0
 30
0.0
 11
-366.0
 21
328.0
 31
0.0
  0
LINE
  5
7BA76
330
1E
100
AcDbEntity
  8
DETAIL
  6
CONTINUOUS
100
AcDbLine
 10
-362.5000000000018
 20
324.0
 30
0.0
 11
-366.0
 21
324.0
 31
0.0
  0
ARC
  5
7BA77
330
1E
100
AcDbEntity
  8
DETAIL
  6
CONTINUOUS
100
AcDbCircle
 10
-366.0
 20
326.0
 30
0.0
 40
2.0
100
AcDbArc
 50
90.0
 51
270.0
  0
LINE
  5
7BA78
330
1E
100
AcDbEntity
  8
DETAIL
  6
CONTINUOUS
100
AcDbLine
 10
-362.5000000000018
 20
278.0
 30
0.0
 11
-366.0
 21
278.0
 31
0.0
  0
LINE
  5
7BA79
330
1E
100
AcDbEntity
  8
DETAIL
  6
CONTINUOUS
100
AcDbLine
 10
-362.5000000000018
 20
274.0
 30
0.0
 11
-366.0
 21
274.0
 31
0.0
  0
ARC
  5
7BA7A
330
1E
100
AcDbEntity
  8
DETAIL
  6
CONTINUOUS
100
AcDbCircle
 10
-366.0
 20
276.0
 30
0.0
 40
1.999999999999985
100
AcDbArc
 50
90.0
 51
270.0
  0
LINE
  5
7BA7B
330
1E
100
AcDbEntity
  8
DETAIL
  6
CONTINUOUS
100
AcDbLine
 10
-368.0
 20
276.0
 30
0.0
 11
-368.0
 21
326.0
 31
0.0
  0
LINE
  5
7BA7C
330
1E
100
AcDbEntity
  8
DETAIL
  6
CONTINUOUS
100
AcDbLine
 10
-339.5000000000018
 20
324.0
 30
0.0
 11
-362.5000000000018
 21
324.0
 31
0.0
  0
LINE
  5
7BA7D
330
1E
100
AcDbEntity
  8
DETAIL
  6
CONTINUOUS
100
AcDbLine
 10
-339.5000000000018
 20
328.0
 30
0.0
 11
-362.5000000000018
 21
328.0
 31
0.0
  0
LINE
  5
7BA7E
330
1E
100
AcDbEntity
  8
DETAIL
  6
CONTINUOUS
100
AcDbLine
 10
-339.5000000000018
 20
274.0
 30
0.0
 11
-362.5000000000018
 21
274.0
 31
0.0
  0
LINE
  5
7BA7F
330
1E
100
AcDbEntity
  8
DETAIL
  6
CONTINUOUS
100
AcDbLine
 10
-339.5000000000018
 20
278.0
 30
0.0
 11
-362.5000000000018
 21
278.0
 31
0.0
  0
LINE
  5
7BA80
330
1E
100
AcDbEntity
  8
DETAIL
  6
CONTINUOUS
100
AcDbLine
 10
-362.5000000000018
 20
228.0
 30
0.0
 11
-366.0
 21
228.0
 31
0.0
  0
LINE
  5
7BA81
330
1E
100
AcDbEntity
  8
DETAIL
  6
CONTINUOUS
100
AcDbLine
 10
-362.5000000000018
 20
224.0
 30
0.0
 11
-366.0
 21
224.0
 31
0.0
  0
ARC
  5
7BA82
330
1E
100
AcDbEntity
  8
DETAIL
  6
CONTINUOUS
100
AcDbCircle
 10
-366.0
 20
226.0
 30
0.0
 40
2.0
100
AcDbArc
 50
90.0
 51
270.0
  0
LINE
  5
7BA83
330
1E
100
AcDbEntity
  8
DETAIL
  6
CONTINUOUS
100
AcDbLine
 10
-362.5000000000018
 20
178.0
 30
0.0
 11
-366.0
 21
178.0
 31
0.0
  0
LINE
  5
7BA84
330
1E
100
AcDbEntity
  8
DETAIL
  6
CONTINUOUS
100
AcDbLine
 10
-362.5000000000018
 20
174.0
 30
0.0
 11
-366.0
 21
174.0
 31
0.0
  0
ARC
  5
7BA85
330
1E
100
AcDbEntity
  8
DETAIL
  6
CONTINUOUS
100
AcDbCircle
 10
-366.0
 20
176.0
 30
0.0
 40
2.0
100
AcDbArc
 50
90.0
 51
270.0
  0
LINE
  5
7BA86
330
1E
100
AcDbEntity
  8
DETAIL
  6
CONTINUOUS
100
AcDbLine
 10
-368.0
 20
176.0
 30
0.0
 11
-368.0
 21
226.0
 31
0.0
  0
LINE
  5
7BA87
330
1E
100
AcDbEntity
  8
DETAIL
  6
CONTINUOUS
100
AcDbLine
 10
-362.5000000000018
 20
128.0
 30
0.0
 11
-366.0
 21
128.0
 31
0.0
  0
LINE
  5
7BA88
330
1E
100
AcDbEntity
  8
DETAIL
  6
CONTINUOUS
100
AcDbLine
 10
-368.0
 20
126.0
 30
0.0
 11
-368.0
 21
176.0
 31
0.0
  0
LINE
  5
7BA89
330
1E
100
AcDbEntity
  8
DETAIL
  6
CONTINUOUS
100
AcDbLine
 10
-339.5000000000018
 20
128.0
 30
0.0
 11
-362.5000000000018
 21
128.0
 31
0.0
  0
LINE
  5
7BA8A
330
1E
100
AcDbEntity
  8
DETAIL
  6
CONTINUOUS
100
AcDbLine
 10
-339.5000000000018
 20
174.0
 30
0.0
 11
-362.5000000000018
 21
174.0
 31
0.0
  0
LINE
  5
7BA8B
330
1E
100
AcDbEntity
  8
DETAIL
  6
CONTINUOUS
100
AcDbLine
 10
-339.5000000000018
 20
178.0
 30
0.0
 11
-362.5000000000018
 21
178.0
 31
0.0
  0
LINE
  5
7BA8C
330
1E
100
AcDbEntity
  8
DETAIL
  6
CONTINUOUS
100
AcDbLine
 10
-339.5000000000018
 20
224.0
 30
0.0
 11
-362.5000000000018
 21
224.0
 31
0.0
  0
LINE
  5
7BA8D
330
1E
100
AcDbEntity
  8
DETAIL
  6
CONTINUOUS
100
AcDbLine
 10
-339.5000000000018
 20
228.0
 30
0.0
 11
-362.5000000000018
 21
228.0
 31
0.0
  0
LINE
  5
7BA8E
330
1E
100
AcDbEntity
  8
DETAIL
  6
CONTINUOUS
100
AcDbLine
 10
-368.0
 20
226.0
 30
0.0
 11
-368.0
 21
276.0
 31
0.0
  0
LINE
  5
7BA8F
330
1E
100
AcDbEntity
  8
DETAIL
  6
CONTINUOUS
100
AcDbLine
 10
-368.0
 20
326.0
 30
0.0
 11
-368.0
 21
376.0
 31
0.0
  0
LINE
  5
7BA90
330
1E
100
AcDbEntity
  8
DETAIL
  6
CONTINUOUS
100
AcDbLine
 10
-289.5000000000018
 20
545.5
 30
0.0
 11
-335.5000000000018
 21
545.5
 31
0.0
  0
LINE
  5
7BA91
330
1E
100
AcDbEntity
  8
DETAIL
  6
CONTINUOUS
100
AcDbLine
 10
-289.5000000000018
 20
549.5
 30
0.0
 11
-335.5000000000018
 21
549.5
 31
0.0
  0
LINE
  5
7BA92
330
1E
100
AcDbEntity
  8
DETAIL
  6
CONTINUOUS
100
AcDbLine
 10
-335.5000000000018
 20
569.0
 30
0.0
 11
-289.5000000000018
 21
569.0
 31
0.0
  0
LINE
  5
7BA93
330
1E
100
AcDbEntity
  8
DETAIL
  6
CONTINUOUS
100
AcDbLine
 10
-335.5000000000018
 20
565.0
 30
0.0
 11
-289.5000000000018
 21
565.0
 31
0.0
  0
LINE
  5
7BA94
330
1E
100
AcDbEntity
  8
DETAIL
  6
CONTINUOUS
100
AcDbLine
 10
-289.5000000000018
 20
474.0
 30
0.0
 11
-335.5000000000018
 21
474.0
 31
0.0
  0
LINE
  5
7BA95
330
1E
100
AcDbEntity
  8
DETAIL
  6
CONTINUOUS
100
AcDbLine
 10
-289.5000000000018
 20
478.0
 30
0.0
 11
-335.5000000000018
 21
478.0
 31
0.0
  0
LINE
  5
7BA96
330
1E
100
AcDbEntity
  8
DETAIL
  6
CONTINUOUS
100
AcDbLine
 10
-289.5000000000018
 20
524.0
 30
0.0
 11
-335.5000000000018
 21
524.0
 31
0.0
  0
LINE
  5
7BA97
330
1E
100
AcDbEntity
  8
DETAIL
  6
CONTINUOUS
100
AcDbLine
 10
-289.5000000000018
 20
528.0
 30
0.0
 11
-335.5000000000018
 21
528.0
 31
0.0
  0
LINE
  5
7BA98
330
1E
100
AcDbEntity
  8
DETAIL
  6
CONTINUOUS
100
AcDbLine
 10
-339.5000000000018
 20
567.4999999999999
 30
0.0
 11
-339.5000000000018
 21
571.4999999999999
 31
0.0
  0
LINE
  5
7BA99
330
1E
100
AcDbEntity
  8
DETAIL
  6
CONTINUOUS
100
AcDbLine
 10
-335.5000000000018
 20
567.4999999999999
 30
0.0
 11
-335.5000000000018
 21
571.4999999999999
 31
0.0
  0
ARC
  5
7BA9A
330
1E
100
AcDbEntity
  8
DETAIL
  6
CONTINUOUS
100
AcDbCircle
 10
-337.5000000000018
 20
571.4999999999999
 30
0.0
 40
2.0
100
AcDbArc
 50
0.0
 51
180.0
  0
LINE
  5
7BA9B
330
1E
100
AcDbEntity
  8
DETAIL
  6
CONTINUOUS
100
AcDbLine
 10
-344.5000000000018
 20
569.0
 30
0.0
 11
-344.5000000000018
 21
565.0
 31
0.0
  0
LINE
  5
7BA9C
330
1E
100
AcDbEntity
  8
DETAIL
  6
CONTINUOUS
100
AcDbLine
 10
-344.5000000000018
 20
569.0
 30
0.0
 11
-339.5000000000018
 21
569.0
 31
0.0
  0
LINE
  5
7BA9D
330
1E
100
AcDbEntity
  8
DETAIL
  6
CONTINUOUS
100
AcDbLine
 10
-344.5000000000018
 20
565.0
 30
0.0
 11
-339.5000000000018
 21
565.0
 31
0.0
  0
LINE
  5
7BA9E
330
1E
100
AcDbEntity
  8
DETAIL
  6
CONTINUOUS
100
AcDbLine
 10
-362.5000000000018
 20
549.5
 30
0.0
 11
-366.0
 21
549.5
 31
0.0
  0
LINE
  5
7BA9F
330
1E
100
AcDbEntity
  8
DETAIL
  6
CONTINUOUS
100
AcDbLine
 10
-362.5000000000018
 20
545.5
 30
0.0
 11
-366.0
 21
545.5
 31
0.0
  0
ARC
  5
7BAA0
330
1E
100
AcDbEntity
  8
DETAIL
  6
CONTINUOUS
100
AcDbCircle
 10
-366.0
 20
547.5
 30
0.0
 40
2.0
100
AcDbArc
 50
90.0
 51
270.0
  0
LINE
  5
7BAA1
330
1E
100
AcDbEntity
  8
DETAIL
  6
CONTINUOUS
100
AcDbLine
 10
-368.0
 20
547.5
 30
0.0
 11
-368.0
 21
554.4999999999963
 31
0.0
  0
LINE
  5
7BAA2
330
1E
100
AcDbEntity
  8
DETAIL
  6
CONTINUOUS
100
AcDbLine
 10
-372.0
 20
554.4999999999963
 30
0.0
 11
-368.0
 21
554.4999999999963
 31
0.0
  0
LINE
  5
7BAA3
330
1E
100
AcDbEntity
  8
DETAIL
  6
CONTINUOUS
100
AcDbLine
 10
-362.5000000000018
 20
528.0
 30
0.0
 11
-366.0
 21
528.0
 31
0.0
  0
LINE
  5
7BAA4
330
1E
100
AcDbEntity
  8
DETAIL
  6
CONTINUOUS
100
AcDbLine
 10
-362.5000000000018
 20
524.0
 30
0.0
 11
-366.0
 21
524.0
 31
0.0
  0
ARC
  5
7BAA5
330
1E
100
AcDbEntity
  8
DETAIL
  6
CONTINUOUS
100
AcDbCircle
 10
-366.0
 20
526.0
 30
0.0
 40
2.0
100
AcDbArc
 50
90.0
 51
270.0
  0
LINE
  5
7BAA6
330
1E
100
AcDbEntity
  8
DETAIL
  6
CONTINUOUS
100
AcDbLine
 10
-362.5000000000018
 20
478.0
 30
0.0
 11
-366.0
 21
478.0
 31
0.0
  0
LINE
  5
7BAA7
330
1E
100
AcDbEntity
  8
DETAIL
  6
CONTINUOUS
100
AcDbLine
 10
-362.5000000000018
 20
474.0
 30
0.0
 11
-366.0
 21
474.0
 31
0.0
  0
ARC
  5
7BAA8
330
1E
100
AcDbEntity
  8
DETAIL
  6
CONTINUOUS
100
AcDbCircle
 10
-366.0
 20
476.0
 30
0.0
 40
2.0
100
AcDbArc
 50
90.0
 51
270.0
  0
LINE
  5
7BAA9
330
1E
100
AcDbEntity
  8
DETAIL
  6
CONTINUOUS
100
AcDbLine
 10
-368.0
 20
476.0
 30
0.0
 11
-368.0
 21
526.0
 31
0.0
  0
LINE
  5
7BAAA
330
1E
100
AcDbEntity
  8
DETAIL
  6
CONTINUOUS
100
AcDbLine
 10
-368.0
 20
526.0
 30
0.0
 11
-368.0
 21
547.5
 31
0.0
  0
LINE
  5
7BAAB
330
1E
100
AcDbEntity
  8
DETAIL
  6
CONTINUOUS
100
AcDbLine
 10
-339.5000000000018
 20
545.5
 30
0.0
 11
-362.5000000000018
 21
545.5
 31
0.0
  0
LINE
  5
7BAAC
330
1E
100
AcDbEntity
  8
DETAIL
  6
CONTINUOUS
100
AcDbLine
 10
-339.5000000000018
 20
549.5
 30
0.0
 11
-362.5000000000018
 21
549.5
 31
0.0
  0
LINE
  5
7BAAD
330
1E
100
AcDbEntity
  8
DETAIL
  6
CONTINUOUS
100
AcDbLine
 10
-339.5000000000018
 20
478.0
 30
0.0
 11
-362.5000000000018
 21
478.0
 31
0.0
  0
LINE
  5
7BAAE
330
1E
100
AcDbEntity
  8
DETAIL
  6
CONTINUOUS
100
AcDbLine
 10
-339.5000000000018
 20
474.0
 30
0.0
 11
-362.5000000000018
 21
474.0
 31
0.0
  0
LINE
  5
7BAAF
330
1E
100
AcDbEntity
  8
DETAIL
  6
CONTINUOUS
100
AcDbLine
 10
-339.5000000000018
 20
524.0
 30
0.0
 11
-362.5000000000018
 21
524.0
 31
0.0
  0
LINE
  5
7BAB0
330
1E
100
AcDbEntity
  8
DETAIL
  6
CONTINUOUS
100
AcDbLine
 10
-339.5000000000018
 20
528.0
 30
0.0
 11
-362.5000000000018
 21
528.0
 31
0.0
  0
LINE
  5
7BAB1
330
1E
100
AcDbEntity
  8
DETAIL
  6
CONTINUOUS
100
AcDbLine
 10
-283.4999999999981
 20
569.0
 30
0.0
 11
-285.5000000000018
 21
569.0
 31
0.0
  0
LINE
  5
7BAB2
330
1E
100
AcDbEntity
  8
DETAIL
  6
CONTINUOUS
100
AcDbLine
 10
-283.4999999999981
 20
573.5
 30
0.0
 11
-287.5000000000018
 21
573.5
 31
0.0
  0
LINE
  5
7BAB3
330
1E
100
AcDbEntity
  8
DETAIL
  6
DASHED
100
AcDbLine
 10
-283.4999999999981
 20
569.0
 30
0.0
 11
-285.5000000000018
 21
569.0
 31
0.0
  0
LINE
  5
7BAB4
330
1E
100
AcDbEntity
  8
DETAIL
  6
CONTINUOUS
100
AcDbLine
 10
-289.5000000000018
 20
567.4999999999999
 30
0.0
 11
-289.5000000000018
 21
571.4999999999999
 31
0.0
  0
LINE
  5
7BAB5
330
1E
100
AcDbEntity
  8
DETAIL
  6
CONTINUOUS
100
AcDbLine
 10
-285.5000000000018
 20
567.4999999999999
 30
0.0
 11
-285.5000000000018
 21
571.4999999999999
 31
0.0
  0
ARC
  5
7BAB6
330
1E
100
AcDbEntity
  8
DETAIL
  6
CONTINUOUS
100
AcDbCircle
 10
-287.5000000000018
 20
571.4999999999999
 30
0.0
 40
1.999999999999943
100
AcDbArc
 50
90.0
 51
180.0
  0
ARC
  5
7BAB7
330
1E
100
AcDbEntity
  8
DETAIL
  6
CONTINUOUS
100
AcDbCircle
 10
-287.5000000000018
 20
571.4999999999999
 30
0.0
 40
2.0
100
AcDbArc
 50
0.0
 51
90.0
  0
LINE
  5
7BAB8
330
1E
100
AcDbEntity
  8
DETAIL
  6
CONTINUOUS
100
AcDbLine
 10
144.0
 20
426.0
 30
0.0
 11
144.0
 21
476.0
 31
0.0
  0
LINE
  5
7BAB9
330
1E
100
AcDbEntity
  8
DETAIL
  6
CONTINUOUS
100
AcDbLine
 10
10.49999999999818
 20
424.0
 30
0.0
 11
-35.50000000000181
 21
424.0
 31
0.0
  0
LINE
  5
7BABA
330
1E
100
AcDbEntity
  8
DETAIL
  6
CONTINUOUS
100
AcDbLine
 10
10.49999999999818
 20
428.0
 30
0.0
 11
-35.50000000000181
 21
428.0
 31
0.0
  0
LINE
  5
7BABB
330
1E
100
AcDbEntity
  8
DETAIL
  6
CONTINUOUS
100
AcDbLine
 10
10.49999999999818
 20
374.0
 30
0.0
 11
-35.50000000000181
 21
374.0
 31
0.0
  0
LINE
  5
7BABC
330
1E
100
AcDbEntity
  8
DETAIL
  6
CONTINUOUS
100
AcDbLine
 10
10.49999999999818
 20
378.0
 30
0.0
 11
-35.50000000000181
 21
378.0
 31
0.0
  0
LINE
  5
7BABD
330
1E
100
AcDbEntity
  8
DETAIL
  6
CONTINUOUS
100
AcDbLine
 10
10.49999999999818
 20
324.0
 30
0.0
 11
-35.50000000000181
 21
324.0
 31
0.0
  0
LINE
  5
7BABE
330
1E
100
AcDbEntity
  8
DETAIL
  6
CONTINUOUS
100
AcDbLine
 10
10.49999999999818
 20
328.0
 30
0.0
 11
-35.50000000000181
 21
328.0
 31
0.0
  0
LINE
  5
7BABF
330
1E
100
AcDbEntity
  8
DETAIL
  6
CONTINUOUS
100
AcDbLine
 10
10.49999999999818
 20
274.0
 30
0.0
 11
-35.50000000000181
 21
274.0
 31
0.0
  0
LINE
  5
7BAC0
330
1E
100
AcDbEntity
  8
DETAIL
  6
CONTINUOUS
100
AcDbLine
 10
10.49999999999818
 20
278.0
 30
0.0
 11
-35.50000000000181
 21
278.0
 31
0.0
  0
LINE
  5
7BAC1
330
1E
100
AcDbEntity
  8
DETAIL
  6
CONTINUOUS
100
AcDbLine
 10
10.49999999999818
 20
174.0
 30
0.0
 11
-35.50000000000181
 21
174.0
 31
0.0
  0
LINE
  5
7BAC2
330
1E
100
AcDbEntity
  8
DETAIL
  6
CONTINUOUS
100
AcDbLine
 10
10.49999999999818
 20
178.0
 30
0.0
 11
-35.50000000000181
 21
178.0
 31
0.0
  0
LINE
  5
7BAC3
330
1E
100
AcDbEntity
  8
DETAIL
  6
CONTINUOUS
100
AcDbLine
 10
10.49999999999818
 20
224.0
 30
0.0
 11
-35.50000000000181
 21
224.0
 31
0.0
  0
LINE
  5
7BAC4
330
1E
100
AcDbEntity
  8
DETAIL
  6
CONTINUOUS
100
AcDbLine
 10
10.49999999999818
 20
228.0
 30
0.0
 11
-35.50000000000181
 21
228.0
 31
0.0
  0
LINE
  5
7BAC5
330
1E
100
AcDbEntity
  8
DETAIL
  6
CONTINUOUS
100
AcDbLine
 10
10.49999999999818
 20
128.0
 30
0.0
 11
-35.50000000000181
 21
128.0
 31
0.0
  0
LINE
  5
7BAC6
330
1E
100
AcDbEntity
  8
DETAIL
  6
CONTINUOUS
100
AcDbLine
 10
-39.50000000000182
 20
424.0
 30
0.0
 11
-85.50000000000181
 21
424.0
 31
0.0
  0
LINE
  5
7BAC7
330
1E
100
AcDbEntity
  8
DETAIL
  6
CONTINUOUS
100
AcDbLine
 10
-39.50000000000182
 20
428.0
 30
0.0
 11
-85.50000000000181
 21
428.0
 31
0.0
  0
LINE
  5
7BAC8
330
1E
100
AcDbEntity
  8
DETAIL
  6
CONTINUOUS
100
AcDbLine
 10
-39.50000000000182
 20
374.0
 30
0.0
 11
-85.50000000000181
 21
374.0
 31
0.0
  0
LINE
  5
7BAC9
330
1E
100
AcDbEntity
  8
DETAIL
  6
CONTINUOUS
100
AcDbLine
 10
-39.50000000000182
 20
378.0
 30
0.0
 11
-85.50000000000181
 21
378.0
 31
0.0
  0
LINE
  5
7BACA
330
1E
100
AcDbEntity
  8
DETAIL
  6
CONTINUOUS
100
AcDbLine
 10
-89.50000000000182
 20
424.0
 30
0.0
 11
-135.5000000000018
 21
424.0
 31
0.0
  0
LINE
  5
7BACB
330
1E
100
AcDbEntity
  8
DETAIL
  6
CONTINUOUS
100
AcDbLine
 10
-89.50000000000182
 20
428.0
 30
0.0
 11
-135.5000000000018
 21
428.0
 31
0.0
  0
LINE
  5
7BACC
330
1E
100
AcDbEntity
  8
DETAIL
  6
CONTINUOUS
100
AcDbLine
 10
-89.50000000000182
 20
374.0
 30
0.0
 11
-135.5000000000018
 21
374.0
 31
0.0
  0
LINE
  5
7BACD
330
1E
100
AcDbEntity
  8
DETAIL
  6
CONTINUOUS
100
AcDbLine
 10
-89.50000000000182
 20
378.0
 30
0.0
 11
-135.5000000000018
 21
378.0
 31
0.0
  0
LINE
  5
7BACE
330
1E
100
AcDbEntity
  8
DETAIL
  6
CONTINUOUS
100
AcDbLine
 10
-139.5000000000018
 20
428.0
 30
0.0
 11
-185.5000000000018
 21
428.0
 31
0.0
  0
LINE
  5
7BACF
330
1E
100
AcDbEntity
  8
DETAIL
  6
CONTINUOUS
100
AcDbLine
 10
-139.5000000000018
 20
424.0
 30
0.0
 11
-185.5000000000018
 21
424.0
 31
0.0
  0
LINE
  5
7BAD0
330
1E
100
AcDbEntity
  8
DETAIL
  6
CONTINUOUS
100
AcDbLine
 10
-139.5000000000018
 20
374.0
 30
0.0
 11
-185.5000000000018
 21
374.0
 31
0.0
  0
LINE
  5
7BAD1
330
1E
100
AcDbEntity
  8
DETAIL
  6
CONTINUOUS
100
AcDbLine
 10
-139.5000000000018
 20
378.0
 30
0.0
 11
-185.5000000000018
 21
378.0
 31
0.0
  0
LINE
  5
7BAD2
330
1E
100
AcDbEntity
  8
DETAIL
  6
CONTINUOUS
100
AcDbLine
 10
-189.5000000000018
 20
424.0
 30
0.0
 11
-235.5000000000018
 21
424.0
 31
0.0
  0
LINE
  5
7BAD3
330
1E
100
AcDbEntity
  8
DETAIL
  6
CONTINUOUS
100
AcDbLine
 10
-189.5000000000018
 20
428.0
 30
0.0
 11
-235.5000000000018
 21
428.0
 31
0.0
  0
LINE
  5
7BAD4
330
1E
100
AcDbEntity
  8
DETAIL
  6
CONTINUOUS
100
AcDbLine
 10
-189.5000000000018
 20
378.0
 30
0.0
 11
-235.5000000000018
 21
378.0
 31
0.0
  0
LINE
  5
7BAD5
330
1E
100
AcDbEntity
  8
DETAIL
  6
CONTINUOUS
100
AcDbLine
 10
-189.5000000000018
 20
374.0
 30
0.0
 11
-235.5000000000018
 21
374.0
 31
0.0
  0
LINE
  5
7BAD6
330
1E
100
AcDbEntity
  8
DETAIL
  6
CONTINUOUS
100
AcDbLine
 10
-39.50000000000182
 20
324.0
 30
0.0
 11
-85.50000000000181
 21
324.0
 31
0.0
  0
LINE
  5
7BAD7
330
1E
100
AcDbEntity
  8
DETAIL
  6
CONTINUOUS
100
AcDbLine
 10
-39.50000000000182
 20
328.0
 30
0.0
 11
-85.50000000000181
 21
328.0
 31
0.0
  0
LINE
  5
7BAD8
330
1E
100
AcDbEntity
  8
DETAIL
  6
CONTINUOUS
100
AcDbLine
 10
-39.50000000000182
 20
274.0
 30
0.0
 11
-85.50000000000181
 21
274.0
 31
0.0
  0
LINE
  5
7BAD9
330
1E
100
AcDbEntity
  8
DETAIL
  6
CONTINUOUS
100
AcDbLine
 10
-39.50000000000182
 20
278.0
 30
0.0
 11
-85.50000000000181
 21
278.0
 31
0.0
  0
LINE
  5
7BADA
330
1E
100
AcDbEntity
  8
DETAIL
  6
CONTINUOUS
100
AcDbLine
 10
-39.50000000000182
 20
224.0
 30
0.0
 11
-85.50000000000181
 21
224.0
 31
0.0
  0
LINE
  5
7BADB
330
1E
100
AcDbEntity
  8
DETAIL
  6
CONTINUOUS
100
AcDbLine
 10
-39.50000000000182
 20
228.0
 30
0.0
 11
-85.50000000000181
 21
228.0
 31
0.0
  0
LINE
  5
7BADC
330
1E
100
AcDbEntity
  8
DETAIL
  6
CONTINUOUS
100
AcDbLine
 10
-39.50000000000182
 20
174.0
 30
0.0
 11
-85.50000000000181
 21
174.0
 31
0.0
  0
LINE
  5
7BADD
330
1E
100
AcDbEntity
  8
DETAIL
  6
CONTINUOUS
100
AcDbLine
 10
-39.50000000000182
 20
178.0
 30
0.0
 11
-85.50000000000181
 21
178.0
 31
0.0
  0
LINE
  5
7BADE
330
1E
100
AcDbEntity
  8
DETAIL
  6
CONTINUOUS
100
AcDbLine
 10
-39.50000000000182
 20
128.0
 30
0.0
 11
-85.50000000000181
 21
128.0
 31
0.0
  0
LINE
  5
7BADF
330
1E
100
AcDbEntity
  8
DETAIL
  6
CONTINUOUS
100
AcDbLine
 10
-89.50000000000182
 20
128.0
 30
0.0
 11
-135.5000000000018
 21
128.0
 31
0.0
  0
LINE
  5
7BAE0
330
1E
100
AcDbEntity
  8
DETAIL
  6
CONTINUOUS
100
AcDbLine
 10
-89.50000000000182
 20
324.0
 30
0.0
 11
-135.5000000000018
 21
324.0
 31
0.0
  0
LINE
  5
7BAE1
330
1E
100
AcDbEntity
  8
DETAIL
  6
CONTINUOUS
100
AcDbLine
 10
-89.50000000000182
 20
328.0
 30
0.0
 11
-135.5000000000018
 21
328.0
 31
0.0
  0
LINE
  5
7BAE2
330
1E
100
AcDbEntity
  8
DETAIL
  6
CONTINUOUS
100
AcDbLine
 10
-89.50000000000182
 20
174.0
 30
0.0
 11
-135.5000000000018
 21
174.0
 31
0.0
  0
LINE
  5
7BAE3
330
1E
100
AcDbEntity
  8
DETAIL
  6
CONTINUOUS
100
AcDbLine
 10
-89.50000000000182
 20
178.0
 30
0.0
 11
-135.5000000000018
 21
178.0
 31
0.0
  0
LINE
  5
7BAE4
330
1E
100
AcDbEntity
  8
DETAIL
  6
CONTINUOUS
100
AcDbLine
 10
-89.50000000000182
 20
274.0
 30
0.0
 11
-135.5000000000018
 21
274.0
 31
0.0
  0
LINE
  5
7BAE5
330
1E
100
AcDbEntity
  8
DETAIL
  6
CONTINUOUS
100
AcDbLine
 10
-89.50000000000182
 20
278.0
 30
0.0
 11
-135.5000000000018
 21
278.0
 31
0.0
  0
LINE
  5
7BAE6
330
1E
100
AcDbEntity
  8
DETAIL
  6
CONTINUOUS
100
AcDbLine
 10
-89.50000000000182
 20
224.0
 30
0.0
 11
-135.5000000000018
 21
224.0
 31
0.0
  0
LINE
  5
7BAE7
330
1E
100
AcDbEntity
  8
DETAIL
  6
CONTINUOUS
100
AcDbLine
 10
-89.50000000000182
 20
228.0
 30
0.0
 11
-135.5000000000018
 21
228.0
 31
0.0
  0
LINE
  5
7BAE8
330
1E
100
AcDbEntity
  8
DETAIL
  6
CONTINUOUS
100
AcDbLine
 10
-139.5000000000018
 20
328.0
 30
0.0
 11
-185.5000000000018
 21
328.0
 31
0.0
  0
LINE
  5
7BAE9
330
1E
100
AcDbEntity
  8
DETAIL
  6
CONTINUOUS
100
AcDbLine
 10
-139.5000000000018
 20
324.0
 30
0.0
 11
-185.5000000000018
 21
324.0
 31
0.0
  0
LINE
  5
7BAEA
330
1E
100
AcDbEntity
  8
DETAIL
  6
CONTINUOUS
100
AcDbLine
 10
-139.5000000000018
 20
278.0
 30
0.0
 11
-185.5000000000018
 21
278.0
 31
0.0
  0
LINE
  5
7BAEB
330
1E
100
AcDbEntity
  8
DETAIL
  6
CONTINUOUS
100
AcDbLine
 10
-139.5000000000018
 20
274.0
 30
0.0
 11
-185.5000000000018
 21
274.0
 31
0.0
  0
LINE
  5
7BAEC
330
1E
100
AcDbEntity
  8
DETAIL
  6
CONTINUOUS
100
AcDbLine
 10
-189.5000000000018
 20
328.0
 30
0.0
 11
-235.5000000000018
 21
328.0
 31
0.0
  0
LINE
  5
7BAED
330
1E
100
AcDbEntity
  8
DETAIL
  6
CONTINUOUS
100
AcDbLine
 10
-189.5000000000018
 20
324.0
 30
0.0
 11
-235.5000000000018
 21
324.0
 31
0.0
  0
LINE
  5
7BAEE
330
1E
100
AcDbEntity
  8
DETAIL
  6
CONTINUOUS
100
AcDbLine
 10
-189.5000000000018
 20
278.0
 30
0.0
 11
-235.5000000000018
 21
278.0
 31
0.0
  0
LINE
  5
7BAEF
330
1E
100
AcDbEntity
  8
DETAIL
  6
CONTINUOUS
100
AcDbLine
 10
-189.5000000000018
 20
274.0
 30
0.0
 11
-235.5000000000018
 21
274.0
 31
0.0
  0
LINE
  5
7BAF0
330
1E
100
AcDbEntity
  8
DETAIL
  6
CONTINUOUS
100
AcDbLine
 10
-139.5000000000018
 20
178.0
 30
0.0
 11
-185.5000000000018
 21
178.0
 31
0.0
  0
LINE
  5
7BAF1
330
1E
100
AcDbEntity
  8
DETAIL
  6
CONTINUOUS
100
AcDbLine
 10
-139.5000000000018
 20
174.0
 30
0.0
 11
-185.5000000000018
 21
174.0
 31
0.0
  0
LINE
  5
7BAF2
330
1E
100
AcDbEntity
  8
DETAIL
  6
CONTINUOUS
100
AcDbLine
 10
-139.5000000000018
 20
228.0
 30
0.0
 11
-185.5000000000018
 21
228.0
 31
0.0
  0
LINE
  5
7BAF3
330
1E
100
AcDbEntity
  8
DETAIL
  6
CONTINUOUS
100
AcDbLine
 10
-139.5000000000018
 20
224.0
 30
0.0
 11
-185.5000000000018
 21
224.0
 31
0.0
  0
LINE
  5
7BAF4
330
1E
100
AcDbEntity
  8
DETAIL
  6
CONTINUOUS
100
AcDbLine
 10
-139.5000000000018
 20
128.0
 30
0.0
 11
-185.5000000000018
 21
128.0
 31
0.0
  0
LINE
  5
7BAF5
330
1E
100
AcDbEntity
  8
DETAIL
  6
CONTINUOUS
100
AcDbLine
 10
-189.5000000000018
 20
128.0
 30
0.0
 11
-235.5000000000018
 21
128.0
 31
0.0
  0
LINE
  5
7BAF6
330
1E
100
AcDbEntity
  8
DETAIL
  6
CONTINUOUS
100
AcDbLine
 10
-189.5000000000018
 20
178.0
 30
0.0
 11
-235.5000000000018
 21
178.0
 31
0.0
  0
LINE
  5
7BAF7
330
1E
100
AcDbEntity
  8
DETAIL
  6
CONTINUOUS
100
AcDbLine
 10
-189.5000000000018
 20
174.0
 30
0.0
 11
-235.5000000000018
 21
174.0
 31
0.0
  0
LINE
  5
7BAF8
330
1E
100
AcDbEntity
  8
DETAIL
  6
CONTINUOUS
100
AcDbLine
 10
-189.5000000000018
 20
224.0
 30
0.0
 11
-235.5000000000018
 21
224.0
 31
0.0
  0
LINE
  5
7BAF9
330
1E
100
AcDbEntity
  8
DETAIL
  6
CONTINUOUS
100
AcDbLine
 10
-189.5000000000018
 20
228.0
 30
0.0
 11
-235.5000000000018
 21
228.0
 31
0.0
  0
LINE
  5
7BAFA
330
1E
100
AcDbEntity
  8
DETAIL
  6
CONTINUOUS
100
AcDbLine
 10
137.4999999999981
 20
428.0
 30
0.0
 11
142.0
 21
428.0
 31
0.0
  0
LINE
  5
7BAFB
330
1E
100
AcDbEntity
  8
DETAIL
  6
CONTINUOUS
100
AcDbLine
 10
137.4999999999981
 20
424.0
 30
0.0
 11
142.0
 21
424.0
 31
0.0
  0
ARC
  5
7BAFC
330
1E
100
AcDbEntity
  8
DETAIL
  6
CONTINUOUS
100
AcDbCircle
 10
142.0
 20
426.0
 30
0.0
 40
2.0
100
AcDbArc
 50
270.0
 51
90.0
  0
LINE
  5
7BAFD
330
1E
100
AcDbEntity
  8
DETAIL
  6
CONTINUOUS
100
AcDbLine
 10
137.4999999999981
 20
378.0
 30
0.0
 11
142.0
 21
378.0
 31
0.0
  0
LINE
  5
7BAFE
330
1E
100
AcDbEntity
  8
DETAIL
  6
CONTINUOUS
100
AcDbLine
 10
137.4999999999981
 20
374.0
 30
0.0
 11
142.0
 21
374.0
 31
0.0
  0
ARC
  5
7BAFF
330
1E
100
AcDbEntity
  8
DETAIL
  6
CONTINUOUS
100
AcDbCircle
 10
142.0
 20
376.0
 30
0.0
 40
2.0
100
AcDbArc
 50
270.0
 51
90.0
  0
LINE
  5
7BB00
330
1E
100
AcDbEntity
  8
DETAIL
  6
CONTINUOUS
100
AcDbLine
 10
144.0
 20
376.0
 30
0.0
 11
144.0
 21
426.0
 31
0.0
  0
LINE
  5
7BB01
330
1E
100
AcDbEntity
  8
DETAIL
  6
CONTINUOUS
100
AcDbLine
 10
137.4999999999981
 20
328.0
 30
0.0
 11
142.0
 21
328.0
 31
0.0
  0
LINE
  5
7BB02
330
1E
100
AcDbEntity
  8
DETAIL
  6
CONTINUOUS
100
AcDbLine
 10
137.4999999999981
 20
324.0
 30
0.0
 11
142.0
 21
324.0
 31
0.0
  0
ARC
  5
7BB03
330
1E
100
AcDbEntity
  8
DETAIL
  6
CONTINUOUS
100
AcDbCircle
 10
142.0
 20
326.0
 30
0.0
 40
2.0
100
AcDbArc
 50
270.0
 51
90.0
  0
LINE
  5
7BB04
330
1E
100
AcDbEntity
  8
DETAIL
  6
CONTINUOUS
100
AcDbLine
 10
137.4999999999981
 20
278.0
 30
0.0
 11
142.0
 21
278.0
 31
0.0
  0
LINE
  5
7BB05
330
1E
100
AcDbEntity
  8
DETAIL
  6
CONTINUOUS
100
AcDbLine
 10
137.4999999999981
 20
274.0
 30
0.0
 11
142.0
 21
274.0
 31
0.0
  0
ARC
  5
7BB06
330
1E
100
AcDbEntity
  8
DETAIL
  6
CONTINUOUS
100
AcDbCircle
 10
142.0
 20
276.0
 30
0.0
 40
2.0
100
AcDbArc
 50
270.0
 51
90.0
  0
LINE
  5
7BB07
330
1E
100
AcDbEntity
  8
DETAIL
  6
CONTINUOUS
100
AcDbLine
 10
144.0
 20
276.0
 30
0.0
 11
144.0
 21
326.0
 31
0.0
  0
LINE
  5
7BB08
330
1E
100
AcDbEntity
  8
DETAIL
  6
CONTINUOUS
100
AcDbLine
 10
137.4999999999981
 20
228.0
 30
0.0
 11
142.0
 21
228.0
 31
0.0
  0
LINE
  5
7BB09
330
1E
100
AcDbEntity
  8
DETAIL
  6
CONTINUOUS
100
AcDbLine
 10
137.4999999999981
 20
224.0
 30
0.0
 11
142.0
 21
224.0
 31
0.0
  0
ARC
  5
7BB0A
330
1E
100
AcDbEntity
  8
DETAIL
  6
CONTINUOUS
100
AcDbCircle
 10
142.0
 20
226.0
 30
0.0
 40
2.000000000000014
100
AcDbArc
 50
270.0
 51
90.0
  0
LINE
  5
7BB0B
330
1E
100
AcDbEntity
  8
DETAIL
  6
CONTINUOUS
100
AcDbLine
 10
137.4999999999981
 20
178.0
 30
0.0
 11
142.0
 21
178.0
 31
0.0
  0
LINE
  5
7BB0C
330
1E
100
AcDbEntity
  8
DETAIL
  6
CONTINUOUS
100
AcDbLine
 10
137.4999999999981
 20
174.0
 30
0.0
 11
142.0
 21
174.0
 31
0.0
  0
ARC
  5
7BB0D
330
1E
100
AcDbEntity
  8
DETAIL
  6
CONTINUOUS
100
AcDbCircle
 10
142.0
 20
176.0
 30
0.0
 40
2.0
100
AcDbArc
 50
270.0
 51
90.0
  0
LINE
  5
7BB0E
330
1E
100
AcDbEntity
  8
DETAIL
  6
CONTINUOUS
100
AcDbLine
 10
144.0
 20
176.0
 30
0.0
 11
144.0
 21
226.0
 31
0.0
  0
LINE
  5
7BB0F
330
1E
100
AcDbEntity
  8
DETAIL
  6
CONTINUOUS
100
AcDbLine
 10
137.4999999999981
 20
128.0
 30
0.0
 11
142.0
 21
128.0
 31
0.0
  0
LINE
  5
7BB10
330
1E
100
AcDbEntity
  8
DETAIL
  6
CONTINUOUS
100
AcDbLine
 10
144.0
 20
126.0
 30
0.0
 11
144.0
 21
176.0
 31
0.0
  0
LINE
  5
7BB11
330
1E
100
AcDbEntity
  8
DETAIL
  6
CONTINUOUS
100
AcDbLine
 10
144.0
 20
226.0
 30
0.0
 11
144.0
 21
276.0
 31
0.0
  0
LINE
  5
7BB12
330
1E
100
AcDbEntity
  8
DETAIL
  6
CONTINUOUS
100
AcDbLine
 10
144.0
 20
326.0
 30
0.0
 11
144.0
 21
376.0
 31
0.0
  0
LINE
  5
7BB13
330
1E
100
AcDbEntity
  8
DETAIL
  6
CONTINUOUS
100
AcDbLine
 10
110.4999999999981
 20
428.0
 30
0.0
 11
64.49999999999818
 21
428.0
 31
0.0
  0
LINE
  5
7BB14
330
1E
100
AcDbEntity
  8
DETAIL
  6
CONTINUOUS
100
AcDbLine
 10
110.4999999999981
 20
424.0
 30
0.0
 11
64.49999999999818
 21
424.0
 31
0.0
  0
LINE
  5
7BB15
330
1E
100
AcDbEntity
  8
DETAIL
  6
CONTINUOUS
100
AcDbLine
 10
110.4999999999981
 20
378.0
 30
0.0
 11
64.49999999999818
 21
378.0
 31
0.0
  0
LINE
  5
7BB16
330
1E
100
AcDbEntity
  8
DETAIL
  6
CONTINUOUS
100
AcDbLine
 10
110.4999999999981
 20
374.0
 30
0.0
 11
64.49999999999818
 21
374.0
 31
0.0
  0
LINE
  5
7BB17
330
1E
100
AcDbEntity
  8
DETAIL
  6
CONTINUOUS
100
AcDbLine
 10
60.49999999999818
 20
428.0
 30
0.0
 11
14.49999999999818
 21
428.0
 31
0.0
  0
LINE
  5
7BB18
330
1E
100
AcDbEntity
  8
DETAIL
  6
CONTINUOUS
100
AcDbLine
 10
60.49999999999818
 20
424.0
 30
0.0
 11
14.49999999999818
 21
424.0
 31
0.0
  0
LINE
  5
7BB19
330
1E
100
AcDbEntity
  8
DETAIL
  6
CONTINUOUS
100
AcDbLine
 10
60.49999999999818
 20
378.0
 30
0.0
 11
14.49999999999818
 21
378.0
 31
0.0
  0
LINE
  5
7BB1A
330
1E
100
AcDbEntity
  8
DETAIL
  6
CONTINUOUS
100
AcDbLine
 10
60.49999999999818
 20
374.0
 30
0.0
 11
14.49999999999818
 21
374.0
 31
0.0
  0
LINE
  5
7BB1B
330
1E
100
AcDbEntity
  8
DETAIL
  6
CONTINUOUS
100
AcDbLine
 10
110.4999999999981
 20
324.0
 30
0.0
 11
64.49999999999818
 21
324.0
 31
0.0
  0
LINE
  5
7BB1C
330
1E
100
AcDbEntity
  8
DETAIL
  6
CONTINUOUS
100
AcDbLine
 10
110.4999999999981
 20
328.0
 30
0.0
 11
64.49999999999818
 21
328.0
 31
0.0
  0
LINE
  5
7BB1D
330
1E
100
AcDbEntity
  8
DETAIL
  6
CONTINUOUS
100
AcDbLine
 10
110.4999999999981
 20
278.0
 30
0.0
 11
64.49999999999818
 21
278.0
 31
0.0
  0
LINE
  5
7BB1E
330
1E
100
AcDbEntity
  8
DETAIL
  6
CONTINUOUS
100
AcDbLine
 10
110.4999999999981
 20
274.0
 30
0.0
 11
64.49999999999818
 21
274.0
 31
0.0
  0
LINE
  5
7BB1F
330
1E
100
AcDbEntity
  8
DETAIL
  6
CONTINUOUS
100
AcDbLine
 10
60.49999999999818
 20
324.0
 30
0.0
 11
14.49999999999818
 21
324.0
 31
0.0
  0
LINE
  5
7BB20
330
1E
100
AcDbEntity
  8
DETAIL
  6
CONTINUOUS
100
AcDbLine
 10
60.49999999999818
 20
328.0
 30
0.0
 11
14.49999999999818
 21
328.0
 31
0.0
  0
LINE
  5
7BB21
330
1E
100
AcDbEntity
  8
DETAIL
  6
CONTINUOUS
100
AcDbLine
 10
60.49999999999818
 20
278.0
 30
0.0
 11
14.49999999999818
 21
278.0
 31
0.0
  0
LINE
  5
7BB22
330
1E
100
AcDbEntity
  8
DETAIL
  6
CONTINUOUS
100
AcDbLine
 10
60.49999999999818
 20
274.0
 30
0.0
 11
14.49999999999818
 21
274.0
 31
0.0
  0
LINE
  5
7BB23
330
1E
100
AcDbEntity
  8
DETAIL
  6
CONTINUOUS
100
AcDbLine
 10
110.4999999999981
 20
174.0
 30
0.0
 11
64.49999999999818
 21
174.0
 31
0.0
  0
LINE
  5
7BB24
330
1E
100
AcDbEntity
  8
DETAIL
  6
CONTINUOUS
100
AcDbLine
 10
110.4999999999981
 20
178.0
 30
0.0
 11
64.49999999999818
 21
178.0
 31
0.0
  0
LINE
  5
7BB25
330
1E
100
AcDbEntity
  8
DETAIL
  6
CONTINUOUS
100
AcDbLine
 10
110.4999999999981
 20
228.0
 30
0.0
 11
64.49999999999818
 21
228.0
 31
0.0
  0
LINE
  5
7BB26
330
1E
100
AcDbEntity
  8
DETAIL
  6
CONTINUOUS
100
AcDbLine
 10
110.4999999999981
 20
224.0
 30
0.0
 11
64.49999999999818
 21
224.0
 31
0.0
  0
LINE
  5
7BB27
330
1E
100
AcDbEntity
  8
DETAIL
  6
CONTINUOUS
100
AcDbLine
 10
110.4999999999981
 20
128.0
 30
0.0
 11
64.49999999999818
 21
128.0
 31
0.0
  0
LINE
  5
7BB28
330
1E
100
AcDbEntity
  8
DETAIL
  6
CONTINUOUS
100
AcDbLine
 10
60.49999999999818
 20
128.0
 30
0.0
 11
14.49999999999818
 21
128.0
 31
0.0
  0
LINE
  5
7BB29
330
1E
100
AcDbEntity
  8
DETAIL
  6
CONTINUOUS
100
AcDbLine
 10
60.49999999999818
 20
174.0
 30
0.0
 11
14.49999999999818
 21
174.0
 31
0.0
  0
LINE
  5
7BB2A
330
1E
100
AcDbEntity
  8
DETAIL
  6
CONTINUOUS
100
AcDbLine
 10
60.49999999999818
 20
178.0
 30
0.0
 11
14.49999999999818
 21
178.0
 31
0.0
  0
LINE
  5
7BB2B
330
1E
100
AcDbEntity
  8
DETAIL
  6
CONTINUOUS
100
AcDbLine
 10
60.49999999999818
 20
228.0
 30
0.0
 11
14.49999999999818
 21
228.0
 31
0.0
  0
LINE
  5
7BB2C
330
1E
100
AcDbEntity
  8
DETAIL
  6
CONTINUOUS
100
AcDbLine
 10
60.49999999999818
 20
224.0
 30
0.0
 11
14.49999999999818
 21
224.0
 31
0.0
  0
LINE
  5
7BB2D
330
1E
100
AcDbEntity
  8
DETAIL
  6
CONTINUOUS
100
AcDbLine
 10
137.4999999999981
 20
324.0
 30
0.0
 11
114.4999999999981
 21
324.0
 31
0.0
  0
LINE
  5
7BB2E
330
1E
100
AcDbEntity
  8
DETAIL
  6
CONTINUOUS
100
AcDbLine
 10
137.4999999999981
 20
328.0
 30
0.0
 11
114.4999999999981
 21
328.0
 31
0.0
  0
LINE
  5
7BB2F
330
1E
100
AcDbEntity
  8
DETAIL
  6
CONTINUOUS
100
AcDbLine
 10
137.4999999999981
 20
274.0
 30
0.0
 11
114.4999999999981
 21
274.0
 31
0.0
  0
LINE
  5
7BB30
330
1E
100
AcDbEntity
  8
DETAIL
  6
CONTINUOUS
100
AcDbLine
 10
137.4999999999981
 20
278.0
 30
0.0
 11
114.4999999999981
 21
278.0
 31
0.0
  0
LINE
  5
7BB31
330
1E
100
AcDbEntity
  8
DETAIL
  6
CONTINUOUS
100
AcDbLine
 10
137.4999999999981
 20
224.0
 30
0.0
 11
114.4999999999981
 21
224.0
 31
0.0
  0
LINE
  5
7BB32
330
1E
100
AcDbEntity
  8
DETAIL
  6
CONTINUOUS
100
AcDbLine
 10
137.4999999999981
 20
228.0
 30
0.0
 11
114.4999999999981
 21
228.0
 31
0.0
  0
LINE
  5
7BB33
330
1E
100
AcDbEntity
  8
DETAIL
  6
CONTINUOUS
100
AcDbLine
 10
137.4999999999981
 20
174.0
 30
0.0
 11
114.4999999999981
 21
174.0
 31
0.0
  0
LINE
  5
7BB34
330
1E
100
AcDbEntity
  8
DETAIL
  6
CONTINUOUS
100
AcDbLine
 10
137.4999999999981
 20
178.0
 30
0.0
 11
114.4999999999981
 21
178.0
 31
0.0
  0
LINE
  5
7BB35
330
1E
100
AcDbEntity
  8
DETAIL
  6
CONTINUOUS
100
AcDbLine
 10
137.4999999999981
 20
128.0
 30
0.0
 11
114.4999999999981
 21
128.0
 31
0.0
  0
LINE
  5
7BB36
330
1E
100
AcDbEntity
  8
DETAIL
  6
CONTINUOUS
100
AcDbLine
 10
137.4999999999981
 20
424.0
 30
0.0
 11
114.4999999999981
 21
424.0
 31
0.0
  0
LINE
  5
7BB37
330
1E
100
AcDbEntity
  8
DETAIL
  6
CONTINUOUS
100
AcDbLine
 10
137.4999999999981
 20
428.0
 30
0.0
 11
114.4999999999981
 21
428.0
 31
0.0
  0
LINE
  5
7BB38
330
1E
100
AcDbEntity
  8
DETAIL
  6
CONTINUOUS
100
AcDbLine
 10
137.4999999999981
 20
374.0
 30
0.0
 11
114.4999999999981
 21
374.0
 31
0.0
  0
LINE
  5
7BB39
330
1E
100
AcDbEntity
  8
DETAIL
  6
CONTINUOUS
100
AcDbLine
 10
137.4999999999981
 20
378.0
 30
0.0
 11
114.4999999999981
 21
378.0
 31
0.0
  0
LINE
  5
7BB3B
330
1E
100
AcDbEntity
  8
DETAIL
  6
CONTINUOUS
100
AcDbLine
 10
10.49999999999818
 20
545.5
 30
0.0
 11
-35.50000000000181
 21
545.5
 31
0.0
  0
LINE
  5
7BB3C
330
1E
100
AcDbEntity
  8
DETAIL
  6
CONTINUOUS
100
AcDbLine
 10
10.49999999999818
 20
549.5
 30
0.0
 11
-35.50000000000181
 21
549.5
 31
0.0
  0
LINE
  5
7BB3D
330
1E
100
AcDbEntity
  8
DETAIL
  6
CONTINUOUS
100
AcDbLine
 10
-35.50000000000181
 20
569.0
 30
0.0
 11
10.49999999999818
 21
569.0
 31
0.0
  0
LINE
  5
7BB3E
330
1E
100
AcDbEntity
  8
DETAIL
  6
CONTINUOUS
100
AcDbLine
 10
-35.50000000000181
 20
565.0
 30
0.0
 11
10.49999999999818
 21
565.0
 31
0.0
  0
LINE
  5
7BB3F
330
1E
100
AcDbEntity
  8
DETAIL
  6
CONTINUOUS
100
AcDbLine
 10
10.49999999999818
 20
474.0
 30
0.0
 11
-35.50000000000181
 21
474.0
 31
0.0
  0
LINE
  5
7BB40
330
1E
100
AcDbEntity
  8
DETAIL
  6
CONTINUOUS
100
AcDbLine
 10
10.49999999999818
 20
478.0
 30
0.0
 11
-35.50000000000181
 21
478.0
 31
0.0
  0
LINE
  5
7BB41
330
1E
100
AcDbEntity
  8
DETAIL
  6
CONTINUOUS
100
AcDbLine
 10
10.49999999999818
 20
528.0
 30
0.0
 11
-35.50000000000181
 21
528.0
 31
0.0
  0
LINE
  5
7BB42
330
1E
100
AcDbEntity
  8
DETAIL
  6
CONTINUOUS
100
AcDbLine
 10
10.49999999999818
 20
524.0
 30
0.0
 11
-35.50000000000181
 21
524.0
 31
0.0
  0
LINE
  5
7BB43
330
1E
100
AcDbEntity
  8
DETAIL
  6
CONTINUOUS
100
AcDbLine
 10
-39.50000000000182
 20
545.5
 30
0.0
 11
-85.50000000000181
 21
545.5
 31
0.0
  0
LINE
  5
7BB44
330
1E
100
AcDbEntity
  8
DETAIL
  6
CONTINUOUS
100
AcDbLine
 10
-39.50000000000182
 20
549.5
 30
0.0
 11
-85.50000000000181
 21
549.5
 31
0.0
  0
LINE
  5
7BB45
330
1E
100
AcDbEntity
  8
DETAIL
  6
CONTINUOUS
100
AcDbLine
 10
-85.50000000000181
 20
569.0
 30
0.0
 11
-39.50000000000182
 21
569.0
 31
0.0
  0
LINE
  5
7BB46
330
1E
100
AcDbEntity
  8
DETAIL
  6
CONTINUOUS
100
AcDbLine
 10
-85.50000000000181
 20
565.0
 30
0.0
 11
-39.50000000000182
 21
565.0
 31
0.0
  0
LINE
  5
7BB47
330
1E
100
AcDbEntity
  8
DETAIL
  6
CONTINUOUS
100
AcDbLine
 10
-39.50000000000182
 20
524.0
 30
0.0
 11
-85.50000000000181
 21
524.0
 31
0.0
  0
LINE
  5
7BB48
330
1E
100
AcDbEntity
  8
DETAIL
  6
CONTINUOUS
100
AcDbLine
 10
-39.50000000000182
 20
528.0
 30
0.0
 11
-85.50000000000181
 21
528.0
 31
0.0
  0
LINE
  5
7BB49
330
1E
100
AcDbEntity
  8
DETAIL
  6
CONTINUOUS
100
AcDbLine
 10
-39.50000000000182
 20
474.0
 30
0.0
 11
-85.50000000000181
 21
474.0
 31
0.0
  0
LINE
  5
7BB4A
330
1E
100
AcDbEntity
  8
DETAIL
  6
CONTINUOUS
100
AcDbLine
 10
-39.50000000000182
 20
478.0
 30
0.0
 11
-85.50000000000181
 21
478.0
 31
0.0
  0
LINE
  5
7BB4B
330
1E
100
AcDbEntity
  8
DETAIL
  6
CONTINUOUS
100
AcDbLine
 10
-89.50000000000182
 20
567.4999999999999
 30
0.0
 11
-89.50000000000182
 21
571.4999999999999
 31
0.0
  0
LINE
  5
7BB4C
330
1E
100
AcDbEntity
  8
DETAIL
  6
CONTINUOUS
100
AcDbLine
 10
-85.50000000000181
 20
567.4999999999999
 30
0.0
 11
-85.50000000000181
 21
571.4999999999999
 31
0.0
  0
ARC
  5
7BB4D
330
1E
100
AcDbEntity
  8
DETAIL
  6
CONTINUOUS
100
AcDbCircle
 10
-87.50000000000182
 20
571.4999999999999
 30
0.0
 40
2.0
100
AcDbArc
 50
0.0
 51
180.0
  0
LINE
  5
7BB4E
330
1E
100
AcDbEntity
  8
DETAIL
  6
CONTINUOUS
100
AcDbLine
 10
-135.5000000000018
 20
567.4999999999999
 30
0.0
 11
-135.5000000000018
 21
571.4999999999999
 31
0.0
  0
LINE
  5
7BB4F
330
1E
100
AcDbEntity
  8
DETAIL
  6
CONTINUOUS
100
AcDbLine
 10
-89.50000000000182
 20
545.5
 30
0.0
 11
-135.5000000000018
 21
545.5
 31
0.0
  0
LINE
  5
7BB50
330
1E
100
AcDbEntity
  8
DETAIL
  6
CONTINUOUS
100
AcDbLine
 10
-89.50000000000182
 20
549.5
 30
0.0
 11
-135.5000000000018
 21
549.5
 31
0.0
  0
LINE
  5
7BB51
330
1E
100
AcDbEntity
  8
DETAIL
  6
CONTINUOUS
100
AcDbLine
 10
-89.50000000000182
 20
474.0
 30
0.0
 11
-135.5000000000018
 21
474.0
 31
0.0
  0
LINE
  5
7BB52
330
1E
100
AcDbEntity
  8
DETAIL
  6
CONTINUOUS
100
AcDbLine
 10
-89.50000000000182
 20
478.0
 30
0.0
 11
-135.5000000000018
 21
478.0
 31
0.0
  0
LINE
  5
7BB53
330
1E
100
AcDbEntity
  8
DETAIL
  6
CONTINUOUS
100
AcDbLine
 10
-89.50000000000182
 20
524.0
 30
0.0
 11
-135.5000000000018
 21
524.0
 31
0.0
  0
LINE
  5
7BB54
330
1E
100
AcDbEntity
  8
DETAIL
  6
CONTINUOUS
100
AcDbLine
 10
-89.50000000000182
 20
528.0
 30
0.0
 11
-135.5000000000018
 21
528.0
 31
0.0
  0
LINE
  5
7BB55
330
1E
100
AcDbEntity
  8
DETAIL
  6
CONTINUOUS
100
AcDbLine
 10
-135.5000000000018
 20
569.0
 30
0.0
 11
-89.50000000000182
 21
569.0
 31
0.0
  0
LINE
  5
7BB56
330
1E
100
AcDbEntity
  8
DETAIL
  6
CONTINUOUS
100
AcDbLine
 10
-135.5000000000018
 20
565.0
 30
0.0
 11
-89.50000000000182
 21
565.0
 31
0.0
  0
LINE
  5
7BB57
330
1E
100
AcDbEntity
  8
DETAIL
  6
CONTINUOUS
100
AcDbLine
 10
-39.50000000000182
 20
567.4999999999999
 30
0.0
 11
-39.50000000000182
 21
571.4999999999999
 31
0.0
  0
LINE
  5
7BB58
330
1E
100
AcDbEntity
  8
DETAIL
  6
CONTINUOUS
100
AcDbLine
 10
-35.50000000000181
 20
567.4999999999999
 30
0.0
 11
-35.50000000000181
 21
571.4999999999999
 31
0.0
  0
ARC
  5
7BB59
330
1E
100
AcDbEntity
  8
DETAIL
  6
CONTINUOUS
100
AcDbCircle
 10
-37.50000000000182
 20
571.4999999999999
 30
0.0
 40
2.0
100
AcDbArc
 50
0.0
 51
180.0
  0
LINE
  5
7BB5A
330
1E
100
AcDbEntity
  8
BASIS
  6
DOT_CENTER
100
AcDbLine
 10
-256.4529002863364
 20
556.0
 30
0.0
 11
-271.1499999999996
 21
556.0
 31
0.0
  0
LINE
  5
7BB5B
330
1E
100
AcDbEntity
  8
DETAIL
  6
CONTINUOUS
100
AcDbLine
 10
-139.5000000000018
 20
567.4999999999999
 30
0.0
 11
-139.5000000000018
 21
571.4999999999999
 31
0.0
  0
LINE
  5
7BB5C
330
1E
100
AcDbEntity
  8
DETAIL
  6
CONTINUOUS
100
AcDbLine
 10
-189.5000000000018
 20
567.4999999999999
 30
0.0
 11
-189.5000000000018
 21
571.4999999999999
 31
0.0
  0
LINE
  5
7BB5D
330
1E
100
AcDbEntity
  8
DETAIL
  6
CONTINUOUS
100
AcDbLine
 10
-185.5000000000018
 20
567.4999999999999
 30
0.0
 11
-185.5000000000018
 21
571.4999999999999
 31
0.0
  0
ARC
  5
7BB5E
330
1E
100
AcDbEntity
  8
DETAIL
  6
CONTINUOUS
100
AcDbCircle
 10
-187.5000000000018
 20
571.4999999999999
 30
0.0
 40
2.0
100
AcDbArc
 50
0.0
 51
180.0
  0
LINE
  5
7BB5F
330
1E
100
AcDbEntity
  8
DETAIL
  6
CONTINUOUS
100
AcDbLine
 10
-139.5000000000018
 20
545.5
 30
0.0
 11
-185.5000000000018
 21
545.5
 31
0.0
  0
LINE
  5
7BB60
330
1E
100
AcDbEntity
  8
DETAIL
  6
CONTINUOUS
100
AcDbLine
 10
-139.5000000000018
 20
549.5
 30
0.0
 11
-185.5000000000018
 21
549.5
 31
0.0
  0
LINE
  5
7BB61
330
1E
100
AcDbEntity
  8
DETAIL
  6
CONTINUOUS
100
AcDbLine
 10
-185.5000000000018
 20
565.0
 30
0.0
 11
-139.5000000000018
 21
565.0
 31
0.0
  0
LINE
  5
7BB62
330
1E
100
AcDbEntity
  8
DETAIL
  6
CONTINUOUS
100
AcDbLine
 10
-185.5000000000018
 20
569.0
 30
0.0
 11
-139.5000000000018
 21
569.0
 31
0.0
  0
LINE
  5
7BB63
330
1E
100
AcDbEntity
  8
DETAIL
  6
CONTINUOUS
100
AcDbLine
 10
-139.5000000000018
 20
474.0
 30
0.0
 11
-185.5000000000018
 21
474.0
 31
0.0
  0
LINE
  5
7BB64
330
1E
100
AcDbEntity
  8
DETAIL
  6
CONTINUOUS
100
AcDbLine
 10
-139.5000000000018
 20
478.0
 30
0.0
 11
-185.5000000000018
 21
478.0
 31
0.0
  0
LINE
  5
7BB65
330
1E
100
AcDbEntity
  8
DETAIL
  6
CONTINUOUS
100
AcDbLine
 10
-139.5000000000018
 20
524.0
 30
0.0
 11
-185.5000000000018
 21
524.0
 31
0.0
  0
LINE
  5
7BB66
330
1E
100
AcDbEntity
  8
DETAIL
  6
CONTINUOUS
100
AcDbLine
 10
-139.5000000000018
 20
528.0
 30
0.0
 11
-185.5000000000018
 21
528.0
 31
0.0
  0
LINE
  5
7BB67
330
1E
100
AcDbEntity
  8
DETAIL
  6
CONTINUOUS
100
AcDbLine
 10
-239.5000000000018
 20
567.4999999999999
 30
0.0
 11
-239.5000000000018
 21
571.4999999999999
 31
0.0
  0
LINE
  5
7BB68
330
1E
100
AcDbEntity
  8
DETAIL
  6
CONTINUOUS
100
AcDbLine
 10
-235.5000000000018
 20
567.4999999999999
 30
0.0
 11
-235.5000000000018
 21
571.4999999999999
 31
0.0
  0
ARC
  5
7BB69
330
1E
100
AcDbEntity
  8
DETAIL
  6
CONTINUOUS
100
AcDbCircle
 10
-237.5000000000018
 20
571.4999999999999
 30
0.0
 40
2.0
100
AcDbArc
 50
0.0
 51
180.0
  0
LINE
  5
7BB6B
330
1E
100
AcDbEntity
  8
DETAIL
  6
CONTINUOUS
100
AcDbLine
 10
-257.4999999999981
 20
564.0
 30
0.0
 11
-257.4999999999981
 21
556.0
 31
0.0
  0
ARC
  5
7BB6D
330
1E
100
AcDbEntity
  8
DETAIL
  6
CONTINUOUS
100
AcDbCircle
 10
-272.4999999999981
 20
567.4999999999999
 30
0.0
 40
5.999999999999519
100
AcDbArc
 50
14.47751218592945
 51
90.0
  0
ARC
  5
7BB6E
330
1E
100
AcDbEntity
  8
DETAIL
  6
CONTINUOUS
100
AcDbCircle
 10
-263.9999999999981
 20
556.0
 30
0.0
 40
6.5
100
AcDbArc
 50
180.0
 51
270.0
  0
ARC
  5
7BB6F
330
1E
100
AcDbEntity
  8
DETAIL
  6
CONTINUOUS
100
AcDbCircle
 10
-263.9999999999981
 20
556.0
 30
0.0
 40
2.5
100
AcDbArc
 50
180.0
 51
0.0
  0
LINE
  5
7BB71
330
1E
100
AcDbEntity
  8
BASIS
  6
DOT_CENTER
100
AcDbLine
 10
-263.9999999999981
 20
563.1499999999996
 30
0.0
 11
-263.9999999999981
 21
548.8499999999985
 31
0.0
  0
LINE
  5
7BB72
330
1E
100
AcDbEntity
  8
DETAIL
  6
CONTINUOUS
100
AcDbLine
 10
-270.4999999999981
 20
556.0
 30
0.0
 11
-270.4999999999972
 21
565.0
 31
0.0
  0
LINE
  5
7BB73
330
1E
100
AcDbEntity
  8
DETAIL
  6
CONTINUOUS
100
AcDbLine
 10
-261.4999999999982
 20
564.0
 30
0.0
 11
-261.4999999999982
 21
556.0
 31
0.0
  0
LINE
  5
7BB74
330
1E
100
AcDbEntity
  8
DETAIL
  6
CONTINUOUS
100
AcDbLine
 10
-266.4999999999981
 20
556.0
 30
0.0
 11
-266.4999999999972
 21
565.0
 31
0.0
  0
LINE
  5
7BB75
330
1E
100
AcDbEntity
  8
DETAIL
  6
CONTINUOUS
100
AcDbLine
 10
-272.4999999999981
 20
569.0
 30
0.0
 11
-239.5000000000018
 21
569.0
 31
0.0
  0
LINE
  5
7BB76
330
1E
100
AcDbEntity
  8
DETAIL
  6
CONTINUOUS
100
AcDbLine
 10
-257.4999999999981
 20
564.0
 30
0.0
 11
-261.4999999999982
 21
564.0
 31
0.0
  0
ARC
  5
7BB78
330
1E
100
AcDbEntity
  8
DETAIL
  6
CONTINUOUS
100
AcDbCircle
 10
-263.9999999999981
 20
556.0
 30
0.0
 40
6.5
100
AcDbArc
 50
270.0
 51
0.0
  0
LINE
  5
7BB79
330
1E
100
AcDbEntity
  8
DETAIL
  6
CONTINUOUS
100
AcDbLine
 10
-189.5000000000018
 20
545.5
 30
0.0
 11
-235.5000000000018
 21
545.5
 31
0.0
  0
LINE
  5
7BB7A
330
1E
100
AcDbEntity
  8
DETAIL
  6
CONTINUOUS
100
AcDbLine
 10
-189.5000000000018
 20
549.5
 30
0.0
 11
-235.5000000000018
 21
549.5
 31
0.0
  0
LINE
  5
7BB7B
330
1E
100
AcDbEntity
  8
DETAIL
  6
CONTINUOUS
100
AcDbLine
 10
-189.5000000000018
 20
474.0
 30
0.0
 11
-235.5000000000018
 21
474.0
 31
0.0
  0
LINE
  5
7BB7C
330
1E
100
AcDbEntity
  8
DETAIL
  6
CONTINUOUS
100
AcDbLine
 10
-189.5000000000018
 20
478.0
 30
0.0
 11
-235.5000000000018
 21
478.0
 31
0.0
  0
LINE
  5
7BB7D
330
1E
100
AcDbEntity
  8
DETAIL
  6
CONTINUOUS
100
AcDbLine
 10
-189.5000000000018
 20
524.0
 30
0.0
 11
-235.5000000000018
 21
524.0
 31
0.0
  0
LINE
  5
7BB7E
330
1E
100
AcDbEntity
  8
DETAIL
  6
CONTINUOUS
100
AcDbLine
 10
-189.5000000000018
 20
528.0
 30
0.0
 11
-235.5000000000018
 21
528.0
 31
0.0
  0
LINE
  5
7BB7F
330
1E
100
AcDbEntity
  8
DETAIL
  6
CONTINUOUS
100
AcDbLine
 10
-235.5000000000018
 20
569.0
 30
0.0
 11
-189.5000000000018
 21
569.0
 31
0.0
  0
LINE
  5
7BB80
330
1E
100
AcDbEntity
  8
DETAIL
  6
CONTINUOUS
100
AcDbLine
 10
-235.5000000000018
 20
565.0
 30
0.0
 11
-189.5000000000018
 21
565.0
 31
0.0
  0
ARC
  5
7BB82
330
1E
100
AcDbEntity
  8
DETAIL
  6
CONTINUOUS
100
AcDbCircle
 10
-137.5000000000018
 20
571.4999999999999
 30
0.0
 40
2.0
100
AcDbArc
 50
0.0
 51
180.0
  0
LINE
  5
7BB88
330
1E
100
AcDbEntity
  8
DETAIL
  6
CONTINUOUS
100
AcDbLine
 10
137.4999999999981
 20
549.5
 30
0.0
 11
142.0
 21
549.5
 31
0.0
  0
LINE
  5
7BB89
330
1E
100
AcDbEntity
  8
DETAIL
  6
CONTINUOUS
100
AcDbLine
 10
137.4999999999981
 20
545.5
 30
0.0
 11
142.0
 21
545.5
 31
0.0
  0
ARC
  5
7BB8A
330
1E
100
AcDbEntity
  8
DETAIL
  6
CONTINUOUS
100
AcDbCircle
 10
142.0
 20
547.5
 30
0.0
 40
2.0
100
AcDbArc
 50
270.0
 51
90.0
  0
LINE
  5
7BB8B
330
1E
100
AcDbEntity
  8
DETAIL
  6
CONTINUOUS
100
AcDbLine
 10
144.0
 20
547.5
 30
0.0
 11
144.0
 21
554.4999999999963
 31
0.0
  0
LINE
  5
7BB8C
330
1E
100
AcDbEntity
  8
DETAIL
  6
CONTINUOUS
100
AcDbLine
 10
144.0
 20
554.4999999999963
 30
0.0
 11
148.0
 21
554.4999999999963
 31
0.0
  0
LINE
  5
7BB8F
330
1E
100
AcDbEntity
  8
DETAIL
  6
CONTINUOUS
100
AcDbLine
 10
137.4999999999981
 20
528.0
 30
0.0
 11
142.0
 21
528.0
 31
0.0
  0
LINE
  5
7BB90
330
1E
100
AcDbEntity
  8
DETAIL
  6
CONTINUOUS
100
AcDbLine
 10
137.4999999999981
 20
524.0
 30
0.0
 11
142.0
 21
524.0
 31
0.0
  0
ARC
  5
7BB91
330
1E
100
AcDbEntity
  8
DETAIL
  6
CONTINUOUS
100
AcDbCircle
 10
142.0
 20
526.0
 30
0.0
 40
2.0
100
AcDbArc
 50
270.0
 51
90.0
  0
LINE
  5
7BB92
330
1E
100
AcDbEntity
  8
DETAIL
  6
CONTINUOUS
100
AcDbLine
 10
137.4999999999981
 20
478.0
 30
0.0
 11
142.0
 21
478.0
 31
0.0
  0
LINE
  5
7BB93
330
1E
100
AcDbEntity
  8
DETAIL
  6
CONTINUOUS
100
AcDbLine
 10
137.4999999999981
 20
474.0
 30
0.0
 11
142.0
 21
474.0
 31
0.0
  0
ARC
  5
7BB94
330
1E
100
AcDbEntity
  8
DETAIL
  6
CONTINUOUS
100
AcDbCircle
 10
142.0
 20
476.0
 30
0.0
 40
2.0
100
AcDbArc
 50
270.0
 51
90.0
  0
LINE
  5
7BB95
330
1E
100
AcDbEntity
  8
DETAIL
  6
CONTINUOUS
100
AcDbLine
 10
144.0
 20
476.0
 30
0.0
 11
144.0
 21
526.0
 31
0.0
  0
LINE
  5
7BB96
330
1E
100
AcDbEntity
  8
DETAIL
  6
CONTINUOUS
100
AcDbLine
 10
144.0
 20
526.0
 30
0.0
 11
144.0
 21
547.5
 31
0.0
  0
LINE
  5
7BB97
330
1E
100
AcDbEntity
  8
DETAIL
  6
CONTINUOUS
100
AcDbLine
 10
119.4999999999981
 20
569.0
 30
0.0
 11
119.4999999999981
 21
565.0
 31
0.0
  0
LINE
  5
7BB98
330
1E
100
AcDbEntity
  8
DETAIL
  6
CONTINUOUS
100
AcDbLine
 10
110.4999999999981
 20
567.4999999999999
 30
0.0
 11
110.4999999999981
 21
571.4999999999999
 31
0.0
  0
LINE
  5
7BB99
330
1E
100
AcDbEntity
  8
DETAIL
  6
CONTINUOUS
100
AcDbLine
 10
114.4999999999981
 20
567.4999999999999
 30
0.0
 11
114.4999999999981
 21
571.4999999999999
 31
0.0
  0
ARC
  5
7BB9A
330
1E
100
AcDbEntity
  8
DETAIL
  6
CONTINUOUS
100
AcDbCircle
 10
112.4999999999981
 20
571.4999999999999
 30
0.0
 40
2.0
100
AcDbArc
 50
0.0
 51
180.0
  0
LINE
  5
7BB9B
330
1E
100
AcDbEntity
  8
DETAIL
  6
CONTINUOUS
100
AcDbLine
 10
114.4999999999981
 20
569.0
 30
0.0
 11
119.4999999999981
 21
569.0
 31
0.0
  0
LINE
  5
7BB9C
330
1E
100
AcDbEntity
  8
DETAIL
  6
CONTINUOUS
100
AcDbLine
 10
114.4999999999981
 20
565.0
 30
0.0
 11
119.4999999999981
 21
565.0
 31
0.0
  0
LINE
  5
7BB9E
330
1E
100
AcDbEntity
  8
DETAIL
  6
CONTINUOUS
100
AcDbLine
 10
64.49999999999818
 20
567.4999999999999
 30
0.0
 11
64.49999999999818
 21
571.4999999999999
 31
0.0
  0
LINE
  5
7BB9F
330
1E
100
AcDbEntity
  8
DETAIL
  6
CONTINUOUS
100
AcDbLine
 10
60.49999999999818
 20
567.4999999999999
 30
0.0
 11
60.49999999999818
 21
571.4999999999999
 31
0.0
  0
LINE
  5
7BBA0
330
1E
100
AcDbEntity
  8
DETAIL
  6
CONTINUOUS
100
AcDbLine
 10
58.49999999999818
 20
573.5
 30
0.0
 11
62.49999999999818
 21
573.5
 31
0.0
  0
LINE
  5
7BBA1
330
1E
100
AcDbEntity
  8
DETAIL
  6
DASHED
100
AcDbLine
 10
58.49999999999818
 20
569.0
 30
0.0
 11
60.49999999999818
 21
569.0
 31
0.0
  0
ARC
  5
7BBA2
330
1E
100
AcDbEntity
  8
DETAIL
  6
CONTINUOUS
100
AcDbCircle
 10
62.49999999999818
 20
571.4999999999999
 30
0.0
 40
2.0
100
AcDbArc
 50
90.0
 51
180.0
  0
ARC
  5
7BBA3
330
1E
100
AcDbEntity
  8
DETAIL
  6
CONTINUOUS
100
AcDbCircle
 10
62.49999999999818
 20
571.4999999999999
 30
0.0
 40
2.0
100
AcDbArc
 50
0.0
 51
90.0
  0
LINE
  5
7BBA4
330
1E
100
AcDbEntity
  8
DETAIL
  6
CONTINUOUS
100
AcDbLine
 10
58.49999999999818
 20
569.0
 30
0.0
 11
60.49999999999818
 21
569.0
 31
0.0
  0
ARC
  5
7BBA6
330
1E
100
AcDbEntity
  8
DETAIL
  6
CONTINUOUS
100
AcDbCircle
 10
47.49999999999817
 20
567.4999999999999
 30
0.0
 40
6.000000000000113
100
AcDbArc
 50
90.0
 51
165.5224878140705
  0
LINE
  5
7BBA8
330
1E
100
AcDbEntity
  8
DETAIL
  6
CONTINUOUS
100
AcDbLine
 10
47.49999999999817
 20
573.5
 30
0.0
 11
58.49999999999818
 21
573.5
 31
0.0
  0
LINE
  5
7BBA9
330
1E
100
AcDbEntity
  8
DETAIL
  6
DASHED
100
AcDbLine
 10
47.49999999999817
 20
569.0
 30
0.0
 11
58.49999999999818
 21
569.0
 31
0.0
  0
LINE
  5
7BBAA
330
1E
100
AcDbEntity
  8
DETAIL
  6
CONTINUOUS
100
AcDbLine
 10
47.49999999999909
 20
569.5
 30
0.0
 11
60.49999999999818
 21
569.5
 31
0.0
  0
ARC
  5
7BBAC
330
1E
100
AcDbEntity
  8
DETAIL
  6
CONTINUOUS
100
AcDbCircle
 10
38.99999999999818
 20
556.0
 30
0.0
 40
6.5
100
AcDbArc
 50
270.0
 51
0.0
  0
ARC
  5
7BBAD
330
1E
100
AcDbEntity
  8
DETAIL
  6
CONTINUOUS
100
AcDbCircle
 10
38.99999999999818
 20
556.0
 30
0.0
 40
2.5
100
AcDbArc
 50
180.0
 51
0.0
  0
LINE
  5
7BBAE
330
1E
100
AcDbEntity
  8
BASIS
  6
DOT_CENTER
100
AcDbLine
 10
38.99999999999818
 20
563.1499999999996
 30
0.0
 11
38.99999999999818
 21
548.8499999999985
 31
0.0
  0
LINE
  5
7BBB1
330
1E
100
AcDbEntity
  8
DETAIL
  6
CONTINUOUS
100
AcDbLine
 10
41.49999999999818
 20
556.0
 30
0.0
 11
41.49999999999908
 21
565.0
 31
0.0
  0
LINE
  5
7BBB2
330
1E
100
AcDbEntity
  8
DETAIL
  6
CONTINUOUS
100
AcDbLine
 10
45.49999999999818
 20
556.0
 30
0.0
 11
45.49999999999909
 21
565.0
 31
0.0
  0
LINE
  5
7BBB3
330
1E
100
AcDbEntity
  8
DETAIL
  6
CONTINUOUS
100
AcDbLine
 10
36.49999999999818
 20
564.0
 30
0.0
 11
36.49999999999818
 21
556.0
 31
0.0
  0
LINE
  5
7BBB4
330
1E
100
AcDbEntity
  8
DETAIL
  6
CONTINUOUS
100
AcDbLine
 10
110.4999999999981
 20
545.5
 30
0.0
 11
64.49999999999818
 21
545.5
 31
0.0
  0
LINE
  5
7BBB5
330
1E
100
AcDbEntity
  8
DETAIL
  6
CONTINUOUS
100
AcDbLine
 10
110.4999999999981
 20
549.5
 30
0.0
 11
64.49999999999818
 21
549.5
 31
0.0
  0
LINE
  5
7BBB6
330
1E
100
AcDbEntity
  8
DETAIL
  6
CONTINUOUS
100
AcDbLine
 10
64.49999999999818
 20
569.0
 30
0.0
 11
110.4999999999981
 21
569.0
 31
0.0
  0
LINE
  5
7BBB7
330
1E
100
AcDbEntity
  8
DETAIL
  6
CONTINUOUS
100
AcDbLine
 10
64.49999999999818
 20
565.0
 30
0.0
 11
110.4999999999981
 21
565.0
 31
0.0
  0
LINE
  5
7BBB8
330
1E
100
AcDbEntity
  8
DETAIL
  6
CONTINUOUS
100
AcDbLine
 10
110.4999999999981
 20
474.0
 30
0.0
 11
64.49999999999818
 21
474.0
 31
0.0
  0
LINE
  5
7BBB9
330
1E
100
AcDbEntity
  8
DETAIL
  6
CONTINUOUS
100
AcDbLine
 10
110.4999999999981
 20
478.0
 30
0.0
 11
64.49999999999818
 21
478.0
 31
0.0
  0
LINE
  5
7BBBA
330
1E
100
AcDbEntity
  8
DETAIL
  6
CONTINUOUS
100
AcDbLine
 10
110.4999999999981
 20
528.0
 30
0.0
 11
64.49999999999818
 21
528.0
 31
0.0
  0
LINE
  5
7BBBB
330
1E
100
AcDbEntity
  8
DETAIL
  6
CONTINUOUS
100
AcDbLine
 10
110.4999999999981
 20
524.0
 30
0.0
 11
64.49999999999818
 21
524.0
 31
0.0
  0
LINE
  5
7BBBC
330
1E
100
AcDbEntity
  8
DETAIL
  6
CONTINUOUS
100
AcDbLine
 10
10.49999999999818
 20
567.4999999999999
 30
0.0
 11
10.49999999999818
 21
571.4999999999999
 31
0.0
  0
LINE
  5
7BBBD
330
1E
100
AcDbEntity
  8
DETAIL
  6
CONTINUOUS
100
AcDbLine
 10
14.49999999999818
 20
567.4999999999999
 30
0.0
 11
14.49999999999818
 21
571.4999999999999
 31
0.0
  0
ARC
  5
7BBBE
330
1E
100
AcDbEntity
  8
DETAIL
  6
CONTINUOUS
100
AcDbCircle
 10
12.49999999999818
 20
571.4999999999999
 30
0.0
 40
2.0
100
AcDbArc
 50
0.0
 51
180.0
  0
LINE
  5
7BBBF
330
1E
100
AcDbEntity
  8
DETAIL
  6
CONTINUOUS
100
AcDbLine
 10
32.49999999999818
 20
564.0
 30
0.0
 11
32.49999999999818
 21
556.0
 31
0.0
  0
LINE
  5
7BBC0
330
1E
100
AcDbEntity
  8
DETAIL
  6
CONTINUOUS
100
AcDbLine
 10
60.49999999999818
 20
549.5
 30
0.0
 11
14.49999999999818
 21
549.5
 31
0.0
  0
LINE
  5
7BBC1
330
1E
100
AcDbEntity
  8
DETAIL
  6
CONTINUOUS
100
AcDbLine
 10
60.49999999999818
 20
545.5
 30
0.0
 11
14.49999999999818
 21
545.5
 31
0.0
  0
LINE
  5
7BBC2
330
1E
100
AcDbEntity
  8
DETAIL
  6
CONTINUOUS
100
AcDbLine
 10
60.49999999999818
 20
478.0
 30
0.0
 11
14.49999999999818
 21
478.0
 31
0.0
  0
LINE
  5
7BBC3
330
1E
100
AcDbEntity
  8
DETAIL
  6
CONTINUOUS
100
AcDbLine
 10
60.49999999999818
 20
474.0
 30
0.0
 11
14.49999999999818
 21
474.0
 31
0.0
  0
LINE
  5
7BBC4
330
1E
100
AcDbEntity
  8
DETAIL
  6
CONTINUOUS
100
AcDbLine
 10
60.49999999999818
 20
524.0
 30
0.0
 11
14.49999999999818
 21
524.0
 31
0.0
  0
LINE
  5
7BBC5
330
1E
100
AcDbEntity
  8
DETAIL
  6
CONTINUOUS
100
AcDbLine
 10
60.49999999999818
 20
528.0
 30
0.0
 11
14.49999999999818
 21
528.0
 31
0.0
  0
LINE
  5
7BBC6
330
1E
100
AcDbEntity
  8
BASIS
  6
DOT_CENTER
100
AcDbLine
 10
46.14999999999963
 20
556.0
 30
0.0
 11
31.85000000000036
 21
556.0
 31
0.0
  0
LINE
  5
7BBC7
330
1E
100
AcDbEntity
  8
DETAIL
  6
CONTINUOUS
100
AcDbLine
 10
36.49999999999818
 20
564.0
 30
0.0
 11
32.49999999999818
 21
564.0
 31
0.0
  0
ARC
  5
7BBC8
330
1E
100
AcDbEntity
  8
DETAIL
  6
CONTINUOUS
100
AcDbCircle
 10
38.99999999999818
 20
556.0
 30
0.0
 40
6.499999999999985
100
AcDbArc
 50
180.0
 51
270.0
  0
LINE
  5
7BBC9
330
1E
100
AcDbEntity
  8
DETAIL
  6
CONTINUOUS
100
AcDbLine
 10
14.49999999999818
 20
569.0
 30
0.0
 11
47.49999999999817
 21
569.0
 31
0.0
  0
LINE
  5
7BBCA
330
1E
100
AcDbEntity
  8
DETAIL
  6
CONTINUOUS
100
AcDbLine
 10
14.49999999999818
 20
565.0
 30
0.0
 11
60.49999999999818
 21
565.0
 31
0.0
  0
LINE
  5
7BBCC
330
1E
100
AcDbEntity
  8
DETAIL
  6
DOT_CENTER
100
AcDbLine
 10
31.85000000000036
 20
556.0
 30
0.0
 11
31.60789971366648
 21
556.0
 31
0.0
  0
LINE
  5
7BBCD
330
1E
100
AcDbEntity
  8
DETAIL
  6
CONTINUOUS
100
AcDbLine
 10
137.4999999999981
 20
545.5
 30
0.0
 11
114.4999999999981
 21
545.5
 31
0.0
  0
LINE
  5
7BBCE
330
1E
100
AcDbEntity
  8
DETAIL
  6
CONTINUOUS
100
AcDbLine
 10
137.4999999999981
 20
549.5
 30
0.0
 11
114.4999999999981
 21
549.5
 31
0.0
  0
LINE
  5
7BBCF
330
1E
100
AcDbEntity
  8
DETAIL
  6
CONTINUOUS
100
AcDbLine
 10
137.4999999999981
 20
524.0
 30
0.0
 11
114.4999999999981
 21
524.0
 31
0.0
  0
LINE
  5
7BBD0
330
1E
100
AcDbEntity
  8
DETAIL
  6
CONTINUOUS
100
AcDbLine
 10
137.4999999999981
 20
528.0
 30
0.0
 11
114.4999999999981
 21
528.0
 31
0.0
  0
LINE
  5
7BBD1
330
1E
100
AcDbEntity
  8
DETAIL
  6
CONTINUOUS
100
AcDbLine
 10
137.4999999999981
 20
474.0
 30
0.0
 11
114.4999999999981
 21
474.0
 31
0.0
  0
LINE
  5
7BBD2
330
1E
100
AcDbEntity
  8
DETAIL
  6
CONTINUOUS
100
AcDbLine
 10
137.4999999999981
 20
478.0
 30
0.0
 11
114.4999999999981
 21
478.0
 31
0.0
  0
ARC
  5
7BBFD
330
1E
100
AcDbEntity
  8
DETAIL
  6
CONTINUOUS
100
AcDbCircle
 10
47.49999999999909
 20
567.4999999999999
 30
0.0
 40
2.0
100
AcDbArc
 50
90.0
 51
131.4096221092794
  0
ARC
  5
7BBFE
330
1E
100
AcDbEntity
  8
DETAIL
  6
CONTINUOUS
100
AcDbCircle
 10
-272.4999999999981
 20
567.4999999999999
 30
0.0
 40
2.0
100
AcDbArc
 50
48.59037789074004
 51
90.0
  0
LINE
  5
7CFE5
330
1E
100
AcDbEntity
  8
DETAIL
  6
CONTINUOUS
100
AcDbLine
 10
-418.0
 20
48.00001999999768
 30
0.0
 11
-418.0
 21
555.0000199999977
 31
0.0
  0
LINE
  5
7CFE6
330
1E
100
AcDbEntity
  8
DETAIL
  6
CONTINUOUS
100
AcDbLine
 10
-414.0
 20
48.00001999999768
 30
0.0
 11
-414.0
 21
555.0000199999977
 31
0.0
  0
LINE
  5
7CFE8
330
1E
100
AcDbEntity
  8
DETAIL
  6
CONTINUOUS
100
AcDbLine
 10
-461.0
 20
48.00001999999768
 30
0.0
 11
-461.0
 21
555.0000199999977
 31
0.0
  0
LINE
  5
7CFE9
330
1E
100
AcDbEntity
  8
DETAIL
  6
CONTINUOUS
100
AcDbLine
 10
-457.0
 20
48.00001999999768
 30
0.0
 11
-457.0
 21
555.0000199999977
 31
0.0
  0
LINE
  5
7CFEB
330
1E
100
AcDbEntity
  8
DETAIL
  6
CONTINUOUS
100
AcDbLine
 10
-508.0000000000036
 20
567.0000199999995
 30
0.0
 11
-507.9999999999982
 21
34.00001999999767
 31
0.0
  0
LINE
  5
7CFEC
330
1E
100
AcDbEntity
  8
DETAIL
  6
CONTINUOUS
100
AcDbLine
 10
-504.0
 20
124.0000199999976
 30
0.0
 11
-504.0000000000036
 21
85.50001999999768
 31
0.0
  0
LINE
  5
7CFEE
330
1E
100
AcDbEntity
  8
DETAIL
  6
CONTINUOUS
100
AcDbLine
 10
-461.0
 20
87.50001999999767
 30
0.0
 11
-498.0
 21
87.50001999999767
 31
0.0
  0
LINE
  5
7CFEF
330
1E
100
AcDbEntity
  8
DETAIL
  6
CONTINUOUS
100
AcDbLine
 10
-461.0
 20
83.50001999999767
 30
0.0
 11
-498.0
 21
83.50001999999767
 31
0.0
  0
LINE
  5
7CFF1
330
1E
100
AcDbEntity
  8
DETAIL
  6
CONTINUOUS
100
AcDbLine
 10
-461.0
 20
57.00001999999767
 30
0.0
 11
-498.0
 21
57.00001999999767
 31
0.0
  0
LINE
  5
7CFF2
330
1E
100
AcDbEntity
  8
DETAIL
  6
CONTINUOUS
100
AcDbLine
 10
-461.0
 20
53.00001999999768
 30
0.0
 11
-498.0
 21
53.00001999999768
 31
0.0
  0
LINE
  5
7CFF4
330
1E
100
AcDbEntity
  8
DETAIL
  6
DASHED
100
AcDbLine
 10
-419.9999999999981
 20
32.00001999999767
 30
0.0
 11
-501.9999999999981
 21
32.00001999999767
 31
0.0
  0
LINE
  5
7CFF5
330
1E
100
AcDbEntity
  8
DETAIL
  6
DASHED
100
AcDbLine
 10
-458.9999999999982
 20
28.00001999999767
 30
0.0
 11
-501.9999999999981
 21
28.00001999999767
 31
0.0
  0
LINE
  5
7CFF6
330
1E
100
AcDbEntity
  8
DETAIL
  6
CONTINUOUS
100
AcDbLine
 10
-419.9999999999981
 20
32.00001999999767
 30
0.0
 11
-501.9999999999981
 21
32.00001999999767
 31
0.0
  0
LINE
  5
7CFF7
330
1E
100
AcDbEntity
  8
DETAIL
  6
CONTINUOUS
100
AcDbLine
 10
-458.9999999999982
 20
28.00001999999767
 30
0.0
 11
-501.9999999999981
 21
28.00001999999767
 31
0.0
  0
ARC
  5
7CFF9
330
1E
100
AcDbEntity
  8
DETAIL
  6
CONTINUOUS
100
AcDbCircle
 10
-502.0
 20
85.50001999999768
 30
0.0
 40
2.0
100
AcDbArc
 50
90.0
 51
270.0
  0
LINE
  5
7CFFA
330
1E
100
AcDbEntity
  8
DETAIL
  6
CONTINUOUS
100
AcDbLine
 10
-498.0
 20
83.50001999999767
 30
0.0
 11
-502.0
 21
83.50001999999767
 31
0.0
  0
LINE
  5
7CFFB
330
1E
100
AcDbEntity
  8
DETAIL
  6
CONTINUOUS
100
AcDbLine
 10
-498.0
 20
87.50001999999767
 30
0.0
 11
-502.0
 21
87.50001999999767
 31
0.0
  0
ARC
  5
7CFFC
330
1E
100
AcDbEntity
  8
DETAIL
  6
CONTINUOUS
100
AcDbCircle
 10
-502.0
 20
55.00001999999767
 30
0.0
 40
2.0
100
AcDbArc
 50
90.0
 51
270.0
  0
LINE
  5
7CFFD
330
1E
100
AcDbEntity
  8
DETAIL
  6
CONTINUOUS
100
AcDbLine
 10
-498.0
 20
53.00001999999768
 30
0.0
 11
-502.0
 21
53.00001999999768
 31
0.0
  0
LINE
  5
7CFFE
330
1E
100
AcDbEntity
  8
DETAIL
  6
CONTINUOUS
100
AcDbLine
 10
-498.0
 20
57.00001999999767
 30
0.0
 11
-502.0
 21
57.00001999999767
 31
0.0
  0
ARC
  5
7CFFF
330
1E
100
AcDbEntity
  8
DETAIL
  6
DASHED
100
AcDbCircle
 10
-501.9999999999981
 20
34.00001999999767
 30
0.0
 40
6.0
100
AcDbArc
 50
180.0
 51
270.0
  0
ARC
  5
7D000
330
1E
100
AcDbEntity
  8
DETAIL
  6
DASHED
100
AcDbCircle
 10
-501.9999999999981
 20
34.00001999999767
 30
0.0
 40
2.0
100
AcDbArc
 50
180.0
 51
270.0
  0
ARC
  5
7D001
330
1E
100
AcDbEntity
  8
DETAIL
  6
CONTINUOUS
100
AcDbCircle
 10
-501.9999999999981
 20
34.00001999999767
 30
0.0
 40
6.0
100
AcDbArc
 50
180.0
 51
270.0
  0
ARC
  5
7D002
330
1E
100
AcDbEntity
  8
DETAIL
  6
CONTINUOUS
100
AcDbCircle
 10
-501.9999999999981
 20
34.00001999999767
 30
0.0
 40
2.0
100
AcDbArc
 50
180.0
 51
270.0
  0
LINE
  5
7D004
330
1E
100
AcDbEntity
  8
DETAIL
  6
CONTINUOUS
100
AcDbLine
 10
-504.0000000000036
 20
85.50001999999768
 30
0.0
 11
-504.0
 21
83.00001999999768
 31
0.0
  0
LINE
  5
7D005
330
1E
100
AcDbEntity
  8
DETAIL
  6
CONTINUOUS
100
AcDbLine
 10
-504.0000000000036
 20
55.00001999999767
 30
0.0
 11
-503.9999999999982
 21
34.00001999999767
 31
0.0
  0
LINE
  5
7D006
330
1E
100
AcDbEntity
  8
DETAIL
  6
CONTINUOUS
100
AcDbLine
 10
-504.0
 20
83.00001999999768
 30
0.0
 11
-504.0000000000036
 21
55.00001999999767
 31
0.0
  0
ARC
  5
7D008
330
1E
100
AcDbEntity
  8
DETAIL
  6
CONTINUOUS
100
AcDbCircle
 10
-402.0000000000036
 20
41.5000199999995
 30
0.0
 40
2.000000000000003
100
AcDbArc
 50
41.40962210927951
 51
180.0
  0
ARC
  5
7D009
330
1E
100
AcDbEntity
  8
DETAIL
  6
CONTINUOUS
100
AcDbCircle
 10
-399.0000000000036
 20
41.5000199999995
 30
0.0
 40
2.0
100
AcDbArc
 50
0.0
 51
180.0
  0
ARC
  5
7D00A
330
1E
100
AcDbEntity
  8
DETAIL
  6
CONTINUOUS
100
AcDbCircle
 10
-403.0000000000018
 20
30.00001999999767
 30
0.0
 40
2.0
100
AcDbArc
 50
284.4775121860621
 51
0.0
  0
ARC
  5
7D00B
330
1E
100
AcDbEntity
  8
DETAIL
  6
CONTINUOUS
100
AcDbCircle
 10
-403.0000000000018
 20
30.00001999999767
 30
0.0
 40
5.999999999999936
100
AcDbArc
 50
330.0000000000418
 51
0.0
  0
ARC
  5
7D00C
330
1E
100
AcDbEntity
  8
DETAIL
  6
CONTINUOUS
100
AcDbCircle
 10
-406.0000000000018
 20
30.05082666151611
 30
0.0
 40
1.999999999999889
100
AcDbArc
 50
270.0
 51
0.0
  0
ARC
  5
7D00D
330
1E
100
AcDbEntity
  8
DETAIL
  6
CONTINUOUS
100
AcDbCircle
 10
-435.9999999999981
 20
26.00001999999767
 30
0.0
 40
2.000000000000001
100
AcDbArc
 50
90.0
 51
270.0
  0
ARC
  5
7D00E
330
1E
100
AcDbEntity
  8
DETAIL
  6
CONTINUOUS
100
AcDbCircle
 10
-403.0000000000018
 20
30.00001999999767
 30
0.0
 40
6.000000000000001
100
AcDbArc
 50
270.0
 51
330.0000000000418
  0
LINE
  5
7D010
330
1E
100
AcDbEntity
  8
DETAIL
  6
CONTINUOUS
100
AcDbLine
 10
-404.0000000000036
 20
41.5000199999995
 30
0.0
 11
-404.0000000000036
 21
37.00001999999949
 31
0.0
  0
LINE
  5
7D011
330
1E
100
AcDbEntity
  8
DETAIL
  6
CONTINUOUS
100
AcDbLine
 10
-401.0000000000036
 20
41.5000199999995
 30
0.0
 11
-401.0000000000036
 21
37.00001999999949
 31
0.0
  0
LINE
  5
7D012
330
1E
100
AcDbEntity
  8
DETAIL
  6
CONTINUOUS
100
AcDbLine
 10
-397.0000000000036
 20
41.5000199999995
 30
0.0
 11
-397.0000000000036
 21
37.00001999999949
 31
0.0
  0
LINE
  5
7D013
330
1E
100
AcDbEntity
  8
DETAIL
  6
CONTINUOUS
100
AcDbLine
 10
-406.0000000000018
 20
24.00001999999767
 30
0.0
 11
-403.0000000000018
 21
24.00001999999767
 31
0.0
  0
LINE
  5
7D014
330
1E
100
AcDbEntity
  8
DETAIL
  6
CONTINUOUS
100
AcDbLine
 10
-397.0000000000036
 20
30.50001999999949
 30
0.0
 11
-397.0000000000018
 21
28.00001999999767
 31
0.0
  0
LINE
  5
7D015
330
1E
100
AcDbEntity
  8
DETAIL
  6
CONTINUOUS
100
AcDbLine
 10
-397.0000000000018
 20
28.00001999999767
 30
0.0
 11
-397.3431457505093
 21
28.00001999999767
 31
0.0
  0
LINE
  5
7D016
330
1E
100
AcDbEntity
  8
DETAIL
  6
CONTINUOUS
100
AcDbLine
 10
-397.0000000000036
 20
37.00001999999949
 30
0.0
 11
-397.0000000000036
 21
30.50001999999949
 31
0.0
  0
LINE
  5
7D017
330
1E
100
AcDbEntity
  8
DETAIL
  6
CONTINUOUS
100
AcDbLine
 10
-401.0000000000036
 20
37.00001999999949
 30
0.0
 11
-401.0000000000018
 21
30.00001999999767
 31
0.0
  0
LINE
  5
7D019
330
1E
100
AcDbEntity
  8
DETAIL
  6
CONTINUOUS
100
AcDbLine
 10
-419.9999999999981
 20
28.00001999999767
 30
0.0
 11
-402.4999999999972
 21
28.06352832689481
 31
0.0
  0
LINE
  5
7D01A
330
1E
100
AcDbEntity
  8
DETAIL
  6
CONTINUOUS
100
AcDbLine
 10
-431.9999999999981
 20
28.00001999999767
 30
0.0
 11
-419.9999999999981
 21
28.00001999999767
 31
0.0
  0
LINE
  5
7D01B
330
1E
100
AcDbEntity
  8
DETAIL
  6
CONTINUOUS
100
AcDbLine
 10
-431.9999999999981
 20
24.00001999999767
 30
0.0
 11
-406.0000000000018
 21
24.00001999999767
 31
0.0
  0
LINE
  5
7D01D
330
1E
100
AcDbEntity
  8
DETAIL
  6
CONTINUOUS
100
AcDbLine
 10
-404.0000000000036
 20
37.00001999999949
 30
0.0
 11
-404.0000000000018
 21
30.05082666151611
 31
0.0
  0
LINE
  5
7D01F
330
1E
100
AcDbEntity
  8
DETAIL
  6
CONTINUOUS
100
AcDbLine
 10
-431.9999999999981
 20
24.00001999999767
 30
0.0
 11
-435.9999999999981
 21
24.00001999999767
 31
0.0
  0
LINE
  5
7D020
330
1E
100
AcDbEntity
  8
DETAIL
  6
CONTINUOUS
100
AcDbLine
 10
-431.9999999999981
 20
28.00001999999767
 30
0.0
 11
-435.9999999999981
 21
28.00001999999767
 31
0.0
  0
CIRCLE
  5
7D022
330
1E
100
AcDbEntity
  8
DETAIL
  6
CONTINUOUS
100
AcDbCircle
 10
-458.9999999999982
 20
26.00001999999767
 30
0.0
 40
2.0
  0
LINE
  5
7D023
330
1E
100
AcDbEntity
  8
BASIS
  6
DOT_CENTER
100
AcDbLine
 10
-458.9999999999982
 20
23.80001999999876
 30
0.0
 11
-458.9999999999982
 21
28.2000199999984
 31
0.0
  0
LINE
  5
7D024
330
1E
100
AcDbEntity
  8
BASIS
  6
DOT_CENTER
100
AcDbLine
 10
-456.8000000000011
 20
26.00001999999767
 30
0.0
 11
-461.1999999999989
 21
26.00001999999767
 31
0.0
  0
LINE
  5
7D025
330
1E
100
AcDbEntity
  8
DETAIL
  6
CONTINUOUS
100
AcDbLine
 10
-418.0
 20
83.50001999999767
 30
0.0
 11
-457.0
 21
83.50001999999767
 31
0.0
  0
LINE
  5
7D026
330
1E
100
AcDbEntity
  8
DETAIL
  6
CONTINUOUS
100
AcDbLine
 10
-418.0
 20
87.50001999999767
 30
0.0
 11
-457.0
 21
87.50001999999767
 31
0.0
  0
LINE
  5
7D027
330
1E
100
AcDbEntity
  8
DETAIL
  6
CONTINUOUS
100
AcDbLine
 10
-410.0000000000036
 20
87.50001999999767
 30
0.0
 11
-410.0000000000036
 21
83.50001999999767
 31
0.0
  0
LINE
  5
7D028
330
1E
100
AcDbEntity
  8
DETAIL
  6
CONTINUOUS
100
AcDbLine
 10
-410.0000000000036
 20
87.50001999999767
 30
0.0
 11
-414.0
 21
87.50001999999767
 31
0.0
  0
LINE
  5
7D029
330
1E
100
AcDbEntity
  8
DETAIL
  6
CONTINUOUS
100
AcDbLine
 10
-410.0000000000036
 20
83.50001999999767
 30
0.0
 11
-414.0
 21
83.50001999999767
 31
0.0
  0
LINE
  5
7D02A
330
1E
100
AcDbEntity
  8
DETAIL
  6
CONTINUOUS
100
AcDbLine
 10
-418.0
 20
53.00001999999768
 30
0.0
 11
-457.0
 21
53.00001999999768
 31
0.0
  0
LINE
  5
7D02B
330
1E
100
AcDbEntity
  8
DETAIL
  6
CONTINUOUS
100
AcDbLine
 10
-418.0
 20
57.00001999999767
 30
0.0
 11
-457.0
 21
57.00001999999767
 31
0.0
  0
LINE
  5
7D02C
330
1E
100
AcDbEntity
  8
DETAIL
  6
CONTINUOUS
100
AcDbLine
 10
-410.0000000000036
 20
57.00001999999767
 30
0.0
 11
-410.0000000000036
 21
53.00001999999768
 31
0.0
  0
LINE
  5
7D02D
330
1E
100
AcDbEntity
  8
DETAIL
  6
CONTINUOUS
100
AcDbLine
 10
-410.0000000000036
 20
53.00001999999768
 30
0.0
 11
-414.0
 21
53.00001999999768
 31
0.0
  0
LINE
  5
7D02E
330
1E
100
AcDbEntity
  8
DETAIL
  6
CONTINUOUS
100
AcDbLine
 10
-410.0000000000036
 20
57.00001999999767
 30
0.0
 11
-414.0
 21
57.00001999999767
 31
0.0
  0
LINE
  5
7D02F
330
1E
100
AcDbEntity
  8
DETAIL
  6
CONTINUOUS
100
AcDbLine
 10
-418.0
 20
48.00001999999768
 30
0.0
 11
-414.0
 21
48.00001999999768
 31
0.0
  0
LINE
  5
7D030
330
1E
100
AcDbEntity
  8
DETAIL
  6
CONTINUOUS
100
AcDbLine
 10
-461.0
 20
48.00001999999768
 30
0.0
 11
-457.0
 21
48.00001999999768
 31
0.0
  0
LINE
  5
7D031
330
1E
100
AcDbEntity
  8
DETAIL
  6
DASHED
100
AcDbLine
 10
-431.9999999999981
 20
28.00001999999767
 30
0.0
 11
-419.9999999999981
 21
28.00001999999767
 31
0.0
  0
LINE
  5
7D032
330
1E
100
AcDbEntity
  8
DETAIL
  6
DASHED
100
AcDbLine
 10
-419.9999999999981
 20
30.00001999999767
 30
0.0
 11
-419.9999999999981
 21
28.00001999999767
 31
0.0
  0
LINE
  5
7D033
330
1E
100
AcDbEntity
  8
DETAIL
  6
DASHED
100
AcDbLine
 10
-419.9999999999981
 20
32.00001999999767
 30
0.0
 11
-419.9999999999981
 21
30.00001999999767
 31
0.0
  0
LINE
  5
7D034
330
1E
100
AcDbEntity
  8
DETAIL
  6
DASHED
100
AcDbLine
 10
-431.9999999999981
 20
28.00001999999767
 30
0.0
 11
-435.9999999999981
 21
28.00001999999767
 31
0.0
  0
LINE
  5
7D035
330
1E
100
AcDbEntity
  8
DETAIL
  6
DASHED
100
AcDbLine
 10
-435.9999999999981
 20
28.00001999999767
 30
0.0
 11
-458.9999999999982
 21
28.00001999999767
 31
0.0
  0
LINE
  5
7D036
330
1E
100
AcDbEntity
  8
DETAIL
  6
DASHED
100
AcDbLine
 10
-431.9999999999981
 20
28.00001999999767
 30
0.0
 11
-419.9999999999981
 21
28.00001999999767
 31
0.0
  0
LINE
  5
7D037
330
1E
100
AcDbEntity
  8
DETAIL
  6
CONTINUOUS
100
AcDbLine
 10
-419.9999999999981
 20
30.00001999999767
 30
0.0
 11
-419.9999999999981
 21
28.00001999999767
 31
0.0
  0
LINE
  5
7D038
330
1E
100
AcDbEntity
  8
DETAIL
  6
CONTINUOUS
100
AcDbLine
 10
-419.9999999999981
 20
32.00001999999767
 30
0.0
 11
-419.9999999999981
 21
30.00001999999767
 31
0.0
  0
LINE
  5
7D039
330
1E
100
AcDbEntity
  8
DETAIL
  6
DASHED
100
AcDbLine
 10
-431.9999999999981
 20
28.00001999999767
 30
0.0
 11
-435.9999999999981
 21
28.00001999999767
 31
0.0
  0
LINE
  5
7D03A
330
1E
100
AcDbEntity
  8
DETAIL
  6
CONTINUOUS
100
AcDbLine
 10
-435.9999999999981
 20
28.00001999999767
 30
0.0
 11
-458.9999999999982
 21
28.00001999999767
 31
0.0
  0
LINE
  5
7D03E
330
1E
100
AcDbEntity
  8
DETAIL
  6
CONTINUOUS
100
AcDbLine
 10
-461.0
 20
518.5000199999977
 30
0.0
 11
-498.0
 21
518.5000199999977
 31
0.0
  0
LINE
  5
7D03F
330
1E
100
AcDbEntity
  8
DETAIL
  6
CONTINUOUS
100
AcDbLine
 10
-461.0
 20
522.5000199999977
 30
0.0
 11
-498.0
 21
522.5000199999977
 31
0.0
  0
LINE
  5
7D041
330
1E
100
AcDbEntity
  8
DETAIL
  6
CONTINUOUS
100
AcDbLine
 10
-461.0
 20
172.5000199999976
 30
0.0
 11
-498.0
 21
172.5000199999976
 31
0.0
  0
LINE
  5
7D042
330
1E
100
AcDbEntity
  8
DETAIL
  6
CONTINUOUS
100
AcDbLine
 10
-461.0
 20
168.5000199999976
 30
0.0
 11
-498.0
 21
168.5000199999976
 31
0.0
  0
LINE
  5
7D044
330
1E
100
AcDbEntity
  8
DETAIL
  6
CONTINUOUS
100
AcDbLine
 10
-461.0
 20
422.5000199999977
 30
0.0
 11
-498.0
 21
422.5000199999977
 31
0.0
  0
LINE
  5
7D045
330
1E
100
AcDbEntity
  8
DETAIL
  6
CONTINUOUS
100
AcDbLine
 10
-461.0
 20
418.5000199999977
 30
0.0
 11
-498.0
 21
418.5000199999977
 31
0.0
  0
LINE
  5
7D047
330
1E
100
AcDbEntity
  8
DETAIL
  6
CONTINUOUS
100
AcDbLine
 10
-461.0
 20
478.5000199999976
 30
0.0
 11
-498.0
 21
478.5000199999976
 31
0.0
  0
LINE
  5
7D048
330
1E
100
AcDbEntity
  8
DETAIL
  6
CONTINUOUS
100
AcDbLine
 10
-461.0
 20
474.5000199999976
 30
0.0
 11
-498.0
 21
474.5000199999976
 31
0.0
  0
LINE
  5
7D04A
330
1E
100
AcDbEntity
  8
DETAIL
  6
CONTINUOUS
100
AcDbLine
 10
-461.0
 20
128.5000199999976
 30
0.0
 11
-498.0
 21
128.5000199999976
 31
0.0
  0
LINE
  5
7D04B
330
1E
100
AcDbEntity
  8
DETAIL
  6
CONTINUOUS
100
AcDbLine
 10
-461.0
 20
124.5000199999976
 30
0.0
 11
-498.0
 21
124.5000199999976
 31
0.0
  0
LINE
  5
7D04D
330
1E
100
AcDbEntity
  8
DETAIL
  6
CONTINUOUS
100
AcDbLine
 10
-461.0
 20
228.5000199999976
 30
0.0
 11
-498.0
 21
228.5000199999976
 31
0.0
  0
LINE
  5
7D04E
330
1E
100
AcDbEntity
  8
DETAIL
  6
CONTINUOUS
100
AcDbLine
 10
-461.0
 20
224.5000199999976
 30
0.0
 11
-498.0
 21
224.5000199999976
 31
0.0
  0
LINE
  5
7D050
330
1E
100
AcDbEntity
  8
DETAIL
  6
CONTINUOUS
100
AcDbLine
 10
-461.0
 20
278.5000199999976
 30
0.0
 11
-498.0
 21
278.5000199999976
 31
0.0
  0
LINE
  5
7D051
330
1E
100
AcDbEntity
  8
DETAIL
  6
CONTINUOUS
100
AcDbLine
 10
-461.0
 20
274.5000199999976
 30
0.0
 11
-498.0
 21
274.5000199999976
 31
0.0
  0
LINE
  5
7D053
330
1E
100
AcDbEntity
  8
DETAIL
  6
CONTINUOUS
100
AcDbLine
 10
-461.0
 20
328.5000199999976
 30
0.0
 11
-498.0
 21
328.5000199999976
 31
0.0
  0
LINE
  5
7D054
330
1E
100
AcDbEntity
  8
DETAIL
  6
CONTINUOUS
100
AcDbLine
 10
-461.0
 20
324.5000199999976
 30
0.0
 11
-498.0
 21
324.5000199999976
 31
0.0
  0
LINE
  5
7D056
330
1E
100
AcDbEntity
  8
DETAIL
  6
CONTINUOUS
100
AcDbLine
 10
-461.0
 20
378.5000199999976
 30
0.0
 11
-498.0
 21
378.5000199999976
 31
0.0
  0
LINE
  5
7D057
330
1E
100
AcDbEntity
  8
DETAIL
  6
CONTINUOUS
100
AcDbLine
 10
-461.0
 20
374.5000199999976
 30
0.0
 11
-498.0
 21
374.5000199999976
 31
0.0
  0
LINE
  5
7D059
330
1E
100
AcDbEntity
  8
DETAIL
  6
CONTINUOUS
100
AcDbLine
 10
-461.0
 20
550.0000199999976
 30
0.0
 11
-498.0
 21
550.0000199999976
 31
0.0
  0
LINE
  5
7D05A
330
1E
100
AcDbEntity
  8
DETAIL
  6
CONTINUOUS
100
AcDbLine
 10
-461.0
 20
546.0000199999976
 30
0.0
 11
-498.0
 21
546.0000199999976
 31
0.0
  0
LINE
  5
7D05C
330
1E
100
AcDbEntity
  8
DETAIL
  6
DASHED
100
AcDbLine
 10
-436.0
 20
573.0000199999994
 30
0.0
 11
-502.0
 21
573.0000199999994
 31
0.0
  0
LINE
  5
7D05D
330
1E
100
AcDbEntity
  8
DETAIL
  6
DASHED
100
AcDbLine
 10
-459.0
 20
569.0000199999994
 30
0.0
 11
-502.0
 21
569.0000199999994
 31
0.0
  0
LINE
  5
7D05F
330
1E
100
AcDbEntity
  8
DETAIL
  6
CONTINUOUS
100
AcDbLine
 10
-436.0
 20
573.0000199999994
 30
0.0
 11
-502.0
 21
573.0000199999994
 31
0.0
  0
LINE
  5
7D060
330
1E
100
AcDbEntity
  8
DETAIL
  6
CONTINUOUS
100
AcDbLine
 10
-459.0
 20
569.0000199999994
 30
0.0
 11
-502.0
 21
569.0000199999994
 31
0.0
  0
LINE
  5
7D061
330
1E
100
AcDbEntity
  8
DETAIL
  6
CONTINUOUS
100
AcDbLine
 10
-504.0
 20
474.0000199999976
 30
0.0
 11
-504.0000000000036
 21
420.5000199999976
 31
0.0
  0
ARC
  5
7D062
330
1E
100
AcDbEntity
  8
DETAIL
  6
CONTINUOUS
100
AcDbCircle
 10
-502.0
 20
170.5000199999976
 30
0.0
 40
2.0
100
AcDbArc
 50
90.0
 51
270.0
  0
LINE
  5
7D063
330
1E
100
AcDbEntity
  8
DETAIL
  6
CONTINUOUS
100
AcDbLine
 10
-498.0
 20
168.5000199999976
 30
0.0
 11
-502.0
 21
168.5000199999976
 31
0.0
  0
LINE
  5
7D064
330
1E
100
AcDbEntity
  8
DETAIL
  6
CONTINUOUS
100
AcDbLine
 10
-498.0
 20
172.5000199999976
 30
0.0
 11
-502.0
 21
172.5000199999976
 31
0.0
  0
ARC
  5
7D065
330
1E
100
AcDbEntity
  8
DETAIL
  6
CONTINUOUS
100
AcDbCircle
 10
-502.0
 20
420.5000199999976
 30
0.0
 40
2.0
100
AcDbArc
 50
90.0
 51
270.0
  0
LINE
  5
7D066
330
1E
100
AcDbEntity
  8
DETAIL
  6
CONTINUOUS
100
AcDbLine
 10
-498.0
 20
418.5000199999977
 30
0.0
 11
-502.0
 21
418.5000199999977
 31
0.0
  0
LINE
  5
7D067
330
1E
100
AcDbEntity
  8
DETAIL
  6
CONTINUOUS
100
AcDbLine
 10
-498.0
 20
422.5000199999977
 30
0.0
 11
-502.0
 21
422.5000199999977
 31
0.0
  0
ARC
  5
7D068
330
1E
100
AcDbEntity
  8
DETAIL
  6
CONTINUOUS
100
AcDbCircle
 10
-502.0
 20
126.5000199999976
 30
0.0
 40
2.0
100
AcDbArc
 50
90.0
 51
270.0
  0
LINE
  5
7D069
330
1E
100
AcDbEntity
  8
DETAIL
  6
CONTINUOUS
100
AcDbLine
 10
-498.0
 20
128.5000199999976
 30
0.0
 11
-502.0
 21
128.5000199999976
 31
0.0
  0
LINE
  5
7D06A
330
1E
100
AcDbEntity
  8
DETAIL
  6
CONTINUOUS
100
AcDbLine
 10
-498.0
 20
124.5000199999976
 30
0.0
 11
-502.0
 21
124.5000199999976
 31
0.0
  0
ARC
  5
7D06B
330
1E
100
AcDbEntity
  8
DETAIL
  6
CONTINUOUS
100
AcDbCircle
 10
-502.0
 20
226.5000199999976
 30
0.0
 40
2.0
100
AcDbArc
 50
90.0
 51
270.0
  0
LINE
  5
7D06C
330
1E
100
AcDbEntity
  8
DETAIL
  6
CONTINUOUS
100
AcDbLine
 10
-498.0
 20
224.5000199999976
 30
0.0
 11
-502.0
 21
224.5000199999976
 31
0.0
  0
LINE
  5
7D06D
330
1E
100
AcDbEntity
  8
DETAIL
  6
CONTINUOUS
100
AcDbLine
 10
-498.0
 20
228.5000199999976
 30
0.0
 11
-502.0
 21
228.5000199999976
 31
0.0
  0
ARC
  5
7D06E
330
1E
100
AcDbEntity
  8
DETAIL
  6
CONTINUOUS
100
AcDbCircle
 10
-502.0
 20
276.5000199999976
 30
0.0
 40
2.0
100
AcDbArc
 50
90.0
 51
270.0
  0
LINE
  5
7D06F
330
1E
100
AcDbEntity
  8
DETAIL
  6
CONTINUOUS
100
AcDbLine
 10
-498.0
 20
274.5000199999976
 30
0.0
 11
-502.0
 21
274.5000199999976
 31
0.0
  0
LINE
  5
7D070
330
1E
100
AcDbEntity
  8
DETAIL
  6
CONTINUOUS
100
AcDbLine
 10
-498.0
 20
278.5000199999976
 30
0.0
 11
-502.0
 21
278.5000199999976
 31
0.0
  0
ARC
  5
7D071
330
1E
100
AcDbEntity
  8
DETAIL
  6
CONTINUOUS
100
AcDbCircle
 10
-502.0
 20
326.5000199999976
 30
0.0
 40
2.0
100
AcDbArc
 50
90.0
 51
270.0
  0
LINE
  5
7D072
330
1E
100
AcDbEntity
  8
DETAIL
  6
CONTINUOUS
100
AcDbLine
 10
-498.0
 20
324.5000199999976
 30
0.0
 11
-502.0
 21
324.5000199999976
 31
0.0
  0
LINE
  5
7D073
330
1E
100
AcDbEntity
  8
DETAIL
  6
CONTINUOUS
100
AcDbLine
 10
-498.0
 20
328.5000199999976
 30
0.0
 11
-502.0
 21
328.5000199999976
 31
0.0
  0
ARC
  5
7D074
330
1E
100
AcDbEntity
  8
DETAIL
  6
CONTINUOUS
100
AcDbCircle
 10
-502.0
 20
376.5000199999976
 30
0.0
 40
2.0
100
AcDbArc
 50
90.0
 51
270.0
  0
LINE
  5
7D075
330
1E
100
AcDbEntity
  8
DETAIL
  6
CONTINUOUS
100
AcDbLine
 10
-498.0
 20
374.5000199999976
 30
0.0
 11
-502.0
 21
374.5000199999976
 31
0.0
  0
LINE
  5
7D076
330
1E
100
AcDbEntity
  8
DETAIL
  6
CONTINUOUS
100
AcDbLine
 10
-498.0
 20
378.5000199999976
 30
0.0
 11
-502.0
 21
378.5000199999976
 31
0.0
  0
LINE
  5
7D077
330
1E
100
AcDbEntity
  8
DETAIL
  6
CONTINUOUS
100
AcDbLine
 10
-504.0000000000036
 20
170.5000199999976
 30
0.0
 11
-504.0
 21
168.0000199999976
 31
0.0
  0
LINE
  5
7D078
330
1E
100
AcDbEntity
  8
DETAIL
  6
CONTINUOUS
100
AcDbLine
 10
-504.0000000000036
 20
226.5000199999976
 30
0.0
 11
-504.0
 21
224.0000199999976
 31
0.0
  0
LINE
  5
7D079
330
1E
100
AcDbEntity
  8
DETAIL
  6
CONTINUOUS
100
AcDbLine
 10
-504.0000000000036
 20
420.5000199999976
 30
0.0
 11
-504.0
 21
418.0000199999977
 31
0.0
  0
LINE
  5
7D07A
330
1E
100
AcDbEntity
  8
DETAIL
  6
CONTINUOUS
100
AcDbLine
 10
-504.0000000000036
 20
376.5000199999976
 30
0.0
 11
-504.0
 21
374.0000199999976
 31
0.0
  0
LINE
  5
7D07B
330
1E
100
AcDbEntity
  8
DETAIL
  6
CONTINUOUS
100
AcDbLine
 10
-504.0000000000036
 20
326.5000199999976
 30
0.0
 11
-504.0
 21
324.0000199999976
 31
0.0
  0
LINE
  5
7D07C
330
1E
100
AcDbEntity
  8
DETAIL
  6
CONTINUOUS
100
AcDbLine
 10
-504.0000000000036
 20
276.5000199999976
 30
0.0
 11
-504.0
 21
274.0000199999976
 31
0.0
  0
LINE
  5
7D07D
330
1E
100
AcDbEntity
  8
DETAIL
  6
CONTINUOUS
100
AcDbLine
 10
-504.0
 20
126.5000199999976
 30
0.0
 11
-504.0
 21
124.0000199999976
 31
0.0
  0
LINE
  5
7D07E
330
1E
100
AcDbEntity
  8
DETAIL
  6
CONTINUOUS
100
AcDbLine
 10
-504.0
 20
168.0000199999976
 30
0.0
 11
-504.0
 21
126.5000199999976
 31
0.0
  0
LINE
  5
7D07F
330
1E
100
AcDbEntity
  8
DETAIL
  6
CONTINUOUS
100
AcDbLine
 10
-504.0
 20
224.0000199999976
 30
0.0
 11
-504.0000000000036
 21
170.5000199999976
 31
0.0
  0
LINE
  5
7D080
330
1E
100
AcDbEntity
  8
DETAIL
  6
CONTINUOUS
100
AcDbLine
 10
-504.0
 20
418.0000199999977
 30
0.0
 11
-504.0000000000036
 21
376.5000199999976
 31
0.0
  0
LINE
  5
7D081
330
1E
100
AcDbEntity
  8
DETAIL
  6
CONTINUOUS
100
AcDbLine
 10
-504.0
 20
374.0000199999976
 30
0.0
 11
-504.0000000000036
 21
326.5000199999976
 31
0.0
  0
LINE
  5
7D082
330
1E
100
AcDbEntity
  8
DETAIL
  6
CONTINUOUS
100
AcDbLine
 10
-504.0
 20
324.0000199999976
 30
0.0
 11
-504.0000000000036
 21
276.5000199999976
 31
0.0
  0
LINE
  5
7D083
330
1E
100
AcDbEntity
  8
DETAIL
  6
CONTINUOUS
100
AcDbLine
 10
-504.0
 20
274.0000199999976
 30
0.0
 11
-504.0000000000036
 21
226.5000199999976
 31
0.0
  0
ARC
  5
7D084
330
1E
100
AcDbEntity
  8
DETAIL
  6
CONTINUOUS
100
AcDbCircle
 10
-502.0
 20
520.5000199999976
 30
0.0
 40
2.0
100
AcDbArc
 50
90.0
 51
270.0
  0
LINE
  5
7D085
330
1E
100
AcDbEntity
  8
DETAIL
  6
CONTINUOUS
100
AcDbLine
 10
-498.0
 20
518.5000199999977
 30
0.0
 11
-502.0
 21
518.5000199999977
 31
0.0
  0
LINE
  5
7D086
330
1E
100
AcDbEntity
  8
DETAIL
  6
CONTINUOUS
100
AcDbLine
 10
-498.0
 20
522.5000199999977
 30
0.0
 11
-502.0
 21
522.5000199999977
 31
0.0
  0
ARC
  5
7D087
330
1E
100
AcDbEntity
  8
DETAIL
  6
CONTINUOUS
100
AcDbCircle
 10
-502.0
 20
476.5000199999977
 30
0.0
 40
2.0
100
AcDbArc
 50
90.0
 51
270.0
  0
LINE
  5
7D088
330
1E
100
AcDbEntity
  8
DETAIL
  6
CONTINUOUS
100
AcDbLine
 10
-498.0
 20
474.5000199999976
 30
0.0
 11
-502.0
 21
474.5000199999976
 31
0.0
  0
LINE
  5
7D089
330
1E
100
AcDbEntity
  8
DETAIL
  6
CONTINUOUS
100
AcDbLine
 10
-498.0
 20
478.5000199999976
 30
0.0
 11
-502.0
 21
478.5000199999976
 31
0.0
  0
ARC
  5
7D08A
330
1E
100
AcDbEntity
  8
DETAIL
  6
CONTINUOUS
100
AcDbCircle
 10
-502.0
 20
548.0000199999977
 30
0.0
 40
2.0
100
AcDbArc
 50
90.0
 51
270.0
  0
LINE
  5
7D08B
330
1E
100
AcDbEntity
  8
DETAIL
  6
CONTINUOUS
100
AcDbLine
 10
-498.0
 20
546.0000199999976
 30
0.0
 11
-502.0
 21
546.0000199999976
 31
0.0
  0
LINE
  5
7D08C
330
1E
100
AcDbEntity
  8
DETAIL
  6
CONTINUOUS
100
AcDbLine
 10
-498.0
 20
550.0000199999976
 30
0.0
 11
-502.0
 21
550.0000199999976
 31
0.0
  0
ARC
  5
7D08D
330
1E
100
AcDbEntity
  8
DETAIL
  6
CONTINUOUS
100
AcDbCircle
 10
-502.0000000000036
 20
567.0000199999995
 30
0.0
 40
6.0
100
AcDbArc
 50
90.0
 51
180.0
  0
ARC
  5
7D08E
330
1E
100
AcDbEntity
  8
DETAIL
  6
CONTINUOUS
100
AcDbCircle
 10
-502.0000000000036
 20
567.0000199999995
 30
0.0
 40
2.0
100
AcDbArc
 50
90.0
 51
180.0
  0
LINE
  5
7D090
330
1E
100
AcDbEntity
  8
DETAIL
  6
CONTINUOUS
100
AcDbLine
 10
-504.0000000000036
 20
548.0000199999977
 30
0.0
 11
-504.0
 21
520.5000199999976
 31
0.0
  0
LINE
  5
7D091
330
1E
100
AcDbEntity
  8
DETAIL
  6
CONTINUOUS
100
AcDbLine
 10
-504.0
 20
520.5000199999976
 30
0.0
 11
-504.0
 21
518.0000199999977
 31
0.0
  0
LINE
  5
7D092
330
1E
100
AcDbEntity
  8
DETAIL
  6
CONTINUOUS
100
AcDbLine
 10
-504.0000000000036
 20
476.5000199999977
 30
0.0
 11
-504.0
 21
474.0000199999976
 31
0.0
  0
LINE
  5
7D093
330
1E
100
AcDbEntity
  8
DETAIL
  6
CONTINUOUS
100
AcDbLine
 10
-504.0000000000033
 20
567.0000199999995
 30
0.0
 11
-504.0000000000036
 21
548.0000199999977
 31
0.0
  0
LINE
  5
7D094
330
1E
100
AcDbEntity
  8
DETAIL
  6
CONTINUOUS
100
AcDbLine
 10
-504.0
 20
518.0000199999977
 30
0.0
 11
-504.0000000000036
 21
476.5000199999977
 31
0.0
  0
LINE
  5
7D095
330
1E
100
AcDbEntity
  8
DETAIL
  6
CONTINUOUS
100
AcDbLine
 10
-410.0000000000036
 20
168.5000199999976
 30
0.0
 11
-414.0
 21
168.5000199999976
 31
0.0
  0
LINE
  5
7D096
330
1E
100
AcDbEntity
  8
DETAIL
  6
CONTINUOUS
100
AcDbLine
 10
-410.0000000000036
 20
172.5000199999976
 30
0.0
 11
-414.0
 21
172.5000199999976
 31
0.0
  0
LINE
  5
7D097
330
1E
100
AcDbEntity
  8
DETAIL
  6
CONTINUOUS
100
AcDbLine
 10
-418.0
 20
168.5000199999976
 30
0.0
 11
-457.0
 21
168.5000199999976
 31
0.0
  0
LINE
  5
7D098
330
1E
100
AcDbEntity
  8
DETAIL
  6
CONTINUOUS
100
AcDbLine
 10
-418.0
 20
172.5000199999976
 30
0.0
 11
-457.0
 21
172.5000199999976
 31
0.0
  0
LINE
  5
7D099
330
1E
100
AcDbEntity
  8
DETAIL
  6
CONTINUOUS
100
AcDbLine
 10
-410.0000000000036
 20
172.5000199999976
 30
0.0
 11
-410.0000000000036
 21
168.5000199999976
 31
0.0
  0
LINE
  5
7D09A
330
1E
100
AcDbEntity
  8
DETAIL
  6
CONTINUOUS
100
AcDbLine
 10
-410.0000000000036
 20
422.5000199999977
 30
0.0
 11
-414.0
 21
422.5000199999977
 31
0.0
  0
LINE
  5
7D09B
330
1E
100
AcDbEntity
  8
DETAIL
  6
CONTINUOUS
100
AcDbLine
 10
-410.0000000000036
 20
422.5000199999977
 30
0.0
 11
-410.0000000000036
 21
418.5000199999977
 31
0.0
  0
LINE
  5
7D09C
330
1E
100
AcDbEntity
  8
DETAIL
  6
CONTINUOUS
100
AcDbLine
 10
-418.0
 20
418.5000199999977
 30
0.0
 11
-457.0
 21
418.5000199999977
 31
0.0
  0
LINE
  5
7D09D
330
1E
100
AcDbEntity
  8
DETAIL
  6
CONTINUOUS
100
AcDbLine
 10
-418.0
 20
422.5000199999977
 30
0.0
 11
-457.0
 21
422.5000199999977
 31
0.0
  0
LINE
  5
7D09E
330
1E
100
AcDbEntity
  8
DETAIL
  6
CONTINUOUS
100
AcDbLine
 10
-410.0000000000036
 20
418.5000199999977
 30
0.0
 11
-414.0
 21
418.5000199999977
 31
0.0
  0
LINE
  5
7D09F
330
1E
100
AcDbEntity
  8
DETAIL
  6
CONTINUOUS
100
AcDbLine
 10
-410.0000000000036
 20
128.5000199999976
 30
0.0
 11
-414.0
 21
128.5000199999976
 31
0.0
  0
LINE
  5
7D0A0
330
1E
100
AcDbEntity
  8
DETAIL
  6
CONTINUOUS
100
AcDbLine
 10
-410.0000000000036
 20
124.5000199999976
 30
0.0
 11
-414.0
 21
124.5000199999976
 31
0.0
  0
LINE
  5
7D0A1
330
1E
100
AcDbEntity
  8
DETAIL
  6
CONTINUOUS
100
AcDbLine
 10
-418.0
 20
128.5000199999976
 30
0.0
 11
-457.0
 21
128.5000199999976
 31
0.0
  0
LINE
  5
7D0A2
330
1E
100
AcDbEntity
  8
DETAIL
  6
CONTINUOUS
100
AcDbLine
 10
-418.0
 20
124.5000199999976
 30
0.0
 11
-457.0
 21
124.5000199999976
 31
0.0
  0
LINE
  5
7D0A3
330
1E
100
AcDbEntity
  8
DETAIL
  6
CONTINUOUS
100
AcDbLine
 10
-410.0000000000036
 20
128.5000199999976
 30
0.0
 11
-410.0000000000036
 21
124.5000199999976
 31
0.0
  0
LINE
  5
7D0A4
330
1E
100
AcDbEntity
  8
DETAIL
  6
CONTINUOUS
100
AcDbLine
 10
-410.0000000000036
 20
228.5000199999976
 30
0.0
 11
-414.0
 21
228.5000199999976
 31
0.0
  0
LINE
  5
7D0A5
330
1E
100
AcDbEntity
  8
DETAIL
  6
CONTINUOUS
100
AcDbLine
 10
-418.0
 20
224.5000199999976
 30
0.0
 11
-457.0
 21
224.5000199999976
 31
0.0
  0
LINE
  5
7D0A6
330
1E
100
AcDbEntity
  8
DETAIL
  6
CONTINUOUS
100
AcDbLine
 10
-418.0
 20
228.5000199999976
 30
0.0
 11
-457.0
 21
228.5000199999976
 31
0.0
  0
LINE
  5
7D0A7
330
1E
100
AcDbEntity
  8
DETAIL
  6
CONTINUOUS
100
AcDbLine
 10
-410.0000000000036
 20
228.5000199999976
 30
0.0
 11
-410.0000000000036
 21
224.5000199999976
 31
0.0
  0
LINE
  5
7D0A8
330
1E
100
AcDbEntity
  8
DETAIL
  6
CONTINUOUS
100
AcDbLine
 10
-410.0000000000036
 20
224.5000199999976
 30
0.0
 11
-414.0
 21
224.5000199999976
 31
0.0
  0
LINE
  5
7D0A9
330
1E
100
AcDbEntity
  8
DETAIL
  6
CONTINUOUS
100
AcDbLine
 10
-410.0000000000036
 20
278.5000199999976
 30
0.0
 11
-410.0000000000036
 21
274.5000199999976
 31
0.0
  0
LINE
  5
7D0AA
330
1E
100
AcDbEntity
  8
DETAIL
  6
CONTINUOUS
100
AcDbLine
 10
-418.0
 20
274.5000199999976
 30
0.0
 11
-457.0
 21
274.5000199999976
 31
0.0
  0
LINE
  5
7D0AB
330
1E
100
AcDbEntity
  8
DETAIL
  6
CONTINUOUS
100
AcDbLine
 10
-418.0
 20
278.5000199999976
 30
0.0
 11
-457.0
 21
278.5000199999976
 31
0.0
  0
LINE
  5
7D0AC
330
1E
100
AcDbEntity
  8
DETAIL
  6
CONTINUOUS
100
AcDbLine
 10
-410.0000000000036
 20
274.5000199999976
 30
0.0
 11
-414.0
 21
274.5000199999976
 31
0.0
  0
LINE
  5
7D0AD
330
1E
100
AcDbEntity
  8
DETAIL
  6
CONTINUOUS
100
AcDbLine
 10
-410.0000000000036
 20
278.5000199999976
 30
0.0
 11
-414.0
 21
278.5000199999976
 31
0.0
  0
LINE
  5
7D0AE
330
1E
100
AcDbEntity
  8
DETAIL
  6
CONTINUOUS
100
AcDbLine
 10
-410.0000000000036
 20
328.5000199999976
 30
0.0
 11
-410.0000000000036
 21
324.5000199999976
 31
0.0
  0
LINE
  5
7D0AF
330
1E
100
AcDbEntity
  8
DETAIL
  6
CONTINUOUS
100
AcDbLine
 10
-418.0
 20
324.5000199999976
 30
0.0
 11
-457.0
 21
324.5000199999976
 31
0.0
  0
LINE
  5
7D0B0
330
1E
100
AcDbEntity
  8
DETAIL
  6
CONTINUOUS
100
AcDbLine
 10
-418.0
 20
328.5000199999976
 30
0.0
 11
-457.0
 21
328.5000199999976
 31
0.0
  0
LINE
  5
7D0B1
330
1E
100
AcDbEntity
  8
DETAIL
  6
CONTINUOUS
100
AcDbLine
 10
-410.0000000000036
 20
328.5000199999976
 30
0.0
 11
-414.0
 21
328.5000199999976
 31
0.0
  0
LINE
  5
7D0B2
330
1E
100
AcDbEntity
  8
DETAIL
  6
CONTINUOUS
100
AcDbLine
 10
-410.0000000000036
 20
324.5000199999976
 30
0.0
 11
-414.0
 21
324.5000199999976
 31
0.0
  0
LINE
  5
7D0B3
330
1E
100
AcDbEntity
  8
DETAIL
  6
CONTINUOUS
100
AcDbLine
 10
-410.0000000000036
 20
378.5000199999976
 30
0.0
 11
-410.0000000000036
 21
374.5000199999976
 31
0.0
  0
LINE
  5
7D0B4
330
1E
100
AcDbEntity
  8
DETAIL
  6
CONTINUOUS
100
AcDbLine
 10
-418.0
 20
374.5000199999976
 30
0.0
 11
-457.0
 21
374.5000199999976
 31
0.0
  0
LINE
  5
7D0B5
330
1E
100
AcDbEntity
  8
DETAIL
  6
CONTINUOUS
100
AcDbLine
 10
-418.0
 20
378.5000199999976
 30
0.0
 11
-457.0
 21
378.5000199999976
 31
0.0
  0
LINE
  5
7D0B6
330
1E
100
AcDbEntity
  8
DETAIL
  6
CONTINUOUS
100
AcDbLine
 10
-410.0000000000036
 20
378.5000199999976
 30
0.0
 11
-414.0
 21
378.5000199999976
 31
0.0
  0
LINE
  5
7D0B7
330
1E
100
AcDbEntity
  8
DETAIL
  6
CONTINUOUS
100
AcDbLine
 10
-410.0000000000036
 20
374.5000199999976
 30
0.0
 11
-414.0
 21
374.5000199999976
 31
0.0
  0
LINE
  5
7D0B8
330
1E
100
AcDbEntity
  8
DETAIL
  6
CONTINUOUS
100
AcDbLine
 10
-410.0000000000036
 20
522.5000199999977
 30
0.0
 11
-410.0000000000036
 21
518.5000199999977
 31
0.0
  0
LINE
  5
7D0B9
330
1E
100
AcDbEntity
  8
DETAIL
  6
CONTINUOUS
100
AcDbLine
 10
-418.0
 20
518.5000199999977
 30
0.0
 11
-457.0
 21
518.5000199999977
 31
0.0
  0
LINE
  5
7D0BA
330
1E
100
AcDbEntity
  8
DETAIL
  6
CONTINUOUS
100
AcDbLine
 10
-410.0000000000036
 20
518.5000199999977
 30
0.0
 11
-414.0
 21
518.5000199999977
 31
0.0
  0
LINE
  5
7D0BB
330
1E
100
AcDbEntity
  8
DETAIL
  6
CONTINUOUS
100
AcDbLine
 10
-418.0
 20
522.5000199999977
 30
0.0
 11
-457.0
 21
522.5000199999977
 31
0.0
  0
LINE
  5
7D0BC
330
1E
100
AcDbEntity
  8
DETAIL
  6
CONTINUOUS
100
AcDbLine
 10
-410.0000000000036
 20
522.5000199999977
 30
0.0
 11
-414.0
 21
522.5000199999977
 31
0.0
  0
LINE
  5
7D0BD
330
1E
100
AcDbEntity
  8
DETAIL
  6
CONTINUOUS
100
AcDbLine
 10
-418.0
 20
474.5000199999976
 30
0.0
 11
-457.0
 21
474.5000199999976
 31
0.0
  0
LINE
  5
7D0BE
330
1E
100
AcDbEntity
  8
DETAIL
  6
CONTINUOUS
100
AcDbLine
 10
-418.0
 20
478.5000199999976
 30
0.0
 11
-457.0
 21
478.5000199999976
 31
0.0
  0
LINE
  5
7D0BF
330
1E
100
AcDbEntity
  8
DETAIL
  6
CONTINUOUS
100
AcDbLine
 10
-410.0000000000036
 20
478.5000199999976
 30
0.0
 11
-410.0000000000036
 21
474.5000199999976
 31
0.0
  0
LINE
  5
7D0C0
330
1E
100
AcDbEntity
  8
DETAIL
  6
CONTINUOUS
100
AcDbLine
 10
-410.0000000000036
 20
474.5000199999976
 30
0.0
 11
-414.0
 21
474.5000199999976
 31
0.0
  0
LINE
  5
7D0C1
330
1E
100
AcDbEntity
  8
DETAIL
  6
CONTINUOUS
100
AcDbLine
 10
-410.0000000000036
 20
478.5000199999976
 30
0.0
 11
-414.0
 21
478.5000199999976
 31
0.0
  0
ARC
  5
7D0C2
330
1E
100
AcDbEntity
  8
DETAIL
  6
CONTINUOUS
100
AcDbCircle
 10
-400.5000000000036
 20
589.5000199999994
 30
0.0
 40
2.0
100
AcDbArc
 50
0.0
 51
180.0
  0
ARC
  5
7D0C3
330
1E
100
AcDbEntity
  8
DETAIL
  6
CONTINUOUS
100
AcDbCircle
 10
-404.5000000000036
 20
579.0000199999995
 30
0.0
 40
5.999999999999951
100
AcDbArc
 50
330.0000000000418
 51
0.0
  0
ARC
  5
7D0C4
330
1E
100
AcDbEntity
  8
DETAIL
  6
CONTINUOUS
100
AcDbCircle
 10
-436.0
 20
575.0000199999995
 30
0.0
 40
2.0
100
AcDbArc
 50
90.0
 51
270.0
  0
ARC
  5
7D0C5
330
1E
100
AcDbEntity
  8
DETAIL
  6
CONTINUOUS
100
AcDbCircle
 10
-404.5000000000036
 20
579.0000199999995
 30
0.0
 40
6.0
100
AcDbArc
 50
270.0
 51
330.0000000000418
  0
ARC
  5
7D0C6
330
1E
100
AcDbEntity
  8
DETAIL
  6
CONTINUOUS
100
AcDbCircle
 10
-404.5000000000036
 20
579.0000199999995
 30
0.0
 40
2.0
100
AcDbArc
 50
270.0
 51
0.0
  0
LINE
  5
7D0C8
330
1E
100
AcDbEntity
  8
DETAIL
  6
CONTINUOUS
100
AcDbLine
 10
-402.5000000000036
 20
585.0000199999994
 30
0.0
 11
-402.5000000000036
 21
589.5000199999994
 31
0.0
  0
LINE
  5
7D0C9
330
1E
100
AcDbEntity
  8
DETAIL
  6
CONTINUOUS
100
AcDbLine
 10
-398.5000000000036
 20
585.0000199999994
 30
0.0
 11
-398.5000000000036
 21
589.5000199999994
 31
0.0
  0
LINE
  5
7D0CA
330
1E
100
AcDbEntity
  8
DETAIL
  6
CONTINUOUS
100
AcDbLine
 10
-398.5000000000036
 20
580.0000199999995
 30
0.0
 11
-398.5000000000036
 21
576.0000199999995
 31
0.0
  0
LINE
  5
7D0CB
330
1E
100
AcDbEntity
  8
DETAIL
  6
CONTINUOUS
100
AcDbLine
 10
-398.5000000000036
 20
585.0000199999994
 30
0.0
 11
-398.5000000000036
 21
580.0000199999995
 31
0.0
  0
LINE
  5
7D0CC
330
1E
100
AcDbEntity
  8
DETAIL
  6
CONTINUOUS
100
AcDbLine
 10
-402.5000000000036
 20
585.0000199999994
 30
0.0
 11
-402.5000000000036
 21
579.0000199999995
 31
0.0
  0
LINE
  5
7D0CD
330
1E
100
AcDbEntity
  8
DETAIL
  6
CONTINUOUS
100
AcDbLine
 10
-398.5000000000036
 20
576.0000199999995
 30
0.0
 11
-399.3038475772955
 21
576.0000199999995
 31
0.0
  0
LINE
  5
7D0CE
330
1E
100
AcDbEntity
  8
DETAIL
  6
CONTINUOUS
100
AcDbLine
 10
-429.0
 20
573.0000199999994
 30
0.0
 11
-420.0
 21
573.0000199999994
 31
0.0
  0
LINE
  5
7D0CF
330
1E
100
AcDbEntity
  8
DETAIL
  6
DASHED
100
AcDbLine
 10
-432.0
 20
573.0000199999994
 30
0.0
 11
-429.0
 21
573.0000199999994
 31
0.0
  0
LINE
  5
7D0D0
330
1E
100
AcDbEntity
  8
DETAIL
  6
CONTINUOUS
100
AcDbLine
 10
-432.0
 20
577.0000199999994
 30
0.0
 11
-404.5000000000036
 21
577.0000199999994
 31
0.0
  0
LINE
  5
7D0D1
330
1E
100
AcDbEntity
  8
DETAIL
  6
CONTINUOUS
100
AcDbLine
 10
-432.0
 20
577.0000199999994
 30
0.0
 11
-436.0
 21
577.0000199999994
 31
0.0
  0
LINE
  5
7D0D2
330
1E
100
AcDbEntity
  8
DETAIL
  6
DASHED
100
AcDbLine
 10
-432.0
 20
573.0000199999994
 30
0.0
 11
-434.0
 21
573.0000199999994
 31
0.0
  0
LINE
  5
7D0D3
330
1E
100
AcDbEntity
  8
DETAIL
  6
CONTINUOUS
100
AcDbLine
 10
-420.0
 20
573.0000199999994
 30
0.0
 11
-404.5000000000036
 21
573.0000199999994
 31
0.0
  0
LINE
  5
7D0D4
330
1E
100
AcDbEntity
  8
DETAIL
  6
DASHED
100
AcDbLine
 10
-434.0
 20
573.0000199999994
 30
0.0
 11
-436.0
 21
573.0000199999994
 31
0.0
  0
CIRCLE
  5
7D0D7
330
1E
100
AcDbEntity
  8
DETAIL
  6
CONTINUOUS
100
AcDbCircle
 10
-459.0
 20
567.0000199999995
 30
0.0
 40
2.0
  0
LINE
  5
7D0D8
330
1E
100
AcDbEntity
  8
BASIS
  6
DOT_CENTER
100
AcDbLine
 10
-459.0
 20
564.8000199999987
 30
0.0
 11
-459.0
 21
569.2000200000002
 31
0.0
  0
LINE
  5
7D0D9
330
1E
100
AcDbEntity
  8
BASIS
  6
DOT_CENTER
100
AcDbLine
 10
-456.8000000000028
 20
567.0000199999995
 30
0.0
 11
-461.2000000000007
 21
567.0000199999995
 31
0.0
  0
LINE
  5
7D0DA
330
1E
100
AcDbEntity
  8
DETAIL
  6
CONTINUOUS
100
AcDbLine
 10
-410.0000000000036
 20
550.0000199999976
 30
0.0
 11
-414.0
 21
550.0000199999976
 31
0.0
  0
LINE
  5
7D0DB
330
1E
100
AcDbEntity
  8
DETAIL
  6
CONTINUOUS
100
AcDbLine
 10
-418.0
 20
546.0000199999976
 30
0.0
 11
-457.0
 21
546.0000199999976
 31
0.0
  0
LINE
  5
7D0DC
330
1E
100
AcDbEntity
  8
DETAIL
  6
CONTINUOUS
100
AcDbLine
 10
-418.0
 20
550.0000199999976
 30
0.0
 11
-457.0
 21
550.0000199999976
 31
0.0
  0
LINE
  5
7D0DD
330
1E
100
AcDbEntity
  8
DETAIL
  6
CONTINUOUS
100
AcDbLine
 10
-410.0000000000036
 20
546.0000199999976
 30
0.0
 11
-414.0
 21
546.0000199999976
 31
0.0
  0
LINE
  5
7D0DE
330
1E
100
AcDbEntity
  8
DETAIL
  6
CONTINUOUS
100
AcDbLine
 10
-410.0000000000036
 20
550.0000199999976
 30
0.0
 11
-410.0000000000036
 21
546.0000199999976
 31
0.0
  0
LINE
  5
7D0DF
330
1E
100
AcDbEntity
  8
DETAIL
  6
CONTINUOUS
100
AcDbLine
 10
-418.0
 20
555.0000199999977
 30
0.0
 11
-414.0
 21
555.0000199999977
 31
0.0
  0
LINE
  5
7D0E0
330
1E
100
AcDbEntity
  8
DETAIL
  6
CONTINUOUS
100
AcDbLine
 10
-461.0
 20
555.0000199999977
 30
0.0
 11
-457.0
 21
555.0000199999977
 31
0.0
  0
LINE
  5
7D0E1
330
1E
100
AcDbEntity
  8
DETAIL
  6
DASHED
100
AcDbLine
 10
-429.0
 20
573.0000199999994
 30
0.0
 11
-420.0
 21
573.0000199999994
 31
0.0
  0
LINE
  5
7D0E2
330
1E
100
AcDbEntity
  8
DETAIL
  6
DASHED
100
AcDbLine
 10
-432.0
 20
573.0000199999994
 30
0.0
 11
-429.0
 21
573.0000199999994
 31
0.0
  0
LINE
  5
7D0E3
330
1E
100
AcDbEntity
  8
DETAIL
  6
DASHED
100
AcDbLine
 10
-432.0
 20
573.0000199999994
 30
0.0
 11
-434.0
 21
573.0000199999994
 31
0.0
  0
LINE
  5
7D0E4
330
1E
100
AcDbEntity
  8
DETAIL
  6
CONTINUOUS
100
AcDbLine
 10
-420.0
 20
571.0000199999995
 30
0.0
 11
-420.0
 21
573.0000199999994
 31
0.0
  0
LINE
  5
7D0E5
330
1E
100
AcDbEntity
  8
DETAIL
  6
CONTINUOUS
100
AcDbLine
 10
-420.0
 20
569.0000199999994
 30
0.0
 11
-420.0
 21
571.0000199999995
 31
0.0
  0
LINE
  5
7D0E6
330
1E
100
AcDbEntity
  8
DETAIL
  6
DASHED
100
AcDbLine
 10
-429.0
 20
569.0000199999994
 30
0.0
 11
-434.0
 21
569.0000199999994
 31
0.0
  0
LINE
  5
7D0E7
330
1E
100
AcDbEntity
  8
DETAIL
  6
CONTINUOUS
100
AcDbLine
 10
-420.0
 20
569.0000199999994
 30
0.0
 11
-429.0
 21
569.0000199999994
 31
0.0
  0
LINE
  5
7D0E8
330
1E
100
AcDbEntity
  8
DETAIL
  6
DASHED
100
AcDbLine
 10
-434.0
 20
573.0000199999994
 30
0.0
 11
-436.0
 21
573.0000199999994
 31
0.0
  0
LINE
  5
7D0E9
330
1E
100
AcDbEntity
  8
DETAIL
  6
DASHED
100
AcDbLine
 10
-434.0
 20
569.0000199999994
 30
0.0
 11
-459.0
 21
569.0000199999994
 31
0.0
  0
LINE
  5
7D0EA
330
1E
100
AcDbEntity
  8
DETAIL
  6
CONTINUOUS
100
AcDbLine
 10
-432.0
 20
573.0000199999994
 30
0.0
 11
-429.0
 21
573.0000199999994
 31
0.0
  0
LINE
  5
7D0EB
330
1E
100
AcDbEntity
  8
DETAIL
  6
CONTINUOUS
100
AcDbLine
 10
-432.0
 20
573.0000199999994
 30
0.0
 11
-436.0
 21
573.0000199999994
 31
0.0
  0
LINE
  5
7D0ED
330
1E
100
AcDbEntity
  8
DETAIL
  6
CONTINUOUS
100
AcDbLine
 10
-429.0
 20
569.0000199999994
 30
0.0
 11
-459.0
 21
569.0000199999994
 31
0.0
  0
LINE
  5
7D2DD
330
1E
100
AcDbEntity
  8
BASIS
  6
CONTINUOUS
100
AcDbLine
 10
-412.0635105039882
 20
37.00001999999949
 30
0.0
 11
-387.2061105039874
 21
37.00001999999949
 31
0.0
  0
LINE
  5
7D2DE
330
1E
100
AcDbEntity
  8
BASIS
  6
DASHDOT
100
AcDbLine
 10
-407.0750286891643
 20
585.0000199999994
 30
0.0
 11
-393.9433286891644
 21
585.0000199999994
 31
0.0
  0
LINE
  5
7FE5E
330
1E
100
AcDbEntity
  8
NOTE
  6
CONTINUOUS
100
AcDbLine
 10
38.99999999999727
 20
555.999999999999
 30
0.0
 11
189.4603925243418
 21
878.6438981541422
 31
0.0
  0
TEXT
  5
7FE5F
330
1E
100
AcDbEntity
  8
NOTE
100
AcDbText
 10
227.4899794138191
 20
903.3331221541439
 30
0.0
 40
64.0
  1
AH
 41
0.9
100
AcDbText
  0
LINE
  5
7FE60
330
1E
100
AcDbEntity
  8
NOTE
100
AcDbLine
 10
189.4603925243418
 20
878.6438981541422
 30
0.0
 11
360.0833685566767
 21
878.6438981541422
 31
0.0
  0
LWPOLYLINE
  5
7FE61
330
1E
100
AcDbEntity
  8
NOTE
  6
CONTINUOUS
100
AcDbPolyline
 90
        3
 70
     0
 43
0.0
 10
64.46813743605435
 20
586.8443510710704
 10
38.99999999999727
 20
555.999999999999
 10
45.63387891417278
 20
595.4460600582961
  0
LINE
  5
7FE62
330
1E
100
AcDbEntity
  8
NOTE
  6
CONTINOUS
100
AcDbLine
 10
58.99999524983195
 20
555.9999618443352
 30
0.0
 11
18.99999524983195
 21
555.9999618443352
 31
0.0
  0
CIRCLE
  5
7FE63
330
1E
100
AcDbEntity
  8
FIX
100
AcDbCircle
 10
38.99999358313198
 20
555.9999609109754
 30
0.0
 40
5.0
  0
LINE
  5
7FE64
330
1E
100
AcDbEntity
  8
NOTE
  6
CONTINOUS
100
AcDbLine
 10
38.99999524983195
 20
575.9999618443353
 30
0.0
 11
38.99999524983195
 21
535.9999618443352
 31
0.0
  0
LINE
  5
7FF64
330
1E
100
AcDbEntity
  8
NOTE
  6
CONTINUOUS
100
AcDbLine
 10
-264.0000044940052
 20
556.0000050385111
 30
0.0
 11
-523.6865746616249
 21
825.2803070211928
 31
0.0
  0
LWPOLYLINE
  5
7FF65
330
1E
100
AcDbEntity
  8
NOTE
  6
CONTINUOUS
100
AcDbPolyline
 90
        3
 70
     0
 43
0.0
 10
-283.4834801420758
 20
590.93414584845
 10
-264.0000044940052
 20
556.0000050385111
 10
-298.3402593698528
 20
576.512120936985
  0
LINE
  5
7FF66
330
1E
100
AcDbEntity
  8
NOTE
  6
CONTINOUS
100
AcDbLine
 10
-263.9999999999972
 20
576.000004105153
 30
0.0
 11
-263.9999999999972
 21
536.0000041051531
 31
0.0
  0
LINE
  5
7FF67
330
1E
100
AcDbEntity
  8
NOTE
  6
CONTINOUS
100
AcDbLine
 10
-243.9999999999972
 20
556.0000041051531
 30
0.0
 11
-283.9999999999972
 21
556.0000041051531
 31
0.0
  0
CIRCLE
  5
7FF68
330
1E
100
AcDbEntity
  8
FIX
100
AcDbCircle
 10
-264.0000016666972
 20
556.0000031717932
 30
0.0
 40
5.0
  0
LINE
  5
7FF69
330
1E
100
AcDbEntity
  8
NOTE
100
AcDbLine
 10
-523.6865746616249
 20
825.2803070211928
 30
0.0
 11
-693.3646512508394
 21
825.2803070211925
 31
0.0
  0
TEXT
  5
7FF6A
330
1E
100
AcDbEntity
  8
NOTE
100
AcDbText
 10
-659.514119250839
 20
849.9695310211942
 30
0.0
 40
64.0
  1
AH
 41
0.9
100
AcDbText
  0
TEXT
  5
7FFB1
330
1E
100
AcDbEntity
  8
NOTE
100
AcDbText
 10
-266.2961960428781
 20
672.1315471839764
 30
0.0
 40
50.0
  1
(取付ピッチ)
 41
0.9
100
AcDbText
  0
LINE
  5
800FF
330
1E
100
AcDbEntity
  8
NOTE
100
AcDbLine
 10
1338.205253796466
 20
-199.4183413770575
 30
0.0
 11
511.0363260865591
 21
-199.4183414646743
 31
0.0
  0
TEXT
  5
80100
330
1E
100
AcDbEntity
  8
NOTE
100
AcDbText
 10
523.7395986669493
 20
-173.5757008865353
 30
0.0
 40
64.0
  1
AH 4-%%c5穴（M4ネジ）
 41
0.9
100
AcDbText
  0
LINE
  5
80101
330
1E
100
AcDbEntity
  8
NOTE
  6
CONTINUOUS
100
AcDbLine
 10
39.00004013090711
 20
45.99993832075836
 30
0.0
 11
511.0363260865591
 21
-199.4183414646743
 31
0.0
  0
LWPOLYLINE
  5
80102
330
1E
100
AcDbEntity
  8
NOTE
  6
CONTINUOUS
100
AcDbPolyline
 90
        3
 70
     0
 43
0.0
 10
77.98115002451504
 20
37.02925891951446
 10
39.00004013090711
 20
45.99993832075836
 10
68.27333206486719
 20
18.74054759169155
  0
LINE
  5
80103
330
1E
100
AcDbEntity
  8
NOTE
  6
CONTINOUS
100
AcDbLine
 10
38.99999999999909
 20
65.99994760690117
 30
0.0
 11
38.99999999999909
 21
25.99994760690117
 31
0.0
  0
LINE
  5
80104
330
1E
100
AcDbEntity
  8
NOTE
  6
CONTINOUS
100
AcDbLine
 10
58.99999999999909
 20
45.99994760690117
 30
0.0
 11
18.99999999999909
 21
45.99994760690117
 31
0.0
  0
CIRCLE
  5
80105
330
1E
100
AcDbEntity
  8
FIX
100
AcDbCircle
 10
38.99999833329911
 20
45.99994667354133
 30
0.0
 40
5.0
  0
LINE
  5
80106
330
1E
100
AcDbEntity
  8
NOTE
  6
CONTINUOUS
100
AcDbLine
 10
-264.0000000681511
 20
45.99998153896547
 30
0.0
 11
-531.2759177947298
 21
-331.7752160368873
 31
0.0
  0
LINE
  5
80107
330
1E
100
AcDbEntity
  8
NOTE
100
AcDbLine
 10
-531.2759177947298
 20
-331.7752160368873
 30
0.0
 11
-703.8005193676208
 21
-331.7752160368873
 31
0.0
  0
TEXT
  5
80108
330
1E
100
AcDbEntity
  8
NOTE
100
AcDbText
 10
-669.9499873676204
 20
-307.0859920368858
 30
0.0
 40
64.0
  1
AH
 41
0.9
100
AcDbText
  0
LWPOLYLINE
  5
80109
330
1E
100
AcDbEntity
  8
NOTE
  6
CONTINUOUS
100
AcDbPolyline
 90
        3
 70
     0
 43
0.0
 10
-278.1613828422582
 20
8.590687835626681
 10
-264.0000000681511
 20
45.99998153896547
 10
-294.9687637177171
 20
20.68327398075087
  0
LINE
  5
8010A
330
1E
100
AcDbEntity
  8
NOTE
  6
CONTINOUS
100
AcDbLine
 10
-243.9999999999972
 20
45.99999185448893
 30
0.0
 11
-283.9999999999972
 21
45.99999185448893
 31
0.0
  0
LINE
  5
8010B
330
1E
100
AcDbEntity
  8
NOTE
  6
CONTINOUS
100
AcDbLine
 10
-263.9999999999972
 20
65.99999185448893
 30
0.0
 11
-263.9999999999972
 21
25.99999185448893
 31
0.0
  0
CIRCLE
  5
8010C
330
1E
100
AcDbEntity
  8
FIX
100
AcDbCircle
 10
-264.0000016666972
 20
45.99999092112909
 30
0.0
 40
5.0
  0
TEXT
  5
80182
330
1E
100
AcDbEntity
  8
NOTE
  6
CONTINUOUS
100
AcDbText
 10
-683.6855269226887
 20
185.7996252064877
 30
0.0
 40
50.0
  1
(取付ﾋﾟｯﾁ)
 50
90.0
 41
0.9
100
AcDbText
  0
TEXT
  5
8019F
330
1E
100
AcDbEntity
  8
NOTE
100
AcDbText
 10
804.9615838415336
 20
-310.8192958935694
 30
0.0
 40
64.0
  1
(正面用)
 41
0.9
100
AcDbText
  0
LINE
  5
82B4B
330
1E
100
AcDbEntity
  8
SIZE
  6
CONTINUOUS
100
AcDbLine
 10
400.0
 20
-10.0
 30
0.0
 11
400.0
 21
-371.5466126757546
 31
0.0
  0
LINE
  5
82B4C
330
1E
100
AcDbEntity
  8
SIZE
  6
CONTINUOUS
100
AcDbLine
 10
469.0
 20
37.3104000000003
 30
0.0
 11
469.0
 21
-371.5466126757546
 31
0.0
  0
LINE
  5
82B4D
330
1E
100
AcDbEntity
  8
SIZE
  6
CONTINUOUS
100
AcDbLine
 10
410.0
 20
-341.5466126757546
 30
0.0
 11
459.0
 21
-341.5466126757546
 31
0.0
  0
LINE
  5
82B4E
330
1E
100
AcDbEntity
  8
SIZE
  6
CONTINUOUS
100
AcDbLine
 10
469.0
 20
-341.5466126757546
 30
0.0
 11
589.5142857142857
 21
-341.5466126757546
 31
0.0
  0
LINE
  5
82B52
330
1E
100
AcDbEntity
  8
SIZE
  6
CONTINUOUS
100
AcDbLine
 10
-440.8408799999997
 20
310.0
 30
0.0
 11
-616.3646286891654
 21
310.0
 31
0.0
  0
LINE
  5
82B53
330
1E
100
AcDbEntity
  8
SIZE
  6
CONTINUOUS
100
AcDbLine
 10
-420.0
 20
10.0
 30
0.0
 11
-616.3646286891655
 21
10.00000000000005
 31
0.0
  0
LINE
  5
82B54
330
1E
100
AcDbEntity
  8
SIZE
  6
CONTINUOUS
100
AcDbLine
 10
-586.3646286891654
 20
300.0
 30
0.0
 11
-586.3646286891655
 21
20.00000000000005
 31
0.0
  0
LINE
  5
82B58
330
1E
100
AcDbEntity
  8
SIZE
  6
CONTINUOUS
100
AcDbLine
 10
-420.0
 20
10.0
 30
0.0
 11
-616.3646286891655
 21
10.00000000000005
 31
0.0
  0
LINE
  5
82B59
330
1E
100
AcDbEntity
  8
SIZE
  6
CONTINUOUS
100
AcDbLine
 10
-290.0
 20
0.0000000000000057
 30
0.0
 11
-616.3646286891655
 21
0.0000000000000981
 31
0.0
  0
LINE
  5
82B5A
330
1E
100
AcDbEntity
  8
SIZE
  6
CONTINUOUS
100
AcDbLine
 10
-586.3646286891655
 20
20.00000000000005
 30
0.0
 11
-586.3646286891655
 21
30.00000000000005
 31
0.0
  0
LINE
  5
82B5B
330
1E
100
AcDbEntity
  8
SIZE
  6
CONTINUOUS
100
AcDbLine
 10
-586.3646286891655
 20
-9.999999999999911
 30
0.0
 11
-586.3646286891655
 21
-122.2857142857146
 31
0.0
  0
LINE
  5
82B5C
330
1E
100
AcDbEntity
  8
SIZE
  6
CONTINUOUS
100
AcDbLine
 10
-586.3646286891655
 20
10.00000000000005
 30
0.0
 11
-586.3646286891655
 21
0.0000000000000896
 31
0.0
  0
LINE
  5
82B60
330
1E
100
AcDbEntity
  8
SIZE
  6
CONTINUOUS
100
AcDbLine
 10
-303.9999999999972
 20
556.0000041051531
 30
0.0
 11
-780.7597286891653
 21
556.0000041051532
 31
0.0
  0
LINE
  5
82B61
330
1E
100
AcDbEntity
  8
SIZE
  6
CONTINUOUS
100
AcDbLine
 10
-303.9999999999972
 20
45.99999185448893
 30
0.0
 11
-780.7597286891655
 21
45.99999185448907
 31
0.0
  0
LINE
  5
82B62
330
1E
100
AcDbEntity
  8
SIZE
  6
CONTINUOUS
100
AcDbLine
 10
-750.7597286891654
 20
546.0000041051531
 30
0.0
 11
-750.7597286891654
 21
55.99999185448907
 31
0.0
  0
LINE
  5
82B66
330
1E
100
AcDbEntity
  8
SIZE
  6
CONTINUOUS
100
AcDbLine
 10
-290.0
 20
0.0000000000000057
 30
0.0
 11
-927.4219286891657
 21
0.0000000000001862
 31
0.0
  0
LINE
  5
82B67
330
1E
100
AcDbEntity
  8
SIZE
  6
CONTINUOUS
100
AcDbLine
 10
-364.5000000000018
 20
34.0
 30
0.0
 11
-927.4219286891657
 21
34.00000000000016
 31
0.0
  0
LINE
  5
82B68
330
1E
100
AcDbEntity
  8
SIZE
  6
CONTINUOUS
100
AcDbLine
 10
-897.4219286891656
 20
44.00000000000015
 30
0.0
 11
-897.4219286891656
 21
54.00000000000016
 31
0.0
  0
LINE
  5
82B69
330
1E
100
AcDbEntity
  8
SIZE
  6
CONTINUOUS
100
AcDbLine
 10
-897.4219286891656
 20
-9.999999999999822
 30
0.0
 11
-897.4219286891656
 21
-136.0
 31
0.0
  0
LINE
  5
82B6A
330
1E
100
AcDbEntity
  8
SIZE
  6
CONTINUOUS
100
AcDbLine
 10
-897.4219286891656
 20
34.00000000000015
 30
0.0
 11
-897.4219286891656
 21
0.0000000000001777
 31
0.0
  0
LINE
  5
82B6E
330
1E
100
AcDbEntity
  8
SIZE
  6
CONTINUOUS
100
AcDbLine
 10
-364.5000000000018
 20
34.0
 30
0.0
 11
-927.4219286891659
 21
34.00000000000016
 31
0.0
  0
LINE
  5
82B6F
330
1E
100
AcDbEntity
  8
SIZE
  6
CONTINUOUS
100
AcDbLine
 10
-364.5000000000018
 20
567.0
 30
0.0
 11
-927.4219286891657
 21
567.0
 31
0.0
  0
LINE
  5
82B70
330
1E
100
AcDbEntity
  8
SIZE
  6
CONTINUOUS
100
AcDbLine
 10
-897.4219286891658
 20
44.00000000000015
 30
0.0
 11
-897.4219286891656
 21
557.0000000000001
 31
0.0
  0
LINE
  5
82B74
330
1E
100
AcDbEntity
  8
SIZE
  6
CONTINUOUS
100
AcDbLine
 10
-303.9999999999972
 20
45.99999185448893
 30
0.0
 11
-780.7597286891655
 21
45.99999185448907
 31
0.0
  0
LINE
  5
82B75
330
1E
100
AcDbEntity
  8
SIZE
  6
CONTINUOUS
100
AcDbLine
 10
-364.5000000000018
 20
34.0
 30
0.0
 11
-780.7597286891655
 21
34.00000000000012
 31
0.0
  0
LINE
  5
82B76
330
1E
100
AcDbEntity
  8
SIZE
  6
CONTINUOUS
100
AcDbLine
 10
-750.7597286891654
 20
55.99999185448907
 30
0.0
 11
-750.7597286891654
 21
65.99999185448908
 31
0.0
  0
LINE
  5
82B77
330
1E
100
AcDbEntity
  8
SIZE
  6
CONTINUOUS
100
AcDbLine
 10
-750.7597286891654
 20
24.00000000000011
 30
0.0
 11
-750.7597286891654
 21
-129.6881698186118
 31
0.0
  0
LINE
  5
82B78
330
1E
100
AcDbEntity
  8
SIZE
  6
CONTINUOUS
100
AcDbLine
 10
-750.7597286891654
 20
45.99999185448907
 30
0.0
 11
-750.7597286891654
 21
34.00000000000011
 31
0.0
  0
LINE
  5
82B7C
330
1E
100
AcDbEntity
  8
SIZE
  6
CONTINUOUS
100
AcDbLine
 10
-250.0
 20
-40.0
 30
0.0
 11
-250.0
 21
-239.79925
 31
0.0
  0
LINE
  5
82B7D
330
1E
100
AcDbEntity
  8
SIZE
  6
CONTINUOUS
100
AcDbLine
 10
250.0
 20
-40.0
 30
0.0
 11
250.0
 21
-239.79925
 31
0.0
  0
LINE
  5
82B7E
330
1E
100
AcDbEntity
  8
SIZE
  6
CONTINUOUS
100
AcDbLine
 10
-240.0
 20
-209.79925
 30
0.0
 11
240.0
 21
-209.79925
 31
0.0
  0
LINE
  5
82B82
330
1E
100
AcDbEntity
  8
SIZE
  6
CONTINUOUS
100
AcDbLine
 10
-400.0
 20
-10.0
 30
0.0
 11
-400.0
 21
-371.5466126757546
 31
0.0
  0
LINE
  5
82B83
330
1E
100
AcDbEntity
  8
SIZE
  6
CONTINUOUS
100
AcDbLine
 10
400.0
 20
-10.0
 30
0.0
 11
400.0
 21
-371.5466126757546
 31
0.0
  0
LINE
  5
82B84
330
1E
100
AcDbEntity
  8
SIZE
  6
CONTINUOUS
100
AcDbLine
 10
-390.0
 20
-341.5466126757546
 30
0.0
 11
390.0
 21
-341.5466126757546
 31
0.0
  0
LINE
  5
82B88
330
1E
100
AcDbEntity
  8
SIZE
  6
CONTINUOUS
100
AcDbLine
 10
-400.0
 20
-10.0
 30
0.0
 11
-400.0
 21
-240.0464126757542
 31
0.0
  0
LINE
  5
82B89
330
1E
100
AcDbEntity
  8
SIZE
  6
CONTINUOUS
100
AcDbLine
 10
-250.0
 20
-40.0
 30
0.0
 11
-250.0
 21
-240.0464126757542
 31
0.0
  0
LINE
  5
82B8A
330
1E
100
AcDbEntity
  8
SIZE
  6
CONTINUOUS
100
AcDbLine
 10
-410.0
 20
-210.0464126757542
 30
0.0
 11
-420.0
 21
-210.0464126757542
 31
0.0
  0
LINE
  5
82B8B
330
1E
100
AcDbEntity
  8
SIZE
  6
CONTINUOUS
100
AcDbLine
 10
-240.0
 20
-210.0464126757542
 30
0.0
 11
-230.0
 21
-210.0464126757542
 31
0.0
  0
LINE
  5
82B8C
330
1E
100
AcDbEntity
  8
SIZE
  6
CONTINUOUS
100
AcDbLine
 10
-400.0
 20
-210.0464126757542
 30
0.0
 11
-250.0
 21
-210.0464126757542
 31
0.0
  0
LINE
  5
82B90
330
1E
100
AcDbEntity
  8
SIZE
  6
CONTINUOUS
100
AcDbLine
 10
250.0
 20
-40.0
 30
0.0
 11
250.0
 21
-239.79925
 31
0.0
  0
LINE
  5
82B91
330
1E
100
AcDbEntity
  8
SIZE
  6
CONTINUOUS
100
AcDbLine
 10
400.0
 20
-10.0
 30
0.0
 11
400.0
 21
-239.79925
 31
0.0
  0
LINE
  5
82B92
330
1E
100
AcDbEntity
  8
SIZE
  6
CONTINUOUS
100
AcDbLine
 10
240.0
 20
-209.79925
 30
0.0
 11
230.0
 21
-209.79925
 31
0.0
  0
LINE
  5
82B93
330
1E
100
AcDbEntity
  8
SIZE
  6
CONTINUOUS
100
AcDbLine
 10
410.0
 20
-209.79925
 30
0.0
 11
420.0
 21
-209.79925
 31
0.0
  0
LINE
  5
82B94
330
1E
100
AcDbEntity
  8
SIZE
  6
CONTINUOUS
100
AcDbLine
 10
250.0
 20
-209.79925
 30
0.0
 11
400.0
 21
-209.79925
 31
0.0
  0
LINE
  5
82B98
330
1E
100
AcDbEntity
  8
SIZE
  6
CONTINUOUS
100
AcDbLine
 10
-263.9999999999972
 20
596.000004105153
 30
0.0
 11
-263.9999999999972
 21
778.5865873242453
 31
0.0
  0
LINE
  5
82B99
330
1E
100
AcDbEntity
  8
SIZE
  6
CONTINUOUS
100
AcDbLine
 10
38.99999524983195
 20
595.9999618443353
 30
0.0
 11
38.99999524983197
 21
778.5865873242453
 31
0.0
  0
LINE
  5
82B9A
330
1E
100
AcDbEntity
  8
SIZE
  6
CONTINUOUS
100
AcDbLine
 10
-253.9999999999972
 20
748.5865873242453
 30
0.0
 11
28.99999524983196
 21
748.5865873242453
 31
0.0
  0
LINE
  5
82B9E
330
1E
100
AcDbEntity
  8
SIZE
  6
CONTINUOUS
100
AcDbLine
 10
-370.0
 20
574.4999999999963
 30
0.0
 11
-370.0
 21
922.0390873242452
 31
0.0
  0
LINE
  5
82B9F
330
1E
100
AcDbEntity
  8
SIZE
  6
CONTINUOUS
100
AcDbLine
 10
146.0
 20
574.4999999999963
 30
0.0
 11
146.0
 21
922.0390873242452
 31
0.0
  0
LINE
  5
82BA0
330
1E
100
AcDbEntity
  8
SIZE
  6
CONTINUOUS
100
AcDbLine
 10
-360.0
 20
892.0390873242451
 30
0.0
 11
136.0
 21
892.0390873242451
 31
0.0
  0
LINE
  5
82BA4
330
1E
100
AcDbEntity
  8
SIZE
  6
CONTINUOUS
100
AcDbLine
 10
-400.0
 20
620.0
 30
0.0
 11
-400.0
 21
922.0390873242452
 31
0.0
  0
LINE
  5
82BA5
330
1E
100
AcDbEntity
  8
SIZE
  6
CONTINUOUS
100
AcDbLine
 10
-370.0
 20
574.4999999999963
 30
0.0
 11
-370.0
 21
922.0390873242452
 31
0.0
  0
LINE
  5
82BA6
330
1E
100
AcDbEntity
  8
SIZE
  6
CONTINUOUS
100
AcDbLine
 10
-410.0
 20
892.0390873242451
 30
0.0
 11
-420.0
 21
892.0390873242451
 31
0.0
  0
LINE
  5
82BA7
330
1E
100
AcDbEntity
  8
SIZE
  6
CONTINUOUS
100
AcDbLine
 10
-360.0
 20
892.0390873242451
 30
0.0
 11
-350.0
 21
892.0390873242451
 31
0.0
  0
LINE
  5
82BA8
330
1E
100
AcDbEntity
  8
SIZE
  6
CONTINUOUS
100
AcDbLine
 10
-400.0
 20
892.0390873242451
 30
0.0
 11
-370.0
 21
892.0390873242451
 31
0.0
  0
TEXT
  5
82BAC
330
1E
100
AcDbEntity
  8
SIZE
  6
CONTINUOUS
100
AcDbText
 10
-596.3646286891655
 20
-112.2857142857146
 30
0.0
 40
64.0
  1
10
 50
90.0
 41
0.9
100
AcDbText
  0
TEXT
  5
82BAD
330
1E
100
AcDbEntity
  8
SIZE
  6
CONTINUOUS
100
AcDbText
 10
-596.3646286891655
 20
85.3607444671023
 30
0.0
 40
64.0
  1
300
 50
90.0
 41
0.9
100
AcDbText
  0
TEXT
  5
82BAE
330
1E
100
AcDbEntity
  8
SIZE
  6
CONTINUOUS
100
AcDbText
 10
-907.4219286891658
 20
-126.0000000000001
 30
0.0
 40
64.0
  1
34
 50
90.0
 41
0.9
100
AcDbText
  0
TEXT
  5
82BAF
330
1E
100
AcDbEntity
  8
SIZE
  6
CONTINUOUS
100
AcDbText
 10
-760.7597286891655
 20
-119.6881698186119
 30
0.0
 40
64.0
  1
12
 50
90.0
 41
0.9
100
AcDbText
  0
CIRCLE
  5
82BB0
330
1E
100
AcDbEntity
  8
SIZE
  6
BYBLOCK
100
AcDbCircle
 10
-750.7597286891654
 20
34.00000000000011
 30
0.0
 40
5.0
  0
LINE
  5
82BB1
330
1E
100
AcDbEntity
  8
SIZE
  6
BYBLOCK
100
AcDbLine
 10
-750.7597286891654
 20
29.00000000000011
 30
0.0
 11
-750.7597286891654
 21
24.00000000000011
 31
0.0
  0
CIRCLE
  5
82BB2
330
1E
100
AcDbEntity
  8
SIZE
  6
BYBLOCK
100
AcDbCircle
 10
-750.7597286891654
 20
45.99999185448907
 30
0.0
 40
5.0
  0
LINE
  5
82BB3
330
1E
100
AcDbEntity
  8
SIZE
  6
BYBLOCK
100
AcDbLine
 10
-750.7597286891654
 20
50.99999185448907
 30
0.0
 11
-750.7597286891654
 21
55.99999185448907
 31
0.0
  0
CIRCLE
  5
82BB4
330
1E
100
AcDbEntity
  8
SIZE
  6
BYBLOCK
100
AcDbCircle
 10
-897.4219286891658
 20
34.00000000000015
 30
0.0
 40
5.0
  0
LINE
  5
82BB5
330
1E
100
AcDbEntity
  8
SIZE
  6
BYBLOCK
100
AcDbLine
 10
-897.4219286891658
 20
39.00000000000015
 30
0.0
 11
-897.4219286891658
 21
44.00000000000015
 31
0.0
  0
CIRCLE
  5
82BB6
330
1E
100
AcDbEntity
  8
SIZE
  6
BYBLOCK
100
AcDbCircle
 10
-897.4219286891656
 20
0.0000000000001777
 30
0.0
 40
5.0
  0
LINE
  5
82BB7
330
1E
100
AcDbEntity
  8
SIZE
  6
BYBLOCK
100
AcDbLine
 10
-897.4219286891656
 20
-4.999999999999822
 30
0.0
 11
-897.4219286891656
 21
-9.999999999999822
 31
0.0
  0
CIRCLE
  5
82BB8
330
1E
100
AcDbEntity
  8
SIZE
  6
BYBLOCK
100
AcDbCircle
 10
-897.4219286891656
 20
34.00000000000015
 30
0.0
 40
5.0
  0
LINE
  5
82BB9
330
1E
100
AcDbEntity
  8
SIZE
  6
BYBLOCK
100
AcDbLine
 10
-897.4219286891656
 20
39.00000000000015
 30
0.0
 11
-897.4219286891656
 21
44.00000000000015
 31
0.0
  0
CIRCLE
  5
82BBA
330
1E
100
AcDbEntity
  8
SIZE
  6
BYBLOCK
100
AcDbCircle
 10
-750.7597286891654
 20
45.99999185448907
 30
0.0
 40
5.0
  0
LINE
  5
82BBB
330
1E
100
AcDbEntity
  8
SIZE
  6
BYBLOCK
100
AcDbLine
 10
-750.7597286891654
 20
50.99999185448907
 30
0.0
 11
-750.7597286891654
 21
55.99999185448907
 31
0.0
  0
TEXT
  5
82BBC
330
1E
100
AcDbEntity
  8
SIZE
  6
CONTINUOUS
100
AcDbText
 10
-907.4219286891658
 20
226.4428571428571
 30
0.0
 40
64.0
  1
533
 50
90.0
 41
0.9
100
AcDbText
  0
CIRCLE
  5
82BBD
330
1E
100
AcDbEntity
  8
SIZE
  6
BYBLOCK
100
AcDbCircle
 10
-897.4219286891656
 20
567.0
 30
0.0
 40
5.0
  0
LINE
  5
82BBE
330
1E
100
AcDbEntity
  8
SIZE
  6
BYBLOCK
100
AcDbLine
 10
-897.4219286891656
 20
562.0
 30
0.0
 11
-897.4219286891656
 21
557.0000000000001
 31
0.0
  0
TEXT
  5
82BBF
330
1E
100
AcDbEntity
  8
SIZE
  6
CONTINUOUS
100
AcDbText
 10
-760.7597286891655
 20
228.6508587528166
 30
0.0
 40
64.0
  1
510
 50
90.0
 41
0.9
100
AcDbText
  0
CIRCLE
  5
82BC0
330
1E
100
AcDbEntity
  8
SIZE
  6
BYBLOCK
100
AcDbCircle
 10
-750.7597286891654
 20
556.0000041051531
 30
0.0
 40
5.0
  0
LINE
  5
82BC1
330
1E
100
AcDbEntity
  8
SIZE
  6
BYBLOCK
100
AcDbLine
 10
-750.7597286891654
 20
551.0000041051531
 30
0.0
 11
-750.7597286891654
 21
546.0000041051531
 31
0.0
  0
TEXT
  5
82BC2
330
1E
100
AcDbEntity
  8
SIZE
  6
CONTINUOUS
100
AcDbText
 10
-393.5714285714285
 20
-200.0464126757542
 30
0.0
 40
64.0
  1
150
 41
0.9
100
AcDbText
  0
CIRCLE
  5
82BC3
330
1E
100
AcDbEntity
  8
SIZE
  6
BYBLOCK
100
AcDbCircle
 10
-400.0
 20
-210.0464126757542
 30
0.0
 40
5.0
  0
LINE
  5
82BC4
330
1E
100
AcDbEntity
  8
SIZE
  6
BYBLOCK
100
AcDbLine
 10
-405.0
 20
-210.0464126757542
 30
0.0
 11
-410.0
 21
-210.0464126757542
 31
0.0
  0
CIRCLE
  5
82BC5
330
1E
100
AcDbEntity
  8
SIZE
  6
BYBLOCK
100
AcDbCircle
 10
-400.0
 20
-341.5466126757546
 30
0.0
 40
5.0
  0
LINE
  5
82BC6
330
1E
100
AcDbEntity
  8
SIZE
  6
BYBLOCK
100
AcDbLine
 10
-395.0
 20
-341.5466126757546
 30
0.0
 11
-390.0
 21
-341.5466126757546
 31
0.0
  0
CIRCLE
  5
82BC7
330
1E
100
AcDbEntity
  8
SIZE
  6
BYBLOCK
100
AcDbCircle
 10
-586.3646286891655
 20
0.0000000000000896
 30
0.0
 40
5.0
  0
LINE
  5
82BC8
330
1E
100
AcDbEntity
  8
SIZE
  6
BYBLOCK
100
AcDbLine
 10
-586.3646286891655
 20
-4.99999999999991
 30
0.0
 11
-586.3646286891655
 21
-9.999999999999911
 31
0.0
  0
CIRCLE
  5
82BC9
330
1E
100
AcDbEntity
  8
SIZE
  6
BYBLOCK
100
AcDbCircle
 10
-586.3646286891655
 20
10.00000000000005
 30
0.0
 40
5.0
  0
LINE
  5
82BCA
330
1E
100
AcDbEntity
  8
SIZE
  6
BYBLOCK
100
AcDbLine
 10
-586.3646286891655
 20
15.00000000000005
 30
0.0
 11
-586.3646286891655
 21
20.00000000000004
 31
0.0
  0
CIRCLE
  5
82BCB
330
1E
100
AcDbEntity
  8
SIZE
  6
BYBLOCK
100
AcDbCircle
 10
-586.3646286891655
 20
10.00000000000005
 30
0.0
 40
5.0
  0
LINE
  5
82BCC
330
1E
100
AcDbEntity
  8
SIZE
  6
BYBLOCK
100
AcDbLine
 10
-586.3646286891655
 20
15.00000000000005
 30
0.0
 11
-586.3646286891655
 21
20.00000000000004
 31
0.0
  0
CIRCLE
  5
82BCD
330
1E
100
AcDbEntity
  8
SIZE
  6
BYBLOCK
100
AcDbCircle
 10
-250.0
 20
-210.0464126757542
 30
0.0
 40
5.0
  0
LINE
  5
82BCE
330
1E
100
AcDbEntity
  8
SIZE
  6
BYBLOCK
100
AcDbLine
 10
-245.0
 20
-210.0464126757542
 30
0.0
 11
-240.0
 21
-210.0464126757542
 31
0.0
  0
CIRCLE
  5
82BCF
330
1E
100
AcDbEntity
  8
SIZE
  6
BYBLOCK
100
AcDbCircle
 10
-250.0
 20
-209.79925
 30
0.0
 40
5.0
  0
LINE
  5
82BD0
330
1E
100
AcDbEntity
  8
SIZE
  6
BYBLOCK
100
AcDbLine
 10
-245.0
 20
-209.79925
 30
0.0
 11
-240.0
 21
-209.79925
 31
0.0
  0
TEXT
  5
82BD1
330
1E
100
AcDbEntity
  8
SIZE
  6
CONTINUOUS
100
AcDbText
 10
-74.05714285714286
 20
-331.5466126757546
 30
0.0
 40
64.0
  1
800
 41
0.9
100
AcDbText
  0
TEXT
  5
82BD2
330
1E
100
AcDbEntity
  8
SIZE
  6
CONTINUOUS
100
AcDbText
 10
-74.05714285714285
 20
-199.79925
 30
0.0
 40
64.0
  1
500
 41
0.9
100
AcDbText
  0
TEXT
  5
82BD3
330
1E
100
AcDbEntity
  8
SIZE
  6
CONTINUOUS
100
AcDbText
 10
256.4285714285714
 20
-199.79925
 30
0.0
 40
64.0
  1
150
 41
0.9
100
AcDbText
  0
CIRCLE
  5
82BD4
330
1E
100
AcDbEntity
  8
SIZE
  6
BYBLOCK
100
AcDbCircle
 10
400.0
 20
-209.79925
 30
0.0
 40
5.0
  0
LINE
  5
82BD5
330
1E
100
AcDbEntity
  8
SIZE
  6
BYBLOCK
100
AcDbLine
 10
405.0
 20
-209.79925
 30
0.0
 11
410.0
 21
-209.79925
 31
0.0
  0
CIRCLE
  5
82BD6
330
1E
100
AcDbEntity
  8
SIZE
  6
BYBLOCK
100
AcDbCircle
 10
250.0
 20
-209.79925
 30
0.0
 40
5.0
  0
LINE
  5
82BD7
330
1E
100
AcDbEntity
  8
SIZE
  6
BYBLOCK
100
AcDbLine
 10
245.0
 20
-209.79925
 30
0.0
 11
240.0
 21
-209.79925
 31
0.0
  0
CIRCLE
  5
82BD8
330
1E
100
AcDbEntity
  8
SIZE
  6
BYBLOCK
100
AcDbCircle
 10
400.0
 20
-341.5466126757546
 30
0.0
 40
5.0
  0
LINE
  5
82BD9
330
1E
100
AcDbEntity
  8
SIZE
  6
BYBLOCK
100
AcDbLine
 10
395.0
 20
-341.5466126757546
 30
0.0
 11
390.0
 21
-341.5466126757546
 31
0.0
  0
CIRCLE
  5
82BDA
330
1E
100
AcDbEntity
  8
SIZE
  6
BYBLOCK
100
AcDbCircle
 10
250.0
 20
-209.79925
 30
0.0
 40
5.0
  0
LINE
  5
82BDB
330
1E
100
AcDbEntity
  8
SIZE
  6
BYBLOCK
100
AcDbLine
 10
245.0
 20
-209.79925
 30
0.0
 11
240.0
 21
-209.79925
 31
0.0
  0
CIRCLE
  5
82BDC
330
1E
100
AcDbEntity
  8
SIZE
  6
BYBLOCK
100
AcDbCircle
 10
400.0
 20
-341.5466126757546
 30
0.0
 40
5.0
  0
LINE
  5
82BDD
330
1E
100
AcDbEntity
  8
SIZE
  6
BYBLOCK
100
AcDbLine
 10
405.0
 20
-341.5466126757546
 30
0.0
 11
410.0
 21
-341.5466126757546
 31
0.0
  0
TEXT
  5
82BDE
330
1E
100
AcDbEntity
  8
SIZE
  6
CONTINUOUS
100
AcDbText
 10
-179.2
 20
902.0390873242451
 30
0.0
 40
64.0
  1
516
 41
0.9
100
AcDbText
  0
TEXT
  5
82BDF
330
1E
100
AcDbEntity
  8
SIZE
  6
CONTINUOUS
100
AcDbText
 10
-181.6040715463083
 20
758.5865873242453
 30
0.0
 40
64.0
  1
303
 41
0.9
100
AcDbText
  0
CIRCLE
  5
82BE0
330
1E
100
AcDbEntity
  8
SIZE
  6
BYBLOCK
100
AcDbCircle
 10
-586.3646286891654
 20
310.0
 30
0.0
 40
5.0
  0
LINE
  5
82BE1
330
1E
100
AcDbEntity
  8
SIZE
  6
BYBLOCK
100
AcDbLine
 10
-586.3646286891654
 20
305.0
 30
0.0
 11
-586.3646286891654
 21
300.0
 31
0.0
  0
TEXT
  5
82BE2
330
1E
100
AcDbEntity
  8
SIZE
  6
CONTINUOUS
100
AcDbText
 10
-431.6285714285714
 20
902.0390873242451
 30
0.0
 40
64.0
  1
30
 41
0.9
100
AcDbText
  0
CIRCLE
  5
82BE3
330
1E
100
AcDbEntity
  8
SIZE
  6
BYBLOCK
100
AcDbCircle
 10
-370.0
 20
892.0390873242451
 30
0.0
 40
5.0
  0
LINE
  5
82BE4
330
1E
100
AcDbEntity
  8
SIZE
  6
BYBLOCK
100
AcDbLine
 10
-365.0
 20
892.0390873242451
 30
0.0
 11
-360.0
 21
892.0390873242451
 31
0.0
  0
CIRCLE
  5
82BE5
330
1E
100
AcDbEntity
  8
SIZE
  6
BYBLOCK
100
AcDbCircle
 10
-400.0
 20
892.0390873242451
 30
0.0
 40
5.0
  0
LINE
  5
82BE6
330
1E
100
AcDbEntity
  8
SIZE
  6
BYBLOCK
100
AcDbLine
 10
-405.0
 20
892.0390873242451
 30
0.0
 11
-410.0
 21
892.0390873242451
 31
0.0
  0
CIRCLE
  5
82BE7
330
1E
100
AcDbEntity
  8
SIZE
  6
BYBLOCK
100
AcDbCircle
 10
-370.0
 20
892.0390873242451
 30
0.0
 40
5.0
  0
LINE
  5
82BE8
330
1E
100
AcDbEntity
  8
SIZE
  6
BYBLOCK
100
AcDbLine
 10
-365.0
 20
892.0390873242451
 30
0.0
 11
-360.0
 21
892.0390873242451
 31
0.0
  0
CIRCLE
  5
82BE9
330
1E
100
AcDbEntity
  8
SIZE
  6
BYBLOCK
100
AcDbCircle
 10
-263.9999999999972
 20
748.5865873242453
 30
0.0
 40
5.0
  0
LINE
  5
82BEA
330
1E
100
AcDbEntity
  8
SIZE
  6
BYBLOCK
100
AcDbLine
 10
-258.9999999999972
 20
748.5865873242453
 30
0.0
 11
-253.9999999999972
 21
748.5865873242453
 31
0.0
  0
CIRCLE
  5
82BEB
330
1E
100
AcDbEntity
  8
SIZE
  6
BYBLOCK
100
AcDbCircle
 10
146.0
 20
892.0390873242451
 30
0.0
 40
5.0
  0
LINE
  5
82BEC
330
1E
100
AcDbEntity
  8
SIZE
  6
BYBLOCK
100
AcDbLine
 10
141.0
 20
892.0390873242451
 30
0.0
 11
136.0
 21
892.0390873242451
 31
0.0
  0
CIRCLE
  5
82BED
330
1E
100
AcDbEntity
  8
SIZE
  6
BYBLOCK
100
AcDbCircle
 10
38.99999524983196
 20
748.5865873242453
 30
0.0
 40
5.0
  0
LINE
  5
82BEE
330
1E
100
AcDbEntity
  8
SIZE
  6
BYBLOCK
100
AcDbLine
 10
33.99999524983196
 20
748.5865873242453
 30
0.0
 11
28.99999524983196
 21
748.5865873242453
 31
0.0
  0
TEXT
  5
82BEF
330
1E
100
AcDbEntity
  8
SIZE
  6
CONTINUOUS
100
AcDbText
 10
489.0
 20
-331.5466126757546
 30
0.0
 40
64.0
  1
69
 41
0.9
100
AcDbText
  0
CIRCLE
  5
82BF0
330
1E
100
AcDbEntity
  8
SIZE
  6
BYBLOCK
100
AcDbCircle
 10
469.0
 20
-341.5466126757546
 30
0.0
 40
5.0
  0
LINE
  5
82BF1
330
1E
100
AcDbEntity
  8
SIZE
  6
BYBLOCK
100
AcDbLine
 10
464.0
 20
-341.5466126757546
 30
0.0
 11
459.0
 21
-341.5466126757546
 31
0.0
  0
ARC
  5
82BF2
330
1E
100
AcDbEntity
  8
OUTLINE
  6
CONTINUOUS
100
AcDbCircle
 10
141.9999999999998
 20
176.0
 30
0.0
 40
2.0
100
AcDbArc
 50
270.0
 51
90.0
  0
LINE
  5
82BF3
330
1E
100
AcDbEntity
  8
OUTLINE
  6
CONTINUOUS
100
AcDbLine
 10
143.9999999999998
 20
126.0
 30
0.0
 11
143.9999999999998
 21
176.0
 31
0.0
  0
ARC
  5
82BF4
330
1E
100
AcDbEntity
  8
OUTLINE
  6
CONTINUOUS
100
AcDbCircle
 10
-366.0
 20
176.0
 30
0.0
 40
2.0
100
AcDbArc
 50
90.0
 51
270.0
  0
LINE
  5
82BF5
330
1E
100
AcDbEntity
  8
OUTLINE
  6
CONTINUOUS
100
AcDbLine
 10
-368.0
 20
126.0
 30
0.0
 11
-368.0
 21
176.0
 31
0.0
  0
LINE
  5
82BF6
330
1E
100
AcDbEntity
  8
OUTLINE
  6
CONTINUOUS
100
AcDbLine
 10
147.9999999999998
 20
47.49999999999817
 30
0.0
 11
147.9999999999998
 21
554.4999999999963
 31
0.0
  0
LINE
  5
82BF7
330
1E
100
AcDbEntity
  8
OUTLINE
  6
CONTINUOUS
100
AcDbLine
 10
-372.0
 20
47.49999999999817
 30
0.0
 11
-372.0
 21
554.4999999999963
 31
0.0
  0
LINE
  5
82BF8
330
1E
100
AcDbEntity
  8
OUTLINE
  6
CONTINUOUS
100
AcDbLine
 10
-335.5000000000018
 20
34.49999999999818
 30
0.0
 11
-335.5000000000018
 21
567.4999999999999
 31
0.0
  0
LINE
  5
82BF9
330
1E
100
AcDbEntity
  8
OUTLINE
  6
CONTINUOUS
100
AcDbLine
 10
-339.5000000000018
 20
34.49999999999818
 30
0.0
 11
-339.5000000000018
 21
567.4999999999999
 31
0.0
  0
LINE
  5
82BFA
330
1E
100
AcDbEntity
  8
OUTLINE
  6
CONTINUOUS
100
AcDbLine
 10
60.49999999999807
 20
34.5
 30
0.0
 11
60.49999999999807
 21
567.4999999999999
 31
0.0
  0
LINE
  5
82BFB
330
1E
100
AcDbEntity
  8
OUTLINE
  6
CONTINUOUS
100
AcDbLine
 10
64.49999999999807
 20
34.49999999999818
 30
0.0
 11
64.49999999999807
 21
567.4999999999999
 31
0.0
  0
LINE
  5
82BFC
330
1E
100
AcDbEntity
  8
OUTLINE
  6
CONTINUOUS
100
AcDbLine
 10
14.49999999999806
 20
34.49999999999818
 30
0.0
 11
14.49999999999806
 21
567.4999999999999
 31
0.0
  0
LINE
  5
82BFD
330
1E
100
AcDbEntity
  8
OUTLINE
  6
CONTINUOUS
100
AcDbLine
 10
10.49999999999806
 20
34.49999999999818
 30
0.0
 11
10.49999999999806
 21
567.4999999999999
 31
0.0
  0
LINE
  5
82BFE
330
1E
100
AcDbEntity
  8
OUTLINE
  6
CONTINUOUS
100
AcDbLine
 10
114.499999999998
 20
34.49999999999818
 30
0.0
 11
114.499999999998
 21
567.4999999999999
 31
0.0
  0
LINE
  5
82BFF
330
1E
100
AcDbEntity
  8
OUTLINE
  6
CONTINUOUS
100
AcDbLine
 10
110.499999999998
 20
34.49999999999818
 30
0.0
 11
110.499999999998
 21
567.4999999999999
 31
0.0
  0
LINE
  5
82C00
330
1E
100
AcDbEntity
  8
OUTLINE
  6
CONTINUOUS
100
AcDbLine
 10
-35.50000000000193
 20
34.49999999999818
 30
0.0
 11
-35.50000000000193
 21
567.4999999999999
 31
0.0
  0
LINE
  5
82C01
330
1E
100
AcDbEntity
  8
OUTLINE
  6
CONTINUOUS
100
AcDbLine
 10
-39.50000000000193
 20
34.49999999999818
 30
0.0
 11
-39.50000000000193
 21
567.4999999999999
 31
0.0
  0
LINE
  5
82C02
330
1E
100
AcDbEntity
  8
OUTLINE
  6
CONTINUOUS
100
AcDbLine
 10
-85.50000000000194
 20
34.49999999999818
 30
0.0
 11
-85.50000000000194
 21
567.4999999999999
 31
0.0
  0
LINE
  5
82C03
330
1E
100
AcDbEntity
  8
OUTLINE
  6
CONTINUOUS
100
AcDbLine
 10
-89.50000000000192
 20
34.49999999999818
 30
0.0
 11
-89.50000000000192
 21
567.4999999999999
 31
0.0
  0
LINE
  5
82C04
330
1E
100
AcDbEntity
  8
OUTLINE
  6
CONTINUOUS
100
AcDbLine
 10
-285.5000000000018
 20
567.4999999999999
 30
0.0
 11
-285.5000000000018
 21
34.49999999999818
 31
0.0
  0
LINE
  5
82C05
330
1E
100
AcDbEntity
  8
OUTLINE
  6
CONTINUOUS
100
AcDbLine
 10
-289.5000000000018
 20
567.4999999999999
 30
0.0
 11
-289.5000000000018
 21
34.49999999999818
 31
0.0
  0
LINE
  5
82C06
330
1E
100
AcDbEntity
  8
OUTLINE
  6
CONTINUOUS
100
AcDbLine
 10
-185.5000000000019
 20
34.49999999999818
 30
0.0
 11
-185.5000000000019
 21
567.4999999999999
 31
0.0
  0
LINE
  5
82C07
330
1E
100
AcDbEntity
  8
OUTLINE
  6
CONTINUOUS
100
AcDbLine
 10
-189.5000000000018
 20
34.49999999999818
 30
0.0
 11
-189.5000000000018
 21
567.4999999999999
 31
0.0
  0
LINE
  5
82C08
330
1E
100
AcDbEntity
  8
OUTLINE
  6
CONTINUOUS
100
AcDbLine
 10
-135.5000000000019
 20
34.49999999999818
 30
0.0
 11
-135.5000000000019
 21
567.4999999999999
 31
0.0
  0
LINE
  5
82C09
330
1E
100
AcDbEntity
  8
OUTLINE
  6
CONTINUOUS
100
AcDbLine
 10
-139.5000000000019
 20
34.49999999999818
 30
0.0
 11
-139.5000000000019
 21
567.4999999999999
 31
0.0
  0
LINE
  5
82C0A
330
1E
100
AcDbEntity
  8
OUTLINE
  6
CONTINUOUS
100
AcDbLine
 10
-235.5000000000018
 20
34.49999999999818
 30
0.0
 11
-235.5000000000018
 21
567.4999999999999
 31
0.0
  0
LINE
  5
82C0B
330
1E
100
AcDbEntity
  8
OUTLINE
  6
CONTINUOUS
100
AcDbLine
 10
-239.5000000000018
 20
34.49999999999818
 30
0.0
 11
-239.5000000000018
 21
567.4999999999999
 31
0.0
  0
LINE
  5
82C0C
330
1E
100
AcDbEntity
  8
OUTLINE
  6
CONTINUOUS
100
AcDbLine
 10
-504.0
 20
224.0000199999976
 30
0.0
 11
-504.0000000000036
 21
170.5000199999976
 31
0.0
  0
LINE
  5
82C0D
330
1E
100
AcDbEntity
  8
OUTLINE
  6
CONTINUOUS
100
AcDbLine
 10
-418.0
 20
48.00001999999768
 30
0.0
 11
-418.0
 21
555.0000199999977
 31
0.0
  0
LINE
  5
82C0E
330
1E
100
AcDbEntity
  8
OUTLINE
  6
CONTINUOUS
100
AcDbLine
 10
-414.0
 20
48.00001999999768
 30
0.0
 11
-414.0
 21
555.0000199999977
 31
0.0
  0
LINE
  5
82C0F
330
1E
100
AcDbEntity
  8
OUTLINE
  6
CONTINUOUS
100
AcDbLine
 10
-461.0
 20
48.00001999999768
 30
0.0
 11
-461.0
 21
555.0000199999977
 31
0.0
  0
LINE
  5
82C10
330
1E
100
AcDbEntity
  8
OUTLINE
  6
CONTINUOUS
100
AcDbLine
 10
-457.0
 20
48.00001999999768
 30
0.0
 11
-457.0
 21
555.0000199999977
 31
0.0
  0
LINE
  5
82C11
330
1E
100
AcDbEntity
  8
OUTLINE
  6
CONTINUOUS
100
AcDbLine
 10
-508.0000000000036
 20
567.0000199999995
 30
0.0
 11
-507.9999999999982
 21
34.00001999999767
 31
0.0
  0
ARC
  5
82C12
330
1E
100
AcDbEntity
  8
OUTLINE
  6
CONTINUOUS
100
AcDbCircle
 10
-87.50000000000193
 20
30.49999999999818
 30
0.0
 40
2.0
100
AcDbArc
 50
180.0
 51
0.0
  0
LINE
  5
82C13
330
1E
100
AcDbEntity
  8
OUTLINE
  6
CONTINUOUS
100
AcDbLine
 10
-339.5000000000018
 20
52.49999999999818
 30
0.0
 11
-362.5000000000018
 21
52.49999999999818
 31
0.0
  0
LINE
  5
82C14
330
1E
100
AcDbEntity
  8
OUTLINE
  6
CONTINUOUS
100
AcDbLine
 10
-339.5000000000018
 20
56.49999999999818
 30
0.0
 11
-362.5000000000018
 21
56.49999999999818
 31
0.0
  0
LINE
  5
82C15
330
1E
100
AcDbEntity
  8
OUTLINE
  6
CONTINUOUS
100
AcDbLine
 10
-339.5000000000018
 20
74.0
 30
0.0
 11
-362.5000000000018
 21
74.0
 31
0.0
  0
LINE
  5
82C16
330
1E
100
AcDbEntity
  8
OUTLINE
  6
CONTINUOUS
100
AcDbLine
 10
-339.5000000000018
 20
78.0
 30
0.0
 11
-362.5000000000018
 21
78.0
 31
0.0
  0
LINE
  5
82C17
330
1E
100
AcDbEntity
  8
OUTLINE
  6
CONTINUOUS
100
AcDbLine
 10
-339.5000000000018
 20
124.0
 30
0.0
 11
-362.5000000000018
 21
124.0
 31
0.0
  0
LINE
  5
82C18
330
1E
100
AcDbEntity
  8
OUTLINE
  6
CONTINUOUS
100
AcDbLine
 10
-339.5000000000018
 20
128.0
 30
0.0
 11
-362.5000000000018
 21
128.0
 31
0.0
  0
LINE
  5
82C19
330
1E
100
AcDbEntity
  8
OUTLINE
  6
CONTINUOUS
100
AcDbLine
 10
-339.5000000000018
 20
174.0
 30
0.0
 11
-362.5000000000018
 21
174.0
 31
0.0
  0
ARC
  5
82C1A
330
1E
100
AcDbEntity
  8
OUTLINE
  6
CONTINUOUS
100
AcDbCircle
 10
-366.0
 20
126.0
 30
0.0
 40
2.0
100
AcDbArc
 50
90.0
 51
270.0
  0
LINE
  5
82C1B
330
1E
100
AcDbEntity
  8
OUTLINE
  6
CONTINUOUS
100
AcDbLine
 10
-368.0
 20
76.0
 30
0.0
 11
-368.0
 21
126.0
 31
0.0
  0
LINE
  5
82C1C
330
1E
100
AcDbEntity
  8
OUTLINE
  6
CONTINUOUS
100
AcDbLine
 10
-362.5000000000018
 20
124.0
 30
0.0
 11
-366.0
 21
124.0
 31
0.0
  0
LINE
  5
82C1D
330
1E
100
AcDbEntity
  8
OUTLINE
  6
CONTINUOUS
100
AcDbLine
 10
-362.5000000000018
 20
78.0
 30
0.0
 11
-366.0
 21
78.0
 31
0.0
  0
LINE
  5
82C1E
330
1E
100
AcDbEntity
  8
OUTLINE
  6
CONTINUOUS
100
AcDbLine
 10
-362.5000000000018
 20
56.49999999999818
 30
0.0
 11
-366.0
 21
56.49999999999818
 31
0.0
  0
LINE
  5
82C1F
330
1E
100
AcDbEntity
  8
OUTLINE
  6
CONTINUOUS
100
AcDbLine
 10
-362.5000000000018
 20
52.49999999999818
 30
0.0
 11
-366.0
 21
52.49999999999818
 31
0.0
  0
ARC
  5
82C20
330
1E
100
AcDbEntity
  8
OUTLINE
  6
CONTINUOUS
100
AcDbCircle
 10
-366.0
 20
54.49999999999818
 30
0.0
 40
2.0
100
AcDbArc
 50
90.0
 51
270.0
  0
LINE
  5
82C21
330
1E
100
AcDbEntity
  8
OUTLINE
  6
CONTINUOUS
100
AcDbLine
 10
-362.5000000000018
 20
74.0
 30
0.0
 11
-366.0
 21
74.0
 31
0.0
  0
LINE
  5
82C22
330
1E
100
AcDbEntity
  8
OUTLINE
  6
CONTINUOUS
100
AcDbLine
 10
-372.0
 20
47.49999999999817
 30
0.0
 11
-368.0
 21
47.49999999999817
 31
0.0
  0
LINE
  5
82C23
330
1E
100
AcDbEntity
  8
OUTLINE
  6
CONTINUOUS
100
AcDbLine
 10
-368.0
 20
47.49999999999817
 30
0.0
 11
-368.0
 21
54.49999999999818
 31
0.0
  0
ARC
  5
82C24
330
1E
100
AcDbEntity
  8
OUTLINE
  6
CONTINUOUS
100
AcDbCircle
 10
-366.0
 20
76.0
 30
0.0
 40
2.0
100
AcDbArc
 50
90.0
 51
270.0
  0
LINE
  5
82C25
330
1E
100
AcDbEntity
  8
OUTLINE
  6
CONTINUOUS
100
AcDbLine
 10
-368.0
 20
54.49999999999818
 30
0.0
 11
-368.0
 21
76.0
 31
0.0
  0
LINE
  5
82C26
330
1E
100
AcDbEntity
  8
OUTLINE
  6
CONTINUOUS
100
AcDbLine
 10
-362.5000000000018
 20
174.0
 30
0.0
 11
-366.0
 21
174.0
 31
0.0
  0
LINE
  5
82C27
330
1E
100
AcDbEntity
  8
OUTLINE
  6
CONTINUOUS
100
AcDbLine
 10
-362.5000000000018
 20
128.0
 30
0.0
 11
-366.0
 21
128.0
 31
0.0
  0
LINE
  5
82C28
330
1E
100
AcDbEntity
  8
OUTLINE
  6
CONTINUOUS
100
AcDbLine
 10
-504.0
 20
124.0000199999976
 30
0.0
 11
-504.0000000000036
 21
85.50001999999768
 31
0.0
  0
LINE
  5
82C29
330
1E
100
AcDbEntity
  8
OUTLINE
  6
CONTINUOUS
100
AcDbLine
 10
-461.0
 20
87.50001999999767
 30
0.0
 11
-498.0
 21
87.50001999999767
 31
0.0
  0
LINE
  5
82C2A
330
1E
100
AcDbEntity
  8
OUTLINE
  6
CONTINUOUS
100
AcDbLine
 10
-461.0
 20
83.50001999999767
 30
0.0
 11
-498.0
 21
83.50001999999767
 31
0.0
  0
LINE
  5
82C2B
330
1E
100
AcDbEntity
  8
OUTLINE
  6
CONTINUOUS
100
AcDbLine
 10
-461.0
 20
57.00001999999767
 30
0.0
 11
-498.0
 21
57.00001999999767
 31
0.0
  0
LINE
  5
82C2C
330
1E
100
AcDbEntity
  8
OUTLINE
  6
CONTINUOUS
100
AcDbLine
 10
-461.0
 20
53.00001999999768
 30
0.0
 11
-498.0
 21
53.00001999999768
 31
0.0
  0
LINE
  5
82C2D
330
1E
100
AcDbEntity
  8
OUTLINE
  6
DASHED
100
AcDbLine
 10
-419.9999999999981
 20
32.00001999999767
 30
0.0
 11
-501.9999999999981
 21
32.00001999999767
 31
0.0
  0
LINE
  5
82C2E
330
1E
100
AcDbEntity
  8
OUTLINE
  6
DASHED
100
AcDbLine
 10
-458.9999999999982
 20
28.00001999999767
 30
0.0
 11
-501.9999999999981
 21
28.00001999999767
 31
0.0
  0
LINE
  5
82C2F
330
1E
100
AcDbEntity
  8
OUTLINE
  6
CONTINUOUS
100
AcDbLine
 10
-419.9999999999981
 20
32.00001999999767
 30
0.0
 11
-501.9999999999981
 21
32.00001999999767
 31
0.0
  0
LINE
  5
82C30
330
1E
100
AcDbEntity
  8
OUTLINE
  6
CONTINUOUS
100
AcDbLine
 10
-458.9999999999982
 20
28.00001999999767
 30
0.0
 11
-501.9999999999981
 21
28.00001999999767
 31
0.0
  0
ARC
  5
82C31
330
1E
100
AcDbEntity
  8
OUTLINE
  6
CONTINUOUS
100
AcDbCircle
 10
-502.0
 20
85.50001999999768
 30
0.0
 40
2.0
100
AcDbArc
 50
90.0
 51
270.0
  0
LINE
  5
82C32
330
1E
100
AcDbEntity
  8
OUTLINE
  6
CONTINUOUS
100
AcDbLine
 10
-498.0
 20
83.50001999999767
 30
0.0
 11
-502.0
 21
83.50001999999767
 31
0.0
  0
LINE
  5
82C33
330
1E
100
AcDbEntity
  8
OUTLINE
  6
CONTINUOUS
100
AcDbLine
 10
-498.0
 20
87.50001999999767
 30
0.0
 11
-502.0
 21
87.50001999999767
 31
0.0
  0
ARC
  5
82C34
330
1E
100
AcDbEntity
  8
OUTLINE
  6
CONTINUOUS
100
AcDbCircle
 10
-502.0
 20
55.00001999999767
 30
0.0
 40
2.0
100
AcDbArc
 50
90.0
 51
270.0
  0
LINE
  5
82C35
330
1E
100
AcDbEntity
  8
OUTLINE
  6
CONTINUOUS
100
AcDbLine
 10
-498.0
 20
53.00001999999768
 30
0.0
 11
-502.0
 21
53.00001999999768
 31
0.0
  0
LINE
  5
82C36
330
1E
100
AcDbEntity
  8
OUTLINE
  6
CONTINUOUS
100
AcDbLine
 10
-498.0
 20
57.00001999999767
 30
0.0
 11
-502.0
 21
57.00001999999767
 31
0.0
  0
ARC
  5
82C37
330
1E
100
AcDbEntity
  8
OUTLINE
  6
DASHED
100
AcDbCircle
 10
-501.9999999999981
 20
34.00001999999767
 30
0.0
 40
6.0
100
AcDbArc
 50
180.0
 51
270.0
  0
ARC
  5
82C38
330
1E
100
AcDbEntity
  8
OUTLINE
  6
DASHED
100
AcDbCircle
 10
-501.9999999999981
 20
34.00001999999767
 30
0.0
 40
2.0
100
AcDbArc
 50
180.0
 51
270.0
  0
ARC
  5
82C39
330
1E
100
AcDbEntity
  8
OUTLINE
  6
CONTINUOUS
100
AcDbCircle
 10
-501.9999999999981
 20
34.00001999999767
 30
0.0
 40
6.0
100
AcDbArc
 50
180.0
 51
270.0
  0
ARC
  5
82C3A
330
1E
100
AcDbEntity
  8
OUTLINE
  6
CONTINUOUS
100
AcDbCircle
 10
-501.9999999999981
 20
34.00001999999767
 30
0.0
 40
2.0
100
AcDbArc
 50
180.0
 51
270.0
  0
LINE
  5
82C3B
330
1E
100
AcDbEntity
  8
OUTLINE
  6
CONTINUOUS
100
AcDbLine
 10
-504.0000000000036
 20
85.50001999999768
 30
0.0
 11
-504.0
 21
83.00001999999768
 31
0.0
  0
LINE
  5
82C3C
330
1E
100
AcDbEntity
  8
OUTLINE
  6
CONTINUOUS
100
AcDbLine
 10
-504.0000000000036
 20
55.00001999999767
 30
0.0
 11
-503.9999999999982
 21
34.00001999999767
 31
0.0
  0
LINE
  5
82C3D
330
1E
100
AcDbEntity
  8
OUTLINE
  6
CONTINUOUS
100
AcDbLine
 10
-504.0
 20
83.00001999999768
 30
0.0
 11
-504.0000000000036
 21
55.00001999999767
 31
0.0
  0
ARC
  5
82C3E
330
1E
100
AcDbEntity
  8
OUTLINE
  6
CONTINUOUS
100
AcDbCircle
 10
-402.0000000000036
 20
41.5000199999995
 30
0.0
 40
2.000000000000003
100
AcDbArc
 50
41.40962210927951
 51
180.0
  0
ARC
  5
82C3F
330
1E
100
AcDbEntity
  8
OUTLINE
  6
CONTINUOUS
100
AcDbCircle
 10
-399.0000000000036
 20
41.5000199999995
 30
0.0
 40
2.0
100
AcDbArc
 50
0.0
 51
180.0
  0
ARC
  5
82C40
330
1E
100
AcDbEntity
  8
OUTLINE
  6
CONTINUOUS
100
AcDbCircle
 10
-403.0000000000018
 20
30.00001999999767
 30
0.0
 40
2.0
100
AcDbArc
 50
284.4775121860621
 51
0.0
  0
ARC
  5
82C41
330
1E
100
AcDbEntity
  8
OUTLINE
  6
CONTINUOUS
100
AcDbCircle
 10
-403.0000000000018
 20
30.00001999999767
 30
0.0
 40
5.999999999999936
100
AcDbArc
 50
330.0000000000418
 51
0.0
  0
ARC
  5
82C42
330
1E
100
AcDbEntity
  8
OUTLINE
  6
CONTINUOUS
100
AcDbCircle
 10
-406.0000000000018
 20
30.05082666151611
 30
0.0
 40
1.999999999999889
100
AcDbArc
 50
270.0
 51
0.0
  0
ARC
  5
82C43
330
1E
100
AcDbEntity
  8
OUTLINE
  6
CONTINUOUS
100
AcDbCircle
 10
-435.9999999999981
 20
26.00001999999767
 30
0.0
 40
2.000000000000001
100
AcDbArc
 50
90.0
 51
270.0
  0
ARC
  5
82C44
330
1E
100
AcDbEntity
  8
OUTLINE
  6
CONTINUOUS
100
AcDbCircle
 10
-403.0000000000018
 20
30.00001999999767
 30
0.0
 40
6.000000000000001
100
AcDbArc
 50
270.0
 51
330.0000000000418
  0
LINE
  5
82C45
330
1E
100
AcDbEntity
  8
OUTLINE
  6
CONTINUOUS
100
AcDbLine
 10
-404.0000000000036
 20
41.5000199999995
 30
0.0
 11
-404.0000000000036
 21
37.00001999999949
 31
0.0
  0
LINE
  5
82C46
330
1E
100
AcDbEntity
  8
OUTLINE
  6
CONTINUOUS
100
AcDbLine
 10
-401.0000000000036
 20
41.5000199999995
 30
0.0
 11
-401.0000000000036
 21
37.00001999999949
 31
0.0
  0
LINE
  5
82C47
330
1E
100
AcDbEntity
  8
OUTLINE
  6
CONTINUOUS
100
AcDbLine
 10
-397.0000000000036
 20
41.5000199999995
 30
0.0
 11
-397.0000000000036
 21
37.00001999999949
 31
0.0
  0
LINE
  5
82C48
330
1E
100
AcDbEntity
  8
OUTLINE
  6
CONTINUOUS
100
AcDbLine
 10
-406.0000000000018
 20
24.00001999999767
 30
0.0
 11
-403.0000000000018
 21
24.00001999999767
 31
0.0
  0
LINE
  5
82C49
330
1E
100
AcDbEntity
  8
OUTLINE
  6
CONTINUOUS
100
AcDbLine
 10
-397.0000000000036
 20
30.50001999999949
 30
0.0
 11
-397.0000000000018
 21
28.00001999999767
 31
0.0
  0
LINE
  5
82C4A
330
1E
100
AcDbEntity
  8
OUTLINE
  6
CONTINUOUS
100
AcDbLine
 10
-397.0000000000018
 20
28.00001999999767
 30
0.0
 11
-397.3431457505093
 21
28.00001999999767
 31
0.0
  0
LINE
  5
82C4B
330
1E
100
AcDbEntity
  8
OUTLINE
  6
CONTINUOUS
100
AcDbLine
 10
-397.0000000000036
 20
37.00001999999949
 30
0.0
 11
-397.0000000000036
 21
30.50001999999949
 31
0.0
  0
LINE
  5
82C4C
330
1E
100
AcDbEntity
  8
OUTLINE
  6
CONTINUOUS
100
AcDbLine
 10
-401.0000000000036
 20
37.00001999999949
 30
0.0
 11
-401.0000000000018
 21
30.00001999999767
 31
0.0
  0
LINE
  5
82C4D
330
1E
100
AcDbEntity
  8
OUTLINE
  6
CONTINUOUS
100
AcDbLine
 10
-419.9999999999981
 20
28.00001999999767
 30
0.0
 11
-402.4999999999972
 21
28.06352832689481
 31
0.0
  0
LINE
  5
82C4E
330
1E
100
AcDbEntity
  8
OUTLINE
  6
CONTINUOUS
100
AcDbLine
 10
-431.9999999999981
 20
28.00001999999767
 30
0.0
 11
-419.9999999999981
 21
28.00001999999767
 31
0.0
  0
LINE
  5
82C4F
330
1E
100
AcDbEntity
  8
OUTLINE
  6
CONTINUOUS
100
AcDbLine
 10
-431.9999999999981
 20
24.00001999999767
 30
0.0
 11
-406.0000000000018
 21
24.00001999999767
 31
0.0
  0
LINE
  5
82C50
330
1E
100
AcDbEntity
  8
OUTLINE
  6
CONTINUOUS
100
AcDbLine
 10
-404.0000000000036
 20
37.00001999999949
 30
0.0
 11
-404.0000000000018
 21
30.05082666151611
 31
0.0
  0
LINE
  5
82C51
330
1E
100
AcDbEntity
  8
OUTLINE
  6
CONTINUOUS
100
AcDbLine
 10
-431.9999999999981
 20
24.00001999999767
 30
0.0
 11
-435.9999999999981
 21
24.00001999999767
 31
0.0
  0
LINE
  5
82C52
330
1E
100
AcDbEntity
  8
OUTLINE
  6
CONTINUOUS
100
AcDbLine
 10
-431.9999999999981
 20
28.00001999999767
 30
0.0
 11
-435.9999999999981
 21
28.00001999999767
 31
0.0
  0
CIRCLE
  5
82C53
330
1E
100
AcDbEntity
  8
OUTLINE
  6
CONTINUOUS
100
AcDbCircle
 10
-458.9999999999982
 20
26.00001999999767
 30
0.0
 40
2.0
  0
LINE
  5
82C54
330
1E
100
AcDbEntity
  8
OUTLINE
  6
CONTINUOUS
100
AcDbLine
 10
-418.0
 20
83.50001999999767
 30
0.0
 11
-457.0
 21
83.50001999999767
 31
0.0
  0
LINE
  5
82C55
330
1E
100
AcDbEntity
  8
OUTLINE
  6
CONTINUOUS
100
AcDbLine
 10
-418.0
 20
87.50001999999767
 30
0.0
 11
-457.0
 21
87.50001999999767
 31
0.0
  0
LINE
  5
82C56
330
1E
100
AcDbEntity
  8
OUTLINE
  6
CONTINUOUS
100
AcDbLine
 10
-410.0000000000036
 20
87.50001999999767
 30
0.0
 11
-410.0000000000036
 21
83.50001999999767
 31
0.0
  0
LINE
  5
82C57
330
1E
100
AcDbEntity
  8
OUTLINE
  6
CONTINUOUS
100
AcDbLine
 10
-410.0000000000036
 20
87.50001999999767
 30
0.0
 11
-414.0
 21
87.50001999999767
 31
0.0
  0
LINE
  5
82C58
330
1E
100
AcDbEntity
  8
OUTLINE
  6
CONTINUOUS
100
AcDbLine
 10
-410.0000000000036
 20
83.50001999999767
 30
0.0
 11
-414.0
 21
83.50001999999767
 31
0.0
  0
LINE
  5
82C59
330
1E
100
AcDbEntity
  8
OUTLINE
  6
CONTINUOUS
100
AcDbLine
 10
-418.0
 20
53.00001999999768
 30
0.0
 11
-457.0
 21
53.00001999999768
 31
0.0
  0
LINE
  5
82C5A
330
1E
100
AcDbEntity
  8
OUTLINE
  6
CONTINUOUS
100
AcDbLine
 10
-418.0
 20
57.00001999999767
 30
0.0
 11
-457.0
 21
57.00001999999767
 31
0.0
  0
LINE
  5
82C5B
330
1E
100
AcDbEntity
  8
OUTLINE
  6
CONTINUOUS
100
AcDbLine
 10
-410.0000000000036
 20
57.00001999999767
 30
0.0
 11
-410.0000000000036
 21
53.00001999999768
 31
0.0
  0
LINE
  5
82C5C
330
1E
100
AcDbEntity
  8
OUTLINE
  6
CONTINUOUS
100
AcDbLine
 10
-410.0000000000036
 20
53.00001999999768
 30
0.0
 11
-414.0
 21
53.00001999999768
 31
0.0
  0
LINE
  5
82C5D
330
1E
100
AcDbEntity
  8
OUTLINE
  6
CONTINUOUS
100
AcDbLine
 10
-410.0000000000036
 20
57.00001999999767
 30
0.0
 11
-414.0
 21
57.00001999999767
 31
0.0
  0
LINE
  5
82C5E
330
1E
100
AcDbEntity
  8
OUTLINE
  6
CONTINUOUS
100
AcDbLine
 10
-418.0
 20
48.00001999999768
 30
0.0
 11
-414.0
 21
48.00001999999768
 31
0.0
  0
LINE
  5
82C5F
330
1E
100
AcDbEntity
  8
OUTLINE
  6
CONTINUOUS
100
AcDbLine
 10
-461.0
 20
48.00001999999768
 30
0.0
 11
-457.0
 21
48.00001999999768
 31
0.0
  0
LINE
  5
82C60
330
1E
100
AcDbEntity
  8
OUTLINE
  6
DASHED
100
AcDbLine
 10
-431.9999999999981
 20
28.00001999999767
 30
0.0
 11
-419.9999999999981
 21
28.00001999999767
 31
0.0
  0
LINE
  5
82C61
330
1E
100
AcDbEntity
  8
OUTLINE
  6
DASHED
100
AcDbLine
 10
-419.9999999999981
 20
30.00001999999767
 30
0.0
 11
-419.9999999999981
 21
28.00001999999767
 31
0.0
  0
LINE
  5
82C62
330
1E
100
AcDbEntity
  8
OUTLINE
  6
DASHED
100
AcDbLine
 10
-419.9999999999981
 20
32.00001999999767
 30
0.0
 11
-419.9999999999981
 21
30.00001999999767
 31
0.0
  0
LINE
  5
82C63
330
1E
100
AcDbEntity
  8
OUTLINE
  6
DASHED
100
AcDbLine
 10
-431.9999999999981
 20
28.00001999999767
 30
0.0
 11
-435.9999999999981
 21
28.00001999999767
 31
0.0
  0
LINE
  5
82C64
330
1E
100
AcDbEntity
  8
OUTLINE
  6
DASHED
100
AcDbLine
 10
-435.9999999999981
 20
28.00001999999767
 30
0.0
 11
-458.9999999999982
 21
28.00001999999767
 31
0.0
  0
LINE
  5
82C65
330
1E
100
AcDbEntity
  8
OUTLINE
  6
DASHED
100
AcDbLine
 10
-431.9999999999981
 20
28.00001999999767
 30
0.0
 11
-419.9999999999981
 21
28.00001999999767
 31
0.0
  0
LINE
  5
82C66
330
1E
100
AcDbEntity
  8
OUTLINE
  6
CONTINUOUS
100
AcDbLine
 10
-419.9999999999981
 20
30.00001999999767
 30
0.0
 11
-419.9999999999981
 21
28.00001999999767
 31
0.0
  0
LINE
  5
82C67
330
1E
100
AcDbEntity
  8
OUTLINE
  6
CONTINUOUS
100
AcDbLine
 10
-419.9999999999981
 20
32.00001999999767
 30
0.0
 11
-419.9999999999981
 21
30.00001999999767
 31
0.0
  0
LINE
  5
82C68
330
1E
100
AcDbEntity
  8
OUTLINE
  6
DASHED
100
AcDbLine
 10
-431.9999999999981
 20
28.00001999999767
 30
0.0
 11
-435.9999999999981
 21
28.00001999999767
 31
0.0
  0
LINE
  5
82C69
330
1E
100
AcDbEntity
  8
OUTLINE
  6
CONTINUOUS
100
AcDbLine
 10
-435.9999999999981
 20
28.00001999999767
 30
0.0
 11
-458.9999999999982
 21
28.00001999999767
 31
0.0
  0
LINE
  5
82C6A
330
1E
100
AcDbEntity
  8
OUTLINE
  6
CONTINUOUS
100
AcDbLine
 10
-461.0
 20
172.5000199999976
 30
0.0
 11
-498.0
 21
172.5000199999976
 31
0.0
  0
LINE
  5
82C6B
330
1E
100
AcDbEntity
  8
OUTLINE
  6
CONTINUOUS
100
AcDbLine
 10
-461.0
 20
168.5000199999976
 30
0.0
 11
-498.0
 21
168.5000199999976
 31
0.0
  0
LINE
  5
82C6C
330
1E
100
AcDbEntity
  8
OUTLINE
  6
CONTINUOUS
100
AcDbLine
 10
-461.0
 20
128.5000199999976
 30
0.0
 11
-498.0
 21
128.5000199999976
 31
0.0
  0
LINE
  5
82C6D
330
1E
100
AcDbEntity
  8
OUTLINE
  6
CONTINUOUS
100
AcDbLine
 10
-461.0
 20
124.5000199999976
 30
0.0
 11
-498.0
 21
124.5000199999976
 31
0.0
  0
ARC
  5
82C6E
330
1E
100
AcDbEntity
  8
OUTLINE
  6
CONTINUOUS
100
AcDbCircle
 10
-502.0
 20
170.5000199999976
 30
0.0
 40
2.0
100
AcDbArc
 50
90.0
 51
270.0
  0
LINE
  5
82C6F
330
1E
100
AcDbEntity
  8
OUTLINE
  6
CONTINUOUS
100
AcDbLine
 10
-498.0
 20
168.5000199999976
 30
0.0
 11
-502.0
 21
168.5000199999976
 31
0.0
  0
LINE
  5
82C70
330
1E
100
AcDbEntity
  8
OUTLINE
  6
CONTINUOUS
100
AcDbLine
 10
-498.0
 20
172.5000199999976
 30
0.0
 11
-502.0
 21
172.5000199999976
 31
0.0
  0
ARC
  5
82C71
330
1E
100
AcDbEntity
  8
OUTLINE
  6
CONTINUOUS
100
AcDbCircle
 10
-502.0
 20
126.5000199999976
 30
0.0
 40
2.0
100
AcDbArc
 50
90.0
 51
270.0
  0
LINE
  5
82C72
330
1E
100
AcDbEntity
  8
OUTLINE
  6
CONTINUOUS
100
AcDbLine
 10
-498.0
 20
128.5000199999976
 30
0.0
 11
-502.0
 21
128.5000199999976
 31
0.0
  0
LINE
  5
82C73
330
1E
100
AcDbEntity
  8
OUTLINE
  6
CONTINUOUS
100
AcDbLine
 10
-498.0
 20
124.5000199999976
 30
0.0
 11
-502.0
 21
124.5000199999976
 31
0.0
  0
LINE
  5
82C74
330
1E
100
AcDbEntity
  8
OUTLINE
  6
CONTINUOUS
100
AcDbLine
 10
-504.0000000000036
 20
170.5000199999976
 30
0.0
 11
-504.0
 21
168.0000199999976
 31
0.0
  0
LINE
  5
82C75
330
1E
100
AcDbEntity
  8
OUTLINE
  6
CONTINUOUS
100
AcDbLine
 10
-504.0
 20
126.5000199999976
 30
0.0
 11
-504.0
 21
124.0000199999976
 31
0.0
  0
LINE
  5
82C76
330
1E
100
AcDbEntity
  8
OUTLINE
  6
CONTINUOUS
100
AcDbLine
 10
-504.0
 20
168.0000199999976
 30
0.0
 11
-504.0
 21
126.5000199999976
 31
0.0
  0
LINE
  5
82C77
330
1E
100
AcDbEntity
  8
OUTLINE
  6
CONTINUOUS
100
AcDbLine
 10
-410.0000000000036
 20
168.5000199999976
 30
0.0
 11
-414.0
 21
168.5000199999976
 31
0.0
  0
LINE
  5
82C78
330
1E
100
AcDbEntity
  8
OUTLINE
  6
CONTINUOUS
100
AcDbLine
 10
-410.0000000000036
 20
172.5000199999976
 30
0.0
 11
-414.0
 21
172.5000199999976
 31
0.0
  0
LINE
  5
82C79
330
1E
100
AcDbEntity
  8
OUTLINE
  6
CONTINUOUS
100
AcDbLine
 10
-418.0
 20
168.5000199999976
 30
0.0
 11
-457.0
 21
168.5000199999976
 31
0.0
  0
LINE
  5
82C7A
330
1E
100
AcDbEntity
  8
OUTLINE
  6
CONTINUOUS
100
AcDbLine
 10
-418.0
 20
172.5000199999976
 30
0.0
 11
-457.0
 21
172.5000199999976
 31
0.0
  0
LINE
  5
82C7B
330
1E
100
AcDbEntity
  8
OUTLINE
  6
CONTINUOUS
100
AcDbLine
 10
-410.0000000000036
 20
172.5000199999976
 30
0.0
 11
-410.0000000000036
 21
168.5000199999976
 31
0.0
  0
LINE
  5
82C7C
330
1E
100
AcDbEntity
  8
OUTLINE
  6
CONTINUOUS
100
AcDbLine
 10
-410.0000000000036
 20
128.5000199999976
 30
0.0
 11
-414.0
 21
128.5000199999976
 31
0.0
  0
LINE
  5
82C7D
330
1E
100
AcDbEntity
  8
OUTLINE
  6
CONTINUOUS
100
AcDbLine
 10
-410.0000000000036
 20
124.5000199999976
 30
0.0
 11
-414.0
 21
124.5000199999976
 31
0.0
  0
LINE
  5
82C7E
330
1E
100
AcDbEntity
  8
OUTLINE
  6
CONTINUOUS
100
AcDbLine
 10
-418.0
 20
128.5000199999976
 30
0.0
 11
-457.0
 21
128.5000199999976
 31
0.0
  0
LINE
  5
82C7F
330
1E
100
AcDbEntity
  8
OUTLINE
  6
CONTINUOUS
100
AcDbLine
 10
-418.0
 20
124.5000199999976
 30
0.0
 11
-457.0
 21
124.5000199999976
 31
0.0
  0
LINE
  5
82C80
330
1E
100
AcDbEntity
  8
OUTLINE
  6
CONTINUOUS
100
AcDbLine
 10
-410.0000000000036
 20
128.5000199999976
 30
0.0
 11
-410.0000000000036
 21
124.5000199999976
 31
0.0
  0
LINE
  5
82C81
330
1E
100
AcDbEntity
  8
OUTLINE
  6
CONTINUOUS
100
AcDbLine
 10
-89.50000000000192
 20
34.49999999999818
 30
0.0
 11
-89.50000000000192
 21
30.49999999999818
 31
0.0
  0
LINE
  5
82C82
330
1E
100
AcDbEntity
  8
OUTLINE
  6
CONTINUOUS
100
AcDbLine
 10
-239.5000000000018
 20
124.0
 30
0.0
 11
-285.5000000000018
 21
124.0
 31
0.0
  0
LINE
  5
82C83
330
1E
100
AcDbEntity
  8
OUTLINE
  6
CONTINUOUS
100
AcDbLine
 10
-239.5000000000018
 20
78.0
 30
0.0
 11
-285.5000000000018
 21
78.0
 31
0.0
  0
LINE
  5
82C84
330
1E
100
AcDbEntity
  8
OUTLINE
  6
CONTINUOUS
100
AcDbLine
 10
-272.4999999999981
 20
32.0
 30
0.0
 11
-280.5000000000018
 21
32.0
 31
0.0
  0
LINE
  5
82C85
330
1E
100
AcDbEntity
  8
OUTLINE
  6
DASHED
100
AcDbLine
 10
-272.4999999999981
 20
32.0
 30
0.0
 11
-280.5000000000018
 21
32.0
 31
0.0
  0
LINE
  5
82C86
330
1E
100
AcDbEntity
  8
OUTLINE
  6
CONTINUOUS
100
AcDbLine
 10
-239.5000000000018
 20
52.49999999999818
 30
0.0
 11
-285.5000000000018
 21
52.49999999999818
 31
0.0
  0
LINE
  5
82C87
330
1E
100
AcDbEntity
  8
OUTLINE
  6
CONTINUOUS
100
AcDbLine
 10
-239.5000000000018
 20
56.49999999999818
 30
0.0
 11
-285.5000000000018
 21
56.49999999999818
 31
0.0
  0
LINE
  5
82C88
330
1E
100
AcDbEntity
  8
OUTLINE
  6
CONTINUOUS
100
AcDbLine
 10
-239.5000000000018
 20
74.0
 30
0.0
 11
-285.5000000000018
 21
74.0
 31
0.0
  0
LINE
  5
82C89
330
1E
100
AcDbEntity
  8
OUTLINE
  6
CONTINUOUS
100
AcDbLine
 10
-280.5000000000018
 20
36.0
 30
0.0
 11
-239.5000000000018
 21
36.0
 31
0.0
  0
LINE
  5
82C8A
330
1E
100
AcDbEntity
  8
OUTLINE
  6
CONTINUOUS
100
AcDbLine
 10
-272.4999999999981
 20
28.49999999999818
 30
0.0
 11
-283.4999999999981
 21
28.5
 31
0.0
  0
LINE
  5
82C8B
330
1E
100
AcDbEntity
  8
OUTLINE
  6
CONTINUOUS
100
AcDbLine
 10
-289.5000000000018
 20
78.0
 30
0.0
 11
-335.5000000000018
 21
78.0
 31
0.0
  0
LINE
  5
82C8C
330
1E
100
AcDbEntity
  8
OUTLINE
  6
CONTINUOUS
100
AcDbLine
 10
-289.5000000000018
 20
124.0
 30
0.0
 11
-335.5000000000018
 21
124.0
 31
0.0
  0
LINE
  5
82C8D
330
1E
100
AcDbEntity
  8
OUTLINE
  6
CONTINUOUS
100
AcDbLine
 10
-289.5000000000018
 20
52.49999999999818
 30
0.0
 11
-335.5000000000018
 21
52.49999999999818
 31
0.0
  0
LINE
  5
82C8E
330
1E
100
AcDbEntity
  8
OUTLINE
  6
CONTINUOUS
100
AcDbLine
 10
-289.5000000000018
 20
56.49999999999818
 30
0.0
 11
-335.5000000000018
 21
56.49999999999818
 31
0.0
  0
LINE
  5
82C8F
330
1E
100
AcDbEntity
  8
OUTLINE
  6
CONTINUOUS
100
AcDbLine
 10
-289.5000000000018
 20
74.0
 30
0.0
 11
-335.5000000000018
 21
74.0
 31
0.0
  0
LINE
  5
82C90
330
1E
100
AcDbEntity
  8
OUTLINE
  6
CONTINUOUS
100
AcDbLine
 10
-335.5000000000018
 20
32.0
 30
0.0
 11
-289.5000000000018
 21
32.0
 31
0.0
  0
LINE
  5
82C91
330
1E
100
AcDbEntity
  8
OUTLINE
  6
CONTINUOUS
100
AcDbLine
 10
-335.5000000000018
 20
36.0
 30
0.0
 11
-289.5000000000018
 21
36.0
 31
0.0
  0
LINE
  5
82C92
330
1E
100
AcDbEntity
  8
OUTLINE
  6
DASHED
100
AcDbLine
 10
-335.5000000000018
 20
32.0
 30
0.0
 11
-289.5000000000018
 21
32.0
 31
0.0
  0
LINE
  5
82C93
330
1E
100
AcDbEntity
  8
OUTLINE
  6
DASHED
100
AcDbLine
 10
-335.5000000000018
 20
36.0
 30
0.0
 11
-289.5000000000018
 21
36.0
 31
0.0
  0
LINE
  5
82C94
330
1E
100
AcDbEntity
  8
OUTLINE
  6
CONTINUOUS
100
AcDbLine
 10
-335.5000000000018
 20
34.49999999999818
 30
0.0
 11
-335.5000000000018
 21
30.49999999999818
 31
0.0
  0
LINE
  5
82C95
330
1E
100
AcDbEntity
  8
OUTLINE
  6
CONTINUOUS
100
AcDbLine
 10
-339.5000000000018
 20
34.49999999999818
 30
0.0
 11
-339.5000000000018
 21
30.49999999999818
 31
0.0
  0
LINE
  5
82C96
330
1E
100
AcDbEntity
  8
OUTLINE
  6
CONTINUOUS
100
AcDbLine
 10
-344.5000000000018
 20
36.0
 30
0.0
 11
-344.5000000000018
 21
32.0
 31
0.0
  0
LINE
  5
82C97
330
1E
100
AcDbEntity
  8
OUTLINE
  6
DASHED
100
AcDbLine
 10
-344.5000000000018
 20
36.0
 30
0.0
 11
-344.5000000000018
 21
32.0
 31
0.0
  0
LINE
  5
82C98
330
1E
100
AcDbEntity
  8
OUTLINE
  6
CONTINUOUS
100
AcDbLine
 10
-344.5000000000018
 20
32.0
 30
0.0
 11
-339.5000000000018
 21
32.0
 31
0.0
  0
LINE
  5
82C99
330
1E
100
AcDbEntity
  8
OUTLINE
  6
CONTINUOUS
100
AcDbLine
 10
-344.5000000000018
 20
36.0
 30
0.0
 11
-339.5000000000018
 21
36.0
 31
0.0
  0
LINE
  5
82C9A
330
1E
100
AcDbEntity
  8
OUTLINE
  6
DASHED
100
AcDbLine
 10
-344.5000000000018
 20
32.0
 30
0.0
 11
-339.5000000000018
 21
32.0
 31
0.0
  0
LINE
  5
82C9B
330
1E
100
AcDbEntity
  8
OUTLINE
  6
DASHED
100
AcDbLine
 10
-344.5000000000018
 20
36.0
 30
0.0
 11
-339.5000000000018
 21
36.0
 31
0.0
  0
ARC
  5
82C9C
330
1E
100
AcDbEntity
  8
OUTLINE
  6
CONTINUOUS
100
AcDbCircle
 10
-337.5000000000018
 20
30.49999999999818
 30
0.0
 40
2.0
100
AcDbArc
 50
180.0
 51
0.0
  0
LINE
  5
82C9D
330
1E
100
AcDbEntity
  8
OUTLINE
  6
CONTINUOUS
100
AcDbLine
 10
-280.5000000000018
 20
32.0
 30
0.0
 11
-283.4999999999981
 21
32.00000000000182
 31
0.0
  0
LINE
  5
82C9E
330
1E
100
AcDbEntity
  8
OUTLINE
  6
CONTINUOUS
100
AcDbLine
 10
-283.4999999999981
 20
32.00000000000182
 30
0.0
 11
-285.5000000000018
 21
32.00000000000182
 31
0.0
  0
LINE
  5
82C9F
330
1E
100
AcDbEntity
  8
OUTLINE
  6
CONTINUOUS
100
AcDbLine
 10
-285.5000000000018
 20
36.0
 30
0.0
 11
-280.5000000000018
 21
36.0
 31
0.0
  0
LINE
  5
82CA0
330
1E
100
AcDbEntity
  8
OUTLINE
  6
DASHED
100
AcDbLine
 10
-280.5000000000018
 20
32.0
 30
0.0
 11
-283.4999999999981
 21
32.00000000000182
 31
0.0
  0
LINE
  5
82CA1
330
1E
100
AcDbEntity
  8
OUTLINE
  6
DASHED
100
AcDbLine
 10
-283.4999999999981
 20
32.00000000000182
 30
0.0
 11
-285.5000000000018
 21
32.00000000000182
 31
0.0
  0
LINE
  5
82CA2
330
1E
100
AcDbEntity
  8
OUTLINE
  6
CONTINUOUS
100
AcDbLine
 10
-289.5000000000018
 20
34.49999999999818
 30
0.0
 11
-289.5000000000018
 21
30.49999999999818
 31
0.0
  0
LINE
  5
82CA3
330
1E
100
AcDbEntity
  8
OUTLINE
  6
CONTINUOUS
100
AcDbLine
 10
-285.5000000000018
 20
34.49999999999818
 30
0.0
 11
-285.5000000000018
 21
30.49999999999818
 31
0.0
  0
LINE
  5
82CA4
330
1E
100
AcDbEntity
  8
OUTLINE
  6
DASHED
100
AcDbLine
 10
-280.5000000000018
 20
32.0
 30
0.0
 11
-283.4999999999981
 21
32.00000000000182
 31
0.0
  0
LINE
  5
82CA5
330
1E
100
AcDbEntity
  8
OUTLINE
  6
DASHED
100
AcDbLine
 10
-283.4999999999981
 20
32.00000000000182
 30
0.0
 11
-285.5000000000018
 21
32.00000000000182
 31
0.0
  0
LINE
  5
82CA6
330
1E
100
AcDbEntity
  8
OUTLINE
  6
DASHED
100
AcDbLine
 10
-285.5000000000018
 20
36.0
 30
0.0
 11
-280.5000000000018
 21
36.0
 31
0.0
  0
LINE
  5
82CA7
330
1E
100
AcDbEntity
  8
OUTLINE
  6
CONTINUOUS
100
AcDbLine
 10
-283.4999999999981
 20
28.5
 30
0.0
 11
-287.5000000000018
 21
28.49999999999818
 31
0.0
  0
ARC
  5
82CA8
330
1E
100
AcDbEntity
  8
OUTLINE
  6
CONTINUOUS
100
AcDbCircle
 10
-287.5000000000018
 20
30.49999999999818
 30
0.0
 40
2.0
100
AcDbArc
 50
180.0
 51
270.0
  0
ARC
  5
82CA9
330
1E
100
AcDbEntity
  8
OUTLINE
  6
CONTINUOUS
100
AcDbCircle
 10
-287.5000000000018
 20
30.49999999999818
 30
0.0
 40
2.0
100
AcDbArc
 50
270.0
 51
0.0
  0
LINE
  5
82CAA
330
1E
100
AcDbEntity
  8
OUTLINE
  6
CONTINUOUS
100
AcDbLine
 10
-135.5000000000019
 20
34.49999999999818
 30
0.0
 11
-135.5000000000019
 21
30.49999999999818
 31
0.0
  0
LINE
  5
82CAB
330
1E
100
AcDbEntity
  8
OUTLINE
  6
CONTINUOUS
100
AcDbLine
 10
-139.5000000000019
 20
78.0
 30
0.0
 11
-185.5000000000019
 21
78.0
 31
0.0
  0
LINE
  5
82CAC
330
1E
100
AcDbEntity
  8
OUTLINE
  6
CONTINUOUS
100
AcDbLine
 10
-139.5000000000019
 20
124.0
 30
0.0
 11
-185.5000000000019
 21
124.0
 31
0.0
  0
LINE
  5
82CAD
330
1E
100
AcDbEntity
  8
OUTLINE
  6
CONTINUOUS
100
AcDbLine
 10
-189.5000000000018
 20
78.0
 30
0.0
 11
-235.5000000000018
 21
78.0
 31
0.0
  0
LINE
  5
82CAE
330
1E
100
AcDbEntity
  8
OUTLINE
  6
CONTINUOUS
100
AcDbLine
 10
-189.5000000000018
 20
124.0
 30
0.0
 11
-235.5000000000018
 21
124.0
 31
0.0
  0
LINE
  5
82CAF
330
1E
100
AcDbEntity
  8
OUTLINE
  6
CONTINUOUS
100
AcDbLine
 10
-139.5000000000019
 20
34.49999999999818
 30
0.0
 11
-139.5000000000019
 21
30.49999999999818
 31
0.0
  0
LINE
  5
82CB0
330
1E
100
AcDbEntity
  8
OUTLINE
  6
CONTINUOUS
100
AcDbLine
 10
-194.4999999999981
 20
32.0
 30
0.0
 11
-189.5000000000018
 21
32.0
 31
0.0
  0
LINE
  5
82CB1
330
1E
100
AcDbEntity
  8
OUTLINE
  6
CONTINUOUS
100
AcDbLine
 10
-194.4999999999981
 20
36.0
 30
0.0
 11
-189.5000000000018
 21
36.0
 31
0.0
  0
LINE
  5
82CB2
330
1E
100
AcDbEntity
  8
OUTLINE
  6
DASHED
100
AcDbLine
 10
-194.4999999999981
 20
32.0
 30
0.0
 11
-189.5000000000018
 21
32.0
 31
0.0
  0
LINE
  5
82CB3
330
1E
100
AcDbEntity
  8
OUTLINE
  6
DASHED
100
AcDbLine
 10
-194.4999999999981
 20
36.0
 30
0.0
 11
-189.5000000000018
 21
36.0
 31
0.0
  0
LINE
  5
82CB4
330
1E
100
AcDbEntity
  8
OUTLINE
  6
CONTINUOUS
100
AcDbLine
 10
-185.5000000000019
 20
34.49999999999818
 30
0.0
 11
-185.5000000000019
 21
30.49999999999818
 31
0.0
  0
LINE
  5
82CB5
330
1E
100
AcDbEntity
  8
OUTLINE
  6
CONTINUOUS
100
AcDbLine
 10
-189.5000000000018
 20
34.49999999999818
 30
0.0
 11
-189.5000000000018
 21
30.49999999999818
 31
0.0
  0
ARC
  5
82CB6
330
1E
100
AcDbEntity
  8
OUTLINE
  6
CONTINUOUS
100
AcDbCircle
 10
-187.5000000000019
 20
30.49999999999818
 30
0.0
 40
2.0
100
AcDbArc
 50
180.0
 51
0.0
  0
LINE
  5
82CB7
330
1E
100
AcDbEntity
  8
OUTLINE
  6
CONTINUOUS
100
AcDbLine
 10
-139.5000000000019
 20
52.49999999999818
 30
0.0
 11
-185.5000000000019
 21
52.49999999999818
 31
0.0
  0
LINE
  5
82CB8
330
1E
100
AcDbEntity
  8
OUTLINE
  6
CONTINUOUS
100
AcDbLine
 10
-139.5000000000019
 20
56.49999999999818
 30
0.0
 11
-185.5000000000019
 21
56.49999999999818
 31
0.0
  0
LINE
  5
82CB9
330
1E
100
AcDbEntity
  8
OUTLINE
  6
CONTINUOUS
100
AcDbLine
 10
-139.5000000000019
 20
74.0
 30
0.0
 11
-185.5000000000019
 21
74.0
 31
0.0
  0
LINE
  5
82CBA
330
1E
100
AcDbEntity
  8
OUTLINE
  6
CONTINUOUS
100
AcDbLine
 10
-185.5000000000019
 20
32.0
 30
0.0
 11
-139.5000000000019
 21
32.0
 31
0.0
  0
LINE
  5
82CBB
330
1E
100
AcDbEntity
  8
OUTLINE
  6
CONTINUOUS
100
AcDbLine
 10
-185.5000000000019
 20
36.0
 30
0.0
 11
-139.5000000000019
 21
36.0
 31
0.0
  0
LINE
  5
82CBC
330
1E
100
AcDbEntity
  8
OUTLINE
  6
DASHED
100
AcDbLine
 10
-185.5000000000019
 20
32.0
 30
0.0
 11
-139.5000000000019
 21
32.0
 31
0.0
  0
LINE
  5
82CBD
330
1E
100
AcDbEntity
  8
OUTLINE
  6
DASHED
100
AcDbLine
 10
-185.5000000000019
 20
36.0
 30
0.0
 11
-139.5000000000019
 21
36.0
 31
0.0
  0
LINE
  5
82CBE
330
1E
100
AcDbEntity
  8
OUTLINE
  6
CONTINUOUS
100
AcDbLine
 10
-239.5000000000018
 20
34.49999999999818
 30
0.0
 11
-239.5000000000018
 21
30.49999999999818
 31
0.0
  0
LINE
  5
82CBF
330
1E
100
AcDbEntity
  8
OUTLINE
  6
CONTINUOUS
100
AcDbLine
 10
-235.5000000000018
 20
34.49999999999818
 30
0.0
 11
-235.5000000000018
 21
30.49999999999818
 31
0.0
  0
LINE
  5
82CC0
330
1E
100
AcDbEntity
  8
OUTLINE
  6
CONTINUOUS
100
AcDbLine
 10
-257.4999999999981
 20
37.99999999999818
 30
0.0
 11
-257.4999999999981
 21
45.99999999999818
 31
0.0
  0
LINE
  5
82CC1
330
1E
100
AcDbEntity
  8
OUTLINE
  6
CONTINUOUS
100
AcDbLine
 10
-261.4999999999982
 20
37.99999999999818
 30
0.0
 11
-261.4999999999982
 21
45.99999999999818
 31
0.0
  0
LINE
  5
82CC2
330
1E
100
AcDbEntity
  8
OUTLINE
  6
CONTINUOUS
100
AcDbLine
 10
-266.4999999999981
 20
45.99999999999818
 30
0.0
 11
-266.4999999999981
 21
36.0
 31
0.0
  0
LINE
  5
82CC3
330
1E
100
AcDbEntity
  8
OUTLINE
  6
CONTINUOUS
100
AcDbLine
 10
-270.4999999999981
 20
45.99999999999818
 30
0.0
 11
-270.4999999999981
 21
36.0
 31
0.0
  0
ARC
  5
82CC4
330
1E
100
AcDbEntity
  8
OUTLINE
  6
CONTINUOUS
100
AcDbCircle
 10
-263.9999999999981
 20
45.99999999999818
 30
0.0
 40
2.5
100
AcDbArc
 50
0.0
 51
180.0
  0
ARC
  5
82CC5
330
1E
100
AcDbEntity
  8
OUTLINE
  6
CONTINUOUS
100
AcDbCircle
 10
-263.9999999999981
 20
45.99999999999818
 30
0.0
 40
6.5
100
AcDbArc
 50
90.0
 51
180.0
  0
LINE
  5
82CC6
330
1E
100
AcDbEntity
  8
OUTLINE
  6
CONTINUOUS
100
AcDbLine
 10
-272.4999999999981
 20
32.0
 30
0.0
 11
-239.5000000000018
 21
32.0
 31
0.0
  0
LINE
  5
82CC7
330
1E
100
AcDbEntity
  8
OUTLINE
  6
CONTINUOUS
100
AcDbLine
 10
-261.4999999999982
 20
37.99999999999818
 30
0.0
 11
-257.4999999999981
 21
37.99999999999818
 31
0.0
  0
ARC
  5
82CC8
330
1E
100
AcDbEntity
  8
OUTLINE
  6
CONTINUOUS
100
AcDbCircle
 10
-263.9999999999981
 20
45.99999999999818
 30
0.0
 40
6.5
100
AcDbArc
 50
0.0
 51
90.0
  0
ARC
  5
82CC9
330
1E
100
AcDbEntity
  8
OUTLINE
  6
CONTINUOUS
100
AcDbCircle
 10
-272.4999999999981
 20
34.49999999999818
 30
0.0
 40
6.0
100
AcDbArc
 50
270.0
 51
335.3756816478731
  0
ARC
  5
82CCA
330
1E
100
AcDbEntity
  8
OUTLINE
  6
CONTINUOUS
100
AcDbCircle
 10
-237.5000000000018
 20
30.49999999999818
 30
0.0
 40
2.0
100
AcDbArc
 50
180.0
 51
0.0
  0
LINE
  5
82CCB
330
1E
100
AcDbEntity
  8
OUTLINE
  6
CONTINUOUS
100
AcDbLine
 10
-189.5000000000018
 20
52.49999999999818
 30
0.0
 11
-235.5000000000018
 21
52.49999999999818
 31
0.0
  0
LINE
  5
82CCC
330
1E
100
AcDbEntity
  8
OUTLINE
  6
CONTINUOUS
100
AcDbLine
 10
-189.5000000000018
 20
56.49999999999818
 30
0.0
 11
-235.5000000000018
 21
56.49999999999818
 31
0.0
  0
LINE
  5
82CCD
330
1E
100
AcDbEntity
  8
OUTLINE
  6
CONTINUOUS
100
AcDbLine
 10
-189.5000000000018
 20
74.0
 30
0.0
 11
-235.5000000000018
 21
74.0
 31
0.0
  0
LINE
  5
82CCE
330
1E
100
AcDbEntity
  8
OUTLINE
  6
CONTINUOUS
100
AcDbLine
 10
-235.5000000000018
 20
36.0
 30
0.0
 11
-194.4999999999981
 21
36.0
 31
0.0
  0
LINE
  5
82CCF
330
1E
100
AcDbEntity
  8
OUTLINE
  6
CONTINUOUS
100
AcDbLine
 10
-235.5000000000018
 20
32.0
 30
0.0
 11
-194.4999999999981
 21
32.0
 31
0.0
  0
ARC
  5
82CD0
330
1E
100
AcDbEntity
  8
OUTLINE
  6
CONTINUOUS
100
AcDbCircle
 10
-137.5000000000019
 20
30.49999999999818
 30
0.0
 40
2.0
100
AcDbArc
 50
180.0
 51
0.0
  0
LINE
  5
82CD1
330
1E
100
AcDbEntity
  8
OUTLINE
  6
CONTINUOUS
100
AcDbLine
 10
-239.5000000000018
 20
174.0
 30
0.0
 11
-285.5000000000018
 21
174.0
 31
0.0
  0
LINE
  5
82CD2
330
1E
100
AcDbEntity
  8
OUTLINE
  6
CONTINUOUS
100
AcDbLine
 10
-239.5000000000018
 20
128.0
 30
0.0
 11
-285.5000000000018
 21
128.0
 31
0.0
  0
LINE
  5
82CD3
330
1E
100
AcDbEntity
  8
OUTLINE
  6
CONTINUOUS
100
AcDbLine
 10
-289.5000000000018
 20
174.0
 30
0.0
 11
-335.5000000000018
 21
174.0
 31
0.0
  0
LINE
  5
82CD4
330
1E
100
AcDbEntity
  8
OUTLINE
  6
CONTINUOUS
100
AcDbLine
 10
-289.5000000000018
 20
128.0
 30
0.0
 11
-335.5000000000018
 21
128.0
 31
0.0
  0
LINE
  5
82CD5
330
1E
100
AcDbEntity
  8
OUTLINE
  6
CONTINUOUS
100
AcDbLine
 10
-139.5000000000019
 20
174.0
 30
0.0
 11
-185.5000000000019
 21
174.0
 31
0.0
  0
LINE
  5
82CD6
330
1E
100
AcDbEntity
  8
OUTLINE
  6
CONTINUOUS
100
AcDbLine
 10
-139.5000000000019
 20
128.0
 30
0.0
 11
-185.5000000000019
 21
128.0
 31
0.0
  0
LINE
  5
82CD7
330
1E
100
AcDbEntity
  8
OUTLINE
  6
CONTINUOUS
100
AcDbLine
 10
-189.5000000000018
 20
128.0
 30
0.0
 11
-235.5000000000018
 21
128.0
 31
0.0
  0
LINE
  5
82CD8
330
1E
100
AcDbEntity
  8
OUTLINE
  6
CONTINUOUS
100
AcDbLine
 10
-189.5000000000018
 20
174.0
 30
0.0
 11
-235.5000000000018
 21
174.0
 31
0.0
  0
LINE
  5
82CD9
330
1E
100
AcDbEntity
  8
OUTLINE
  6
CONTINUOUS
100
AcDbLine
 10
-89.50000000000192
 20
52.49999999999818
 30
0.0
 11
-135.5000000000019
 21
52.49999999999818
 31
0.0
  0
LINE
  5
82CDA
330
1E
100
AcDbEntity
  8
OUTLINE
  6
CONTINUOUS
100
AcDbLine
 10
-89.50000000000192
 20
56.49999999999818
 30
0.0
 11
-135.5000000000019
 21
56.49999999999818
 31
0.0
  0
LINE
  5
82CDB
330
1E
100
AcDbEntity
  8
OUTLINE
  6
CONTINUOUS
100
AcDbLine
 10
-89.50000000000192
 20
74.0
 30
0.0
 11
-135.5000000000019
 21
74.0
 31
0.0
  0
LINE
  5
82CDC
330
1E
100
AcDbEntity
  8
OUTLINE
  6
CONTINUOUS
100
AcDbLine
 10
-89.50000000000192
 20
78.0
 30
0.0
 11
-135.5000000000019
 21
78.0
 31
0.0
  0
LINE
  5
82CDD
330
1E
100
AcDbEntity
  8
OUTLINE
  6
CONTINUOUS
100
AcDbLine
 10
-89.50000000000192
 20
124.0
 30
0.0
 11
-135.5000000000019
 21
124.0
 31
0.0
  0
LINE
  5
82CDE
330
1E
100
AcDbEntity
  8
OUTLINE
  6
CONTINUOUS
100
AcDbLine
 10
-135.5000000000019
 20
32.0
 30
0.0
 11
-89.50000000000192
 21
32.0
 31
0.0
  0
LINE
  5
82CDF
330
1E
100
AcDbEntity
  8
OUTLINE
  6
CONTINUOUS
100
AcDbLine
 10
-135.5000000000019
 20
36.0
 30
0.0
 11
-89.50000000000192
 21
36.0
 31
0.0
  0
LINE
  5
82CE0
330
1E
100
AcDbEntity
  8
OUTLINE
  6
DASHED
100
AcDbLine
 10
-135.5000000000019
 20
32.0
 30
0.0
 11
-89.50000000000192
 21
32.0
 31
0.0
  0
LINE
  5
82CE1
330
1E
100
AcDbEntity
  8
OUTLINE
  6
DASHED
100
AcDbLine
 10
-135.5000000000019
 20
36.0
 30
0.0
 11
-89.50000000000192
 21
36.0
 31
0.0
  0
LINE
  5
82CE2
330
1E
100
AcDbEntity
  8
OUTLINE
  6
CONTINUOUS
100
AcDbLine
 10
-89.50000000000192
 20
128.0
 30
0.0
 11
-135.5000000000019
 21
128.0
 31
0.0
  0
LINE
  5
82CE3
330
1E
100
AcDbEntity
  8
OUTLINE
  6
CONTINUOUS
100
AcDbLine
 10
-89.50000000000192
 20
174.0
 30
0.0
 11
-135.5000000000019
 21
174.0
 31
0.0
  0
ARC
  5
82CE4
330
1E
100
AcDbEntity
  8
OUTLINE
  6
CONTINUOUS
100
AcDbCircle
 10
141.9999999999998
 20
126.0
 30
0.0
 40
2.0
100
AcDbArc
 50
270.0
 51
90.0
  0
LINE
  5
82CE5
330
1E
100
AcDbEntity
  8
OUTLINE
  6
CONTINUOUS
100
AcDbLine
 10
143.9999999999998
 20
76.0
 30
0.0
 11
143.9999999999998
 21
126.0
 31
0.0
  0
LINE
  5
82CE6
330
1E
100
AcDbEntity
  8
OUTLINE
  6
CONTINUOUS
100
AcDbLine
 10
10.49999999999806
 20
78.0
 30
0.0
 11
-35.50000000000193
 21
78.0
 31
0.0
  0
LINE
  5
82CE7
330
1E
100
AcDbEntity
  8
OUTLINE
  6
CONTINUOUS
100
AcDbLine
 10
10.49999999999806
 20
124.0
 30
0.0
 11
-35.50000000000193
 21
124.0
 31
0.0
  0
LINE
  5
82CE8
330
1E
100
AcDbEntity
  8
OUTLINE
  6
CONTINUOUS
100
AcDbLine
 10
10.49999999999806
 20
52.49999999999818
 30
0.0
 11
-35.50000000000193
 21
52.49999999999818
 31
0.0
  0
LINE
  5
82CE9
330
1E
100
AcDbEntity
  8
OUTLINE
  6
CONTINUOUS
100
AcDbLine
 10
10.49999999999806
 20
56.49999999999818
 30
0.0
 11
-35.50000000000193
 21
56.49999999999818
 31
0.0
  0
LINE
  5
82CEA
330
1E
100
AcDbEntity
  8
OUTLINE
  6
CONTINUOUS
100
AcDbLine
 10
10.49999999999806
 20
74.0
 30
0.0
 11
-35.50000000000193
 21
74.0
 31
0.0
  0
LINE
  5
82CEB
330
1E
100
AcDbEntity
  8
OUTLINE
  6
CONTINUOUS
100
AcDbLine
 10
-35.50000000000193
 20
32.0
 30
0.0
 11
10.49999999999806
 21
32.0
 31
0.0
  0
LINE
  5
82CEC
330
1E
100
AcDbEntity
  8
OUTLINE
  6
CONTINUOUS
100
AcDbLine
 10
-35.50000000000193
 20
36.0
 30
0.0
 11
10.49999999999806
 21
36.0
 31
0.0
  0
LINE
  5
82CED
330
1E
100
AcDbEntity
  8
OUTLINE
  6
DASHED
100
AcDbLine
 10
-35.50000000000193
 20
32.0
 30
0.0
 11
10.49999999999806
 21
32.0
 31
0.0
  0
LINE
  5
82CEE
330
1E
100
AcDbEntity
  8
OUTLINE
  6
DASHED
100
AcDbLine
 10
-35.50000000000193
 20
36.0
 30
0.0
 11
10.49999999999806
 21
36.0
 31
0.0
  0
LINE
  5
82CEF
330
1E
100
AcDbEntity
  8
OUTLINE
  6
CONTINUOUS
100
AcDbLine
 10
-39.50000000000193
 20
124.0
 30
0.0
 11
-85.50000000000194
 21
124.0
 31
0.0
  0
LINE
  5
82CF0
330
1E
100
AcDbEntity
  8
OUTLINE
  6
CONTINUOUS
100
AcDbLine
 10
-39.50000000000193
 20
78.0
 30
0.0
 11
-85.50000000000194
 21
78.0
 31
0.0
  0
LINE
  5
82CF1
330
1E
100
AcDbEntity
  8
OUTLINE
  6
CONTINUOUS
100
AcDbLine
 10
-39.50000000000193
 20
52.49999999999818
 30
0.0
 11
-85.50000000000194
 21
52.49999999999818
 31
0.0
  0
LINE
  5
82CF2
330
1E
100
AcDbEntity
  8
OUTLINE
  6
CONTINUOUS
100
AcDbLine
 10
-39.50000000000193
 20
56.49999999999818
 30
0.0
 11
-85.50000000000194
 21
56.49999999999818
 31
0.0
  0
LINE
  5
82CF3
330
1E
100
AcDbEntity
  8
OUTLINE
  6
CONTINUOUS
100
AcDbLine
 10
-39.50000000000193
 20
74.0
 30
0.0
 11
-85.50000000000194
 21
74.0
 31
0.0
  0
LINE
  5
82CF4
330
1E
100
AcDbEntity
  8
OUTLINE
  6
CONTINUOUS
100
AcDbLine
 10
-85.50000000000194
 20
36.0
 30
0.0
 11
-39.50000000000193
 21
36.0
 31
0.0
  0
LINE
  5
82CF5
330
1E
100
AcDbEntity
  8
OUTLINE
  6
CONTINUOUS
100
AcDbLine
 10
-85.50000000000194
 20
32.0
 30
0.0
 11
-39.50000000000193
 21
32.0
 31
0.0
  0
LINE
  5
82CF6
330
1E
100
AcDbEntity
  8
OUTLINE
  6
DASHED
100
AcDbLine
 10
-85.50000000000194
 20
36.0
 30
0.0
 11
-39.50000000000193
 21
36.0
 31
0.0
  0
LINE
  5
82CF7
330
1E
100
AcDbEntity
  8
OUTLINE
  6
DASHED
100
AcDbLine
 10
-85.50000000000194
 20
32.0
 30
0.0
 11
-39.50000000000193
 21
32.0
 31
0.0
  0
LINE
  5
82CF8
330
1E
100
AcDbEntity
  8
OUTLINE
  6
CONTINUOUS
100
AcDbLine
 10
-85.50000000000194
 20
34.49999999999818
 30
0.0
 11
-85.50000000000194
 21
30.49999999999818
 31
0.0
  0
LINE
  5
82CF9
330
1E
100
AcDbEntity
  8
OUTLINE
  6
CONTINUOUS
100
AcDbLine
 10
-39.50000000000193
 20
34.49999999999818
 30
0.0
 11
-39.50000000000193
 21
30.49999999999818
 31
0.0
  0
LINE
  5
82CFA
330
1E
100
AcDbEntity
  8
OUTLINE
  6
CONTINUOUS
100
AcDbLine
 10
-35.50000000000193
 20
34.49999999999818
 30
0.0
 11
-35.50000000000193
 21
30.49999999999818
 31
0.0
  0
ARC
  5
82CFB
330
1E
100
AcDbEntity
  8
OUTLINE
  6
CONTINUOUS
100
AcDbCircle
 10
-37.50000000000193
 20
30.49999999999818
 30
0.0
 40
2.0
100
AcDbArc
 50
180.0
 51
0.0
  0
LINE
  5
82CFC
330
1E
100
AcDbEntity
  8
OUTLINE
  6
CONTINUOUS
100
AcDbLine
 10
137.499999999998
 20
124.0
 30
0.0
 11
141.9999999999998
 21
124.0
 31
0.0
  0
LINE
  5
82CFD
330
1E
100
AcDbEntity
  8
OUTLINE
  6
CONTINUOUS
100
AcDbLine
 10
137.499999999998
 20
78.0
 30
0.0
 11
141.9999999999998
 21
78.0
 31
0.0
  0
LINE
  5
82CFE
330
1E
100
AcDbEntity
  8
OUTLINE
  6
CONTINUOUS
100
AcDbLine
 10
137.499999999998
 20
56.49999999999818
 30
0.0
 11
141.9999999999998
 21
56.49999999999818
 31
0.0
  0
LINE
  5
82CFF
330
1E
100
AcDbEntity
  8
OUTLINE
  6
CONTINUOUS
100
AcDbLine
 10
137.499999999998
 20
52.49999999999818
 30
0.0
 11
141.9999999999998
 21
52.49999999999818
 31
0.0
  0
ARC
  5
82D00
330
1E
100
AcDbEntity
  8
OUTLINE
  6
CONTINUOUS
100
AcDbCircle
 10
141.9999999999998
 20
54.49999999999818
 30
0.0
 40
2.000000000000113
100
AcDbArc
 50
270.0
 51
90.0
  0
LINE
  5
82D01
330
1E
100
AcDbEntity
  8
OUTLINE
  6
CONTINUOUS
100
AcDbLine
 10
137.499999999998
 20
74.0
 30
0.0
 11
141.9999999999998
 21
74.0
 31
0.0
  0
LINE
  5
82D02
330
1E
100
AcDbEntity
  8
OUTLINE
  6
CONTINUOUS
100
AcDbLine
 10
143.9999999999998
 20
47.49999999999817
 30
0.0
 11
147.9999999999998
 21
47.49999999999817
 31
0.0
  0
LINE
  5
82D03
330
1E
100
AcDbEntity
  8
OUTLINE
  6
CONTINUOUS
100
AcDbLine
 10
143.9999999999998
 20
47.49999999999817
 30
0.0
 11
143.9999999999998
 21
54.49999999999818
 31
0.0
  0
ARC
  5
82D04
330
1E
100
AcDbEntity
  8
OUTLINE
  6
CONTINUOUS
100
AcDbCircle
 10
141.9999999999998
 20
76.0
 30
0.0
 40
2.000000000000113
100
AcDbArc
 50
270.0
 51
90.0
  0
LINE
  5
82D05
330
1E
100
AcDbEntity
  8
OUTLINE
  6
CONTINUOUS
100
AcDbLine
 10
143.9999999999998
 20
54.49999999999818
 30
0.0
 11
143.9999999999998
 21
76.0
 31
0.0
  0
LINE
  5
82D06
330
1E
100
AcDbEntity
  8
OUTLINE
  6
CONTINUOUS
100
AcDbLine
 10
110.499999999998
 20
78.0
 30
0.0
 11
64.49999999999807
 21
78.0
 31
0.0
  0
LINE
  5
82D07
330
1E
100
AcDbEntity
  8
OUTLINE
  6
CONTINUOUS
100
AcDbLine
 10
110.499999999998
 20
124.0
 30
0.0
 11
64.49999999999807
 21
124.0
 31
0.0
  0
LINE
  5
82D08
330
1E
100
AcDbEntity
  8
OUTLINE
  6
CONTINUOUS
100
AcDbLine
 10
60.49999999999807
 20
78.0
 30
0.0
 11
14.49999999999806
 21
78.0
 31
0.0
  0
LINE
  5
82D09
330
1E
100
AcDbEntity
  8
OUTLINE
  6
CONTINUOUS
100
AcDbLine
 10
60.49999999999807
 20
124.0
 30
0.0
 11
14.49999999999806
 21
124.0
 31
0.0
  0
LINE
  5
82D0A
330
1E
100
AcDbEntity
  8
OUTLINE
  6
CONTINUOUS
100
AcDbLine
 10
119.499999999998
 20
36.0
 30
0.0
 11
119.499999999998
 21
32.0
 31
0.0
  0
LINE
  5
82D0B
330
1E
100
AcDbEntity
  8
OUTLINE
  6
DASHED
100
AcDbLine
 10
119.499999999998
 20
36.0
 30
0.0
 11
119.499999999998
 21
32.0
 31
0.0
  0
LINE
  5
82D0C
330
1E
100
AcDbEntity
  8
OUTLINE
  6
CONTINUOUS
100
AcDbLine
 10
114.499999999998
 20
34.49999999999818
 30
0.0
 11
114.499999999998
 21
30.49999999999818
 31
0.0
  0
LINE
  5
82D0D
330
1E
100
AcDbEntity
  8
OUTLINE
  6
CONTINUOUS
100
AcDbLine
 10
110.499999999998
 20
34.49999999999818
 30
0.0
 11
110.499999999998
 21
30.49999999999818
 31
0.0
  0
LINE
  5
82D0E
330
1E
100
AcDbEntity
  8
OUTLINE
  6
CONTINUOUS
100
AcDbLine
 10
114.499999999998
 20
32.0
 30
0.0
 11
119.499999999998
 21
32.0
 31
0.0
  0
LINE
  5
82D0F
330
1E
100
AcDbEntity
  8
OUTLINE
  6
CONTINUOUS
100
AcDbLine
 10
114.499999999998
 20
36.0
 30
0.0
 11
119.499999999998
 21
36.0
 31
0.0
  0
LINE
  5
82D10
330
1E
100
AcDbEntity
  8
OUTLINE
  6
DASHED
100
AcDbLine
 10
114.499999999998
 20
32.0
 30
0.0
 11
119.499999999998
 21
32.0
 31
0.0
  0
LINE
  5
82D11
330
1E
100
AcDbEntity
  8
OUTLINE
  6
DASHED
100
AcDbLine
 10
114.499999999998
 20
36.0
 30
0.0
 11
119.499999999998
 21
36.0
 31
0.0
  0
ARC
  5
82D12
330
1E
100
AcDbEntity
  8
OUTLINE
  6
CONTINUOUS
100
AcDbCircle
 10
112.499999999998
 20
30.49999999999818
 30
0.0
 40
2.0
100
AcDbArc
 50
180.0
 51
0.0
  0
LINE
  5
82D13
330
1E
100
AcDbEntity
  8
OUTLINE
  6
DASHED
100
AcDbLine
 10
58.49999999999806
 20
32.00000000000182
 30
0.0
 11
60.49999999999807
 21
32.0
 31
0.0
  0
LINE
  5
82D14
330
1E
100
AcDbEntity
  8
OUTLINE
  6
CONTINUOUS
100
AcDbLine
 10
60.49999999999807
 20
34.5
 30
0.0
 11
60.49999999999807
 21
30.49999999999818
 31
0.0
  0
LINE
  5
82D15
330
1E
100
AcDbEntity
  8
OUTLINE
  6
CONTINUOUS
100
AcDbLine
 10
64.49999999999807
 20
34.49999999999818
 30
0.0
 11
64.49999999999807
 21
30.49999999999818
 31
0.0
  0
LINE
  5
82D16
330
1E
100
AcDbEntity
  8
OUTLINE
  6
CONTINUOUS
100
AcDbLine
 10
58.49999999999806
 20
32.00000000000182
 30
0.0
 11
60.49999999999807
 21
32.0
 31
0.0
  0
LINE
  5
82D17
330
1E
100
AcDbEntity
  8
OUTLINE
  6
DASHED
100
AcDbLine
 10
58.49999999999806
 20
32.00000000000182
 30
0.0
 11
60.49999999999807
 21
32.0
 31
0.0
  0
LINE
  5
82D18
330
1E
100
AcDbEntity
  8
OUTLINE
  6
CONTINUOUS
100
AcDbLine
 10
36.49999999999806
 20
37.99999999999818
 30
0.0
 11
36.49999999999806
 21
45.99999999999818
 31
0.0
  0
LINE
  5
82D19
330
1E
100
AcDbEntity
  8
OUTLINE
  6
CONTINUOUS
100
AcDbLine
 10
45.49999999999807
 20
45.99999999999818
 30
0.0
 11
45.49999999999897
 21
36.0
 31
0.0
  0
LINE
  5
82D1A
330
1E
100
AcDbEntity
  8
OUTLINE
  6
CONTINUOUS
100
AcDbLine
 10
41.49999999999806
 20
45.99999999999818
 30
0.0
 11
41.49999999999898
 21
36.0
 31
0.0
  0
ARC
  5
82D1B
330
1E
100
AcDbEntity
  8
OUTLINE
  6
CONTINUOUS
100
AcDbCircle
 10
38.99999999999806
 20
45.99999999999818
 30
0.0
 40
2.5
100
AcDbArc
 50
0.0
 51
180.0
  0
LINE
  5
82D1C
330
1E
100
AcDbEntity
  8
OUTLINE
  6
DASHED
100
AcDbLine
 10
47.49999999999807
 20
32.0
 30
0.0
 11
58.49999999999806
 21
32.00000000000182
 31
0.0
  0
LINE
  5
82D1D
330
1E
100
AcDbEntity
  8
OUTLINE
  6
CONTINUOUS
100
AcDbLine
 10
47.49999999999807
 20
32.0
 30
0.0
 11
58.49999999999806
 21
32.00000000000182
 31
0.0
  0
LINE
  5
82D1E
330
1E
100
AcDbEntity
  8
OUTLINE
  6
DASHED
100
AcDbLine
 10
47.49999999999807
 20
32.0
 30
0.0
 11
58.49999999999806
 21
32.00000000000182
 31
0.0
  0
ARC
  5
82D1F
330
1E
100
AcDbEntity
  8
OUTLINE
  6
CONTINUOUS
100
AcDbCircle
 10
38.99999999999806
 20
45.99999999999818
 30
0.0
 40
6.5
100
AcDbArc
 50
0.0
 51
90.0
  0
LINE
  5
82D20
330
1E
100
AcDbEntity
  8
OUTLINE
  6
CONTINUOUS
100
AcDbLine
 10
58.49999999999806
 20
28.5
 30
0.0
 11
62.5000000000017
 21
28.5
 31
0.0
  0
LINE
  5
82D21
330
1E
100
AcDbEntity
  8
OUTLINE
  6
CONTINUOUS
100
AcDbLine
 10
47.49999999999807
 20
28.49999999999818
 30
0.0
 11
58.49999999999806
 21
28.5
 31
0.0
  0
ARC
  5
82D22
330
1E
100
AcDbEntity
  8
OUTLINE
  6
CONTINUOUS
100
AcDbCircle
 10
62.49999999999807
 20
30.49999999999818
 30
0.0
 40
1.9999999999999
100
AcDbArc
 50
270.0
 51
0.0
  0
ARC
  5
82D23
330
1E
100
AcDbEntity
  8
OUTLINE
  6
CONTINUOUS
100
AcDbCircle
 10
62.49999999999807
 20
30.49999999999818
 30
0.0
 40
2.0
100
AcDbArc
 50
180.0
 51
270.0
  0
ARC
  5
82D24
330
1E
100
AcDbEntity
  8
OUTLINE
  6
CONTINUOUS
100
AcDbCircle
 10
47.49999999999807
 20
34.49999999999818
 30
0.0
 40
5.999999999999547
100
AcDbArc
 50
204.6243183521462
 51
270.0
  0
LINE
  5
82D25
330
1E
100
AcDbEntity
  8
OUTLINE
  6
CONTINUOUS
100
AcDbLine
 10
110.499999999998
 20
52.49999999999818
 30
0.0
 11
64.49999999999807
 21
52.49999999999818
 31
0.0
  0
LINE
  5
82D26
330
1E
100
AcDbEntity
  8
OUTLINE
  6
CONTINUOUS
100
AcDbLine
 10
110.499999999998
 20
56.49999999999818
 30
0.0
 11
64.49999999999807
 21
56.49999999999818
 31
0.0
  0
LINE
  5
82D27
330
1E
100
AcDbEntity
  8
OUTLINE
  6
CONTINUOUS
100
AcDbLine
 10
110.499999999998
 20
74.0
 30
0.0
 11
64.49999999999807
 21
74.0
 31
0.0
  0
LINE
  5
82D28
330
1E
100
AcDbEntity
  8
OUTLINE
  6
CONTINUOUS
100
AcDbLine
 10
64.49999999999807
 20
32.0
 30
0.0
 11
110.499999999998
 21
32.0
 31
0.0
  0
LINE
  5
82D29
330
1E
100
AcDbEntity
  8
OUTLINE
  6
CONTINUOUS
100
AcDbLine
 10
64.49999999999807
 20
36.0
 30
0.0
 11
110.499999999998
 21
36.0
 31
0.0
  0
LINE
  5
82D2A
330
1E
100
AcDbEntity
  8
OUTLINE
  6
DASHED
100
AcDbLine
 10
64.49999999999807
 20
32.0
 30
0.0
 11
110.499999999998
 21
32.0
 31
0.0
  0
LINE
  5
82D2B
330
1E
100
AcDbEntity
  8
OUTLINE
  6
DASHED
100
AcDbLine
 10
64.49999999999807
 20
36.0
 30
0.0
 11
110.499999999998
 21
36.0
 31
0.0
  0
LINE
  5
82D2C
330
1E
100
AcDbEntity
  8
OUTLINE
  6
CONTINUOUS
100
AcDbLine
 10
32.49999999999806
 20
37.99999999999818
 30
0.0
 11
32.49999999999806
 21
45.99999999999818
 31
0.0
  0
LINE
  5
82D2D
330
1E
100
AcDbEntity
  8
OUTLINE
  6
CONTINUOUS
100
AcDbLine
 10
10.49999999999806
 20
34.49999999999818
 30
0.0
 11
10.49999999999806
 21
30.49999999999818
 31
0.0
  0
LINE
  5
82D2E
330
1E
100
AcDbEntity
  8
OUTLINE
  6
CONTINUOUS
100
AcDbLine
 10
14.49999999999806
 20
34.49999999999818
 30
0.0
 11
14.49999999999806
 21
30.49999999999818
 31
0.0
  0
ARC
  5
82D2F
330
1E
100
AcDbEntity
  8
OUTLINE
  6
CONTINUOUS
100
AcDbCircle
 10
12.49999999999806
 20
30.49999999999818
 30
0.0
 40
2.0
100
AcDbArc
 50
180.0
 51
0.0
  0
LINE
  5
82D30
330
1E
100
AcDbEntity
  8
OUTLINE
  6
CONTINUOUS
100
AcDbLine
 10
60.49999999999807
 20
52.49999999999818
 30
0.0
 11
14.49999999999806
 21
52.49999999999818
 31
0.0
  0
LINE
  5
82D31
330
1E
100
AcDbEntity
  8
OUTLINE
  6
CONTINUOUS
100
AcDbLine
 10
60.49999999999807
 20
56.49999999999818
 30
0.0
 11
14.49999999999806
 21
56.49999999999818
 31
0.0
  0
LINE
  5
82D32
330
1E
100
AcDbEntity
  8
OUTLINE
  6
CONTINUOUS
100
AcDbLine
 10
60.49999999999807
 20
74.0
 30
0.0
 11
14.49999999999806
 21
74.0
 31
0.0
  0
LINE
  5
82D33
330
1E
100
AcDbEntity
  8
OUTLINE
  6
CONTINUOUS
100
AcDbLine
 10
32.49999999999806
 20
37.99999999999818
 30
0.0
 11
36.49999999999806
 21
37.99999999999818
 31
0.0
  0
ARC
  5
82D34
330
1E
100
AcDbEntity
  8
OUTLINE
  6
CONTINUOUS
100
AcDbCircle
 10
38.99999999999806
 20
45.99999999999818
 30
0.0
 40
6.499999999999985
100
AcDbArc
 50
90.0
 51
180.0
  0
LINE
  5
82D35
330
1E
100
AcDbEntity
  8
OUTLINE
  6
CONTINUOUS
100
AcDbLine
 10
14.49999999999806
 20
36.0
 30
0.0
 11
60.49999999999807
 21
36.0
 31
0.0
  0
LINE
  5
82D36
330
1E
100
AcDbEntity
  8
OUTLINE
  6
CONTINUOUS
100
AcDbLine
 10
14.49999999999806
 20
32.0
 30
0.0
 11
47.49999999999807
 21
32.0
 31
0.0
  0
LINE
  5
82D37
330
1E
100
AcDbEntity
  8
OUTLINE
  6
DASHED
100
AcDbLine
 10
14.49999999999806
 20
36.0
 30
0.0
 11
60.49999999999807
 21
36.0
 31
0.0
  0
LINE
  5
82D38
330
1E
100
AcDbEntity
  8
OUTLINE
  6
DASHED
100
AcDbLine
 10
14.49999999999806
 20
32.0
 30
0.0
 11
47.49999999999807
 21
32.0
 31
0.0
  0
LINE
  5
82D39
330
1E
100
AcDbEntity
  8
OUTLINE
  6
CONTINUOUS
100
AcDbLine
 10
137.499999999998
 20
124.0
 30
0.0
 11
114.499999999998
 21
124.0
 31
0.0
  0
LINE
  5
82D3A
330
1E
100
AcDbEntity
  8
OUTLINE
  6
CONTINUOUS
100
AcDbLine
 10
137.499999999998
 20
78.0
 30
0.0
 11
114.499999999998
 21
78.0
 31
0.0
  0
LINE
  5
82D3B
330
1E
100
AcDbEntity
  8
OUTLINE
  6
CONTINUOUS
100
AcDbLine
 10
137.499999999998
 20
52.49999999999818
 30
0.0
 11
114.499999999998
 21
52.49999999999818
 31
0.0
  0
LINE
  5
82D3C
330
1E
100
AcDbEntity
  8
OUTLINE
  6
CONTINUOUS
100
AcDbLine
 10
137.499999999998
 20
56.49999999999818
 30
0.0
 11
114.499999999998
 21
56.49999999999818
 31
0.0
  0
LINE
  5
82D3D
330
1E
100
AcDbEntity
  8
OUTLINE
  6
CONTINUOUS
100
AcDbLine
 10
137.499999999998
 20
74.0
 30
0.0
 11
114.499999999998
 21
74.0
 31
0.0
  0
LINE
  5
82D3E
330
1E
100
AcDbEntity
  8
OUTLINE
  6
CONTINUOUS
100
AcDbLine
 10
10.49999999999806
 20
174.0
 30
0.0
 11
-35.50000000000193
 21
174.0
 31
0.0
  0
LINE
  5
82D3F
330
1E
100
AcDbEntity
  8
OUTLINE
  6
CONTINUOUS
100
AcDbLine
 10
10.49999999999806
 20
128.0
 30
0.0
 11
-35.50000000000193
 21
128.0
 31
0.0
  0
LINE
  5
82D40
330
1E
100
AcDbEntity
  8
OUTLINE
  6
CONTINUOUS
100
AcDbLine
 10
-39.50000000000193
 20
174.0
 30
0.0
 11
-85.50000000000194
 21
174.0
 31
0.0
  0
LINE
  5
82D41
330
1E
100
AcDbEntity
  8
OUTLINE
  6
CONTINUOUS
100
AcDbLine
 10
-39.50000000000193
 20
128.0
 30
0.0
 11
-85.50000000000194
 21
128.0
 31
0.0
  0
LINE
  5
82D42
330
1E
100
AcDbEntity
  8
OUTLINE
  6
CONTINUOUS
100
AcDbLine
 10
137.499999999998
 20
174.0
 30
0.0
 11
141.9999999999998
 21
174.0
 31
0.0
  0
LINE
  5
82D43
330
1E
100
AcDbEntity
  8
OUTLINE
  6
CONTINUOUS
100
AcDbLine
 10
137.499999999998
 20
128.0
 30
0.0
 11
141.9999999999998
 21
128.0
 31
0.0
  0
LINE
  5
82D44
330
1E
100
AcDbEntity
  8
OUTLINE
  6
CONTINUOUS
100
AcDbLine
 10
110.499999999998
 20
174.0
 30
0.0
 11
64.49999999999807
 21
174.0
 31
0.0
  0
LINE
  5
82D45
330
1E
100
AcDbEntity
  8
OUTLINE
  6
CONTINUOUS
100
AcDbLine
 10
110.499999999998
 20
128.0
 30
0.0
 11
64.49999999999807
 21
128.0
 31
0.0
  0
LINE
  5
82D46
330
1E
100
AcDbEntity
  8
OUTLINE
  6
CONTINUOUS
100
AcDbLine
 10
60.49999999999807
 20
128.0
 30
0.0
 11
14.49999999999806
 21
128.0
 31
0.0
  0
LINE
  5
82D47
330
1E
100
AcDbEntity
  8
OUTLINE
  6
CONTINUOUS
100
AcDbLine
 10
60.49999999999807
 20
174.0
 30
0.0
 11
14.49999999999806
 21
174.0
 31
0.0
  0
LINE
  5
82D48
330
1E
100
AcDbEntity
  8
OUTLINE
  6
CONTINUOUS
100
AcDbLine
 10
137.499999999998
 20
174.0
 30
0.0
 11
114.499999999998
 21
174.0
 31
0.0
  0
LINE
  5
82D49
330
1E
100
AcDbEntity
  8
OUTLINE
  6
CONTINUOUS
100
AcDbLine
 10
137.499999999998
 20
128.0
 30
0.0
 11
114.499999999998
 21
128.0
 31
0.0
  0
ARC
  5
82D4A
330
1E
100
AcDbEntity
  8
OUTLINE
  6
CONTINUOUS
100
AcDbCircle
 10
-87.50000000000193
 20
571.4999999999999
 30
0.0
 40
2.0
100
AcDbArc
 50
0.0
 51
180.0
  0
LINE
  5
82D4B
330
1E
100
AcDbEntity
  8
OUTLINE
  6
CONTINUOUS
100
AcDbLine
 10
-339.5000000000018
 20
428.0
 30
0.0
 11
-362.5000000000018
 21
428.0
 31
0.0
  0
LINE
  5
82D4C
330
1E
100
AcDbEntity
  8
OUTLINE
  6
CONTINUOUS
100
AcDbLine
 10
-339.5000000000018
 20
424.0
 30
0.0
 11
-362.5000000000018
 21
424.0
 31
0.0
  0
LINE
  5
82D4D
330
1E
100
AcDbEntity
  8
OUTLINE
  6
CONTINUOUS
100
AcDbLine
 10
-339.5000000000018
 20
374.0
 30
0.0
 11
-362.5000000000018
 21
374.0
 31
0.0
  0
LINE
  5
82D4E
330
1E
100
AcDbEntity
  8
OUTLINE
  6
CONTINUOUS
100
AcDbLine
 10
-339.5000000000018
 20
378.0
 30
0.0
 11
-362.5000000000018
 21
378.0
 31
0.0
  0
LINE
  5
82D4F
330
1E
100
AcDbEntity
  8
OUTLINE
  6
CONTINUOUS
100
AcDbLine
 10
-339.5000000000018
 20
324.0
 30
0.0
 11
-362.5000000000018
 21
324.0
 31
0.0
  0
LINE
  5
82D50
330
1E
100
AcDbEntity
  8
OUTLINE
  6
CONTINUOUS
100
AcDbLine
 10
-339.5000000000018
 20
328.0
 30
0.0
 11
-362.5000000000018
 21
328.0
 31
0.0
  0
LINE
  5
82D51
330
1E
100
AcDbEntity
  8
OUTLINE
  6
CONTINUOUS
100
AcDbLine
 10
-339.5000000000018
 20
278.0
 30
0.0
 11
-362.5000000000018
 21
278.0
 31
0.0
  0
LINE
  5
82D52
330
1E
100
AcDbEntity
  8
OUTLINE
  6
CONTINUOUS
100
AcDbLine
 10
-339.5000000000018
 20
545.5
 30
0.0
 11
-362.5000000000018
 21
545.5
 31
0.0
  0
LINE
  5
82D53
330
1E
100
AcDbEntity
  8
OUTLINE
  6
CONTINUOUS
100
AcDbLine
 10
-339.5000000000018
 20
549.5
 30
0.0
 11
-362.5000000000018
 21
549.5
 31
0.0
  0
LINE
  5
82D54
330
1E
100
AcDbEntity
  8
OUTLINE
  6
CONTINUOUS
100
AcDbLine
 10
-339.5000000000018
 20
478.0
 30
0.0
 11
-362.5000000000018
 21
478.0
 31
0.0
  0
LINE
  5
82D55
330
1E
100
AcDbEntity
  8
OUTLINE
  6
CONTINUOUS
100
AcDbLine
 10
-339.5000000000018
 20
474.0
 30
0.0
 11
-362.5000000000018
 21
474.0
 31
0.0
  0
LINE
  5
82D56
330
1E
100
AcDbEntity
  8
OUTLINE
  6
CONTINUOUS
100
AcDbLine
 10
-339.5000000000018
 20
524.0
 30
0.0
 11
-362.5000000000018
 21
524.0
 31
0.0
  0
LINE
  5
82D57
330
1E
100
AcDbEntity
  8
OUTLINE
  6
CONTINUOUS
100
AcDbLine
 10
-339.5000000000018
 20
528.0
 30
0.0
 11
-362.5000000000018
 21
528.0
 31
0.0
  0
LINE
  5
82D58
330
1E
100
AcDbEntity
  8
OUTLINE
  6
CONTINUOUS
100
AcDbLine
 10
-339.5000000000018
 20
274.0
 30
0.0
 11
-362.5000000000018
 21
274.0
 31
0.0
  0
LINE
  5
82D59
330
1E
100
AcDbEntity
  8
OUTLINE
  6
CONTINUOUS
100
AcDbLine
 10
-339.5000000000018
 20
178.0
 30
0.0
 11
-362.5000000000018
 21
178.0
 31
0.0
  0
LINE
  5
82D5A
330
1E
100
AcDbEntity
  8
OUTLINE
  6
CONTINUOUS
100
AcDbLine
 10
-339.5000000000018
 20
224.0
 30
0.0
 11
-362.5000000000018
 21
224.0
 31
0.0
  0
LINE
  5
82D5B
330
1E
100
AcDbEntity
  8
OUTLINE
  6
CONTINUOUS
100
AcDbLine
 10
-339.5000000000018
 20
228.0
 30
0.0
 11
-362.5000000000018
 21
228.0
 31
0.0
  0
LINE
  5
82D5C
330
1E
100
AcDbEntity
  8
OUTLINE
  6
CONTINUOUS
100
AcDbLine
 10
-368.0
 20
426.0
 30
0.0
 11
-368.0
 21
476.0
 31
0.0
  0
LINE
  5
82D5D
330
1E
100
AcDbEntity
  8
OUTLINE
  6
CONTINUOUS
100
AcDbLine
 10
-362.5000000000018
 20
428.0
 30
0.0
 11
-366.0
 21
428.0
 31
0.0
  0
LINE
  5
82D5E
330
1E
100
AcDbEntity
  8
OUTLINE
  6
CONTINUOUS
100
AcDbLine
 10
-362.5000000000018
 20
424.0
 30
0.0
 11
-366.0
 21
424.0
 31
0.0
  0
ARC
  5
82D5F
330
1E
100
AcDbEntity
  8
OUTLINE
  6
CONTINUOUS
100
AcDbCircle
 10
-366.0
 20
426.0
 30
0.0
 40
2.0
100
AcDbArc
 50
90.0
 51
270.0
  0
LINE
  5
82D60
330
1E
100
AcDbEntity
  8
OUTLINE
  6
CONTINUOUS
100
AcDbLine
 10
-362.5000000000018
 20
378.0
 30
0.0
 11
-366.0
 21
378.0
 31
0.0
  0
LINE
  5
82D61
330
1E
100
AcDbEntity
  8
OUTLINE
  6
CONTINUOUS
100
AcDbLine
 10
-362.5000000000018
 20
374.0
 30
0.0
 11
-366.0
 21
374.0
 31
0.0
  0
ARC
  5
82D62
330
1E
100
AcDbEntity
  8
OUTLINE
  6
CONTINUOUS
100
AcDbCircle
 10
-366.0
 20
376.0
 30
0.0
 40
2.0
100
AcDbArc
 50
90.0
 51
270.0
  0
LINE
  5
82D63
330
1E
100
AcDbEntity
  8
OUTLINE
  6
CONTINUOUS
100
AcDbLine
 10
-368.0
 20
376.0
 30
0.0
 11
-368.0
 21
426.0
 31
0.0
  0
LINE
  5
82D64
330
1E
100
AcDbEntity
  8
OUTLINE
  6
CONTINUOUS
100
AcDbLine
 10
-362.5000000000018
 20
328.0
 30
0.0
 11
-366.0
 21
328.0
 31
0.0
  0
LINE
  5
82D65
330
1E
100
AcDbEntity
  8
OUTLINE
  6
CONTINUOUS
100
AcDbLine
 10
-362.5000000000018
 20
324.0
 30
0.0
 11
-366.0
 21
324.0
 31
0.0
  0
ARC
  5
82D66
330
1E
100
AcDbEntity
  8
OUTLINE
  6
CONTINUOUS
100
AcDbCircle
 10
-366.0
 20
326.0
 30
0.0
 40
2.0
100
AcDbArc
 50
90.0
 51
270.0
  0
LINE
  5
82D67
330
1E
100
AcDbEntity
  8
OUTLINE
  6
CONTINUOUS
100
AcDbLine
 10
-362.5000000000018
 20
278.0
 30
0.0
 11
-366.0
 21
278.0
 31
0.0
  0
LINE
  5
82D68
330
1E
100
AcDbEntity
  8
OUTLINE
  6
CONTINUOUS
100
AcDbLine
 10
-368.0
 20
276.0
 30
0.0
 11
-368.0
 21
326.0
 31
0.0
  0
LINE
  5
82D69
330
1E
100
AcDbEntity
  8
OUTLINE
  6
CONTINUOUS
100
AcDbLine
 10
-368.0
 20
326.0
 30
0.0
 11
-368.0
 21
376.0
 31
0.0
  0
LINE
  5
82D6A
330
1E
100
AcDbEntity
  8
OUTLINE
  6
CONTINUOUS
100
AcDbLine
 10
-362.5000000000018
 20
549.5
 30
0.0
 11
-366.0
 21
549.5
 31
0.0
  0
LINE
  5
82D6B
330
1E
100
AcDbEntity
  8
OUTLINE
  6
CONTINUOUS
100
AcDbLine
 10
-362.5000000000018
 20
545.5
 30
0.0
 11
-366.0
 21
545.5
 31
0.0
  0
ARC
  5
82D6C
330
1E
100
AcDbEntity
  8
OUTLINE
  6
CONTINUOUS
100
AcDbCircle
 10
-366.0
 20
547.5
 30
0.0
 40
2.0
100
AcDbArc
 50
90.0
 51
270.0
  0
LINE
  5
82D6D
330
1E
100
AcDbEntity
  8
OUTLINE
  6
CONTINUOUS
100
AcDbLine
 10
-368.0
 20
547.5
 30
0.0
 11
-368.0
 21
554.4999999999963
 31
0.0
  0
LINE
  5
82D6E
330
1E
100
AcDbEntity
  8
OUTLINE
  6
CONTINUOUS
100
AcDbLine
 10
-372.0
 20
554.4999999999963
 30
0.0
 11
-368.0
 21
554.4999999999963
 31
0.0
  0
LINE
  5
82D6F
330
1E
100
AcDbEntity
  8
OUTLINE
  6
CONTINUOUS
100
AcDbLine
 10
-362.5000000000018
 20
528.0
 30
0.0
 11
-366.0
 21
528.0
 31
0.0
  0
LINE
  5
82D70
330
1E
100
AcDbEntity
  8
OUTLINE
  6
CONTINUOUS
100
AcDbLine
 10
-362.5000000000018
 20
524.0
 30
0.0
 11
-366.0
 21
524.0
 31
0.0
  0
ARC
  5
82D71
330
1E
100
AcDbEntity
  8
OUTLINE
  6
CONTINUOUS
100
AcDbCircle
 10
-366.0
 20
526.0
 30
0.0
 40
2.0
100
AcDbArc
 50
90.0
 51
270.0
  0
LINE
  5
82D72
330
1E
100
AcDbEntity
  8
OUTLINE
  6
CONTINUOUS
100
AcDbLine
 10
-362.5000000000018
 20
478.0
 30
0.0
 11
-366.0
 21
478.0
 31
0.0
  0
LINE
  5
82D73
330
1E
100
AcDbEntity
  8
OUTLINE
  6
CONTINUOUS
100
AcDbLine
 10
-362.5000000000018
 20
474.0
 30
0.0
 11
-366.0
 21
474.0
 31
0.0
  0
ARC
  5
82D74
330
1E
100
AcDbEntity
  8
OUTLINE
  6
CONTINUOUS
100
AcDbCircle
 10
-366.0
 20
476.0
 30
0.0
 40
2.0
100
AcDbArc
 50
90.0
 51
270.0
  0
LINE
  5
82D75
330
1E
100
AcDbEntity
  8
OUTLINE
  6
CONTINUOUS
100
AcDbLine
 10
-368.0
 20
476.0
 30
0.0
 11
-368.0
 21
526.0
 31
0.0
  0
LINE
  5
82D76
330
1E
100
AcDbEntity
  8
OUTLINE
  6
CONTINUOUS
100
AcDbLine
 10
-368.0
 20
526.0
 30
0.0
 11
-368.0
 21
547.5
 31
0.0
  0
LINE
  5
82D77
330
1E
100
AcDbEntity
  8
OUTLINE
  6
CONTINUOUS
100
AcDbLine
 10
-362.5000000000018
 20
274.0
 30
0.0
 11
-366.0
 21
274.0
 31
0.0
  0
LINE
  5
82D78
330
1E
100
AcDbEntity
  8
OUTLINE
  6
CONTINUOUS
100
AcDbLine
 10
-362.5000000000018
 20
228.0
 30
0.0
 11
-366.0
 21
228.0
 31
0.0
  0
LINE
  5
82D79
330
1E
100
AcDbEntity
  8
OUTLINE
  6
CONTINUOUS
100
AcDbLine
 10
-362.5000000000018
 20
224.0
 30
0.0
 11
-366.0
 21
224.0
 31
0.0
  0
ARC
  5
82D7A
330
1E
100
AcDbEntity
  8
OUTLINE
  6
CONTINUOUS
100
AcDbCircle
 10
-366.0
 20
226.0
 30
0.0
 40
2.0
100
AcDbArc
 50
90.0
 51
270.0
  0
LINE
  5
82D7B
330
1E
100
AcDbEntity
  8
OUTLINE
  6
CONTINUOUS
100
AcDbLine
 10
-362.5000000000018
 20
178.0
 30
0.0
 11
-366.0
 21
178.0
 31
0.0
  0
LINE
  5
82D7C
330
1E
100
AcDbEntity
  8
OUTLINE
  6
CONTINUOUS
100
AcDbLine
 10
-368.0
 20
176.0
 30
0.0
 11
-368.0
 21
226.0
 31
0.0
  0
ARC
  5
82D7D
330
1E
100
AcDbEntity
  8
OUTLINE
  6
CONTINUOUS
100
AcDbCircle
 10
-366.0
 20
276.0
 30
0.0
 40
1.999999999999985
100
AcDbArc
 50
90.0
 51
270.0
  0
LINE
  5
82D7E
330
1E
100
AcDbEntity
  8
OUTLINE
  6
CONTINUOUS
100
AcDbLine
 10
-368.0
 20
226.0
 30
0.0
 11
-368.0
 21
276.0
 31
0.0
  0
LINE
  5
82D7F
330
1E
100
AcDbEntity
  8
OUTLINE
  6
CONTINUOUS
100
AcDbLine
 10
-461.0
 20
518.5000199999977
 30
0.0
 11
-498.0
 21
518.5000199999977
 31
0.0
  0
LINE
  5
82D80
330
1E
100
AcDbEntity
  8
OUTLINE
  6
CONTINUOUS
100
AcDbLine
 10
-461.0
 20
522.5000199999977
 30
0.0
 11
-498.0
 21
522.5000199999977
 31
0.0
  0
LINE
  5
82D81
330
1E
100
AcDbEntity
  8
OUTLINE
  6
CONTINUOUS
100
AcDbLine
 10
-461.0
 20
422.5000199999977
 30
0.0
 11
-498.0
 21
422.5000199999977
 31
0.0
  0
LINE
  5
82D82
330
1E
100
AcDbEntity
  8
OUTLINE
  6
CONTINUOUS
100
AcDbLine
 10
-461.0
 20
418.5000199999977
 30
0.0
 11
-498.0
 21
418.5000199999977
 31
0.0
  0
LINE
  5
82D83
330
1E
100
AcDbEntity
  8
OUTLINE
  6
CONTINUOUS
100
AcDbLine
 10
-461.0
 20
478.5000199999976
 30
0.0
 11
-498.0
 21
478.5000199999976
 31
0.0
  0
LINE
  5
82D84
330
1E
100
AcDbEntity
  8
OUTLINE
  6
CONTINUOUS
100
AcDbLine
 10
-461.0
 20
474.5000199999976
 30
0.0
 11
-498.0
 21
474.5000199999976
 31
0.0
  0
LINE
  5
82D85
330
1E
100
AcDbEntity
  8
OUTLINE
  6
CONTINUOUS
100
AcDbLine
 10
-461.0
 20
278.5000199999976
 30
0.0
 11
-498.0
 21
278.5000199999976
 31
0.0
  0
LINE
  5
82D86
330
1E
100
AcDbEntity
  8
OUTLINE
  6
CONTINUOUS
100
AcDbLine
 10
-461.0
 20
328.5000199999976
 30
0.0
 11
-498.0
 21
328.5000199999976
 31
0.0
  0
LINE
  5
82D87
330
1E
100
AcDbEntity
  8
OUTLINE
  6
CONTINUOUS
100
AcDbLine
 10
-461.0
 20
324.5000199999976
 30
0.0
 11
-498.0
 21
324.5000199999976
 31
0.0
  0
LINE
  5
82D88
330
1E
100
AcDbEntity
  8
OUTLINE
  6
CONTINUOUS
100
AcDbLine
 10
-461.0
 20
378.5000199999976
 30
0.0
 11
-498.0
 21
378.5000199999976
 31
0.0
  0
LINE
  5
82D89
330
1E
100
AcDbEntity
  8
OUTLINE
  6
CONTINUOUS
100
AcDbLine
 10
-461.0
 20
374.5000199999976
 30
0.0
 11
-498.0
 21
374.5000199999976
 31
0.0
  0
LINE
  5
82D8A
330
1E
100
AcDbEntity
  8
OUTLINE
  6
CONTINUOUS
100
AcDbLine
 10
-461.0
 20
550.0000199999976
 30
0.0
 11
-498.0
 21
550.0000199999976
 31
0.0
  0
LINE
  5
82D8B
330
1E
100
AcDbEntity
  8
OUTLINE
  6
CONTINUOUS
100
AcDbLine
 10
-461.0
 20
546.0000199999976
 30
0.0
 11
-498.0
 21
546.0000199999976
 31
0.0
  0
LINE
  5
82D8C
330
1E
100
AcDbEntity
  8
OUTLINE
  6
DASHED
100
AcDbLine
 10
-436.0
 20
573.0000199999994
 30
0.0
 11
-502.0
 21
573.0000199999994
 31
0.0
  0
LINE
  5
82D8D
330
1E
100
AcDbEntity
  8
OUTLINE
  6
DASHED
100
AcDbLine
 10
-459.0
 20
569.0000199999994
 30
0.0
 11
-502.0
 21
569.0000199999994
 31
0.0
  0
LINE
  5
82D8E
330
1E
100
AcDbEntity
  8
OUTLINE
  6
CONTINUOUS
100
AcDbLine
 10
-436.0
 20
573.0000199999994
 30
0.0
 11
-502.0
 21
573.0000199999994
 31
0.0
  0
LINE
  5
82D8F
330
1E
100
AcDbEntity
  8
OUTLINE
  6
CONTINUOUS
100
AcDbLine
 10
-459.0
 20
569.0000199999994
 30
0.0
 11
-502.0
 21
569.0000199999994
 31
0.0
  0
LINE
  5
82D90
330
1E
100
AcDbEntity
  8
OUTLINE
  6
CONTINUOUS
100
AcDbLine
 10
-504.0
 20
474.0000199999976
 30
0.0
 11
-504.0000000000036
 21
420.5000199999976
 31
0.0
  0
ARC
  5
82D91
330
1E
100
AcDbEntity
  8
OUTLINE
  6
CONTINUOUS
100
AcDbCircle
 10
-502.0
 20
420.5000199999976
 30
0.0
 40
2.0
100
AcDbArc
 50
90.0
 51
270.0
  0
LINE
  5
82D92
330
1E
100
AcDbEntity
  8
OUTLINE
  6
CONTINUOUS
100
AcDbLine
 10
-498.0
 20
418.5000199999977
 30
0.0
 11
-502.0
 21
418.5000199999977
 31
0.0
  0
LINE
  5
82D93
330
1E
100
AcDbEntity
  8
OUTLINE
  6
CONTINUOUS
100
AcDbLine
 10
-498.0
 20
422.5000199999977
 30
0.0
 11
-502.0
 21
422.5000199999977
 31
0.0
  0
LINE
  5
82D94
330
1E
100
AcDbEntity
  8
OUTLINE
  6
CONTINUOUS
100
AcDbLine
 10
-498.0
 20
278.5000199999976
 30
0.0
 11
-502.0
 21
278.5000199999976
 31
0.0
  0
ARC
  5
82D95
330
1E
100
AcDbEntity
  8
OUTLINE
  6
CONTINUOUS
100
AcDbCircle
 10
-502.0
 20
326.5000199999976
 30
0.0
 40
2.0
100
AcDbArc
 50
90.0
 51
270.0
  0
LINE
  5
82D96
330
1E
100
AcDbEntity
  8
OUTLINE
  6
CONTINUOUS
100
AcDbLine
 10
-498.0
 20
324.5000199999976
 30
0.0
 11
-502.0
 21
324.5000199999976
 31
0.0
  0
LINE
  5
82D97
330
1E
100
AcDbEntity
  8
OUTLINE
  6
CONTINUOUS
100
AcDbLine
 10
-498.0
 20
328.5000199999976
 30
0.0
 11
-502.0
 21
328.5000199999976
 31
0.0
  0
ARC
  5
82D98
330
1E
100
AcDbEntity
  8
OUTLINE
  6
CONTINUOUS
100
AcDbCircle
 10
-502.0
 20
376.5000199999976
 30
0.0
 40
2.0
100
AcDbArc
 50
90.0
 51
270.0
  0
LINE
  5
82D99
330
1E
100
AcDbEntity
  8
OUTLINE
  6
CONTINUOUS
100
AcDbLine
 10
-498.0
 20
374.5000199999976
 30
0.0
 11
-502.0
 21
374.5000199999976
 31
0.0
  0
LINE
  5
82D9A
330
1E
100
AcDbEntity
  8
OUTLINE
  6
CONTINUOUS
100
AcDbLine
 10
-498.0
 20
378.5000199999976
 30
0.0
 11
-502.0
 21
378.5000199999976
 31
0.0
  0
LINE
  5
82D9B
330
1E
100
AcDbEntity
  8
OUTLINE
  6
CONTINUOUS
100
AcDbLine
 10
-504.0000000000036
 20
420.5000199999976
 30
0.0
 11
-504.0
 21
418.0000199999977
 31
0.0
  0
LINE
  5
82D9C
330
1E
100
AcDbEntity
  8
OUTLINE
  6
CONTINUOUS
100
AcDbLine
 10
-504.0000000000036
 20
376.5000199999976
 30
0.0
 11
-504.0
 21
374.0000199999976
 31
0.0
  0
LINE
  5
82D9D
330
1E
100
AcDbEntity
  8
OUTLINE
  6
CONTINUOUS
100
AcDbLine
 10
-504.0000000000036
 20
326.5000199999976
 30
0.0
 11
-504.0
 21
324.0000199999976
 31
0.0
  0
LINE
  5
82D9E
330
1E
100
AcDbEntity
  8
OUTLINE
  6
CONTINUOUS
100
AcDbLine
 10
-504.0
 20
418.0000199999977
 30
0.0
 11
-504.0000000000036
 21
376.5000199999976
 31
0.0
  0
LINE
  5
82D9F
330
1E
100
AcDbEntity
  8
OUTLINE
  6
CONTINUOUS
100
AcDbLine
 10
-504.0
 20
374.0000199999976
 30
0.0
 11
-504.0000000000036
 21
326.5000199999976
 31
0.0
  0
LINE
  5
82DA0
330
1E
100
AcDbEntity
  8
OUTLINE
  6
CONTINUOUS
100
AcDbLine
 10
-504.0
 20
324.0000199999976
 30
0.0
 11
-504.0000000000036
 21
276.5000199999976
 31
0.0
  0
ARC
  5
82DA1
330
1E
100
AcDbEntity
  8
OUTLINE
  6
CONTINUOUS
100
AcDbCircle
 10
-502.0
 20
520.5000199999976
 30
0.0
 40
2.0
100
AcDbArc
 50
90.0
 51
270.0
  0
LINE
  5
82DA2
330
1E
100
AcDbEntity
  8
OUTLINE
  6
CONTINUOUS
100
AcDbLine
 10
-498.0
 20
518.5000199999977
 30
0.0
 11
-502.0
 21
518.5000199999977
 31
0.0
  0
LINE
  5
82DA3
330
1E
100
AcDbEntity
  8
OUTLINE
  6
CONTINUOUS
100
AcDbLine
 10
-498.0
 20
522.5000199999977
 30
0.0
 11
-502.0
 21
522.5000199999977
 31
0.0
  0
ARC
  5
82DA4
330
1E
100
AcDbEntity
  8
OUTLINE
  6
CONTINUOUS
100
AcDbCircle
 10
-502.0
 20
476.5000199999977
 30
0.0
 40
2.0
100
AcDbArc
 50
90.0
 51
270.0
  0
LINE
  5
82DA5
330
1E
100
AcDbEntity
  8
OUTLINE
  6
CONTINUOUS
100
AcDbLine
 10
-498.0
 20
474.5000199999976
 30
0.0
 11
-502.0
 21
474.5000199999976
 31
0.0
  0
LINE
  5
82DA6
330
1E
100
AcDbEntity
  8
OUTLINE
  6
CONTINUOUS
100
AcDbLine
 10
-498.0
 20
478.5000199999976
 30
0.0
 11
-502.0
 21
478.5000199999976
 31
0.0
  0
ARC
  5
82DA7
330
1E
100
AcDbEntity
  8
OUTLINE
  6
CONTINUOUS
100
AcDbCircle
 10
-502.0
 20
548.0000199999977
 30
0.0
 40
2.0
100
AcDbArc
 50
90.0
 51
270.0
  0
LINE
  5
82DA8
330
1E
100
AcDbEntity
  8
OUTLINE
  6
CONTINUOUS
100
AcDbLine
 10
-498.0
 20
546.0000199999976
 30
0.0
 11
-502.0
 21
546.0000199999976
 31
0.0
  0
LINE
  5
82DA9
330
1E
100
AcDbEntity
  8
OUTLINE
  6
CONTINUOUS
100
AcDbLine
 10
-498.0
 20
550.0000199999976
 30
0.0
 11
-502.0
 21
550.0000199999976
 31
0.0
  0
ARC
  5
82DAA
330
1E
100
AcDbEntity
  8
OUTLINE
  6
CONTINUOUS
100
AcDbCircle
 10
-502.0000000000036
 20
567.0000199999995
 30
0.0
 40
6.0
100
AcDbArc
 50
90.0
 51
180.0
  0
ARC
  5
82DAB
330
1E
100
AcDbEntity
  8
OUTLINE
  6
CONTINUOUS
100
AcDbCircle
 10
-502.0000000000036
 20
567.0000199999995
 30
0.0
 40
2.0
100
AcDbArc
 50
90.0
 51
180.0
  0
LINE
  5
82DAC
330
1E
100
AcDbEntity
  8
OUTLINE
  6
CONTINUOUS
100
AcDbLine
 10
-504.0000000000036
 20
548.0000199999977
 30
0.0
 11
-504.0
 21
520.5000199999976
 31
0.0
  0
LINE
  5
82DAD
330
1E
100
AcDbEntity
  8
OUTLINE
  6
CONTINUOUS
100
AcDbLine
 10
-504.0
 20
520.5000199999976
 30
0.0
 11
-504.0
 21
518.0000199999977
 31
0.0
  0
LINE
  5
82DAE
330
1E
100
AcDbEntity
  8
OUTLINE
  6
CONTINUOUS
100
AcDbLine
 10
-504.0000000000036
 20
476.5000199999977
 30
0.0
 11
-504.0
 21
474.0000199999976
 31
0.0
  0
LINE
  5
82DAF
330
1E
100
AcDbEntity
  8
OUTLINE
  6
CONTINUOUS
100
AcDbLine
 10
-504.0000000000036
 20
567.0000199999995
 30
0.0
 11
-504.0000000000036
 21
548.0000199999977
 31
0.0
  0
LINE
  5
82DB0
330
1E
100
AcDbEntity
  8
OUTLINE
  6
CONTINUOUS
100
AcDbLine
 10
-504.0
 20
518.0000199999977
 30
0.0
 11
-504.0000000000036
 21
476.5000199999977
 31
0.0
  0
LINE
  5
82DB1
330
1E
100
AcDbEntity
  8
OUTLINE
  6
CONTINUOUS
100
AcDbLine
 10
-410.0000000000036
 20
422.5000199999977
 30
0.0
 11
-414.0
 21
422.5000199999977
 31
0.0
  0
LINE
  5
82DB2
330
1E
100
AcDbEntity
  8
OUTLINE
  6
CONTINUOUS
100
AcDbLine
 10
-410.0000000000036
 20
422.5000199999977
 30
0.0
 11
-410.0000000000036
 21
418.5000199999977
 31
0.0
  0
LINE
  5
82DB3
330
1E
100
AcDbEntity
  8
OUTLINE
  6
CONTINUOUS
100
AcDbLine
 10
-418.0
 20
418.5000199999977
 30
0.0
 11
-457.0
 21
418.5000199999977
 31
0.0
  0
LINE
  5
82DB4
330
1E
100
AcDbEntity
  8
OUTLINE
  6
CONTINUOUS
100
AcDbLine
 10
-418.0
 20
422.5000199999977
 30
0.0
 11
-457.0
 21
422.5000199999977
 31
0.0
  0
LINE
  5
82DB5
330
1E
100
AcDbEntity
  8
OUTLINE
  6
CONTINUOUS
100
AcDbLine
 10
-410.0000000000036
 20
418.5000199999977
 30
0.0
 11
-414.0
 21
418.5000199999977
 31
0.0
  0
LINE
  5
82DB6
330
1E
100
AcDbEntity
  8
OUTLINE
  6
CONTINUOUS
100
AcDbLine
 10
-418.0
 20
278.5000199999976
 30
0.0
 11
-457.0
 21
278.5000199999976
 31
0.0
  0
LINE
  5
82DB7
330
1E
100
AcDbEntity
  8
OUTLINE
  6
CONTINUOUS
100
AcDbLine
 10
-410.0000000000036
 20
278.5000199999976
 30
0.0
 11
-414.0
 21
278.5000199999976
 31
0.0
  0
LINE
  5
82DB8
330
1E
100
AcDbEntity
  8
OUTLINE
  6
CONTINUOUS
100
AcDbLine
 10
-410.0000000000036
 20
328.5000199999976
 30
0.0
 11
-410.0000000000036
 21
324.5000199999976
 31
0.0
  0
LINE
  5
82DB9
330
1E
100
AcDbEntity
  8
OUTLINE
  6
CONTINUOUS
100
AcDbLine
 10
-418.0
 20
324.5000199999976
 30
0.0
 11
-457.0
 21
324.5000199999976
 31
0.0
  0
LINE
  5
82DBA
330
1E
100
AcDbEntity
  8
OUTLINE
  6
CONTINUOUS
100
AcDbLine
 10
-418.0
 20
328.5000199999976
 30
0.0
 11
-457.0
 21
328.5000199999976
 31
0.0
  0
LINE
  5
82DBB
330
1E
100
AcDbEntity
  8
OUTLINE
  6
CONTINUOUS
100
AcDbLine
 10
-410.0000000000036
 20
328.5000199999976
 30
0.0
 11
-414.0
 21
328.5000199999976
 31
0.0
  0
LINE
  5
82DBC
330
1E
100
AcDbEntity
  8
OUTLINE
  6
CONTINUOUS
100
AcDbLine
 10
-410.0000000000036
 20
324.5000199999976
 30
0.0
 11
-414.0
 21
324.5000199999976
 31
0.0
  0
LINE
  5
82DBD
330
1E
100
AcDbEntity
  8
OUTLINE
  6
CONTINUOUS
100
AcDbLine
 10
-410.0000000000036
 20
378.5000199999976
 30
0.0
 11
-410.0000000000036
 21
374.5000199999976
 31
0.0
  0
LINE
  5
82DBE
330
1E
100
AcDbEntity
  8
OUTLINE
  6
CONTINUOUS
100
AcDbLine
 10
-418.0
 20
374.5000199999976
 30
0.0
 11
-457.0
 21
374.5000199999976
 31
0.0
  0
LINE
  5
82DBF
330
1E
100
AcDbEntity
  8
OUTLINE
  6
CONTINUOUS
100
AcDbLine
 10
-418.0
 20
378.5000199999976
 30
0.0
 11
-457.0
 21
378.5000199999976
 31
0.0
  0
LINE
  5
82DC0
330
1E
100
AcDbEntity
  8
OUTLINE
  6
CONTINUOUS
100
AcDbLine
 10
-410.0000000000036
 20
378.5000199999976
 30
0.0
 11
-414.0
 21
378.5000199999976
 31
0.0
  0
LINE
  5
82DC1
330
1E
100
AcDbEntity
  8
OUTLINE
  6
CONTINUOUS
100
AcDbLine
 10
-410.0000000000036
 20
374.5000199999976
 30
0.0
 11
-414.0
 21
374.5000199999976
 31
0.0
  0
LINE
  5
82DC2
330
1E
100
AcDbEntity
  8
OUTLINE
  6
CONTINUOUS
100
AcDbLine
 10
-410.0000000000036
 20
522.5000199999977
 30
0.0
 11
-410.0000000000036
 21
518.5000199999977
 31
0.0
  0
LINE
  5
82DC3
330
1E
100
AcDbEntity
  8
OUTLINE
  6
CONTINUOUS
100
AcDbLine
 10
-418.0
 20
518.5000199999977
 30
0.0
 11
-457.0
 21
518.5000199999977
 31
0.0
  0
LINE
  5
82DC4
330
1E
100
AcDbEntity
  8
OUTLINE
  6
CONTINUOUS
100
AcDbLine
 10
-410.0000000000036
 20
518.5000199999977
 30
0.0
 11
-414.0
 21
518.5000199999977
 31
0.0
  0
LINE
  5
82DC5
330
1E
100
AcDbEntity
  8
OUTLINE
  6
CONTINUOUS
100
AcDbLine
 10
-418.0
 20
522.5000199999977
 30
0.0
 11
-457.0
 21
522.5000199999977
 31
0.0
  0
LINE
  5
82DC6
330
1E
100
AcDbEntity
  8
OUTLINE
  6
CONTINUOUS
100
AcDbLine
 10
-410.0000000000036
 20
522.5000199999977
 30
0.0
 11
-414.0
 21
522.5000199999977
 31
0.0
  0
LINE
  5
82DC7
330
1E
100
AcDbEntity
  8
OUTLINE
  6
CONTINUOUS
100
AcDbLine
 10
-418.0
 20
474.5000199999976
 30
0.0
 11
-457.0
 21
474.5000199999976
 31
0.0
  0
LINE
  5
82DC8
330
1E
100
AcDbEntity
  8
OUTLINE
  6
CONTINUOUS
100
AcDbLine
 10
-418.0
 20
478.5000199999976
 30
0.0
 11
-457.0
 21
478.5000199999976
 31
0.0
  0
LINE
  5
82DC9
330
1E
100
AcDbEntity
  8
OUTLINE
  6
CONTINUOUS
100
AcDbLine
 10
-410.0000000000036
 20
478.5000199999976
 30
0.0
 11
-410.0000000000036
 21
474.5000199999976
 31
0.0
  0
LINE
  5
82DCA
330
1E
100
AcDbEntity
  8
OUTLINE
  6
CONTINUOUS
100
AcDbLine
 10
-410.0000000000036
 20
474.5000199999976
 30
0.0
 11
-414.0
 21
474.5000199999976
 31
0.0
  0
LINE
  5
82DCB
330
1E
100
AcDbEntity
  8
OUTLINE
  6
CONTINUOUS
100
AcDbLine
 10
-410.0000000000036
 20
478.5000199999976
 30
0.0
 11
-414.0
 21
478.5000199999976
 31
0.0
  0
ARC
  5
82DCC
330
1E
100
AcDbEntity
  8
OUTLINE
  6
CONTINUOUS
100
AcDbCircle
 10
-400.5000000000036
 20
589.5000199999994
 30
0.0
 40
2.0
100
AcDbArc
 50
0.0
 51
180.0
  0
ARC
  5
82DCD
330
1E
100
AcDbEntity
  8
OUTLINE
  6
CONTINUOUS
100
AcDbCircle
 10
-404.5000000000036
 20
579.0000199999995
 30
0.0
 40
5.999999999999951
100
AcDbArc
 50
330.0000000000418
 51
0.0
  0
ARC
  5
82DCE
330
1E
100
AcDbEntity
  8
OUTLINE
  6
CONTINUOUS
100
AcDbCircle
 10
-436.0
 20
575.0000199999995
 30
0.0
 40
2.0
100
AcDbArc
 50
90.0
 51
270.0
  0
ARC
  5
82DCF
330
1E
100
AcDbEntity
  8
OUTLINE
  6
CONTINUOUS
100
AcDbCircle
 10
-404.5000000000036
 20
579.0000199999995
 30
0.0
 40
6.0
100
AcDbArc
 50
270.0
 51
330.0000000000418
  0
ARC
  5
82DD0
330
1E
100
AcDbEntity
  8
OUTLINE
  6
CONTINUOUS
100
AcDbCircle
 10
-404.5000000000036
 20
579.0000199999995
 30
0.0
 40
2.0
100
AcDbArc
 50
270.0
 51
0.0
  0
LINE
  5
82DD1
330
1E
100
AcDbEntity
  8
OUTLINE
  6
CONTINUOUS
100
AcDbLine
 10
-402.5000000000036
 20
585.0000199999994
 30
0.0
 11
-402.5000000000036
 21
589.5000199999994
 31
0.0
  0
LINE
  5
82DD2
330
1E
100
AcDbEntity
  8
OUTLINE
  6
CONTINUOUS
100
AcDbLine
 10
-398.5000000000036
 20
585.0000199999994
 30
0.0
 11
-398.5000000000036
 21
589.5000199999994
 31
0.0
  0
LINE
  5
82DD3
330
1E
100
AcDbEntity
  8
OUTLINE
  6
CONTINUOUS
100
AcDbLine
 10
-398.5000000000036
 20
580.0000199999995
 30
0.0
 11
-398.5000000000036
 21
576.0000199999995
 31
0.0
  0
LINE
  5
82DD4
330
1E
100
AcDbEntity
  8
OUTLINE
  6
CONTINUOUS
100
AcDbLine
 10
-398.5000000000036
 20
585.0000199999994
 30
0.0
 11
-398.5000000000036
 21
580.0000199999995
 31
0.0
  0
LINE
  5
82DD5
330
1E
100
AcDbEntity
  8
OUTLINE
  6
CONTINUOUS
100
AcDbLine
 10
-402.5000000000036
 20
585.0000199999994
 30
0.0
 11
-402.5000000000036
 21
579.0000199999995
 31
0.0
  0
LINE
  5
82DD6
330
1E
100
AcDbEntity
  8
OUTLINE
  6
CONTINUOUS
100
AcDbLine
 10
-398.5000000000036
 20
576.0000199999995
 30
0.0
 11
-399.3038475772955
 21
576.0000199999995
 31
0.0
  0
LINE
  5
82DD7
330
1E
100
AcDbEntity
  8
OUTLINE
  6
CONTINUOUS
100
AcDbLine
 10
-429.0
 20
573.0000199999994
 30
0.0
 11
-420.0
 21
573.0000199999994
 31
0.0
  0
LINE
  5
82DD8
330
1E
100
AcDbEntity
  8
OUTLINE
  6
DASHED
100
AcDbLine
 10
-432.0
 20
573.0000199999994
 30
0.0
 11
-429.0
 21
573.0000199999994
 31
0.0
  0
LINE
  5
82DD9
330
1E
100
AcDbEntity
  8
OUTLINE
  6
CONTINUOUS
100
AcDbLine
 10
-432.0
 20
577.0000199999994
 30
0.0
 11
-404.5000000000036
 21
577.0000199999994
 31
0.0
  0
LINE
  5
82DDA
330
1E
100
AcDbEntity
  8
OUTLINE
  6
CONTINUOUS
100
AcDbLine
 10
-432.0
 20
577.0000199999994
 30
0.0
 11
-436.0
 21
577.0000199999994
 31
0.0
  0
LINE
  5
82DDB
330
1E
100
AcDbEntity
  8
OUTLINE
  6
DASHED
100
AcDbLine
 10
-432.0
 20
573.0000199999994
 30
0.0
 11
-434.0
 21
573.0000199999994
 31
0.0
  0
LINE
  5
82DDC
330
1E
100
AcDbEntity
  8
OUTLINE
  6
CONTINUOUS
100
AcDbLine
 10
-420.0
 20
573.0000199999994
 30
0.0
 11
-404.5000000000036
 21
573.0000199999994
 31
0.0
  0
LINE
  5
82DDD
330
1E
100
AcDbEntity
  8
OUTLINE
  6
DASHED
100
AcDbLine
 10
-434.0
 20
573.0000199999994
 30
0.0
 11
-436.0
 21
573.0000199999994
 31
0.0
  0
CIRCLE
  5
82DDE
330
1E
100
AcDbEntity
  8
OUTLINE
  6
CONTINUOUS
100
AcDbCircle
 10
-459.0
 20
567.0000199999995
 30
0.0
 40
2.0
  0
LINE
  5
82DDF
330
1E
100
AcDbEntity
  8
OUTLINE
  6
CONTINUOUS
100
AcDbLine
 10
-410.0000000000036
 20
550.0000199999976
 30
0.0
 11
-414.0
 21
550.0000199999976
 31
0.0
  0
LINE
  5
82DE0
330
1E
100
AcDbEntity
  8
OUTLINE
  6
CONTINUOUS
100
AcDbLine
 10
-418.0
 20
546.0000199999976
 30
0.0
 11
-457.0
 21
546.0000199999976
 31
0.0
  0
LINE
  5
82DE1
330
1E
100
AcDbEntity
  8
OUTLINE
  6
CONTINUOUS
100
AcDbLine
 10
-418.0
 20
550.0000199999976
 30
0.0
 11
-457.0
 21
550.0000199999976
 31
0.0
  0
LINE
  5
82DE2
330
1E
100
AcDbEntity
  8
OUTLINE
  6
CONTINUOUS
100
AcDbLine
 10
-410.0000000000036
 20
546.0000199999976
 30
0.0
 11
-414.0
 21
546.0000199999976
 31
0.0
  0
LINE
  5
82DE3
330
1E
100
AcDbEntity
  8
OUTLINE
  6
CONTINUOUS
100
AcDbLine
 10
-410.0000000000036
 20
550.0000199999976
 30
0.0
 11
-410.0000000000036
 21
546.0000199999976
 31
0.0
  0
LINE
  5
82DE4
330
1E
100
AcDbEntity
  8
OUTLINE
  6
CONTINUOUS
100
AcDbLine
 10
-418.0
 20
555.0000199999977
 30
0.0
 11
-414.0
 21
555.0000199999977
 31
0.0
  0
LINE
  5
82DE5
330
1E
100
AcDbEntity
  8
OUTLINE
  6
CONTINUOUS
100
AcDbLine
 10
-461.0
 20
555.0000199999977
 30
0.0
 11
-457.0
 21
555.0000199999977
 31
0.0
  0
LINE
  5
82DE6
330
1E
100
AcDbEntity
  8
OUTLINE
  6
DASHED
100
AcDbLine
 10
-429.0
 20
573.0000199999994
 30
0.0
 11
-420.0
 21
573.0000199999994
 31
0.0
  0
LINE
  5
82DE7
330
1E
100
AcDbEntity
  8
OUTLINE
  6
DASHED
100
AcDbLine
 10
-432.0
 20
573.0000199999994
 30
0.0
 11
-429.0
 21
573.0000199999994
 31
0.0
  0
LINE
  5
82DE8
330
1E
100
AcDbEntity
  8
OUTLINE
  6
DASHED
100
AcDbLine
 10
-432.0
 20
573.0000199999994
 30
0.0
 11
-434.0
 21
573.0000199999994
 31
0.0
  0
LINE
  5
82DE9
330
1E
100
AcDbEntity
  8
OUTLINE
  6
CONTINUOUS
100
AcDbLine
 10
-420.0
 20
571.0000199999995
 30
0.0
 11
-420.0
 21
573.0000199999994
 31
0.0
  0
LINE
  5
82DEA
330
1E
100
AcDbEntity
  8
OUTLINE
  6
CONTINUOUS
100
AcDbLine
 10
-420.0
 20
569.0000199999994
 30
0.0
 11
-420.0
 21
571.0000199999995
 31
0.0
  0
LINE
  5
82DEB
330
1E
100
AcDbEntity
  8
OUTLINE
  6
DASHED
100
AcDbLine
 10
-429.0
 20
569.0000199999994
 30
0.0
 11
-434.0
 21
569.0000199999994
 31
0.0
  0
LINE
  5
82DEC
330
1E
100
AcDbEntity
  8
OUTLINE
  6
CONTINUOUS
100
AcDbLine
 10
-420.0
 20
569.0000199999994
 30
0.0
 11
-429.0
 21
569.0000199999994
 31
0.0
  0
LINE
  5
82DED
330
1E
100
AcDbEntity
  8
OUTLINE
  6
DASHED
100
AcDbLine
 10
-434.0
 20
573.0000199999994
 30
0.0
 11
-436.0
 21
573.0000199999994
 31
0.0
  0
LINE
  5
82DEE
330
1E
100
AcDbEntity
  8
OUTLINE
  6
DASHED
100
AcDbLine
 10
-434.0
 20
569.0000199999994
 30
0.0
 11
-459.0
 21
569.0000199999994
 31
0.0
  0
LINE
  5
82DEF
330
1E
100
AcDbEntity
  8
OUTLINE
  6
CONTINUOUS
100
AcDbLine
 10
-432.0
 20
573.0000199999994
 30
0.0
 11
-429.0
 21
573.0000199999994
 31
0.0
  0
LINE
  5
82DF0
330
1E
100
AcDbEntity
  8
OUTLINE
  6
CONTINUOUS
100
AcDbLine
 10
-432.0
 20
573.0000199999994
 30
0.0
 11
-436.0
 21
573.0000199999994
 31
0.0
  0
LINE
  5
82DF1
330
1E
100
AcDbEntity
  8
OUTLINE
  6
CONTINUOUS
100
AcDbLine
 10
-429.0
 20
569.0000199999994
 30
0.0
 11
-459.0
 21
569.0000199999994
 31
0.0
  0
LINE
  5
82DF2
330
1E
100
AcDbEntity
  8
OUTLINE
  6
CONTINUOUS
100
AcDbLine
 10
-461.0
 20
228.5000199999976
 30
0.0
 11
-498.0
 21
228.5000199999976
 31
0.0
  0
LINE
  5
82DF3
330
1E
100
AcDbEntity
  8
OUTLINE
  6
CONTINUOUS
100
AcDbLine
 10
-461.0
 20
224.5000199999976
 30
0.0
 11
-498.0
 21
224.5000199999976
 31
0.0
  0
LINE
  5
82DF4
330
1E
100
AcDbEntity
  8
OUTLINE
  6
CONTINUOUS
100
AcDbLine
 10
-461.0
 20
274.5000199999976
 30
0.0
 11
-498.0
 21
274.5000199999976
 31
0.0
  0
ARC
  5
82DF5
330
1E
100
AcDbEntity
  8
OUTLINE
  6
CONTINUOUS
100
AcDbCircle
 10
-502.0
 20
226.5000199999976
 30
0.0
 40
2.0
100
AcDbArc
 50
90.0
 51
270.0
  0
LINE
  5
82DF6
330
1E
100
AcDbEntity
  8
OUTLINE
  6
CONTINUOUS
100
AcDbLine
 10
-498.0
 20
224.5000199999976
 30
0.0
 11
-502.0
 21
224.5000199999976
 31
0.0
  0
LINE
  5
82DF7
330
1E
100
AcDbEntity
  8
OUTLINE
  6
CONTINUOUS
100
AcDbLine
 10
-498.0
 20
228.5000199999976
 30
0.0
 11
-502.0
 21
228.5000199999976
 31
0.0
  0
LINE
  5
82DF8
330
1E
100
AcDbEntity
  8
OUTLINE
  6
CONTINUOUS
100
AcDbLine
 10
-498.0
 20
274.5000199999976
 30
0.0
 11
-502.0
 21
274.5000199999976
 31
0.0
  0
LINE
  5
82DF9
330
1E
100
AcDbEntity
  8
OUTLINE
  6
CONTINUOUS
100
AcDbLine
 10
-504.0000000000036
 20
226.5000199999976
 30
0.0
 11
-504.0
 21
224.0000199999976
 31
0.0
  0
LINE
  5
82DFA
330
1E
100
AcDbEntity
  8
OUTLINE
  6
CONTINUOUS
100
AcDbLine
 10
-504.0
 20
274.0000199999976
 30
0.0
 11
-504.0000000000036
 21
226.5000199999976
 31
0.0
  0
LINE
  5
82DFB
330
1E
100
AcDbEntity
  8
OUTLINE
  6
CONTINUOUS
100
AcDbLine
 10
-410.0000000000036
 20
228.5000199999976
 30
0.0
 11
-414.0
 21
228.5000199999976
 31
0.0
  0
LINE
  5
82DFC
330
1E
100
AcDbEntity
  8
OUTLINE
  6
CONTINUOUS
100
AcDbLine
 10
-418.0
 20
224.5000199999976
 30
0.0
 11
-457.0
 21
224.5000199999976
 31
0.0
  0
LINE
  5
82DFD
330
1E
100
AcDbEntity
  8
OUTLINE
  6
CONTINUOUS
100
AcDbLine
 10
-418.0
 20
228.5000199999976
 30
0.0
 11
-457.0
 21
228.5000199999976
 31
0.0
  0
LINE
  5
82DFE
330
1E
100
AcDbEntity
  8
OUTLINE
  6
CONTINUOUS
100
AcDbLine
 10
-410.0000000000036
 20
228.5000199999976
 30
0.0
 11
-410.0000000000036
 21
224.5000199999976
 31
0.0
  0
LINE
  5
82DFF
330
1E
100
AcDbEntity
  8
OUTLINE
  6
CONTINUOUS
100
AcDbLine
 10
-410.0000000000036
 20
224.5000199999976
 30
0.0
 11
-414.0
 21
224.5000199999976
 31
0.0
  0
LINE
  5
82E00
330
1E
100
AcDbEntity
  8
OUTLINE
  6
CONTINUOUS
100
AcDbLine
 10
-418.0
 20
274.5000199999976
 30
0.0
 11
-457.0
 21
274.5000199999976
 31
0.0
  0
LINE
  5
82E01
330
1E
100
AcDbEntity
  8
OUTLINE
  6
CONTINUOUS
100
AcDbLine
 10
-410.0000000000036
 20
274.5000199999976
 30
0.0
 11
-414.0
 21
274.5000199999976
 31
0.0
  0
ARC
  5
82E02
330
1E
100
AcDbEntity
  8
OUTLINE
  6
CONTINUOUS
100
AcDbCircle
 10
-502.0
 20
276.5000199999976
 30
0.0
 40
2.0
100
AcDbArc
 50
90.0
 51
270.0
  0
LINE
  5
82E03
330
1E
100
AcDbEntity
  8
OUTLINE
  6
CONTINUOUS
100
AcDbLine
 10
-504.0000000000036
 20
276.5000199999976
 30
0.0
 11
-504.0
 21
274.0000199999976
 31
0.0
  0
LINE
  5
82E04
330
1E
100
AcDbEntity
  8
OUTLINE
  6
CONTINUOUS
100
AcDbLine
 10
-410.0000000000036
 20
278.5000199999976
 30
0.0
 11
-410.0000000000036
 21
274.5000199999976
 31
0.0
  0
LINE
  5
82E05
330
1E
100
AcDbEntity
  8
OUTLINE
  6
CONTINUOUS
100
AcDbLine
 10
-89.50000000000192
 20
567.4999999999999
 30
0.0
 11
-89.50000000000192
 21
571.4999999999999
 31
0.0
  0
LINE
  5
82E06
330
1E
100
AcDbEntity
  8
OUTLINE
  6
CONTINUOUS
100
AcDbLine
 10
-272.4999999999981
 20
569.0
 30
0.0
 11
-283.4999999999981
 21
569.0
 31
0.0
  0
LINE
  5
82E07
330
1E
100
AcDbEntity
  8
OUTLINE
  6
CONTINUOUS
100
AcDbLine
 10
-272.4999999999981
 20
573.5
 30
0.0
 11
-283.4999999999981
 21
573.5
 31
0.0
  0
LINE
  5
82E08
330
1E
100
AcDbEntity
  8
OUTLINE
  6
DASHED
100
AcDbLine
 10
-272.4999999999981
 20
569.5
 30
0.0
 11
-285.5000000000018
 21
569.5
 31
0.0
  0
LINE
  5
82E09
330
1E
100
AcDbEntity
  8
OUTLINE
  6
CONTINUOUS
100
AcDbLine
 10
-239.5000000000018
 20
545.5
 30
0.0
 11
-285.5000000000018
 21
545.5
 31
0.0
  0
LINE
  5
82E0A
330
1E
100
AcDbEntity
  8
OUTLINE
  6
CONTINUOUS
100
AcDbLine
 10
-239.5000000000018
 20
549.5
 30
0.0
 11
-285.5000000000018
 21
549.5
 31
0.0
  0
LINE
  5
82E0B
330
1E
100
AcDbEntity
  8
OUTLINE
  6
CONTINUOUS
100
AcDbLine
 10
-285.5000000000018
 20
565.0
 30
0.0
 11
-239.5000000000018
 21
565.0
 31
0.0
  0
LINE
  5
82E0C
330
1E
100
AcDbEntity
  8
OUTLINE
  6
CONTINUOUS
100
AcDbLine
 10
-239.5000000000018
 20
524.0
 30
0.0
 11
-285.5000000000018
 21
524.0
 31
0.0
  0
LINE
  5
82E0D
330
1E
100
AcDbEntity
  8
OUTLINE
  6
CONTINUOUS
100
AcDbLine
 10
-239.5000000000018
 20
528.0
 30
0.0
 11
-285.5000000000018
 21
528.0
 31
0.0
  0
LINE
  5
82E0E
330
1E
100
AcDbEntity
  8
OUTLINE
  6
CONTINUOUS
100
AcDbLine
 10
-239.5000000000018
 20
474.0
 30
0.0
 11
-285.5000000000018
 21
474.0
 31
0.0
  0
LINE
  5
82E0F
330
1E
100
AcDbEntity
  8
OUTLINE
  6
CONTINUOUS
100
AcDbLine
 10
-239.5000000000018
 20
478.0
 30
0.0
 11
-285.5000000000018
 21
478.0
 31
0.0
  0
LINE
  5
82E10
330
1E
100
AcDbEntity
  8
OUTLINE
  6
CONTINUOUS
100
AcDbLine
 10
-239.5000000000018
 20
424.0
 30
0.0
 11
-285.5000000000018
 21
424.0
 31
0.0
  0
LINE
  5
82E11
330
1E
100
AcDbEntity
  8
OUTLINE
  6
CONTINUOUS
100
AcDbLine
 10
-239.5000000000018
 20
428.0
 30
0.0
 11
-285.5000000000018
 21
428.0
 31
0.0
  0
LINE
  5
82E12
330
1E
100
AcDbEntity
  8
OUTLINE
  6
CONTINUOUS
100
AcDbLine
 10
-239.5000000000018
 20
378.0
 30
0.0
 11
-285.5000000000018
 21
378.0
 31
0.0
  0
LINE
  5
82E13
330
1E
100
AcDbEntity
  8
OUTLINE
  6
CONTINUOUS
100
AcDbLine
 10
-239.5000000000018
 20
374.0
 30
0.0
 11
-285.5000000000018
 21
374.0
 31
0.0
  0
LINE
  5
82E14
330
1E
100
AcDbEntity
  8
OUTLINE
  6
CONTINUOUS
100
AcDbLine
 10
-239.5000000000018
 20
328.0
 30
0.0
 11
-285.5000000000018
 21
328.0
 31
0.0
  0
LINE
  5
82E15
330
1E
100
AcDbEntity
  8
OUTLINE
  6
CONTINUOUS
100
AcDbLine
 10
-239.5000000000018
 20
324.0
 30
0.0
 11
-285.5000000000018
 21
324.0
 31
0.0
  0
LINE
  5
82E16
330
1E
100
AcDbEntity
  8
OUTLINE
  6
CONTINUOUS
100
AcDbLine
 10
-239.5000000000018
 20
278.0
 30
0.0
 11
-285.5000000000018
 21
278.0
 31
0.0
  0
LINE
  5
82E17
330
1E
100
AcDbEntity
  8
OUTLINE
  6
CONTINUOUS
100
AcDbLine
 10
-289.5000000000018
 20
424.0
 30
0.0
 11
-335.5000000000018
 21
424.0
 31
0.0
  0
LINE
  5
82E18
330
1E
100
AcDbEntity
  8
OUTLINE
  6
CONTINUOUS
100
AcDbLine
 10
-289.5000000000018
 20
428.0
 30
0.0
 11
-335.5000000000018
 21
428.0
 31
0.0
  0
LINE
  5
82E19
330
1E
100
AcDbEntity
  8
OUTLINE
  6
CONTINUOUS
100
AcDbLine
 10
-289.5000000000018
 20
374.0
 30
0.0
 11
-335.5000000000018
 21
374.0
 31
0.0
  0
LINE
  5
82E1A
330
1E
100
AcDbEntity
  8
OUTLINE
  6
CONTINUOUS
100
AcDbLine
 10
-289.5000000000018
 20
378.0
 30
0.0
 11
-335.5000000000018
 21
378.0
 31
0.0
  0
LINE
  5
82E1B
330
1E
100
AcDbEntity
  8
OUTLINE
  6
CONTINUOUS
100
AcDbLine
 10
-289.5000000000018
 20
324.0
 30
0.0
 11
-335.5000000000018
 21
324.0
 31
0.0
  0
LINE
  5
82E1C
330
1E
100
AcDbEntity
  8
OUTLINE
  6
CONTINUOUS
100
AcDbLine
 10
-289.5000000000018
 20
328.0
 30
0.0
 11
-335.5000000000018
 21
328.0
 31
0.0
  0
LINE
  5
82E1D
330
1E
100
AcDbEntity
  8
OUTLINE
  6
CONTINUOUS
100
AcDbLine
 10
-289.5000000000018
 20
278.0
 30
0.0
 11
-335.5000000000018
 21
278.0
 31
0.0
  0
LINE
  5
82E1E
330
1E
100
AcDbEntity
  8
OUTLINE
  6
CONTINUOUS
100
AcDbLine
 10
-289.5000000000018
 20
545.5
 30
0.0
 11
-335.5000000000018
 21
545.5
 31
0.0
  0
LINE
  5
82E1F
330
1E
100
AcDbEntity
  8
OUTLINE
  6
CONTINUOUS
100
AcDbLine
 10
-289.5000000000018
 20
549.5
 30
0.0
 11
-335.5000000000018
 21
549.5
 31
0.0
  0
LINE
  5
82E20
330
1E
100
AcDbEntity
  8
OUTLINE
  6
CONTINUOUS
100
AcDbLine
 10
-335.5000000000018
 20
569.0
 30
0.0
 11
-289.5000000000018
 21
569.0
 31
0.0
  0
LINE
  5
82E21
330
1E
100
AcDbEntity
  8
OUTLINE
  6
CONTINUOUS
100
AcDbLine
 10
-335.5000000000018
 20
565.0
 30
0.0
 11
-289.5000000000018
 21
565.0
 31
0.0
  0
LINE
  5
82E22
330
1E
100
AcDbEntity
  8
OUTLINE
  6
CONTINUOUS
100
AcDbLine
 10
-289.5000000000018
 20
474.0
 30
0.0
 11
-335.5000000000018
 21
474.0
 31
0.0
  0
LINE
  5
82E23
330
1E
100
AcDbEntity
  8
OUTLINE
  6
CONTINUOUS
100
AcDbLine
 10
-289.5000000000018
 20
478.0
 30
0.0
 11
-335.5000000000018
 21
478.0
 31
0.0
  0
LINE
  5
82E24
330
1E
100
AcDbEntity
  8
OUTLINE
  6
CONTINUOUS
100
AcDbLine
 10
-289.5000000000018
 20
524.0
 30
0.0
 11
-335.5000000000018
 21
524.0
 31
0.0
  0
LINE
  5
82E25
330
1E
100
AcDbEntity
  8
OUTLINE
  6
CONTINUOUS
100
AcDbLine
 10
-289.5000000000018
 20
528.0
 30
0.0
 11
-335.5000000000018
 21
528.0
 31
0.0
  0
LINE
  5
82E26
330
1E
100
AcDbEntity
  8
OUTLINE
  6
CONTINUOUS
100
AcDbLine
 10
-339.5000000000018
 20
567.4999999999999
 30
0.0
 11
-339.5000000000018
 21
571.4999999999999
 31
0.0
  0
LINE
  5
82E27
330
1E
100
AcDbEntity
  8
OUTLINE
  6
CONTINUOUS
100
AcDbLine
 10
-335.5000000000018
 20
567.4999999999999
 30
0.0
 11
-335.5000000000018
 21
571.4999999999999
 31
0.0
  0
ARC
  5
82E28
330
1E
100
AcDbEntity
  8
OUTLINE
  6
CONTINUOUS
100
AcDbCircle
 10
-337.5000000000018
 20
571.4999999999999
 30
0.0
 40
2.0
100
AcDbArc
 50
0.0
 51
180.0
  0
LINE
  5
82E29
330
1E
100
AcDbEntity
  8
OUTLINE
  6
CONTINUOUS
100
AcDbLine
 10
-344.5000000000018
 20
569.0
 30
0.0
 11
-344.5000000000018
 21
565.0
 31
0.0
  0
LINE
  5
82E2A
330
1E
100
AcDbEntity
  8
OUTLINE
  6
CONTINUOUS
100
AcDbLine
 10
-344.5000000000018
 20
569.0
 30
0.0
 11
-339.5000000000018
 21
569.0
 31
0.0
  0
LINE
  5
82E2B
330
1E
100
AcDbEntity
  8
OUTLINE
  6
CONTINUOUS
100
AcDbLine
 10
-344.5000000000018
 20
565.0
 30
0.0
 11
-339.5000000000018
 21
565.0
 31
0.0
  0
LINE
  5
82E2C
330
1E
100
AcDbEntity
  8
OUTLINE
  6
CONTINUOUS
100
AcDbLine
 10
-283.4999999999981
 20
569.0
 30
0.0
 11
-285.5000000000018
 21
569.0
 31
0.0
  0
LINE
  5
82E2D
330
1E
100
AcDbEntity
  8
OUTLINE
  6
CONTINUOUS
100
AcDbLine
 10
-283.4999999999981
 20
573.5
 30
0.0
 11
-287.5000000000018
 21
573.5
 31
0.0
  0
LINE
  5
82E2E
330
1E
100
AcDbEntity
  8
OUTLINE
  6
DASHED
100
AcDbLine
 10
-283.4999999999981
 20
569.0
 30
0.0
 11
-285.5000000000018
 21
569.0
 31
0.0
  0
LINE
  5
82E2F
330
1E
100
AcDbEntity
  8
OUTLINE
  6
CONTINUOUS
100
AcDbLine
 10
-289.5000000000018
 20
567.4999999999999
 30
0.0
 11
-289.5000000000018
 21
571.4999999999999
 31
0.0
  0
LINE
  5
82E30
330
1E
100
AcDbEntity
  8
OUTLINE
  6
CONTINUOUS
100
AcDbLine
 10
-285.5000000000018
 20
567.4999999999999
 30
0.0
 11
-285.5000000000018
 21
571.4999999999999
 31
0.0
  0
ARC
  5
82E31
330
1E
100
AcDbEntity
  8
OUTLINE
  6
CONTINUOUS
100
AcDbCircle
 10
-287.5000000000018
 20
571.4999999999999
 30
0.0
 40
1.999999999999943
100
AcDbArc
 50
90.0
 51
180.0
  0
ARC
  5
82E32
330
1E
100
AcDbEntity
  8
OUTLINE
  6
CONTINUOUS
100
AcDbCircle
 10
-287.5000000000018
 20
571.4999999999999
 30
0.0
 40
2.0
100
AcDbArc
 50
0.0
 51
90.0
  0
LINE
  5
82E33
330
1E
100
AcDbEntity
  8
OUTLINE
  6
CONTINUOUS
100
AcDbLine
 10
-139.5000000000019
 20
428.0
 30
0.0
 11
-185.5000000000019
 21
428.0
 31
0.0
  0
LINE
  5
82E34
330
1E
100
AcDbEntity
  8
OUTLINE
  6
CONTINUOUS
100
AcDbLine
 10
-139.5000000000019
 20
424.0
 30
0.0
 11
-185.5000000000019
 21
424.0
 31
0.0
  0
LINE
  5
82E35
330
1E
100
AcDbEntity
  8
OUTLINE
  6
CONTINUOUS
100
AcDbLine
 10
-139.5000000000019
 20
374.0
 30
0.0
 11
-185.5000000000019
 21
374.0
 31
0.0
  0
LINE
  5
82E36
330
1E
100
AcDbEntity
  8
OUTLINE
  6
CONTINUOUS
100
AcDbLine
 10
-139.5000000000019
 20
378.0
 30
0.0
 11
-185.5000000000019
 21
378.0
 31
0.0
  0
LINE
  5
82E37
330
1E
100
AcDbEntity
  8
OUTLINE
  6
CONTINUOUS
100
AcDbLine
 10
-189.5000000000018
 20
424.0
 30
0.0
 11
-235.5000000000018
 21
424.0
 31
0.0
  0
LINE
  5
82E38
330
1E
100
AcDbEntity
  8
OUTLINE
  6
CONTINUOUS
100
AcDbLine
 10
-189.5000000000018
 20
428.0
 30
0.0
 11
-235.5000000000018
 21
428.0
 31
0.0
  0
LINE
  5
82E39
330
1E
100
AcDbEntity
  8
OUTLINE
  6
CONTINUOUS
100
AcDbLine
 10
-189.5000000000018
 20
378.0
 30
0.0
 11
-235.5000000000018
 21
378.0
 31
0.0
  0
LINE
  5
82E3A
330
1E
100
AcDbEntity
  8
OUTLINE
  6
CONTINUOUS
100
AcDbLine
 10
-189.5000000000018
 20
374.0
 30
0.0
 11
-235.5000000000018
 21
374.0
 31
0.0
  0
LINE
  5
82E3B
330
1E
100
AcDbEntity
  8
OUTLINE
  6
CONTINUOUS
100
AcDbLine
 10
-139.5000000000019
 20
328.0
 30
0.0
 11
-185.5000000000019
 21
328.0
 31
0.0
  0
LINE
  5
82E3C
330
1E
100
AcDbEntity
  8
OUTLINE
  6
CONTINUOUS
100
AcDbLine
 10
-139.5000000000019
 20
324.0
 30
0.0
 11
-185.5000000000019
 21
324.0
 31
0.0
  0
LINE
  5
82E3D
330
1E
100
AcDbEntity
  8
OUTLINE
  6
CONTINUOUS
100
AcDbLine
 10
-139.5000000000019
 20
278.0
 30
0.0
 11
-185.5000000000019
 21
278.0
 31
0.0
  0
LINE
  5
82E3E
330
1E
100
AcDbEntity
  8
OUTLINE
  6
CONTINUOUS
100
AcDbLine
 10
-189.5000000000018
 20
328.0
 30
0.0
 11
-235.5000000000018
 21
328.0
 31
0.0
  0
LINE
  5
82E3F
330
1E
100
AcDbEntity
  8
OUTLINE
  6
CONTINUOUS
100
AcDbLine
 10
-189.5000000000018
 20
324.0
 30
0.0
 11
-235.5000000000018
 21
324.0
 31
0.0
  0
LINE
  5
82E40
330
1E
100
AcDbEntity
  8
OUTLINE
  6
CONTINUOUS
100
AcDbLine
 10
-189.5000000000018
 20
278.0
 30
0.0
 11
-235.5000000000018
 21
278.0
 31
0.0
  0
LINE
  5
82E41
330
1E
100
AcDbEntity
  8
OUTLINE
  6
CONTINUOUS
100
AcDbLine
 10
-135.5000000000019
 20
567.4999999999999
 30
0.0
 11
-135.5000000000019
 21
571.4999999999999
 31
0.0
  0
LINE
  5
82E42
330
1E
100
AcDbEntity
  8
OUTLINE
  6
CONTINUOUS
100
AcDbLine
 10
-139.5000000000019
 20
567.4999999999999
 30
0.0
 11
-139.5000000000019
 21
571.4999999999999
 31
0.0
  0
LINE
  5
82E43
330
1E
100
AcDbEntity
  8
OUTLINE
  6
CONTINUOUS
100
AcDbLine
 10
-189.5000000000018
 20
567.4999999999999
 30
0.0
 11
-189.5000000000018
 21
571.4999999999999
 31
0.0
  0
LINE
  5
82E44
330
1E
100
AcDbEntity
  8
OUTLINE
  6
CONTINUOUS
100
AcDbLine
 10
-185.5000000000019
 20
567.4999999999999
 30
0.0
 11
-185.5000000000019
 21
571.4999999999999
 31
0.0
  0
ARC
  5
82E45
330
1E
100
AcDbEntity
  8
OUTLINE
  6
CONTINUOUS
100
AcDbCircle
 10
-187.5000000000019
 20
571.4999999999999
 30
0.0
 40
2.0
100
AcDbArc
 50
0.0
 51
180.0
  0
LINE
  5
82E46
330
1E
100
AcDbEntity
  8
OUTLINE
  6
CONTINUOUS
100
AcDbLine
 10
-139.5000000000019
 20
545.5
 30
0.0
 11
-185.5000000000019
 21
545.5
 31
0.0
  0
LINE
  5
82E47
330
1E
100
AcDbEntity
  8
OUTLINE
  6
CONTINUOUS
100
AcDbLine
 10
-139.5000000000019
 20
549.5
 30
0.0
 11
-185.5000000000019
 21
549.5
 31
0.0
  0
LINE
  5
82E48
330
1E
100
AcDbEntity
  8
OUTLINE
  6
CONTINUOUS
100
AcDbLine
 10
-185.5000000000019
 20
565.0
 30
0.0
 11
-139.5000000000019
 21
565.0
 31
0.0
  0
LINE
  5
82E49
330
1E
100
AcDbEntity
  8
OUTLINE
  6
CONTINUOUS
100
AcDbLine
 10
-185.5000000000019
 20
569.0
 30
0.0
 11
-139.5000000000019
 21
569.0
 31
0.0
  0
LINE
  5
82E4A
330
1E
100
AcDbEntity
  8
OUTLINE
  6
CONTINUOUS
100
AcDbLine
 10
-139.5000000000019
 20
474.0
 30
0.0
 11
-185.5000000000019
 21
474.0
 31
0.0
  0
LINE
  5
82E4B
330
1E
100
AcDbEntity
  8
OUTLINE
  6
CONTINUOUS
100
AcDbLine
 10
-139.5000000000019
 20
478.0
 30
0.0
 11
-185.5000000000019
 21
478.0
 31
0.0
  0
LINE
  5
82E4C
330
1E
100
AcDbEntity
  8
OUTLINE
  6
CONTINUOUS
100
AcDbLine
 10
-139.5000000000019
 20
524.0
 30
0.0
 11
-185.5000000000019
 21
524.0
 31
0.0
  0
LINE
  5
82E4D
330
1E
100
AcDbEntity
  8
OUTLINE
  6
CONTINUOUS
100
AcDbLine
 10
-139.5000000000019
 20
528.0
 30
0.0
 11
-185.5000000000019
 21
528.0
 31
0.0
  0
LINE
  5
82E4E
330
1E
100
AcDbEntity
  8
OUTLINE
  6
CONTINUOUS
100
AcDbLine
 10
-239.5000000000018
 20
567.4999999999999
 30
0.0
 11
-239.5000000000018
 21
571.4999999999999
 31
0.0
  0
LINE
  5
82E4F
330
1E
100
AcDbEntity
  8
OUTLINE
  6
CONTINUOUS
100
AcDbLine
 10
-235.5000000000018
 20
567.4999999999999
 30
0.0
 11
-235.5000000000018
 21
571.4999999999999
 31
0.0
  0
ARC
  5
82E50
330
1E
100
AcDbEntity
  8
OUTLINE
  6
CONTINUOUS
100
AcDbCircle
 10
-237.5000000000018
 20
571.4999999999999
 30
0.0
 40
2.0
100
AcDbArc
 50
0.0
 51
180.0
  0
LINE
  5
82E51
330
1E
100
AcDbEntity
  8
OUTLINE
  6
CONTINUOUS
100
AcDbLine
 10
-257.4999999999981
 20
564.0
 30
0.0
 11
-257.4999999999981
 21
556.0
 31
0.0
  0
ARC
  5
82E52
330
1E
100
AcDbEntity
  8
OUTLINE
  6
CONTINUOUS
100
AcDbCircle
 10
-272.4999999999981
 20
567.4999999999999
 30
0.0
 40
5.999999999999519
100
AcDbArc
 50
14.47751218592945
 51
90.0
  0
ARC
  5
82E53
330
1E
100
AcDbEntity
  8
OUTLINE
  6
CONTINUOUS
100
AcDbCircle
 10
-263.9999999999981
 20
556.0
 30
0.0
 40
6.5
100
AcDbArc
 50
180.0
 51
270.0
  0
ARC
  5
82E54
330
1E
100
AcDbEntity
  8
OUTLINE
  6
CONTINUOUS
100
AcDbCircle
 10
-263.9999999999981
 20
556.0
 30
0.0
 40
2.5
100
AcDbArc
 50
180.0
 51
0.0
  0
LINE
  5
82E55
330
1E
100
AcDbEntity
  8
OUTLINE
  6
CONTINUOUS
100
AcDbLine
 10
-270.4999999999981
 20
556.0
 30
0.0
 11
-270.4999999999972
 21
565.0
 31
0.0
  0
LINE
  5
82E56
330
1E
100
AcDbEntity
  8
OUTLINE
  6
CONTINUOUS
100
AcDbLine
 10
-261.4999999999982
 20
564.0
 30
0.0
 11
-261.4999999999982
 21
556.0
 31
0.0
  0
LINE
  5
82E57
330
1E
100
AcDbEntity
  8
OUTLINE
  6
CONTINUOUS
100
AcDbLine
 10
-266.4999999999981
 20
556.0
 30
0.0
 11
-266.4999999999972
 21
565.0
 31
0.0
  0
LINE
  5
82E58
330
1E
100
AcDbEntity
  8
OUTLINE
  6
CONTINUOUS
100
AcDbLine
 10
-272.4999999999981
 20
569.0
 30
0.0
 11
-239.5000000000018
 21
569.0
 31
0.0
  0
LINE
  5
82E59
330
1E
100
AcDbEntity
  8
OUTLINE
  6
CONTINUOUS
100
AcDbLine
 10
-257.4999999999981
 20
564.0
 30
0.0
 11
-261.4999999999982
 21
564.0
 31
0.0
  0
ARC
  5
82E5A
330
1E
100
AcDbEntity
  8
OUTLINE
  6
CONTINUOUS
100
AcDbCircle
 10
-263.9999999999981
 20
556.0
 30
0.0
 40
6.5
100
AcDbArc
 50
270.0
 51
0.0
  0
LINE
  5
82E5B
330
1E
100
AcDbEntity
  8
OUTLINE
  6
CONTINUOUS
100
AcDbLine
 10
-189.5000000000018
 20
545.5
 30
0.0
 11
-235.5000000000018
 21
545.5
 31
0.0
  0
LINE
  5
82E5C
330
1E
100
AcDbEntity
  8
OUTLINE
  6
CONTINUOUS
100
AcDbLine
 10
-189.5000000000018
 20
549.5
 30
0.0
 11
-235.5000000000018
 21
549.5
 31
0.0
  0
LINE
  5
82E5D
330
1E
100
AcDbEntity
  8
OUTLINE
  6
CONTINUOUS
100
AcDbLine
 10
-189.5000000000018
 20
474.0
 30
0.0
 11
-235.5000000000018
 21
474.0
 31
0.0
  0
LINE
  5
82E5E
330
1E
100
AcDbEntity
  8
OUTLINE
  6
CONTINUOUS
100
AcDbLine
 10
-189.5000000000018
 20
478.0
 30
0.0
 11
-235.5000000000018
 21
478.0
 31
0.0
  0
LINE
  5
82E5F
330
1E
100
AcDbEntity
  8
OUTLINE
  6
CONTINUOUS
100
AcDbLine
 10
-189.5000000000018
 20
524.0
 30
0.0
 11
-235.5000000000018
 21
524.0
 31
0.0
  0
LINE
  5
82E60
330
1E
100
AcDbEntity
  8
OUTLINE
  6
CONTINUOUS
100
AcDbLine
 10
-189.5000000000018
 20
528.0
 30
0.0
 11
-235.5000000000018
 21
528.0
 31
0.0
  0
LINE
  5
82E61
330
1E
100
AcDbEntity
  8
OUTLINE
  6
CONTINUOUS
100
AcDbLine
 10
-235.5000000000018
 20
569.0
 30
0.0
 11
-189.5000000000018
 21
569.0
 31
0.0
  0
LINE
  5
82E62
330
1E
100
AcDbEntity
  8
OUTLINE
  6
CONTINUOUS
100
AcDbLine
 10
-235.5000000000018
 20
565.0
 30
0.0
 11
-189.5000000000018
 21
565.0
 31
0.0
  0
ARC
  5
82E63
330
1E
100
AcDbEntity
  8
OUTLINE
  6
CONTINUOUS
100
AcDbCircle
 10
-137.5000000000019
 20
571.4999999999999
 30
0.0
 40
2.0
100
AcDbArc
 50
0.0
 51
180.0
  0
ARC
  5
82E64
330
1E
100
AcDbEntity
  8
OUTLINE
  6
CONTINUOUS
100
AcDbCircle
 10
-272.4999999999981
 20
567.4999999999999
 30
0.0
 40
2.0
100
AcDbArc
 50
48.59037789074004
 51
90.0
  0
LINE
  5
82E65
330
1E
100
AcDbEntity
  8
OUTLINE
  6
CONTINUOUS
100
AcDbLine
 10
-89.50000000000192
 20
424.0
 30
0.0
 11
-135.5000000000019
 21
424.0
 31
0.0
  0
LINE
  5
82E66
330
1E
100
AcDbEntity
  8
OUTLINE
  6
CONTINUOUS
100
AcDbLine
 10
-89.50000000000192
 20
428.0
 30
0.0
 11
-135.5000000000019
 21
428.0
 31
0.0
  0
LINE
  5
82E67
330
1E
100
AcDbEntity
  8
OUTLINE
  6
CONTINUOUS
100
AcDbLine
 10
-89.50000000000192
 20
374.0
 30
0.0
 11
-135.5000000000019
 21
374.0
 31
0.0
  0
LINE
  5
82E68
330
1E
100
AcDbEntity
  8
OUTLINE
  6
CONTINUOUS
100
AcDbLine
 10
-89.50000000000192
 20
378.0
 30
0.0
 11
-135.5000000000019
 21
378.0
 31
0.0
  0
LINE
  5
82E69
330
1E
100
AcDbEntity
  8
OUTLINE
  6
CONTINUOUS
100
AcDbLine
 10
-89.50000000000192
 20
324.0
 30
0.0
 11
-135.5000000000019
 21
324.0
 31
0.0
  0
LINE
  5
82E6A
330
1E
100
AcDbEntity
  8
OUTLINE
  6
CONTINUOUS
100
AcDbLine
 10
-89.50000000000192
 20
328.0
 30
0.0
 11
-135.5000000000019
 21
328.0
 31
0.0
  0
LINE
  5
82E6B
330
1E
100
AcDbEntity
  8
OUTLINE
  6
CONTINUOUS
100
AcDbLine
 10
-89.50000000000192
 20
278.0
 30
0.0
 11
-135.5000000000019
 21
278.0
 31
0.0
  0
LINE
  5
82E6C
330
1E
100
AcDbEntity
  8
OUTLINE
  6
CONTINUOUS
100
AcDbLine
 10
-89.50000000000192
 20
545.5
 30
0.0
 11
-135.5000000000019
 21
545.5
 31
0.0
  0
LINE
  5
82E6D
330
1E
100
AcDbEntity
  8
OUTLINE
  6
CONTINUOUS
100
AcDbLine
 10
-89.50000000000192
 20
549.5
 30
0.0
 11
-135.5000000000019
 21
549.5
 31
0.0
  0
LINE
  5
82E6E
330
1E
100
AcDbEntity
  8
OUTLINE
  6
CONTINUOUS
100
AcDbLine
 10
-89.50000000000192
 20
474.0
 30
0.0
 11
-135.5000000000019
 21
474.0
 31
0.0
  0
LINE
  5
82E6F
330
1E
100
AcDbEntity
  8
OUTLINE
  6
CONTINUOUS
100
AcDbLine
 10
-89.50000000000192
 20
478.0
 30
0.0
 11
-135.5000000000019
 21
478.0
 31
0.0
  0
LINE
  5
82E70
330
1E
100
AcDbEntity
  8
OUTLINE
  6
CONTINUOUS
100
AcDbLine
 10
-89.50000000000192
 20
524.0
 30
0.0
 11
-135.5000000000019
 21
524.0
 31
0.0
  0
LINE
  5
82E71
330
1E
100
AcDbEntity
  8
OUTLINE
  6
CONTINUOUS
100
AcDbLine
 10
-89.50000000000192
 20
528.0
 30
0.0
 11
-135.5000000000019
 21
528.0
 31
0.0
  0
LINE
  5
82E72
330
1E
100
AcDbEntity
  8
OUTLINE
  6
CONTINUOUS
100
AcDbLine
 10
-135.5000000000019
 20
569.0
 30
0.0
 11
-89.50000000000192
 21
569.0
 31
0.0
  0
LINE
  5
82E73
330
1E
100
AcDbEntity
  8
OUTLINE
  6
CONTINUOUS
100
AcDbLine
 10
-135.5000000000019
 20
565.0
 30
0.0
 11
-89.50000000000192
 21
565.0
 31
0.0
  0
LINE
  5
82E74
330
1E
100
AcDbEntity
  8
OUTLINE
  6
CONTINUOUS
100
AcDbLine
 10
-239.5000000000018
 20
274.0
 30
0.0
 11
-285.5000000000018
 21
274.0
 31
0.0
  0
LINE
  5
82E75
330
1E
100
AcDbEntity
  8
OUTLINE
  6
CONTINUOUS
100
AcDbLine
 10
-239.5000000000018
 20
228.0
 30
0.0
 11
-285.5000000000018
 21
228.0
 31
0.0
  0
LINE
  5
82E76
330
1E
100
AcDbEntity
  8
OUTLINE
  6
CONTINUOUS
100
AcDbLine
 10
-239.5000000000018
 20
224.0
 30
0.0
 11
-285.5000000000018
 21
224.0
 31
0.0
  0
LINE
  5
82E77
330
1E
100
AcDbEntity
  8
OUTLINE
  6
CONTINUOUS
100
AcDbLine
 10
-239.5000000000018
 20
178.0
 30
0.0
 11
-285.5000000000018
 21
178.0
 31
0.0
  0
LINE
  5
82E78
330
1E
100
AcDbEntity
  8
OUTLINE
  6
CONTINUOUS
100
AcDbLine
 10
-289.5000000000018
 20
274.0
 30
0.0
 11
-335.5000000000018
 21
274.0
 31
0.0
  0
LINE
  5
82E79
330
1E
100
AcDbEntity
  8
OUTLINE
  6
CONTINUOUS
100
AcDbLine
 10
-289.5000000000018
 20
178.0
 30
0.0
 11
-335.5000000000018
 21
178.0
 31
0.0
  0
LINE
  5
82E7A
330
1E
100
AcDbEntity
  8
OUTLINE
  6
CONTINUOUS
100
AcDbLine
 10
-289.5000000000018
 20
224.0
 30
0.0
 11
-335.5000000000018
 21
224.0
 31
0.0
  0
LINE
  5
82E7B
330
1E
100
AcDbEntity
  8
OUTLINE
  6
CONTINUOUS
100
AcDbLine
 10
-289.5000000000018
 20
228.0
 30
0.0
 11
-335.5000000000018
 21
228.0
 31
0.0
  0
LINE
  5
82E7C
330
1E
100
AcDbEntity
  8
OUTLINE
  6
CONTINUOUS
100
AcDbLine
 10
-139.5000000000019
 20
274.0
 30
0.0
 11
-185.5000000000019
 21
274.0
 31
0.0
  0
LINE
  5
82E7D
330
1E
100
AcDbEntity
  8
OUTLINE
  6
CONTINUOUS
100
AcDbLine
 10
-189.5000000000018
 20
274.0
 30
0.0
 11
-235.5000000000018
 21
274.0
 31
0.0
  0
LINE
  5
82E7E
330
1E
100
AcDbEntity
  8
OUTLINE
  6
CONTINUOUS
100
AcDbLine
 10
-139.5000000000019
 20
178.0
 30
0.0
 11
-185.5000000000019
 21
178.0
 31
0.0
  0
LINE
  5
82E7F
330
1E
100
AcDbEntity
  8
OUTLINE
  6
CONTINUOUS
100
AcDbLine
 10
-139.5000000000019
 20
228.0
 30
0.0
 11
-185.5000000000019
 21
228.0
 31
0.0
  0
LINE
  5
82E80
330
1E
100
AcDbEntity
  8
OUTLINE
  6
CONTINUOUS
100
AcDbLine
 10
-139.5000000000019
 20
224.0
 30
0.0
 11
-185.5000000000019
 21
224.0
 31
0.0
  0
LINE
  5
82E81
330
1E
100
AcDbEntity
  8
OUTLINE
  6
CONTINUOUS
100
AcDbLine
 10
-189.5000000000018
 20
178.0
 30
0.0
 11
-235.5000000000018
 21
178.0
 31
0.0
  0
LINE
  5
82E82
330
1E
100
AcDbEntity
  8
OUTLINE
  6
CONTINUOUS
100
AcDbLine
 10
-189.5000000000018
 20
224.0
 30
0.0
 11
-235.5000000000018
 21
224.0
 31
0.0
  0
LINE
  5
82E83
330
1E
100
AcDbEntity
  8
OUTLINE
  6
CONTINUOUS
100
AcDbLine
 10
-189.5000000000018
 20
228.0
 30
0.0
 11
-235.5000000000018
 21
228.0
 31
0.0
  0
LINE
  5
82E84
330
1E
100
AcDbEntity
  8
OUTLINE
  6
CONTINUOUS
100
AcDbLine
 10
-89.50000000000192
 20
178.0
 30
0.0
 11
-135.5000000000019
 21
178.0
 31
0.0
  0
LINE
  5
82E85
330
1E
100
AcDbEntity
  8
OUTLINE
  6
CONTINUOUS
100
AcDbLine
 10
-89.50000000000192
 20
274.0
 30
0.0
 11
-135.5000000000019
 21
274.0
 31
0.0
  0
LINE
  5
82E86
330
1E
100
AcDbEntity
  8
OUTLINE
  6
CONTINUOUS
100
AcDbLine
 10
-89.50000000000192
 20
224.0
 30
0.0
 11
-135.5000000000019
 21
224.0
 31
0.0
  0
LINE
  5
82E87
330
1E
100
AcDbEntity
  8
OUTLINE
  6
CONTINUOUS
100
AcDbLine
 10
-89.50000000000192
 20
228.0
 30
0.0
 11
-135.5000000000019
 21
228.0
 31
0.0
  0
LINE
  5
82E88
330
1E
100
AcDbEntity
  8
OUTLINE
  6
CONTINUOUS
100
AcDbLine
 10
143.9999999999998
 20
426.0
 30
0.0
 11
143.9999999999998
 21
476.0
 31
0.0
  0
LINE
  5
82E89
330
1E
100
AcDbEntity
  8
OUTLINE
  6
CONTINUOUS
100
AcDbLine
 10
10.49999999999806
 20
424.0
 30
0.0
 11
-35.50000000000193
 21
424.0
 31
0.0
  0
LINE
  5
82E8A
330
1E
100
AcDbEntity
  8
OUTLINE
  6
CONTINUOUS
100
AcDbLine
 10
10.49999999999806
 20
428.0
 30
0.0
 11
-35.50000000000193
 21
428.0
 31
0.0
  0
LINE
  5
82E8B
330
1E
100
AcDbEntity
  8
OUTLINE
  6
CONTINUOUS
100
AcDbLine
 10
10.49999999999806
 20
374.0
 30
0.0
 11
-35.50000000000193
 21
374.0
 31
0.0
  0
LINE
  5
82E8C
330
1E
100
AcDbEntity
  8
OUTLINE
  6
CONTINUOUS
100
AcDbLine
 10
10.49999999999806
 20
378.0
 30
0.0
 11
-35.50000000000193
 21
378.0
 31
0.0
  0
LINE
  5
82E8D
330
1E
100
AcDbEntity
  8
OUTLINE
  6
CONTINUOUS
100
AcDbLine
 10
10.49999999999806
 20
324.0
 30
0.0
 11
-35.50000000000193
 21
324.0
 31
0.0
  0
LINE
  5
82E8E
330
1E
100
AcDbEntity
  8
OUTLINE
  6
CONTINUOUS
100
AcDbLine
 10
10.49999999999806
 20
328.0
 30
0.0
 11
-35.50000000000193
 21
328.0
 31
0.0
  0
LINE
  5
82E8F
330
1E
100
AcDbEntity
  8
OUTLINE
  6
CONTINUOUS
100
AcDbLine
 10
10.49999999999806
 20
278.0
 30
0.0
 11
-35.50000000000193
 21
278.0
 31
0.0
  0
LINE
  5
82E90
330
1E
100
AcDbEntity
  8
OUTLINE
  6
CONTINUOUS
100
AcDbLine
 10
-39.50000000000193
 20
424.0
 30
0.0
 11
-85.50000000000194
 21
424.0
 31
0.0
  0
LINE
  5
82E91
330
1E
100
AcDbEntity
  8
OUTLINE
  6
CONTINUOUS
100
AcDbLine
 10
-39.50000000000193
 20
428.0
 30
0.0
 11
-85.50000000000194
 21
428.0
 31
0.0
  0
LINE
  5
82E92
330
1E
100
AcDbEntity
  8
OUTLINE
  6
CONTINUOUS
100
AcDbLine
 10
-39.50000000000193
 20
374.0
 30
0.0
 11
-85.50000000000194
 21
374.0
 31
0.0
  0
LINE
  5
82E93
330
1E
100
AcDbEntity
  8
OUTLINE
  6
CONTINUOUS
100
AcDbLine
 10
-39.50000000000193
 20
378.0
 30
0.0
 11
-85.50000000000194
 21
378.0
 31
0.0
  0
LINE
  5
82E94
330
1E
100
AcDbEntity
  8
OUTLINE
  6
CONTINUOUS
100
AcDbLine
 10
-39.50000000000193
 20
324.0
 30
0.0
 11
-85.50000000000194
 21
324.0
 31
0.0
  0
LINE
  5
82E95
330
1E
100
AcDbEntity
  8
OUTLINE
  6
CONTINUOUS
100
AcDbLine
 10
-39.50000000000193
 20
328.0
 30
0.0
 11
-85.50000000000194
 21
328.0
 31
0.0
  0
LINE
  5
82E96
330
1E
100
AcDbEntity
  8
OUTLINE
  6
CONTINUOUS
100
AcDbLine
 10
-39.50000000000193
 20
278.0
 30
0.0
 11
-85.50000000000194
 21
278.0
 31
0.0
  0
LINE
  5
82E97
330
1E
100
AcDbEntity
  8
OUTLINE
  6
CONTINUOUS
100
AcDbLine
 10
137.499999999998
 20
428.0
 30
0.0
 11
141.9999999999998
 21
428.0
 31
0.0
  0
LINE
  5
82E98
330
1E
100
AcDbEntity
  8
OUTLINE
  6
CONTINUOUS
100
AcDbLine
 10
137.499999999998
 20
424.0
 30
0.0
 11
141.9999999999998
 21
424.0
 31
0.0
  0
ARC
  5
82E99
330
1E
100
AcDbEntity
  8
OUTLINE
  6
CONTINUOUS
100
AcDbCircle
 10
141.9999999999998
 20
426.0
 30
0.0
 40
2.0
100
AcDbArc
 50
270.0
 51
90.0
  0
LINE
  5
82E9A
330
1E
100
AcDbEntity
  8
OUTLINE
  6
CONTINUOUS
100
AcDbLine
 10
137.499999999998
 20
378.0
 30
0.0
 11
141.9999999999998
 21
378.0
 31
0.0
  0
LINE
  5
82E9B
330
1E
100
AcDbEntity
  8
OUTLINE
  6
CONTINUOUS
100
AcDbLine
 10
137.499999999998
 20
374.0
 30
0.0
 11
141.9999999999998
 21
374.0
 31
0.0
  0
ARC
  5
82E9C
330
1E
100
AcDbEntity
  8
OUTLINE
  6
CONTINUOUS
100
AcDbCircle
 10
141.9999999999998
 20
376.0
 30
0.0
 40
2.0
100
AcDbArc
 50
270.0
 51
90.0
  0
LINE
  5
82E9D
330
1E
100
AcDbEntity
  8
OUTLINE
  6
CONTINUOUS
100
AcDbLine
 10
143.9999999999998
 20
376.0
 30
0.0
 11
143.9999999999998
 21
426.0
 31
0.0
  0
LINE
  5
82E9E
330
1E
100
AcDbEntity
  8
OUTLINE
  6
CONTINUOUS
100
AcDbLine
 10
137.499999999998
 20
328.0
 30
0.0
 11
141.9999999999998
 21
328.0
 31
0.0
  0
LINE
  5
82E9F
330
1E
100
AcDbEntity
  8
OUTLINE
  6
CONTINUOUS
100
AcDbLine
 10
137.499999999998
 20
324.0
 30
0.0
 11
141.9999999999998
 21
324.0
 31
0.0
  0
ARC
  5
82EA0
330
1E
100
AcDbEntity
  8
OUTLINE
  6
CONTINUOUS
100
AcDbCircle
 10
141.9999999999998
 20
326.0
 30
0.0
 40
2.0
100
AcDbArc
 50
270.0
 51
90.0
  0
LINE
  5
82EA1
330
1E
100
AcDbEntity
  8
OUTLINE
  6
CONTINUOUS
100
AcDbLine
 10
137.499999999998
 20
278.0
 30
0.0
 11
141.9999999999998
 21
278.0
 31
0.0
  0
LINE
  5
82EA2
330
1E
100
AcDbEntity
  8
OUTLINE
  6
CONTINUOUS
100
AcDbLine
 10
143.9999999999998
 20
276.0
 30
0.0
 11
143.9999999999998
 21
326.0
 31
0.0
  0
LINE
  5
82EA3
330
1E
100
AcDbEntity
  8
OUTLINE
  6
CONTINUOUS
100
AcDbLine
 10
143.9999999999998
 20
326.0
 30
0.0
 11
143.9999999999998
 21
376.0
 31
0.0
  0
LINE
  5
82EA4
330
1E
100
AcDbEntity
  8
OUTLINE
  6
CONTINUOUS
100
AcDbLine
 10
110.499999999998
 20
428.0
 30
0.0
 11
64.49999999999807
 21
428.0
 31
0.0
  0
LINE
  5
82EA5
330
1E
100
AcDbEntity
  8
OUTLINE
  6
CONTINUOUS
100
AcDbLine
 10
110.499999999998
 20
424.0
 30
0.0
 11
64.49999999999807
 21
424.0
 31
0.0
  0
LINE
  5
82EA6
330
1E
100
AcDbEntity
  8
OUTLINE
  6
CONTINUOUS
100
AcDbLine
 10
110.499999999998
 20
378.0
 30
0.0
 11
64.49999999999807
 21
378.0
 31
0.0
  0
LINE
  5
82EA7
330
1E
100
AcDbEntity
  8
OUTLINE
  6
CONTINUOUS
100
AcDbLine
 10
110.499999999998
 20
374.0
 30
0.0
 11
64.49999999999807
 21
374.0
 31
0.0
  0
LINE
  5
82EA8
330
1E
100
AcDbEntity
  8
OUTLINE
  6
CONTINUOUS
100
AcDbLine
 10
60.49999999999807
 20
428.0
 30
0.0
 11
14.49999999999806
 21
428.0
 31
0.0
  0
LINE
  5
82EA9
330
1E
100
AcDbEntity
  8
OUTLINE
  6
CONTINUOUS
100
AcDbLine
 10
60.49999999999807
 20
424.0
 30
0.0
 11
14.49999999999806
 21
424.0
 31
0.0
  0
LINE
  5
82EAA
330
1E
100
AcDbEntity
  8
OUTLINE
  6
CONTINUOUS
100
AcDbLine
 10
60.49999999999807
 20
378.0
 30
0.0
 11
14.49999999999806
 21
378.0
 31
0.0
  0
LINE
  5
82EAB
330
1E
100
AcDbEntity
  8
OUTLINE
  6
CONTINUOUS
100
AcDbLine
 10
60.49999999999807
 20
374.0
 30
0.0
 11
14.49999999999806
 21
374.0
 31
0.0
  0
LINE
  5
82EAC
330
1E
100
AcDbEntity
  8
OUTLINE
  6
CONTINUOUS
100
AcDbLine
 10
110.499999999998
 20
324.0
 30
0.0
 11
64.49999999999807
 21
324.0
 31
0.0
  0
LINE
  5
82EAD
330
1E
100
AcDbEntity
  8
OUTLINE
  6
CONTINUOUS
100
AcDbLine
 10
110.499999999998
 20
328.0
 30
0.0
 11
64.49999999999807
 21
328.0
 31
0.0
  0
LINE
  5
82EAE
330
1E
100
AcDbEntity
  8
OUTLINE
  6
CONTINUOUS
100
AcDbLine
 10
110.499999999998
 20
278.0
 30
0.0
 11
64.49999999999807
 21
278.0
 31
0.0
  0
LINE
  5
82EAF
330
1E
100
AcDbEntity
  8
OUTLINE
  6
CONTINUOUS
100
AcDbLine
 10
60.49999999999807
 20
324.0
 30
0.0
 11
14.49999999999806
 21
324.0
 31
0.0
  0
LINE
  5
82EB0
330
1E
100
AcDbEntity
  8
OUTLINE
  6
CONTINUOUS
100
AcDbLine
 10
60.49999999999807
 20
328.0
 30
0.0
 11
14.49999999999806
 21
328.0
 31
0.0
  0
LINE
  5
82EB1
330
1E
100
AcDbEntity
  8
OUTLINE
  6
CONTINUOUS
100
AcDbLine
 10
60.49999999999807
 20
278.0
 30
0.0
 11
14.49999999999806
 21
278.0
 31
0.0
  0
LINE
  5
82EB2
330
1E
100
AcDbEntity
  8
OUTLINE
  6
CONTINUOUS
100
AcDbLine
 10
137.499999999998
 20
324.0
 30
0.0
 11
114.499999999998
 21
324.0
 31
0.0
  0
LINE
  5
82EB3
330
1E
100
AcDbEntity
  8
OUTLINE
  6
CONTINUOUS
100
AcDbLine
 10
137.499999999998
 20
328.0
 30
0.0
 11
114.499999999998
 21
328.0
 31
0.0
  0
LINE
  5
82EB4
330
1E
100
AcDbEntity
  8
OUTLINE
  6
CONTINUOUS
100
AcDbLine
 10
137.499999999998
 20
278.0
 30
0.0
 11
114.499999999998
 21
278.0
 31
0.0
  0
LINE
  5
82EB5
330
1E
100
AcDbEntity
  8
OUTLINE
  6
CONTINUOUS
100
AcDbLine
 10
137.499999999998
 20
424.0
 30
0.0
 11
114.499999999998
 21
424.0
 31
0.0
  0
LINE
  5
82EB6
330
1E
100
AcDbEntity
  8
OUTLINE
  6
CONTINUOUS
100
AcDbLine
 10
137.499999999998
 20
428.0
 30
0.0
 11
114.499999999998
 21
428.0
 31
0.0
  0
LINE
  5
82EB7
330
1E
100
AcDbEntity
  8
OUTLINE
  6
CONTINUOUS
100
AcDbLine
 10
137.499999999998
 20
374.0
 30
0.0
 11
114.499999999998
 21
374.0
 31
0.0
  0
LINE
  5
82EB8
330
1E
100
AcDbEntity
  8
OUTLINE
  6
CONTINUOUS
100
AcDbLine
 10
137.499999999998
 20
378.0
 30
0.0
 11
114.499999999998
 21
378.0
 31
0.0
  0
LINE
  5
82EB9
330
1E
100
AcDbEntity
  8
OUTLINE
  6
CONTINUOUS
100
AcDbLine
 10
10.49999999999806
 20
545.5
 30
0.0
 11
-35.50000000000193
 21
545.5
 31
0.0
  0
LINE
  5
82EBA
330
1E
100
AcDbEntity
  8
OUTLINE
  6
CONTINUOUS
100
AcDbLine
 10
10.49999999999806
 20
549.5
 30
0.0
 11
-35.50000000000193
 21
549.5
 31
0.0
  0
LINE
  5
82EBB
330
1E
100
AcDbEntity
  8
OUTLINE
  6
CONTINUOUS
100
AcDbLine
 10
-35.50000000000193
 20
569.0
 30
0.0
 11
10.49999999999806
 21
569.0
 31
0.0
  0
LINE
  5
82EBC
330
1E
100
AcDbEntity
  8
OUTLINE
  6
CONTINUOUS
100
AcDbLine
 10
-35.50000000000193
 20
565.0
 30
0.0
 11
10.49999999999806
 21
565.0
 31
0.0
  0
LINE
  5
82EBD
330
1E
100
AcDbEntity
  8
OUTLINE
  6
CONTINUOUS
100
AcDbLine
 10
10.49999999999806
 20
474.0
 30
0.0
 11
-35.50000000000193
 21
474.0
 31
0.0
  0
LINE
  5
82EBE
330
1E
100
AcDbEntity
  8
OUTLINE
  6
CONTINUOUS
100
AcDbLine
 10
10.49999999999806
 20
478.0
 30
0.0
 11
-35.50000000000193
 21
478.0
 31
0.0
  0
LINE
  5
82EBF
330
1E
100
AcDbEntity
  8
OUTLINE
  6
CONTINUOUS
100
AcDbLine
 10
10.49999999999806
 20
528.0
 30
0.0
 11
-35.50000000000193
 21
528.0
 31
0.0
  0
LINE
  5
82EC0
330
1E
100
AcDbEntity
  8
OUTLINE
  6
CONTINUOUS
100
AcDbLine
 10
10.49999999999806
 20
524.0
 30
0.0
 11
-35.50000000000193
 21
524.0
 31
0.0
  0
LINE
  5
82EC1
330
1E
100
AcDbEntity
  8
OUTLINE
  6
CONTINUOUS
100
AcDbLine
 10
-39.50000000000193
 20
545.5
 30
0.0
 11
-85.50000000000194
 21
545.5
 31
0.0
  0
LINE
  5
82EC2
330
1E
100
AcDbEntity
  8
OUTLINE
  6
CONTINUOUS
100
AcDbLine
 10
-39.50000000000193
 20
549.5
 30
0.0
 11
-85.50000000000194
 21
549.5
 31
0.0
  0
LINE
  5
82EC3
330
1E
100
AcDbEntity
  8
OUTLINE
  6
CONTINUOUS
100
AcDbLine
 10
-85.50000000000194
 20
569.0
 30
0.0
 11
-39.50000000000193
 21
569.0
 31
0.0
  0
LINE
  5
82EC4
330
1E
100
AcDbEntity
  8
OUTLINE
  6
CONTINUOUS
100
AcDbLine
 10
-85.50000000000194
 20
565.0
 30
0.0
 11
-39.50000000000193
 21
565.0
 31
0.0
  0
LINE
  5
82EC5
330
1E
100
AcDbEntity
  8
OUTLINE
  6
CONTINUOUS
100
AcDbLine
 10
-39.50000000000193
 20
524.0
 30
0.0
 11
-85.50000000000194
 21
524.0
 31
0.0
  0
LINE
  5
82EC6
330
1E
100
AcDbEntity
  8
OUTLINE
  6
CONTINUOUS
100
AcDbLine
 10
-39.50000000000193
 20
528.0
 30
0.0
 11
-85.50000000000194
 21
528.0
 31
0.0
  0
LINE
  5
82EC7
330
1E
100
AcDbEntity
  8
OUTLINE
  6
CONTINUOUS
100
AcDbLine
 10
-39.50000000000193
 20
474.0
 30
0.0
 11
-85.50000000000194
 21
474.0
 31
0.0
  0
LINE
  5
82EC8
330
1E
100
AcDbEntity
  8
OUTLINE
  6
CONTINUOUS
100
AcDbLine
 10
-39.50000000000193
 20
478.0
 30
0.0
 11
-85.50000000000194
 21
478.0
 31
0.0
  0
LINE
  5
82EC9
330
1E
100
AcDbEntity
  8
OUTLINE
  6
CONTINUOUS
100
AcDbLine
 10
-85.50000000000194
 20
567.4999999999999
 30
0.0
 11
-85.50000000000194
 21
571.4999999999999
 31
0.0
  0
LINE
  5
82ECA
330
1E
100
AcDbEntity
  8
OUTLINE
  6
CONTINUOUS
100
AcDbLine
 10
-39.50000000000193
 20
567.4999999999999
 30
0.0
 11
-39.50000000000193
 21
571.4999999999999
 31
0.0
  0
LINE
  5
82ECB
330
1E
100
AcDbEntity
  8
OUTLINE
  6
CONTINUOUS
100
AcDbLine
 10
-35.50000000000193
 20
567.4999999999999
 30
0.0
 11
-35.50000000000193
 21
571.4999999999999
 31
0.0
  0
ARC
  5
82ECC
330
1E
100
AcDbEntity
  8
OUTLINE
  6
CONTINUOUS
100
AcDbCircle
 10
-37.50000000000193
 20
571.4999999999999
 30
0.0
 40
2.0
100
AcDbArc
 50
0.0
 51
180.0
  0
LINE
  5
82ECD
330
1E
100
AcDbEntity
  8
OUTLINE
  6
CONTINUOUS
100
AcDbLine
 10
137.499999999998
 20
549.5
 30
0.0
 11
141.9999999999998
 21
549.5
 31
0.0
  0
LINE
  5
82ECE
330
1E
100
AcDbEntity
  8
OUTLINE
  6
CONTINUOUS
100
AcDbLine
 10
137.499999999998
 20
545.5
 30
0.0
 11
141.9999999999998
 21
545.5
 31
0.0
  0
ARC
  5
82ECF
330
1E
100
AcDbEntity
  8
OUTLINE
  6
CONTINUOUS
100
AcDbCircle
 10
141.9999999999998
 20
547.5
 30
0.0
 40
2.0
100
AcDbArc
 50
270.0
 51
90.0
  0
LINE
  5
82ED0
330
1E
100
AcDbEntity
  8
OUTLINE
  6
CONTINUOUS
100
AcDbLine
 10
143.9999999999998
 20
547.5
 30
0.0
 11
143.9999999999998
 21
554.4999999999963
 31
0.0
  0
LINE
  5
82ED1
330
1E
100
AcDbEntity
  8
OUTLINE
  6
CONTINUOUS
100
AcDbLine
 10
143.9999999999998
 20
554.4999999999963
 30
0.0
 11
147.9999999999998
 21
554.4999999999963
 31
0.0
  0
LINE
  5
82ED2
330
1E
100
AcDbEntity
  8
OUTLINE
  6
CONTINUOUS
100
AcDbLine
 10
137.499999999998
 20
528.0
 30
0.0
 11
141.9999999999998
 21
528.0
 31
0.0
  0
LINE
  5
82ED3
330
1E
100
AcDbEntity
  8
OUTLINE
  6
CONTINUOUS
100
AcDbLine
 10
137.499999999998
 20
524.0
 30
0.0
 11
141.9999999999998
 21
524.0
 31
0.0
  0
ARC
  5
82ED4
330
1E
100
AcDbEntity
  8
OUTLINE
  6
CONTINUOUS
100
AcDbCircle
 10
141.9999999999998
 20
526.0
 30
0.0
 40
2.0
100
AcDbArc
 50
270.0
 51
90.0
  0
LINE
  5
82ED5
330
1E
100
AcDbEntity
  8
OUTLINE
  6
CONTINUOUS
100
AcDbLine
 10
137.499999999998
 20
478.0
 30
0.0
 11
141.9999999999998
 21
478.0
 31
0.0
  0
LINE
  5
82ED6
330
1E
100
AcDbEntity
  8
OUTLINE
  6
CONTINUOUS
100
AcDbLine
 10
137.499999999998
 20
474.0
 30
0.0
 11
141.9999999999998
 21
474.0
 31
0.0
  0
ARC
  5
82ED7
330
1E
100
AcDbEntity
  8
OUTLINE
  6
CONTINUOUS
100
AcDbCircle
 10
141.9999999999998
 20
476.0
 30
0.0
 40
2.0
100
AcDbArc
 50
270.0
 51
90.0
  0
LINE
  5
82ED8
330
1E
100
AcDbEntity
  8
OUTLINE
  6
CONTINUOUS
100
AcDbLine
 10
143.9999999999998
 20
476.0
 30
0.0
 11
143.9999999999998
 21
526.0
 31
0.0
  0
LINE
  5
82ED9
330
1E
100
AcDbEntity
  8
OUTLINE
  6
CONTINUOUS
100
AcDbLine
 10
143.9999999999998
 20
526.0
 30
0.0
 11
143.9999999999998
 21
547.5
 31
0.0
  0
LINE
  5
82EDA
330
1E
100
AcDbEntity
  8
OUTLINE
  6
CONTINUOUS
100
AcDbLine
 10
119.499999999998
 20
569.0
 30
0.0
 11
119.499999999998
 21
565.0
 31
0.0
  0
LINE
  5
82EDB
330
1E
100
AcDbEntity
  8
OUTLINE
  6
CONTINUOUS
100
AcDbLine
 10
110.499999999998
 20
567.4999999999999
 30
0.0
 11
110.499999999998
 21
571.4999999999999
 31
0.0
  0
LINE
  5
82EDC
330
1E
100
AcDbEntity
  8
OUTLINE
  6
CONTINUOUS
100
AcDbLine
 10
114.499999999998
 20
567.4999999999999
 30
0.0
 11
114.499999999998
 21
571.4999999999999
 31
0.0
  0
ARC
  5
82EDD
330
1E
100
AcDbEntity
  8
OUTLINE
  6
CONTINUOUS
100
AcDbCircle
 10
112.499999999998
 20
571.4999999999999
 30
0.0
 40
2.0
100
AcDbArc
 50
0.0
 51
180.0
  0
LINE
  5
82EDE
330
1E
100
AcDbEntity
  8
OUTLINE
  6
CONTINUOUS
100
AcDbLine
 10
114.499999999998
 20
569.0
 30
0.0
 11
119.499999999998
 21
569.0
 31
0.0
  0
LINE
  5
82EDF
330
1E
100
AcDbEntity
  8
OUTLINE
  6
CONTINUOUS
100
AcDbLine
 10
114.499999999998
 20
565.0
 30
0.0
 11
119.499999999998
 21
565.0
 31
0.0
  0
LINE
  5
82EE0
330
1E
100
AcDbEntity
  8
OUTLINE
  6
CONTINUOUS
100
AcDbLine
 10
64.49999999999807
 20
567.4999999999999
 30
0.0
 11
64.49999999999807
 21
571.4999999999999
 31
0.0
  0
LINE
  5
82EE1
330
1E
100
AcDbEntity
  8
OUTLINE
  6
CONTINUOUS
100
AcDbLine
 10
60.49999999999807
 20
567.4999999999999
 30
0.0
 11
60.49999999999807
 21
571.4999999999999
 31
0.0
  0
LINE
  5
82EE2
330
1E
100
AcDbEntity
  8
OUTLINE
  6
CONTINUOUS
100
AcDbLine
 10
58.49999999999806
 20
573.5
 30
0.0
 11
62.49999999999807
 21
573.5
 31
0.0
  0
LINE
  5
82EE3
330
1E
100
AcDbEntity
  8
OUTLINE
  6
DASHED
100
AcDbLine
 10
58.49999999999806
 20
569.0
 30
0.0
 11
60.49999999999807
 21
569.0
 31
0.0
  0
ARC
  5
82EE4
330
1E
100
AcDbEntity
  8
OUTLINE
  6
CONTINUOUS
100
AcDbCircle
 10
62.49999999999807
 20
571.4999999999999
 30
0.0
 40
2.0
100
AcDbArc
 50
90.0
 51
180.0
  0
ARC
  5
82EE5
330
1E
100
AcDbEntity
  8
OUTLINE
  6
CONTINUOUS
100
AcDbCircle
 10
62.49999999999807
 20
571.4999999999999
 30
0.0
 40
2.0
100
AcDbArc
 50
0.0
 51
90.0
  0
LINE
  5
82EE6
330
1E
100
AcDbEntity
  8
OUTLINE
  6
CONTINUOUS
100
AcDbLine
 10
58.49999999999806
 20
569.0
 30
0.0
 11
60.49999999999807
 21
569.0
 31
0.0
  0
ARC
  5
82EE7
330
1E
100
AcDbEntity
  8
OUTLINE
  6
CONTINUOUS
100
AcDbCircle
 10
47.49999999999807
 20
567.4999999999999
 30
0.0
 40
6.000000000000113
100
AcDbArc
 50
90.0
 51
165.5224878140705
  0
LINE
  5
82EE8
330
1E
100
AcDbEntity
  8
OUTLINE
  6
CONTINUOUS
100
AcDbLine
 10
47.49999999999807
 20
573.5
 30
0.0
 11
58.49999999999806
 21
573.5
 31
0.0
  0
LINE
  5
82EE9
330
1E
100
AcDbEntity
  8
OUTLINE
  6
DASHED
100
AcDbLine
 10
47.49999999999807
 20
569.0
 30
0.0
 11
58.49999999999806
 21
569.0
 31
0.0
  0
LINE
  5
82EEA
330
1E
100
AcDbEntity
  8
OUTLINE
  6
CONTINUOUS
100
AcDbLine
 10
47.49999999999897
 20
569.5
 30
0.0
 11
60.49999999999807
 21
569.5
 31
0.0
  0
ARC
  5
82EEB
330
1E
100
AcDbEntity
  8
OUTLINE
  6
CONTINUOUS
100
AcDbCircle
 10
38.99999999999806
 20
556.0
 30
0.0
 40
6.5
100
AcDbArc
 50
270.0
 51
0.0
  0
ARC
  5
82EEC
330
1E
100
AcDbEntity
  8
OUTLINE
  6
CONTINUOUS
100
AcDbCircle
 10
38.99999999999806
 20
556.0
 30
0.0
 40
2.5
100
AcDbArc
 50
180.0
 51
0.0
  0
LINE
  5
82EED
330
1E
100
AcDbEntity
  8
OUTLINE
  6
CONTINUOUS
100
AcDbLine
 10
41.49999999999806
 20
556.0
 30
0.0
 11
41.49999999999898
 21
565.0
 31
0.0
  0
LINE
  5
82EEE
330
1E
100
AcDbEntity
  8
OUTLINE
  6
CONTINUOUS
100
AcDbLine
 10
45.49999999999807
 20
556.0
 30
0.0
 11
45.49999999999897
 21
565.0
 31
0.0
  0
LINE
  5
82EEF
330
1E
100
AcDbEntity
  8
OUTLINE
  6
CONTINUOUS
100
AcDbLine
 10
36.49999999999806
 20
564.0
 30
0.0
 11
36.49999999999806
 21
556.0
 31
0.0
  0
LINE
  5
82EF0
330
1E
100
AcDbEntity
  8
OUTLINE
  6
CONTINUOUS
100
AcDbLine
 10
110.499999999998
 20
545.5
 30
0.0
 11
64.49999999999807
 21
545.5
 31
0.0
  0
LINE
  5
82EF1
330
1E
100
AcDbEntity
  8
OUTLINE
  6
CONTINUOUS
100
AcDbLine
 10
110.499999999998
 20
549.5
 30
0.0
 11
64.49999999999807
 21
549.5
 31
0.0
  0
LINE
  5
82EF2
330
1E
100
AcDbEntity
  8
OUTLINE
  6
CONTINUOUS
100
AcDbLine
 10
64.49999999999807
 20
569.0
 30
0.0
 11
110.499999999998
 21
569.0
 31
0.0
  0
LINE
  5
82EF3
330
1E
100
AcDbEntity
  8
OUTLINE
  6
CONTINUOUS
100
AcDbLine
 10
64.49999999999807
 20
565.0
 30
0.0
 11
110.499999999998
 21
565.0
 31
0.0
  0
LINE
  5
82EF4
330
1E
100
AcDbEntity
  8
OUTLINE
  6
CONTINUOUS
100
AcDbLine
 10
110.499999999998
 20
474.0
 30
0.0
 11
64.49999999999807
 21
474.0
 31
0.0
  0
LINE
  5
82EF5
330
1E
100
AcDbEntity
  8
OUTLINE
  6
CONTINUOUS
100
AcDbLine
 10
110.499999999998
 20
478.0
 30
0.0
 11
64.49999999999807
 21
478.0
 31
0.0
  0
LINE
  5
82EF6
330
1E
100
AcDbEntity
  8
OUTLINE
  6
CONTINUOUS
100
AcDbLine
 10
110.499999999998
 20
528.0
 30
0.0
 11
64.49999999999807
 21
528.0
 31
0.0
  0
LINE
  5
82EF7
330
1E
100
AcDbEntity
  8
OUTLINE
  6
CONTINUOUS
100
AcDbLine
 10
110.499999999998
 20
524.0
 30
0.0
 11
64.49999999999807
 21
524.0
 31
0.0
  0
LINE
  5
82EF8
330
1E
100
AcDbEntity
  8
OUTLINE
  6
CONTINUOUS
100
AcDbLine
 10
10.49999999999806
 20
567.4999999999999
 30
0.0
 11
10.49999999999806
 21
571.4999999999999
 31
0.0
  0
LINE
  5
82EF9
330
1E
100
AcDbEntity
  8
OUTLINE
  6
CONTINUOUS
100
AcDbLine
 10
14.49999999999806
 20
567.4999999999999
 30
0.0
 11
14.49999999999806
 21
571.4999999999999
 31
0.0
  0
ARC
  5
82EFA
330
1E
100
AcDbEntity
  8
OUTLINE
  6
CONTINUOUS
100
AcDbCircle
 10
12.49999999999806
 20
571.4999999999999
 30
0.0
 40
2.0
100
AcDbArc
 50
0.0
 51
180.0
  0
LINE
  5
82EFB
330
1E
100
AcDbEntity
  8
OUTLINE
  6
CONTINUOUS
100
AcDbLine
 10
32.49999999999806
 20
564.0
 30
0.0
 11
32.49999999999806
 21
556.0
 31
0.0
  0
LINE
  5
82EFC
330
1E
100
AcDbEntity
  8
OUTLINE
  6
CONTINUOUS
100
AcDbLine
 10
60.49999999999807
 20
549.5
 30
0.0
 11
14.49999999999806
 21
549.5
 31
0.0
  0
LINE
  5
82EFD
330
1E
100
AcDbEntity
  8
OUTLINE
  6
CONTINUOUS
100
AcDbLine
 10
60.49999999999807
 20
545.5
 30
0.0
 11
14.49999999999806
 21
545.5
 31
0.0
  0
LINE
  5
82EFE
330
1E
100
AcDbEntity
  8
OUTLINE
  6
CONTINUOUS
100
AcDbLine
 10
60.49999999999807
 20
478.0
 30
0.0
 11
14.49999999999806
 21
478.0
 31
0.0
  0
LINE
  5
82EFF
330
1E
100
AcDbEntity
  8
OUTLINE
  6
CONTINUOUS
100
AcDbLine
 10
60.49999999999807
 20
474.0
 30
0.0
 11
14.49999999999806
 21
474.0
 31
0.0
  0
LINE
  5
82F00
330
1E
100
AcDbEntity
  8
OUTLINE
  6
CONTINUOUS
100
AcDbLine
 10
60.49999999999807
 20
524.0
 30
0.0
 11
14.49999999999806
 21
524.0
 31
0.0
  0
LINE
  5
82F01
330
1E
100
AcDbEntity
  8
OUTLINE
  6
CONTINUOUS
100
AcDbLine
 10
60.49999999999807
 20
528.0
 30
0.0
 11
14.49999999999806
 21
528.0
 31
0.0
  0
LINE
  5
82F02
330
1E
100
AcDbEntity
  8
OUTLINE
  6
CONTINUOUS
100
AcDbLine
 10
36.49999999999806
 20
564.0
 30
0.0
 11
32.49999999999806
 21
564.0
 31
0.0
  0
ARC
  5
82F03
330
1E
100
AcDbEntity
  8
OUTLINE
  6
CONTINUOUS
100
AcDbCircle
 10
38.99999999999806
 20
556.0
 30
0.0
 40
6.499999999999985
100
AcDbArc
 50
180.0
 51
270.0
  0
LINE
  5
82F04
330
1E
100
AcDbEntity
  8
OUTLINE
  6
CONTINUOUS
100
AcDbLine
 10
14.49999999999806
 20
569.0
 30
0.0
 11
47.49999999999807
 21
569.0
 31
0.0
  0
LINE
  5
82F05
330
1E
100
AcDbEntity
  8
OUTLINE
  6
CONTINUOUS
100
AcDbLine
 10
14.49999999999806
 20
565.0
 30
0.0
 11
60.49999999999807
 21
565.0
 31
0.0
  0
LINE
  5
82F06
330
1E
100
AcDbEntity
  8
OUTLINE
  6
DOT_CENTER
100
AcDbLine
 10
31.85000000000025
 20
556.0
 30
0.0
 11
31.60789971366637
 21
556.0
 31
0.0
  0
LINE
  5
82F07
330
1E
100
AcDbEntity
  8
OUTLINE
  6
CONTINUOUS
100
AcDbLine
 10
137.499999999998
 20
545.5
 30
0.0
 11
114.499999999998
 21
545.5
 31
0.0
  0
LINE
  5
82F08
330
1E
100
AcDbEntity
  8
OUTLINE
  6
CONTINUOUS
100
AcDbLine
 10
137.499999999998
 20
549.5
 30
0.0
 11
114.499999999998
 21
549.5
 31
0.0
  0
LINE
  5
82F09
330
1E
100
AcDbEntity
  8
OUTLINE
  6
CONTINUOUS
100
AcDbLine
 10
137.499999999998
 20
524.0
 30
0.0
 11
114.499999999998
 21
524.0
 31
0.0
  0
LINE
  5
82F0A
330
1E
100
AcDbEntity
  8
OUTLINE
  6
CONTINUOUS
100
AcDbLine
 10
137.499999999998
 20
528.0
 30
0.0
 11
114.499999999998
 21
528.0
 31
0.0
  0
LINE
  5
82F0B
330
1E
100
AcDbEntity
  8
OUTLINE
  6
CONTINUOUS
100
AcDbLine
 10
137.499999999998
 20
474.0
 30
0.0
 11
114.499999999998
 21
474.0
 31
0.0
  0
LINE
  5
82F0C
330
1E
100
AcDbEntity
  8
OUTLINE
  6
CONTINUOUS
100
AcDbLine
 10
137.499999999998
 20
478.0
 30
0.0
 11
114.499999999998
 21
478.0
 31
0.0
  0
ARC
  5
82F0D
330
1E
100
AcDbEntity
  8
OUTLINE
  6
CONTINUOUS
100
AcDbCircle
 10
47.49999999999897
 20
567.4999999999999
 30
0.0
 40
2.0
100
AcDbArc
 50
90.0
 51
131.4096221092794
  0
LINE
  5
82F0E
330
1E
100
AcDbEntity
  8
OUTLINE
  6
CONTINUOUS
100
AcDbLine
 10
10.49999999999806
 20
274.0
 30
0.0
 11
-35.50000000000193
 21
274.0
 31
0.0
  0
LINE
  5
82F0F
330
1E
100
AcDbEntity
  8
OUTLINE
  6
CONTINUOUS
100
AcDbLine
 10
10.49999999999806
 20
178.0
 30
0.0
 11
-35.50000000000193
 21
178.0
 31
0.0
  0
LINE
  5
82F10
330
1E
100
AcDbEntity
  8
OUTLINE
  6
CONTINUOUS
100
AcDbLine
 10
10.49999999999806
 20
224.0
 30
0.0
 11
-35.50000000000193
 21
224.0
 31
0.0
  0
LINE
  5
82F11
330
1E
100
AcDbEntity
  8
OUTLINE
  6
CONTINUOUS
100
AcDbLine
 10
10.49999999999806
 20
228.0
 30
0.0
 11
-35.50000000000193
 21
228.0
 31
0.0
  0
LINE
  5
82F12
330
1E
100
AcDbEntity
  8
OUTLINE
  6
CONTINUOUS
100
AcDbLine
 10
-39.50000000000193
 20
274.0
 30
0.0
 11
-85.50000000000194
 21
274.0
 31
0.0
  0
LINE
  5
82F13
330
1E
100
AcDbEntity
  8
OUTLINE
  6
CONTINUOUS
100
AcDbLine
 10
-39.50000000000193
 20
224.0
 30
0.0
 11
-85.50000000000194
 21
224.0
 31
0.0
  0
LINE
  5
82F14
330
1E
100
AcDbEntity
  8
OUTLINE
  6
CONTINUOUS
100
AcDbLine
 10
-39.50000000000193
 20
228.0
 30
0.0
 11
-85.50000000000194
 21
228.0
 31
0.0
  0
LINE
  5
82F15
330
1E
100
AcDbEntity
  8
OUTLINE
  6
CONTINUOUS
100
AcDbLine
 10
-39.50000000000193
 20
178.0
 30
0.0
 11
-85.50000000000194
 21
178.0
 31
0.0
  0
LINE
  5
82F16
330
1E
100
AcDbEntity
  8
OUTLINE
  6
CONTINUOUS
100
AcDbLine
 10
137.499999999998
 20
274.0
 30
0.0
 11
141.9999999999998
 21
274.0
 31
0.0
  0
LINE
  5
82F17
330
1E
100
AcDbEntity
  8
OUTLINE
  6
CONTINUOUS
100
AcDbLine
 10
137.499999999998
 20
228.0
 30
0.0
 11
141.9999999999998
 21
228.0
 31
0.0
  0
LINE
  5
82F18
330
1E
100
AcDbEntity
  8
OUTLINE
  6
CONTINUOUS
100
AcDbLine
 10
137.499999999998
 20
224.0
 30
0.0
 11
141.9999999999998
 21
224.0
 31
0.0
  0
ARC
  5
82F19
330
1E
100
AcDbEntity
  8
OUTLINE
  6
CONTINUOUS
100
AcDbCircle
 10
141.9999999999998
 20
226.0
 30
0.0
 40
2.000000000000014
100
AcDbArc
 50
270.0
 51
90.0
  0
LINE
  5
82F1A
330
1E
100
AcDbEntity
  8
OUTLINE
  6
CONTINUOUS
100
AcDbLine
 10
137.499999999998
 20
178.0
 30
0.0
 11
141.9999999999998
 21
178.0
 31
0.0
  0
LINE
  5
82F1B
330
1E
100
AcDbEntity
  8
OUTLINE
  6
CONTINUOUS
100
AcDbLine
 10
143.9999999999998
 20
176.0
 30
0.0
 11
143.9999999999998
 21
226.0
 31
0.0
  0
LINE
  5
82F1C
330
1E
100
AcDbEntity
  8
OUTLINE
  6
CONTINUOUS
100
AcDbLine
 10
110.499999999998
 20
274.0
 30
0.0
 11
64.49999999999807
 21
274.0
 31
0.0
  0
LINE
  5
82F1D
330
1E
100
AcDbEntity
  8
OUTLINE
  6
CONTINUOUS
100
AcDbLine
 10
60.49999999999807
 20
274.0
 30
0.0
 11
14.49999999999806
 21
274.0
 31
0.0
  0
LINE
  5
82F1E
330
1E
100
AcDbEntity
  8
OUTLINE
  6
CONTINUOUS
100
AcDbLine
 10
110.499999999998
 20
178.0
 30
0.0
 11
64.49999999999807
 21
178.0
 31
0.0
  0
LINE
  5
82F1F
330
1E
100
AcDbEntity
  8
OUTLINE
  6
CONTINUOUS
100
AcDbLine
 10
110.499999999998
 20
228.0
 30
0.0
 11
64.49999999999807
 21
228.0
 31
0.0
  0
LINE
  5
82F20
330
1E
100
AcDbEntity
  8
OUTLINE
  6
CONTINUOUS
100
AcDbLine
 10
110.499999999998
 20
224.0
 30
0.0
 11
64.49999999999807
 21
224.0
 31
0.0
  0
LINE
  5
82F21
330
1E
100
AcDbEntity
  8
OUTLINE
  6
CONTINUOUS
100
AcDbLine
 10
60.49999999999807
 20
178.0
 30
0.0
 11
14.49999999999806
 21
178.0
 31
0.0
  0
LINE
  5
82F22
330
1E
100
AcDbEntity
  8
OUTLINE
  6
CONTINUOUS
100
AcDbLine
 10
60.49999999999807
 20
228.0
 30
0.0
 11
14.49999999999806
 21
228.0
 31
0.0
  0
LINE
  5
82F23
330
1E
100
AcDbEntity
  8
OUTLINE
  6
CONTINUOUS
100
AcDbLine
 10
60.49999999999807
 20
224.0
 30
0.0
 11
14.49999999999806
 21
224.0
 31
0.0
  0
LINE
  5
82F24
330
1E
100
AcDbEntity
  8
OUTLINE
  6
CONTINUOUS
100
AcDbLine
 10
137.499999999998
 20
274.0
 30
0.0
 11
114.499999999998
 21
274.0
 31
0.0
  0
LINE
  5
82F25
330
1E
100
AcDbEntity
  8
OUTLINE
  6
CONTINUOUS
100
AcDbLine
 10
137.499999999998
 20
224.0
 30
0.0
 11
114.499999999998
 21
224.0
 31
0.0
  0
LINE
  5
82F26
330
1E
100
AcDbEntity
  8
OUTLINE
  6
CONTINUOUS
100
AcDbLine
 10
137.499999999998
 20
228.0
 30
0.0
 11
114.499999999998
 21
228.0
 31
0.0
  0
LINE
  5
82F27
330
1E
100
AcDbEntity
  8
OUTLINE
  6
CONTINUOUS
100
AcDbLine
 10
137.499999999998
 20
178.0
 30
0.0
 11
114.499999999998
 21
178.0
 31
0.0
  0
ARC
  5
82F28
330
1E
100
AcDbEntity
  8
OUTLINE
  6
CONTINUOUS
100
AcDbCircle
 10
141.9999999999998
 20
276.0
 30
0.0
 40
2.0
100
AcDbArc
 50
270.0
 51
90.0
  0
LINE
  5
82F29
330
1E
100
AcDbEntity
  8
OUTLINE
  6
CONTINUOUS
100
AcDbLine
 10
143.9999999999998
 20
226.0
 30
0.0
 11
143.9999999999998
 21
276.0
 31
0.0
  0
ENDSEC
  0
SECTION
  2
OBJECTS
  0
DICTIONARY
  5
C
330
0
100
AcDbDictionary
  3
ACAD_GROUP
350
D
  3
ACAD_LAYOUT
350
19
  3
ACAD_MLINESTYLE
350
16
  3
ACAD_PLOTSETTINGS
350
18
  3
ACAD_PLOTSTYLENAME
350
E
  3
ACDBHEADERROUNDTRIPXREC
350
82F2D
  3
ACDBVARIABLEDICTIONARY
350
79AE3
  0
DICTIONARY
  5
82F50
330
1E
100
AcDbDictionary
280
     1
  3
ACAD_LAYOUTSELFREF
360
82F51
  0
DICTIONARY
  5
82F4E
330
1A
100
AcDbDictionary
280
     1
  3
ACAD_LAYOUTSELFREF
360
82F4F
  0
DICTIONARY
  5
D
102
{ACAD_REACTORS
330
C
102
}
330
C
100
AcDbDictionary
  0
DICTIONARY
  5
19
102
{ACAD_REACTORS
330
C
102
}
330
C
100
AcDbDictionary
  0
DICTIONARY
  5
16
102
{ACAD_REACTORS
330
C
102
}
330
C
100
AcDbDictionary
  3
STANDARD
350
17
  0
DICTIONARY
  5
18
102
{ACAD_REACTORS
330
C
102
}
330
C
100
AcDbDictionary
  0
ACDBDICTIONARYWDFLT
  5
E
102
{ACAD_REACTORS
330
C
102
}
330
C
100
AcDbDictionary
281
     1
  3
Normal
350
F
100
AcDbDictionaryWithDefault
340
F
  0
DICTIONARY
  5
82F2D
102
{ACAD_REACTORS
330
C
102
}
330
C
100
AcDbDictionary
  3
CEPSNTYPE
350
82F37
  3
DIMSTYLEDATA
350
82F3B
  3
FINGERPRINTGUID
350
82F38
  3
HYPERLINKBASE
350
82F30
  3
INSUNITS
350
82F36
  3
LAYOUTDICT
350
82F32
  3
LWETCUNION
350
82F35
  3
PLOTSETDICT
350
82F33
  3
PLOTSTYLNAMDICT
350
82F34
  3
PSVPSCALE
350
82F3A
  3
PUCSBASE
350
82F3E
  3
PUCSORGBACK
350
82F44
  3
PUCSORGBOTTOM
350
82F40
  3
PUCSORGFRONT
350
82F43
  3
PUCSORGLEFT
350
82F41
  3
PUCSORGRIGHT
350
82F42
  3
PUCSORGTOP
350
82F3F
  3
PUCSORTHOREF
350
82F3C
  3
PUCSORTHOVIEW
350
82F3D
  3
STYLESHEET
350
82F31
  3
TSTACKALIGN
350
82F2E
  3
TSTACKSIZE
350
82F2F
  3
UCSBASE
350
82F47
  3
UCSORGBACK
350
82F4D
  3
UCSORGBOTTOM
350
82F49
  3
UCSORGFRONT
350
82F4C
  3
UCSORGLEFT
350
82F4A
  3
UCSORGRIGHT
350
82F4B
  3
UCSORGTOP
350
82F48
  3
UCSORTHOREF
350
82F45
  3
UCSORTHOVIEW
350
82F46
  3
VERSIONGUID
350
82F39
  0
DICTIONARY
  5
79AE3
102
{ACAD_REACTORS
330
C
102
}
330
C
100
AcDbDictionary
  3
SORTENTS
350
79AE4
  0
XRECORD
  5
82F51
102
{ACAD_REACTORS
330
82F50
102
}
330
82F50
100
AcDbXrecord
340
1E
  0
XRECORD
  5
82F4F
102
{ACAD_REACTORS
330
82F4E
102
}
330
82F4E
100
AcDbXrecord
340
1A
  0
MLINESTYLE
  5
17
102
{ACAD_REACTORS
330
16
102
}
330
16
100
AcDbMlineStyle
  2
STANDARD
 70
     0
  3

 62
   256
 51
90.0
 52
90.0
 71
     2
 49
0.5
 62
   256
  6
BYLAYER
 49
-0.5
 62
   256
  6
BYLAYER
  0
ACDBPLACEHOLDER
  5
F
102
{ACAD_REACTORS
330
E
102
}
330
E
100
AcDbPlaceHolder
280
     0
  0
XRECORD
  5
82F37
102
{ACAD_REACTORS
330
82F2D
102
}
330
82F2D
100
AcDbXrecord
 90
        0
  0
XRECORD
  5
82F3B
102
{ACAD_REACTORS
330
82F2D
102
}
330
82F2D
100
AcDbXrecord
1000
DSTYLE
1002
{
1070
   341
340
989D
1070
   342
340
989D
1002
}
  0
XRECORD
  5
82F38
102
{ACAD_REACTORS
330
82F2D
102
}
330
82F2D
100
AcDbXrecord
  1
{B080D177-E69E-4E21-B2C6-E176D61109FE}
  0
XRECORD
  5
82F30
102
{ACAD_REACTORS
330
82F2D
102
}
330
82F2D
100
AcDbXrecord
  1

  0
XRECORD
  5
82F36
102
{ACAD_REACTORS
330
82F2D
102
}
330
82F2D
100
AcDbXrecord
 90
        0
  0
XRECORD
  5
82F32
102
{ACAD_REACTORS
330
82F2D
102
}
330
82F2D
100
AcDbXrecord
340
19
  0
XRECORD
  5
82F35
102
{ACAD_REACTORS
330
82F2D
102
}
330
82F2D
100
AcDbXrecord
 90
    10781
  0
XRECORD
  5
82F33
102
{ACAD_REACTORS
330
82F2D
102
}
330
82F2D
100
AcDbXrecord
340
18
  0
XRECORD
  5
82F34
102
{ACAD_REACTORS
330
82F2D
102
}
330
82F2D
100
AcDbXrecord
340
E
  0
XRECORD
  5
82F3A
102
{ACAD_REACTORS
330
82F2D
102
}
330
82F2D
100
AcDbXrecord
 40
0.0
  0
XRECORD
  5
82F3E
102
{ACAD_REACTORS
330
82F2D
102
}
330
82F2D
100
AcDbXrecord
340
0
  0
XRECORD
  5
82F44
102
{ACAD_REACTORS
330
82F2D
102
}
330
82F2D
100
AcDbXrecord
 10
0.0
 20
0.0
 30
0.0
  0
XRECORD
  5
82F40
102
{ACAD_REACTORS
330
82F2D
102
}
330
82F2D
100
AcDbXrecord
 10
0.0
 20
0.0
 30
0.0
  0
XRECORD
  5
82F43
102
{ACAD_REACTORS
330
82F2D
102
}
330
82F2D
100
AcDbXrecord
 10
0.0
 20
0.0
 30
0.0
  0
XRECORD
  5
82F41
102
{ACAD_REACTORS
330
82F2D
102
}
330
82F2D
100
AcDbXrecord
 10
0.0
 20
0.0
 30
0.0
  0
XRECORD
  5
82F42
102
{ACAD_REACTORS
330
82F2D
102
}
330
82F2D
100
AcDbXrecord
 10
0.0
 20
0.0
 30
0.0
  0
XRECORD
  5
82F3F
102
{ACAD_REACTORS
330
82F2D
102
}
330
82F2D
100
AcDbXrecord
 10
0.0
 20
0.0
 30
0.0
  0
XRECORD
  5
82F3C
102
{ACAD_REACTORS
330
82F2D
102
}
330
82F2D
100
AcDbXrecord
340
0
  0
XRECORD
  5
82F3D
102
{ACAD_REACTORS
330
82F2D
102
}
330
82F2D
100
AcDbXrecord
 70
     0
  0
XRECORD
  5
82F31
102
{ACAD_REACTORS
330
82F2D
102
}
330
82F2D
100
AcDbXrecord
  1

  0
XRECORD
  5
82F2E
102
{ACAD_REACTORS
330
82F2D
102
}
330
82F2D
100
AcDbXrecord
 90
        1
  0
XRECORD
  5
82F2F
102
{ACAD_REACTORS
330
82F2D
102
}
330
82F2D
100
AcDbXrecord
 90
       70
  0
XRECORD
  5
82F47
102
{ACAD_REACTORS
330
82F2D
102
}
330
82F2D
100
AcDbXrecord
340
0
  0
XRECORD
  5
82F4D
102
{ACAD_REACTORS
330
82F2D
102
}
330
82F2D
100
AcDbXrecord
 10
0.0
 20
0.0
 30
0.0
  0
XRECORD
  5
82F49
102
{ACAD_REACTORS
330
82F2D
102
}
330
82F2D
100
AcDbXrecord
 10
0.0
 20
0.0
 30
0.0
  0
XRECORD
  5
82F4C
102
{ACAD_REACTORS
330
82F2D
102
}
330
82F2D
100
AcDbXrecord
 10
0.0
 20
0.0
 30
0.0
  0
XRECORD
  5
82F4A
102
{ACAD_REACTORS
330
82F2D
102
}
330
82F2D
100
AcDbXrecord
 10
0.0
 20
0.0
 30
0.0
  0
XRECORD
  5
82F4B
102
{ACAD_REACTORS
330
82F2D
102
}
330
82F2D
100
AcDbXrecord
 10
0.0
 20
0.0
 30
0.0
  0
XRECORD
  5
82F48
102
{ACAD_REACTORS
330
82F2D
102
}
330
82F2D
100
AcDbXrecord
 10
0.0
 20
0.0
 30
0.0
  0
XRECORD
  5
82F45
102
{ACAD_REACTORS
330
82F2D
102
}
330
82F2D
100
AcDbXrecord
340
0
  0
XRECORD
  5
82F46
102
{ACAD_REACTORS
330
82F2D
102
}
330
82F2D
100
AcDbXrecord
 70
     0
  0
XRECORD
  5
82F39
102
{ACAD_REACTORS
330
82F2D
102
}
330
82F2D
100
AcDbXrecord
  1
{20E4C32B-275C-485E-ABC9-9F7CED100B7B}
  0
DICTIONARYVAR
  5
79AE4
102
{ACAD_REACTORS
330
79AE3
102
}
330
79AE3
100
DictionaryVariables
280
     0
  1
96
  0
ENDSEC
  0
EOF
