  0
SECTION
  2
HEADER
  9
$ACADVER
  1
AC1014
  9
$ACADMAINTVER
 70
     9
  9
$DWGCODEPAGE
  3
ANSI_932
  9
$INSBASE
 10
0.0
 20
0.0
 30
0.0
  9
$EXTMIN
 10
-1925.303367572378
 20
-521.1998435890164
 30
-0.0015258207003583
  9
$EXTMAX
 10
1148.308617206414
 20
1905.539645517827
 30
0.0000000349246037
  9
$LIMMIN
 10
-2187.141599999999
 20
-994.9547
  9
$LIMMAX
 10
1520.5908
 20
2189.1288
  9
$ORTHOMODE
 70
     1
  9
$REGENMODE
 70
     1
  9
$FILLMODE
 70
     1
  9
$QTEXTMODE
 70
     0
  9
$MIRRTEXT
 70
     0
  9
$DRAGMODE
 70
     2
  9
$LTSCALE
 40
20.0
  9
$OSMODE
 70
    39
  9
$ATTMODE
 70
     1
  9
$TEXTSIZE
 40
64.0
  9
$TRACEWID
 40
0.05
  9
$TEXTSTYLE
  7
STANDARD
  9
$CLAYER
  8
SIZE
  9
$CELTYPE
  6
DASHDOT
  9
$CECOLOR
 62
   256
  9
$CELTSCALE
 40
1.0
  9
$DELOBJ
 70
     1
  9
$DISPSILH
 70
     0
  9
$DIMSCALE
 40
1.0
  9
$DIMASZ
 40
10.0
  9
$DIMEXO
 40
20.0
  9
$DIMDLI
 40
20.0
  9
$DIMRND
 40
0.0
  9
$DIMDLE
 40
0.0
  9
$DIMEXE
 40
30.0
  9
$DIMTP
 40
0.0
  9
$DIMTM
 40
0.0
  9
$DIMTXT
 40
64.0
  9
$DIMCEN
 40
0.0
  9
$DIMTSZ
 40
0.0
  9
$DIMTOL
 70
     0
  9
$DIMLIM
 70
     0
  9
$DIMTIH
 70
     0
  9
$DIMTOH
 70
     0
  9
$DIMSE1
 70
     0
  9
$DIMSE2
 70
     0
  9
$DIMTAD
 70
     3
  9
$DIMZIN
 70
     8
  9
$DIMBLK
  1
DOTBLANK
  9
$DIMASO
 70
     1
  9
$DIMSHO
 70
     0
  9
$DIMPOST
  1

  9
$DIMAPOST
  1

  9
$DIMALT
 70
     0
  9
$DIMALTD
 70
     2
  9
$DIMALTF
 40
25.4
  9
$DIMLFAC
 40
1.0
  9
$DIMTOFL
 70
     1
  9
$DIMTVP
 40
0.0
  9
$DIMTIX
 70
     1
  9
$DIMSOXD
 70
     0
  9
$DIMSAH
 70
     0
  9
$DIMBLK1
  1

  9
$DIMBLK2
  1

  9
$DIMSTYLE
  2
STANDARD
  9
$DIMCLRD
 70
     0
  9
$DIMCLRE
 70
     0
  9
$DIMCLRT
 70
     0
  9
$DIMTFAC
 40
1.0
  9
$DIMGAP
 40
10.0
  9
$DIMJUST
 70
     0
  9
$DIMSD1
 70
     0
  9
$DIMSD2
 70
     0
  9
$DIMTOLJ
 70
     1
  9
$DIMTZIN
 70
     0
  9
$DIMALTZ
 70
     0
  9
$DIMALTTZ
 70
     0
  9
$DIMFIT
 70
     3
  9
$DIMUPT
 70
     0
  9
$DIMUNIT
 70
     2
  9
$DIMDEC
 70
     0
  9
$DIMTDEC
 70
     0
  9
$DIMALTU
 70
     2
  9
$DIMALTTD
 70
     2
  9
$DIMTXSTY
  7
STANDARD
  9
$DIMAUNIT
 70
     0
  9
$LUNITS
 70
     2
  9
$LUPREC
 70
     4
  9
$SKETCHINC
 40
0.1
  9
$FILLETRAD
 40
0.0
  9
$AUNITS
 70
     1
  9
$AUPREC
 70
     3
  9
$MENU
  1
ACAD
  9
$ELEVATION
 40
0.0
  9
$PELEVATION
 40
0.0
  9
$THICKNESS
 40
0.0
  9
$LIMCHECK
 70
     0
  9
$BLIPMODE
 70
     0
  9
$CHAMFERA
 40
0.0
  9
$CHAMFERB
 40
0.0
  9
$CHAMFERC
 40
0.0
  9
$CHAMFERD
 40
0.0
  9
$SKPOLY
 70
     0
  9
$TDCREATE
 40
2449761.516515995
  9
$TDUPDATE
 40
2455376.613978715
  9
$TDINDWG
 40
3.0474832870
  9
$TDUSRTIMER
 40
3.0474816551
  9
$USRTIMER
 70
     1
  9
$ANGBASE
 50
0.0
  9
$ANGDIR
 70
     0
  9
$PDMODE
 70
     3
  9
$PDSIZE
 40
-2.0
  9
$PLINEWID
 40
0.0
  9
$COORDS
 70
     2
  9
$SPLFRAME
 70
     0
  9
$SPLINETYPE
 70
     6
  9
$SPLINESEGS
 70
     8
  9
$ATTDIA
 70
     0
  9
$ATTREQ
 70
     1
  9
$HANDLING
 70
-16383
  9
$HANDSEED
  5
64DE8
  9
$SURFTAB1
 70
     6
  9
$SURFTAB2
 70
     6
  9
$SURFTYPE
 70
     6
  9
$SURFU
 70
     6
  9
$SURFV
 70
     6
  9
$UCSNAME
  2

  9
$UCSORG
 10
0.0
 20
0.0
 30
0.0
  9
$UCSXDIR
 10
1.0
 20
0.0
 30
0.0
  9
$UCSYDIR
 10
0.0
 20
1.0
 30
0.0
  9
$PUCSNAME
  2

  9
$PUCSORG
 10
0.0
 20
0.0
 30
0.0
  9
$PUCSXDIR
 10
1.0
 20
0.0
 30
0.0
  9
$PUCSYDIR
 10
0.0
 20
1.0
 30
0.0
  9
$USERI1
 70
     0
  9
$USERI2
 70
     0
  9
$USERI3
 70
     0
  9
$USERI4
 70
     0
  9
$USERI5
 70
     0
  9
$USERR1
 40
20.0
  9
$USERR2
 40
0.0
  9
$USERR3
 40
0.0
  9
$USERR4
 40
0.0
  9
$USERR5
 40
0.0
  9
$WORLDVIEW
 70
     1
  9
$SHADEDGE
 70
     3
  9
$SHADEDIF
 70
    70
  9
$TILEMODE
 70
     1
  9
$MAXACTVP
 70
    64
  9
$PINSBASE
 10
0.0
 20
0.0
 30
0.0
  9
$PLIMCHECK
 70
     0
  9
$PEXTMIN
 10
1.000000000000000E+20
 20
1.000000000000000E+20
 30
1.000000000000000E+20
  9
$PEXTMAX
 10
-1.000000000000000E+20
 20
-1.000000000000000E+20
 30
-1.000000000000000E+20
  9
$PLIMMIN
 10
0.0
 20
0.0
  9
$PLIMMAX
 10
12.0
 20
9.0
  9
$UNITMODE
 70
     0
  9
$VISRETAIN
 70
     1
  9
$PLINEGEN
 70
     0
  9
$PSLTSCALE
 70
     1
  9
$TREEDEPTH
 70
  3020
  9
$PICKSTYLE
 70
     1
  9
$CMLSTYLE
  2
STANDARD
  9
$CMLJUST
 70
     0
  9
$CMLSCALE
 40
1.0
  9
$PROXYGRAPHICS
 70
     1
  9
$MEASUREMENT
 70
     0
  0
ENDSEC
  0
SECTION
  2
CLASSES
  0
CLASS
  1
ACDBDICTIONARYWDFLT
  2
AcDbDictionaryWithDefault
  3
AutoCAD 2000
 90
        0
280
     0
281
     0
  0
CLASS
  1
ACDBPLACEHOLDER
  2
AcDbPlaceHolder
  3
AutoCAD 2000
 90
        0
280
     0
281
     0
  0
CLASS
  1
LAYOUT
  2
AcDbLayout
  3
AutoCAD 2000
 90
        0
280
     0
281
     0
  0
CLASS
  1
DICTIONARYVAR
  2
AcDbDictionaryVar
  3
AutoCAD 2000
 90
        0
280
     0
281
     0
  0
CLASS
  1
LONG_TRANSACTION
  2
AcDbLongTransaction
  3
AutoCAD 2000
 90
        0
280
     0
281
     0
  0
CLASS
  1
LWPOLYLINE
  2
AcDbPolyline
  3
AutoCAD 2000
 90
        0
280
     0
281
     1
  0
CLASS
  1
HATCH
  2
AcDbHatch
  3
AutoCAD 2000
 90
        0
280
     0
281
     1
  0
CLASS
  1
XRECORD
  2
AcDbXrecord
  3
AutoCAD 2000
 90
        0
280
     0
281
     0
  0
ENDSEC
  0
SECTION
  2
TABLES
  0
TABLE
  2
VPORT
  5
8
330
0
100
AcDbSymbolTable
 70
     6
  0
VPORT
  5
64DC2
330
8
100
AcDbSymbolTableRecord
100
AcDbViewportTableRecord
  2
*ACTIVE
 70
     0
 10
0.0
 20
0.0
 11
1.0
 21
1.0
 12
-145.7366891639367
 22
584.7932834461353
 13
0.0
 23
0.0
 14
0.0001
 24
0.0001
 15
1.0
 25
1.0
 16
0.0
 26
0.0
 36
1.0
 17
0.0
 27
0.0
 37
0.0
 40
4604.012623866635
 41
1.307486631016042
 42
50.0
 43
0.0
 44
0.0
 50
0.0
 51
0.0
 71
     0
 72
  1000
 73
     1
 74
     0
 75
     1
 76
     0
 77
     0
 78
     0
  0
ENDTAB
  0
TABLE
  2
LTYPE
  5
5
330
0
100
AcDbSymbolTable
 70
     5
  0
LTYPE
  5
13
330
5
100
AcDbSymbolTableRecord
100
AcDbLinetypeTableRecord
  2
BYBLOCK
 70
     0
  3

 72
    65
 73
     0
 40
0.0
  0
LTYPE
  5
14
330
5
100
AcDbSymbolTableRecord
100
AcDbLinetypeTableRecord
  2
BYLAYER
 70
     0
  3

 72
    65
 73
     0
 40
0.0
  0
LTYPE
  5
15
330
5
100
AcDbSymbolTableRecord
100
AcDbLinetypeTableRecord
  2
CONTINUOUS
 70
     0
  3
実線
 72
    65
 73
     0
 40
0.0
  0
LTYPE
  5
23
330
5
100
AcDbSymbolTableRecord
100
AcDbLinetypeTableRecord
  2
DASHDOT
 70
     0
  3
____ _ ____ _ ____ _ ____ _ ____ _ ____ _ ____
 72
    65
 73
     4
 40
5.5
 49
4.0
 74
     0
 49
-0.6
 74
     0
 49
0.3
 74
     0
 49
-0.6
 74
     0
  0
LTYPE
  5
737
330
5
100
AcDbSymbolTableRecord
100
AcDbLinetypeTableRecord
  2
DOT_CENTER
 70
     0
  3
Dot_Center
 72
    65
 73
     4
 40
14.0
 49
12.0
 74
     0
 49
-1.0
 74
     0
 49
0.0
 74
     0
 49
-1.0
 74
     0
  0
LTYPE
  5
BA47
330
5
100
AcDbSymbolTableRecord
100
AcDbLinetypeTableRecord
  2
DASHED2
 70
     0
  3
Dashed (.5x) _ _ _ _ _ _ _ _ _ _ _ _ _ _ _ _ _
 72
    65
 73
     2
 40
0.375
 49
0.25
 74
     0
 49
-0.125
 74
     0
  0
LTYPE
  5
2FE76
330
5
100
AcDbSymbolTableRecord
100
AcDbLinetypeTableRecord
  2
CONTINOUS
 70
     0
  3
Solid line
 72
    65
 73
     0
 40
0.0
  0
ENDTAB
  0
TABLE
  2
LAYER
  5
2
330
0
100
AcDbSymbolTable
 70
    11
  0
LAYER
  5
10
330
2
100
AcDbSymbolTableRecord
100
AcDbLayerTableRecord
  2
0
 70
     0
 62
     7
  6
CONTINUOUS
  0
LAYER
  5
22
330
2
100
AcDbSymbolTableRecord
100
AcDbLayerTableRecord
  2
OUTLINE
 70
     0
 62
     3
  6
CONTINUOUS
  0
LAYER
  5
24
330
2
100
AcDbSymbolTableRecord
100
AcDbLayerTableRecord
  2
DETAIL
 70
     0
 62
     5
  6
CONTINUOUS
  0
LAYER
  5
25
330
2
100
AcDbSymbolTableRecord
100
AcDbLayerTableRecord
  2
BASIS
 70
     0
 62
     6
  6
CONTINUOUS
  0
LAYER
  5
26
330
2
100
AcDbSymbolTableRecord
100
AcDbLayerTableRecord
  2
NOTE
 70
     0
 62
     4
  6
CONTINUOUS
  0
LAYER
  5
27
330
2
100
AcDbSymbolTableRecord
100
AcDbLayerTableRecord
  2
SIZE
 70
     0
 62
    32
  6
CONTINUOUS
  0
LAYER
  5
28
330
2
100
AcDbSymbolTableRecord
100
AcDbLayerTableRecord
  2
ARRANGE
 70
     0
 62
     1
  6
CONTINUOUS
  0
LAYER
  5
29
330
2
100
AcDbSymbolTableRecord
100
AcDbLayerTableRecord
  2
FIX
 70
     0
 62
   241
  6
CONTINUOUS
  0
LAYER
  5
2A
330
2
100
AcDbSymbolTableRecord
100
AcDbLayerTableRecord
  2
ETC
 70
     0
 62
    83
  6
CONTINUOUS
  0
LAYER
  5
2D
330
2
100
AcDbSymbolTableRecord
100
AcDbLayerTableRecord
  2
DEFPOINTS
 70
     0
 62
     7
  6
CONTINUOUS
  0
LAYER
  5
48468
330
2
100
AcDbSymbolTableRecord
100
AcDbLayerTableRecord
  2
SERVICE_SPACE
 70
     0
 62
     2
  6
CONTINUOUS
  0
ENDTAB
  0
TABLE
  2
STYLE
  5
3
330
0
100
AcDbSymbolTable
 70
     1
  0
STYLE
  5
11
330
3
100
AcDbSymbolTableRecord
100
AcDbTextStyleTableRecord
  2
STANDARD
 70
     0
 40
0.0
 41
0.9
 50
0.0
 71
     0
 42
64.0
  3
SIMPLEX
  4
BIGFONT
  0
ENDTAB
  0
TABLE
  2
VIEW
  5
6
330
0
100
AcDbSymbolTable
 70
     1
  0
VIEW
  5
2F
330
6
100
AcDbSymbolTableRecord
100
AcDbViewTableRecord
  2
ALL
 70
     0
 40
4282.62
 10
0.0
 20
41.30990399999999
 41
5940.0
 11
0.0
 21
0.0
 31
1.0
 12
0.0
 22
0.0
 32
0.0
 42
50.0
 43
0.0
 44
0.0
 50
0.0
 71
     0
  0
ENDTAB
  0
TABLE
  2
UCS
  5
7
330
0
100
AcDbSymbolTable
 70
     0
  0
ENDTAB
  0
TABLE
  2
APPID
  5
9
330
0
100
AcDbSymbolTable
 70
     1
  0
APPID
  5
12
330
9
100
AcDbSymbolTableRecord
100
AcDbRegAppTableRecord
  2
ACAD
 70
     0
  0
ENDTAB
  0
TABLE
  2
DIMSTYLE
  5
A
330
0
100
AcDbSymbolTable
 70
     1
  0
DIMSTYLE
105
134
330
A
100
AcDbSymbolTableRecord
100
AcDbDimStyleTableRecord
  2
STANDARD
 70
     0
  3

  4

  5

  6

  7

 40
1.0
 41
0.18
 42
0.0625
 43
0.38
 44
0.18
 45
0.0
 46
0.0
 47
0.0
 48
0.0
140
0.18
141
0.09
142
0.0
143
25.4
144
1.0
145
0.0
146
1.0
147
0.09
 71
     0
 72
     0
 73
     1
 74
     1
 75
     0
 76
     0
 77
     0
 78
     0
170
     0
171
     2
172
     0
173
     0
174
     0
175
     0
176
     0
177
     0
178
     0
270
     2
271
     4
272
     4
273
     2
274
     2
340
11
275
     0
280
     0
281
     0
282
     0
283
     1
284
     0
285
     0
286
     0
287
     3
288
     0
  0
ENDTAB
  0
TABLE
  2
BLOCK_RECORD
  5
1
330
0
100
AcDbSymbolTable
 70
   116
  0
BLOCK_RECORD
  5
1E
102
{ACAD_XDICTIONARY
360
64DE6
102
}
330
1
100
AcDbSymbolTableRecord
100
AcDbBlockTableRecord
  2
*MODEL_SPACE
  0
BLOCK_RECORD
  5
1A
102
{ACAD_XDICTIONARY
360
64DE4
102
}
330
1
100
AcDbSymbolTableRecord
100
AcDbBlockTableRecord
  2
*PAPER_SPACE
  0
BLOCK_RECORD
  5
989D
330
1
100
AcDbSymbolTableRecord
100
AcDbBlockTableRecord
  2
_DOTBLANK
  0
BLOCK_RECORD
  5
474DC
330
1
100
AcDbSymbolTableRecord
100
AcDbBlockTableRecord
  2
*D1
  0
BLOCK_RECORD
  5
4756E
330
1
100
AcDbSymbolTableRecord
100
AcDbBlockTableRecord
  2
*D2
  0
BLOCK_RECORD
  5
4757A
330
1
100
AcDbSymbolTableRecord
100
AcDbBlockTableRecord
  2
*D3
  0
BLOCK_RECORD
  5
47586
330
1
100
AcDbSymbolTableRecord
100
AcDbBlockTableRecord
  2
*D4
  0
BLOCK_RECORD
  5
47592
330
1
100
AcDbSymbolTableRecord
100
AcDbBlockTableRecord
  2
*D5
  0
BLOCK_RECORD
  5
4759E
330
1
100
AcDbSymbolTableRecord
100
AcDbBlockTableRecord
  2
*D6
  0
BLOCK_RECORD
  5
475C5
330
1
100
AcDbSymbolTableRecord
100
AcDbBlockTableRecord
  2
*D7
  0
BLOCK_RECORD
  5
475D1
330
1
100
AcDbSymbolTableRecord
100
AcDbBlockTableRecord
  2
*D8
  0
BLOCK_RECORD
  5
475DD
330
1
100
AcDbSymbolTableRecord
100
AcDbBlockTableRecord
  2
*D9
  0
BLOCK_RECORD
  5
475E9
330
1
100
AcDbSymbolTableRecord
100
AcDbBlockTableRecord
  2
*D10
  0
BLOCK_RECORD
  5
475F5
330
1
100
AcDbSymbolTableRecord
100
AcDbBlockTableRecord
  2
*D11
  0
BLOCK_RECORD
  5
47628
330
1
100
AcDbSymbolTableRecord
100
AcDbBlockTableRecord
  2
*D12
  0
BLOCK_RECORD
  5
4767F
330
1
100
AcDbSymbolTableRecord
100
AcDbBlockTableRecord
  2
*D13
  0
BLOCK_RECORD
  5
4768D
330
1
100
AcDbSymbolTableRecord
100
AcDbBlockTableRecord
  2
*D14
  0
BLOCK_RECORD
  5
47699
330
1
100
AcDbSymbolTableRecord
100
AcDbBlockTableRecord
  2
*D15
  0
BLOCK_RECORD
  5
476A6
330
1
100
AcDbSymbolTableRecord
100
AcDbBlockTableRecord
  2
*D16
  0
BLOCK_RECORD
  5
476B2
330
1
100
AcDbSymbolTableRecord
100
AcDbBlockTableRecord
  2
*D17
  0
BLOCK_RECORD
  5
476DA
330
1
100
AcDbSymbolTableRecord
100
AcDbBlockTableRecord
  2
*D18
  0
BLOCK_RECORD
  5
476E8
330
1
100
AcDbSymbolTableRecord
100
AcDbBlockTableRecord
  2
*D19
  0
BLOCK_RECORD
  5
476F6
330
1
100
AcDbSymbolTableRecord
100
AcDbBlockTableRecord
  2
*D20
  0
BLOCK_RECORD
  5
47733
330
1
100
AcDbSymbolTableRecord
100
AcDbBlockTableRecord
  2
*D21
  0
BLOCK_RECORD
  5
4773F
330
1
100
AcDbSymbolTableRecord
100
AcDbBlockTableRecord
  2
*D22
  0
BLOCK_RECORD
  5
47798
330
1
100
AcDbSymbolTableRecord
100
AcDbBlockTableRecord
  2
*D23
  0
BLOCK_RECORD
  5
477C8
330
1
100
AcDbSymbolTableRecord
100
AcDbBlockTableRecord
  2
*D24
  0
BLOCK_RECORD
  5
477D4
330
1
100
AcDbSymbolTableRecord
100
AcDbBlockTableRecord
  2
*D25
  0
BLOCK_RECORD
  5
47806
330
1
100
AcDbSymbolTableRecord
100
AcDbBlockTableRecord
  2
*D26
  0
BLOCK_RECORD
  5
4782C
330
1
100
AcDbSymbolTableRecord
100
AcDbBlockTableRecord
  2
*D27
  0
BLOCK_RECORD
  5
47838
330
1
100
AcDbSymbolTableRecord
100
AcDbBlockTableRecord
  2
*D28
  0
BLOCK_RECORD
  5
47852
330
1
100
AcDbSymbolTableRecord
100
AcDbBlockTableRecord
  2
*D29
  0
BLOCK_RECORD
  5
47860
330
1
100
AcDbSymbolTableRecord
100
AcDbBlockTableRecord
  2
*D30
  0
BLOCK_RECORD
  5
4786E
330
1
100
AcDbSymbolTableRecord
100
AcDbBlockTableRecord
  2
*D31
  0
BLOCK_RECORD
  5
47887
330
1
100
AcDbSymbolTableRecord
100
AcDbBlockTableRecord
  2
*D32
  0
BLOCK_RECORD
  5
47893
330
1
100
AcDbSymbolTableRecord
100
AcDbBlockTableRecord
  2
*D33
  0
BLOCK_RECORD
  5
478C3
330
1
100
AcDbSymbolTableRecord
100
AcDbBlockTableRecord
  2
*D34
  0
BLOCK_RECORD
  5
478CF
330
1
100
AcDbSymbolTableRecord
100
AcDbBlockTableRecord
  2
*D35
  0
BLOCK_RECORD
  5
478DB
330
1
100
AcDbSymbolTableRecord
100
AcDbBlockTableRecord
  2
*D36
  0
BLOCK_RECORD
  5
478E7
330
1
100
AcDbSymbolTableRecord
100
AcDbBlockTableRecord
  2
*D37
  0
BLOCK_RECORD
  5
478F3
330
1
100
AcDbSymbolTableRecord
100
AcDbBlockTableRecord
  2
*D38
  0
BLOCK_RECORD
  5
478FF
330
1
100
AcDbSymbolTableRecord
100
AcDbBlockTableRecord
  2
*D39
  0
BLOCK_RECORD
  5
4790C
330
1
100
AcDbSymbolTableRecord
100
AcDbBlockTableRecord
  2
*D40
  0
BLOCK_RECORD
  5
4791A
330
1
100
AcDbSymbolTableRecord
100
AcDbBlockTableRecord
  2
*D41
  0
BLOCK_RECORD
  5
47927
330
1
100
AcDbSymbolTableRecord
100
AcDbBlockTableRecord
  2
*D42
  0
BLOCK_RECORD
  5
47933
330
1
100
AcDbSymbolTableRecord
100
AcDbBlockTableRecord
  2
*D43
  0
BLOCK_RECORD
  5
47965
330
1
100
AcDbSymbolTableRecord
100
AcDbBlockTableRecord
  2
*D44
  0
BLOCK_RECORD
  5
47971
330
1
100
AcDbSymbolTableRecord
100
AcDbBlockTableRecord
  2
*D45
  0
BLOCK_RECORD
  5
57870
330
1
100
AcDbSymbolTableRecord
100
AcDbBlockTableRecord
  2
*D46
  0
BLOCK_RECORD
  5
578B7
330
1
100
AcDbSymbolTableRecord
100
AcDbBlockTableRecord
  2
*D47
  0
BLOCK_RECORD
  5
57973
330
1
100
AcDbSymbolTableRecord
100
AcDbBlockTableRecord
  2
*D48
  0
BLOCK_RECORD
  5
5799C
330
1
100
AcDbSymbolTableRecord
100
AcDbBlockTableRecord
  2
*D49
  0
BLOCK_RECORD
  5
5844F
330
1
100
AcDbSymbolTableRecord
100
AcDbBlockTableRecord
  2
*D50
  0
BLOCK_RECORD
  5
58520
330
1
100
AcDbSymbolTableRecord
100
AcDbBlockTableRecord
  2
*D51
  0
BLOCK_RECORD
  5
58539
330
1
100
AcDbSymbolTableRecord
100
AcDbBlockTableRecord
  2
*D52
  0
BLOCK_RECORD
  5
58548
330
1
100
AcDbSymbolTableRecord
100
AcDbBlockTableRecord
  2
*D53
  0
BLOCK_RECORD
  5
585CB
330
1
100
AcDbSymbolTableRecord
100
AcDbBlockTableRecord
  2
*D54
  0
BLOCK_RECORD
  5
588FF
330
1
100
AcDbSymbolTableRecord
100
AcDbBlockTableRecord
  2
*D55
  0
BLOCK_RECORD
  5
58CD2
330
1
100
AcDbSymbolTableRecord
100
AcDbBlockTableRecord
  2
*D56
  0
BLOCK_RECORD
  5
58D4F
330
1
100
AcDbSymbolTableRecord
100
AcDbBlockTableRecord
  2
*D57
  0
BLOCK_RECORD
  5
59109
330
1
100
AcDbSymbolTableRecord
100
AcDbBlockTableRecord
  2
*D58
  0
BLOCK_RECORD
  5
59117
330
1
100
AcDbSymbolTableRecord
100
AcDbBlockTableRecord
  2
*D59
  0
BLOCK_RECORD
  5
59AF6
330
1
100
AcDbSymbolTableRecord
100
AcDbBlockTableRecord
  2
*D60
  0
BLOCK_RECORD
  5
59B03
330
1
100
AcDbSymbolTableRecord
100
AcDbBlockTableRecord
  2
*D61
  0
BLOCK_RECORD
  5
59B0F
330
1
100
AcDbSymbolTableRecord
100
AcDbBlockTableRecord
  2
*D62
  0
BLOCK_RECORD
  5
59B1B
330
1
100
AcDbSymbolTableRecord
100
AcDbBlockTableRecord
  2
*D63
  0
BLOCK_RECORD
  5
59B3F
330
1
100
AcDbSymbolTableRecord
100
AcDbBlockTableRecord
  2
*D64
  0
BLOCK_RECORD
  5
59B5B
330
1
100
AcDbSymbolTableRecord
100
AcDbBlockTableRecord
  2
*D65
  0
BLOCK_RECORD
  5
59B67
330
1
100
AcDbSymbolTableRecord
100
AcDbBlockTableRecord
  2
*D66
  0
BLOCK_RECORD
  5
59B75
330
1
100
AcDbSymbolTableRecord
100
AcDbBlockTableRecord
  2
*D67
  0
BLOCK_RECORD
  5
59B83
330
1
100
AcDbSymbolTableRecord
100
AcDbBlockTableRecord
  2
*D68
  0
BLOCK_RECORD
  5
59B91
330
1
100
AcDbSymbolTableRecord
100
AcDbBlockTableRecord
  2
*D69
  0
BLOCK_RECORD
  5
5B2D3
330
1
100
AcDbSymbolTableRecord
100
AcDbBlockTableRecord
  2
*D70
  0
BLOCK_RECORD
  5
5B2FA
330
1
100
AcDbSymbolTableRecord
100
AcDbBlockTableRecord
  2
*D71
  0
BLOCK_RECORD
  5
5B377
330
1
100
AcDbSymbolTableRecord
100
AcDbBlockTableRecord
  2
*D72
  0
BLOCK_RECORD
  5
5B4B7
330
1
100
AcDbSymbolTableRecord
100
AcDbBlockTableRecord
  2
*D73
  0
BLOCK_RECORD
  5
5B4C4
330
1
100
AcDbSymbolTableRecord
100
AcDbBlockTableRecord
  2
*D74
  0
BLOCK_RECORD
  5
5BAD2
330
1
100
AcDbSymbolTableRecord
100
AcDbBlockTableRecord
  2
*D75
  0
BLOCK_RECORD
  5
5BAF1
330
1
100
AcDbSymbolTableRecord
100
AcDbBlockTableRecord
  2
*D76
  0
BLOCK_RECORD
  5
5BB3F
330
1
100
AcDbSymbolTableRecord
100
AcDbBlockTableRecord
  2
*D77
  0
BLOCK_RECORD
  5
5BBBA
330
1
100
AcDbSymbolTableRecord
100
AcDbBlockTableRecord
  2
*D78
  0
BLOCK_RECORD
  5
5BD9E
330
1
100
AcDbSymbolTableRecord
100
AcDbBlockTableRecord
  2
*D79
  0
BLOCK_RECORD
  5
5BDCC
330
1
100
AcDbSymbolTableRecord
100
AcDbBlockTableRecord
  2
*D80
  0
BLOCK_RECORD
  5
5F0D7
330
1
100
AcDbSymbolTableRecord
100
AcDbBlockTableRecord
  2
*D81
  0
BLOCK_RECORD
  5
5F8CC
330
1
100
AcDbSymbolTableRecord
100
AcDbBlockTableRecord
  2
*D82
  0
BLOCK_RECORD
  5
5F8FC
330
1
100
AcDbSymbolTableRecord
100
AcDbBlockTableRecord
  2
*D83
  0
BLOCK_RECORD
  5
5F908
330
1
100
AcDbSymbolTableRecord
100
AcDbBlockTableRecord
  2
*D84
  0
BLOCK_RECORD
  5
5F915
330
1
100
AcDbSymbolTableRecord
100
AcDbBlockTableRecord
  2
*D85
  0
BLOCK_RECORD
  5
5F944
330
1
100
AcDbSymbolTableRecord
100
AcDbBlockTableRecord
  2
*D86
  0
BLOCK_RECORD
  5
5F951
330
1
100
AcDbSymbolTableRecord
100
AcDbBlockTableRecord
  2
*D87
  0
BLOCK_RECORD
  5
5F989
330
1
100
AcDbSymbolTableRecord
100
AcDbBlockTableRecord
  2
*D88
  0
BLOCK_RECORD
  5
5F996
330
1
100
AcDbSymbolTableRecord
100
AcDbBlockTableRecord
  2
*D89
  0
BLOCK_RECORD
  5
5F9A4
330
1
100
AcDbSymbolTableRecord
100
AcDbBlockTableRecord
  2
*D90
  0
BLOCK_RECORD
  5
5F9D4
330
1
100
AcDbSymbolTableRecord
100
AcDbBlockTableRecord
  2
*D91
  0
BLOCK_RECORD
  5
5F9ED
330
1
100
AcDbSymbolTableRecord
100
AcDbBlockTableRecord
  2
*D92
  0
BLOCK_RECORD
  5
5FA08
330
1
100
AcDbSymbolTableRecord
100
AcDbBlockTableRecord
  2
*D93
  0
BLOCK_RECORD
  5
5FA14
330
1
100
AcDbSymbolTableRecord
100
AcDbBlockTableRecord
  2
*D94
  0
BLOCK_RECORD
  5
5FA21
330
1
100
AcDbSymbolTableRecord
100
AcDbBlockTableRecord
  2
*D95
  0
BLOCK_RECORD
  5
64565
330
1
100
AcDbSymbolTableRecord
100
AcDbBlockTableRecord
  2
*D96
  0
BLOCK_RECORD
  5
6457E
330
1
100
AcDbSymbolTableRecord
100
AcDbBlockTableRecord
  2
*D97
  0
BLOCK_RECORD
  5
645C5
330
1
100
AcDbSymbolTableRecord
100
AcDbBlockTableRecord
  2
*D98
  0
BLOCK_RECORD
  5
645EA
330
1
100
AcDbSymbolTableRecord
100
AcDbBlockTableRecord
  2
*D99
  0
BLOCK_RECORD
  5
64608
330
1
100
AcDbSymbolTableRecord
100
AcDbBlockTableRecord
  2
*D100
  0
BLOCK_RECORD
  5
646CD
330
1
100
AcDbSymbolTableRecord
100
AcDbBlockTableRecord
  2
*D101
  0
BLOCK_RECORD
  5
64798
330
1
100
AcDbSymbolTableRecord
100
AcDbBlockTableRecord
  2
*D102
  0
BLOCK_RECORD
  5
647BC
330
1
100
AcDbSymbolTableRecord
100
AcDbBlockTableRecord
  2
*D103
  0
BLOCK_RECORD
  5
6482E
330
1
100
AcDbSymbolTableRecord
100
AcDbBlockTableRecord
  2
*D104
  0
BLOCK_RECORD
  5
64849
330
1
100
AcDbSymbolTableRecord
100
AcDbBlockTableRecord
  2
*D105
  0
BLOCK_RECORD
  5
648D5
330
1
100
AcDbSymbolTableRecord
100
AcDbBlockTableRecord
  2
*D106
  0
BLOCK_RECORD
  5
64903
330
1
100
AcDbSymbolTableRecord
100
AcDbBlockTableRecord
  2
*D107
  0
BLOCK_RECORD
  5
6491E
330
1
100
AcDbSymbolTableRecord
100
AcDbBlockTableRecord
  2
*D108
  0
BLOCK_RECORD
  5
64945
330
1
100
AcDbSymbolTableRecord
100
AcDbBlockTableRecord
  2
*D109
  0
BLOCK_RECORD
  5
64A2E
330
1
100
AcDbSymbolTableRecord
100
AcDbBlockTableRecord
  2
*D110
  0
BLOCK_RECORD
  5
64A7F
330
1
100
AcDbSymbolTableRecord
100
AcDbBlockTableRecord
  2
*D111
  0
BLOCK_RECORD
  5
64AA1
330
1
100
AcDbSymbolTableRecord
100
AcDbBlockTableRecord
  2
*D112
  0
BLOCK_RECORD
  5
64B79
330
1
100
AcDbSymbolTableRecord
100
AcDbBlockTableRecord
  2
*D113
  0
BLOCK_RECORD
  5
64B88
330
1
100
AcDbSymbolTableRecord
100
AcDbBlockTableRecord
  2
*D114
  0
BLOCK_RECORD
  5
64BCE
330
1
100
AcDbSymbolTableRecord
100
AcDbBlockTableRecord
  2
*D115
  0
ENDTAB
  0
ENDSEC
  0
SECTION
  2
BLOCKS
  0
BLOCK
  5
1F
330
1E
100
AcDbEntity
  8
0
100
AcDbBlockBegin
  2
*MODEL_SPACE
 70
     0
 10
0.0
 20
0.0
 30
0.0
  3
*MODEL_SPACE
  1

  0
ENDBLK
  5
20
330
1E
100
AcDbEntity
  8
0
100
AcDbBlockEnd
  0
BLOCK
  5
1B
330
1A
100
AcDbEntity
 67
     1
  8
0
100
AcDbBlockBegin
  2
*PAPER_SPACE
 70
     0
 10
0.0
 20
0.0
 30
0.0
  3
*PAPER_SPACE
  1

  0
ENDBLK
  5
1C
330
1A
100
AcDbEntity
 67
     1
  8
0
100
AcDbBlockEnd
  0
BLOCK
  5
98A0
330
989D
100
AcDbEntity
  8
0
100
AcDbBlockBegin
  2
_DOTBLANK
 70
     0
 10
0.0
 20
0.0
 30
0.0
  3
_DOTBLANK
  1

  0
CIRCLE
  5
989E
330
989D
100
AcDbEntity
  8
0
  6
BYBLOCK
 62
     0
100
AcDbCircle
 10
0.0
 20
0.0
 30
0.0
 40
0.5
  0
LINE
  5
989F
330
989D
100
AcDbEntity
  8
0
  6
BYBLOCK
 62
     0
100
AcDbLine
 10
-0.5
 20
0.0
 30
0.0
 11
-1.0
 21
0.0
 31
0.0
  0
ENDBLK
  5
98A1
330
989D
100
AcDbEntity
  8
0
100
AcDbBlockEnd
  0
BLOCK
  5
474E6
330
474DC
100
AcDbEntity
  8
0
100
AcDbBlockBegin
  2
*D1
 70
     1
 10
0.0
 20
0.0
 30
0.0
  3
*D1
  1

  0
LINE
  5
5B679
330
474DC
100
AcDbEntity
  8
SIZE
  6
CONTINUOUS
 62
     0
100
AcDbLine
 10
7536.080874165873
 20
-9158.90947212547
 30
0.0
 11
8372.445958784881
 21
-9158.90947212547
 31
0.0
  0
LINE
  5
5B67A
330
474DC
100
AcDbEntity
  8
SIZE
  6
CONTINUOUS
 62
     0
100
AcDbLine
 10
7536.080874165873
 20
-8741.909472125472
 30
0.0
 11
8372.445958784881
 21
-8741.909472125472
 31
0.0
  0
LINE
  5
5B67B
330
474DC
100
AcDbEntity
  8
SIZE
  6
CONTINUOUS
 62
     0
100
AcDbLine
 10
8342.445958784882
 20
-9148.909472125472
 30
0.0
 11
8342.445958784882
 21
-8751.909472125472
 31
0.0
  0
INSERT
  5
5B67C
330
474DC
100
AcDbEntity
  8
SIZE
  6
CONTINUOUS
 62
     0
100
AcDbBlockReference
  2
_DOTBLANK
 10
8342.445958784882
 20
-9158.90947212547
 30
0.0
 41
10.0
 42
10.0
 43
10.0
 50
270.0
  0
INSERT
  5
5B67D
330
474DC
100
AcDbEntity
  8
SIZE
  6
CONTINUOUS
 62
     0
100
AcDbBlockReference
  2
_DOTBLANK
 10
8342.445958784882
 20
-8741.909472125472
 30
0.0
 41
10.0
 42
10.0
 43
10.0
 50
90.0
  0
MTEXT
  5
5B67E
330
474DC
100
AcDbEntity
  8
SIZE
  6
CONTINUOUS
 62
     0
100
AcDbMText
 10
8300.445958784882
 20
-8945.873941609292
 30
0.0
 40
64.0
 41
0.0
 71
     5
 72
     1
  1
\A1;417
 11
0.0000000000000001
 21
1.0
 31
0.0
1001
ACAD
1000
MTEXTBEGIN
1070
    73
1070
     1
1070
    44
1040
1.0
1070
    74
1070
     0
1000
MTEXTEND
  0
POINT
  5
5B67F
330
474DC
100
AcDbEntity
  8
DEFPOINTS
  6
CONTINUOUS
 62
     0
100
AcDbPoint
 10
7516.080874165872
 20
-9158.90947212547
 30
0.0
  0
POINT
  5
5B680
330
474DC
100
AcDbEntity
  8
DEFPOINTS
  6
CONTINUOUS
 62
     0
100
AcDbPoint
 10
7516.080874165872
 20
-8741.909472125472
 30
0.0
  0
POINT
  5
5B681
330
474DC
100
AcDbEntity
  8
DEFPOINTS
  6
CONTINUOUS
 62
     0
100
AcDbPoint
 10
8342.445958784882
 20
-8741.909472125472
 30
0.0
  0
ENDBLK
  5
474E7
330
474DC
100
AcDbEntity
  8
0
100
AcDbBlockEnd
  0
BLOCK
  5
47578
330
4756E
100
AcDbEntity
  8
0
100
AcDbBlockBegin
  2
*D2
 70
     1
 10
0.0
 20
0.0
 30
0.0
  3
*D2
  1

  0
LINE
  5
64C11
330
4756E
100
AcDbEntity
  8
SIZE
  6
CONTINUOUS
 62
     0
100
AcDbLine
 10
-340.0
 20
0.0000000000000057
 30
0.0
 11
-757.2319682952731
 21
0.0000000000001239
 31
0.0
  0
LINE
  5
64C12
330
4756E
100
AcDbEntity
  8
SIZE
  6
CONTINUOUS
 62
     0
100
AcDbLine
 10
-486.7978452498483
 20
472.999999999538
 30
0.0
 11
-757.231968295273
 21
472.999999999538
 31
0.0
  0
LINE
  5
64C13
330
4756E
100
AcDbEntity
  8
SIZE
  6
CONTINUOUS
 62
     0
100
AcDbLine
 10
-727.2319682952731
 20
10.00000000000011
 30
0.0
 11
-727.2319682952729
 21
462.999999999538
 31
0.0
  0
INSERT
  5
64C14
330
4756E
100
AcDbEntity
  8
SIZE
  6
CONTINUOUS
 62
     0
100
AcDbBlockReference
  2
_DOTBLANK
 10
-727.2319682952731
 20
0.0000000000001154
 30
0.0
 41
10.0
 42
10.0
 43
10.0
 50
270.0
  0
INSERT
  5
64C15
330
4756E
100
AcDbEntity
  8
SIZE
  6
CONTINUOUS
 62
     0
100
AcDbBlockReference
  2
_DOTBLANK
 10
-727.2319682952729
 20
472.999999999538
 30
0.0
 41
10.0
 42
10.0
 43
10.0
 50
90.0
  0
MTEXT
  5
64C16
330
4756E
100
AcDbEntity
  8
SIZE
  6
CONTINUOUS
 62
     0
100
AcDbMText
 10
-769.2319682952731
 20
236.4999999997689
 30
0.0
 40
64.0
 41
0.0
 71
     5
 72
     1
  1
\A1;473
 11
0.0000000000000001
 21
1.0
 31
0.0
1001
ACAD
1000
MTEXTBEGIN
1070
    73
1070
     1
1070
    44
1040
1.0
1070
    74
1070
     0
1000
MTEXTEND
  0
POINT
  5
64C17
330
4756E
100
AcDbEntity
  8
DEFPOINTS
  6
CONTINUOUS
 62
     0
100
AcDbPoint
 10
-320.0
 20
0.0
 30
0.0
  0
POINT
  5
64C18
330
4756E
100
AcDbEntity
  8
DEFPOINTS
  6
CONTINUOUS
 62
     0
100
AcDbPoint
 10
-466.7978452498482
 20
472.999999999538
 30
0.0
  0
POINT
  5
64C19
330
4756E
100
AcDbEntity
  8
DEFPOINTS
  6
CONTINUOUS
 62
     0
100
AcDbPoint
 10
-727.2319682952729
 20
472.999999999538
 30
0.0
  0
ENDBLK
  5
47579
330
4756E
100
AcDbEntity
  8
0
100
AcDbBlockEnd
  0
BLOCK
  5
47584
330
4757A
100
AcDbEntity
  8
0
100
AcDbBlockBegin
  2
*D3
 70
     1
 10
0.0
 20
0.0
 30
0.0
  3
*D3
  1

  0
LINE
  5
64C08
330
4757A
100
AcDbEntity
  8
SIZE
  6
CONTINUOUS
 62
     0
100
AcDbLine
 10
-340.0
 20
0.0000000000000057
 30
0.0
 11
-898.7427135126747
 21
0.0000000000001639
 31
0.0
  0
LINE
  5
64C09
330
4757A
100
AcDbEntity
  8
SIZE
  6
CONTINUOUS
 62
     0
100
AcDbLine
 10
-495.0
 20
945.0
 30
0.0
 11
-898.7427135126745
 21
945.0000000000001
 31
0.0
  0
LINE
  5
64C0A
330
4757A
100
AcDbEntity
  8
SIZE
  6
CONTINUOUS
 62
     0
100
AcDbLine
 10
-868.7427135126748
 20
10.00000000000015
 30
0.0
 11
-868.7427135126744
 21
935.0000000000001
 31
0.0
  0
INSERT
  5
64C0B
330
4757A
100
AcDbEntity
  8
SIZE
  6
CONTINUOUS
 62
     0
100
AcDbBlockReference
  2
_DOTBLANK
 10
-868.7427135126748
 20
0.0000000000001554
 30
0.0
 41
10.0
 42
10.0
 43
10.0
 50
270.0
  0
INSERT
  5
64C0C
330
4757A
100
AcDbEntity
  8
SIZE
  6
CONTINUOUS
 62
     0
100
AcDbBlockReference
  2
_DOTBLANK
 10
-868.7427135126744
 20
945.0000000000001
 30
0.0
 41
10.0
 42
10.0
 43
10.0
 50
90.0
  0
MTEXT
  5
64C0D
330
4757A
100
AcDbEntity
  8
SIZE
  6
CONTINUOUS
 62
     0
100
AcDbMText
 10
-910.7427135126748
 20
472.5
 30
0.0
 40
64.0
 41
0.0
 71
     5
 72
     1
  1
\A1;945
 11
0.0000000000000001
 21
1.0
 31
0.0
1001
ACAD
1000
MTEXTBEGIN
1070
    73
1070
     1
1070
    44
1040
1.0
1070
    74
1070
     0
1000
MTEXTEND
  0
POINT
  5
64C0E
330
4757A
100
AcDbEntity
  8
DEFPOINTS
  6
CONTINUOUS
 62
     0
100
AcDbPoint
 10
-320.0
 20
0.0
 30
0.0
  0
POINT
  5
64C0F
330
4757A
100
AcDbEntity
  8
DEFPOINTS
  6
CONTINUOUS
 62
     0
100
AcDbPoint
 10
-475.0
 20
945.0
 30
0.0
  0
POINT
  5
64C10
330
4757A
100
AcDbEntity
  8
DEFPOINTS
  6
CONTINUOUS
 62
     0
100
AcDbPoint
 10
-868.7427135126744
 20
945.0000000000001
 30
0.0
  0
ENDBLK
  5
47585
330
4757A
100
AcDbEntity
  8
0
100
AcDbBlockEnd
  0
BLOCK
  5
47590
330
47586
100
AcDbEntity
  8
0
100
AcDbBlockBegin
  2
*D4
 70
     1
 10
0.0
 20
0.0
 30
0.0
  3
*D4
  1

  0
LINE
  5
61C65
330
47586
100
AcDbEntity
  8
SIZE
  6
CONTINUOUS
 62
     0
100
AcDbLine
 10
3920.16033950718
 20
-11865.319374921
 30
0.0
 11
3920.16033950718
 21
-12149.18823797387
 31
0.0
  0
LINE
  5
61C66
330
47586
100
AcDbEntity
  8
SIZE
  6
CONTINUOUS
 62
     0
100
AcDbLine
 10
4290.16033950718
 20
-11865.319374921
 30
0.0
 11
4290.16033950718
 21
-12149.18823797387
 31
0.0
  0
LINE
  5
61C67
330
47586
100
AcDbEntity
  8
SIZE
  6
CONTINUOUS
 62
     0
100
AcDbLine
 10
3930.16033950718
 20
-12119.18823797387
 30
0.0
 11
4280.16033950718
 21
-12119.18823797387
 31
0.0
  0
INSERT
  5
61C68
330
47586
100
AcDbEntity
  8
SIZE
  6
CONTINUOUS
 62
     0
100
AcDbBlockReference
  2
_DOTBLANK
 10
3920.16033950718
 20
-12119.18823797387
 30
0.0
 41
10.0
 42
10.0
 43
10.0
 50
180.0
  0
INSERT
  5
61C69
330
47586
100
AcDbEntity
  8
SIZE
  6
CONTINUOUS
 62
     0
100
AcDbBlockReference
  2
_DOTBLANK
 10
4290.16033950718
 20
-12119.18823797387
 30
0.0
 41
10.0
 42
10.0
 43
10.0
  0
MTEXT
  5
61C6A
330
47586
100
AcDbEntity
  8
SIZE
  6
CONTINUOUS
 62
     0
100
AcDbMText
 10
4105.160339507181
 20
-12077.18823797387
 30
0.0
 40
64.0
 41
0.0
 71
     5
 72
     1
  1
\A1;370
1001
ACAD
1000
MTEXTBEGIN
1070
    73
1070
     1
1070
    44
1040
1.0
1070
    74
1070
     0
1000
MTEXTEND
  0
POINT
  5
61C6B
330
47586
100
AcDbEntity
  8
DEFPOINTS
  6
CONTINUOUS
 62
     0
100
AcDbPoint
 10
3920.16033950718
 20
-11845.319374921
 30
0.0
  0
POINT
  5
61C6C
330
47586
100
AcDbEntity
  8
DEFPOINTS
  6
CONTINUOUS
 62
     0
100
AcDbPoint
 10
4290.16033950718
 20
-11845.319374921
 30
0.0
  0
POINT
  5
61C6D
330
47586
100
AcDbEntity
  8
DEFPOINTS
  6
CONTINUOUS
 62
     0
100
AcDbPoint
 10
4290.16033950718
 20
-12119.18823797387
 30
0.0
  0
ENDBLK
  5
47591
330
47586
100
AcDbEntity
  8
0
100
AcDbBlockEnd
  0
BLOCK
  5
4759C
330
47592
100
AcDbEntity
  8
0
100
AcDbBlockBegin
  2
*D5
 70
     1
 10
0.0
 20
0.0
 30
0.0
  3
*D5
  1

  0
LINE
  5
61C5C
330
47592
100
AcDbEntity
  8
SIZE
  6
CONTINUOUS
 62
     0
100
AcDbLine
 10
3901.16033950718
 20
-11845.319374921
 30
0.0
 11
3901.16033950718
 21
-12325.79520647358
 31
0.0
  0
LINE
  5
61C5D
330
47592
100
AcDbEntity
  8
SIZE
  6
CONTINUOUS
 62
     0
100
AcDbLine
 10
4318.160339507179
 20
-11845.319374921
 30
0.0
 11
4318.160339507179
 21
-12325.79520647358
 31
0.0
  0
LINE
  5
61C5E
330
47592
100
AcDbEntity
  8
SIZE
  6
CONTINUOUS
 62
     0
100
AcDbLine
 10
3911.160339507181
 20
-12295.79520647358
 30
0.0
 11
4308.160339507179
 21
-12295.79520647358
 31
0.0
  0
INSERT
  5
61C5F
330
47592
100
AcDbEntity
  8
SIZE
  6
CONTINUOUS
 62
     0
100
AcDbBlockReference
  2
_DOTBLANK
 10
3901.16033950718
 20
-12295.79520647358
 30
0.0
 41
10.0
 42
10.0
 43
10.0
 50
180.0
  0
INSERT
  5
61C60
330
47592
100
AcDbEntity
  8
SIZE
  6
CONTINUOUS
 62
     0
100
AcDbBlockReference
  2
_DOTBLANK
 10
4318.160339507179
 20
-12295.79520647358
 30
0.0
 41
10.0
 42
10.0
 43
10.0
  0
MTEXT
  5
61C61
330
47592
100
AcDbEntity
  8
SIZE
  6
CONTINUOUS
 62
     0
100
AcDbMText
 10
4109.660339507179
 20
-12253.79520647358
 30
0.0
 40
64.0
 41
0.0
 71
     5
 72
     1
  1
\A1;417
1001
ACAD
1000
MTEXTBEGIN
1070
    73
1070
     1
1070
    44
1040
1.0
1070
    74
1070
     0
1000
MTEXTEND
  0
POINT
  5
61C62
330
47592
100
AcDbEntity
  8
DEFPOINTS
  6
CONTINUOUS
 62
     0
100
AcDbPoint
 10
3901.16033950718
 20
-11825.319374921
 30
0.0
  0
POINT
  5
61C63
330
47592
100
AcDbEntity
  8
DEFPOINTS
  6
CONTINUOUS
 62
     0
100
AcDbPoint
 10
4318.160339507179
 20
-11825.319374921
 30
0.0
  0
POINT
  5
61C64
330
47592
100
AcDbEntity
  8
DEFPOINTS
  6
CONTINUOUS
 62
     0
100
AcDbPoint
 10
4318.160339507179
 20
-12295.79520647358
 30
0.0
  0
ENDBLK
  5
4759D
330
47592
100
AcDbEntity
  8
0
100
AcDbBlockEnd
  0
BLOCK
  5
475AA
330
4759E
100
AcDbEntity
  8
0
100
AcDbBlockBegin
  2
*D6
 70
     1
 10
0.0
 20
0.0
 30
0.0
  3
*D6
  1

  0
LINE
  5
61C51
330
4759E
100
AcDbEntity
  8
SIZE
  6
CONTINUOUS
 62
     0
100
AcDbLine
 10
3920.16033950718
 20
-11865.319374921
 30
0.0
 11
3920.16033950718
 21
-12149.18823797387
 31
0.0
  0
LINE
  5
61C52
330
4759E
100
AcDbEntity
  8
SIZE
  6
CONTINUOUS
 62
     0
100
AcDbLine
 10
3901.16033950718
 20
-11845.319374921
 30
0.0
 11
3901.16033950718
 21
-12149.18823797387
 31
0.0
  0
LINE
  5
61C53
330
4759E
100
AcDbEntity
  8
SIZE
  6
CONTINUOUS
 62
     0
100
AcDbLine
 10
3930.16033950718
 20
-12119.18823797387
 30
0.0
 11
3940.160339507181
 21
-12119.18823797387
 31
0.0
  0
LINE
  5
61C54
330
4759E
100
AcDbEntity
  8
SIZE
  6
CONTINUOUS
 62
     0
100
AcDbLine
 10
3891.16033950718
 20
-12119.18823797387
 30
0.0
 11
3777.891129158492
 21
-12119.18823797387
 31
0.0
  0
LINE
  5
61C55
330
4759E
100
AcDbEntity
  8
SIZE
  6
CONTINUOUS
 62
     0
100
AcDbLine
 10
3920.16033950718
 20
-12119.18823797387
 30
0.0
 11
3901.16033950718
 21
-12119.18823797387
 31
0.0
  0
INSERT
  5
61C56
330
4759E
100
AcDbEntity
  8
SIZE
  6
CONTINUOUS
 62
     0
100
AcDbBlockReference
  2
_DOTBLANK
 10
3920.16033950718
 20
-12119.18823797387
 30
0.0
 41
10.0
 42
10.0
 43
10.0
 50
180.0
  0
INSERT
  5
61C57
330
4759E
100
AcDbEntity
  8
SIZE
  6
CONTINUOUS
 62
     0
100
AcDbBlockReference
  2
_DOTBLANK
 10
3901.16033950718
 20
-12119.18823797387
 30
0.0
 41
10.0
 42
10.0
 43
10.0
  0
MTEXT
  5
61C58
330
4759E
100
AcDbEntity
  8
SIZE
  6
CONTINUOUS
 62
     0
100
AcDbMText
 10
3827.662557729921
 20
-12077.18823797387
 30
0.0
 40
64.0
 41
0.0
 71
     5
 72
     1
  1
\A1;19
1001
ACAD
1000
MTEXTBEGIN
1070
    73
1070
     1
1070
    44
1040
1.0
1070
    74
1070
     0
1000
MTEXTEND
  0
POINT
  5
61C59
330
4759E
100
AcDbEntity
  8
DEFPOINTS
  6
CONTINUOUS
 62
     0
100
AcDbPoint
 10
3920.16033950718
 20
-11845.319374921
 30
0.0
  0
POINT
  5
61C5A
330
4759E
100
AcDbEntity
  8
DEFPOINTS
  6
CONTINUOUS
 62
     0
100
AcDbPoint
 10
3901.16033950718
 20
-11825.319374921
 30
0.0
  0
POINT
  5
61C5B
330
4759E
100
AcDbEntity
  8
DEFPOINTS
  6
CONTINUOUS
 62
     0
100
AcDbPoint
 10
3901.16033950718
 20
-12119.18823797387
 30
0.0
  0
ENDBLK
  5
475AB
330
4759E
100
AcDbEntity
  8
0
100
AcDbBlockEnd
  0
BLOCK
  5
475CF
330
475C5
100
AcDbEntity
  8
0
100
AcDbBlockBegin
  2
*D7
 70
     1
 10
0.0
 20
0.0
 30
0.0
  3
*D7
  1

  0
LINE
  5
5B547
330
475C5
100
AcDbEntity
  8
SIZE
  6
CONTINUOUS
 62
     0
100
AcDbLine
 10
7540.080874165873
 20
-13842.62468489087
 30
0.0
 11
8018.070399999999
 21
-13842.62468489087
 31
0.0
  0
LINE
  5
5B548
330
475C5
100
AcDbEntity
  8
SIZE
  6
CONTINUOUS
 62
     0
100
AcDbLine
 10
7540.080874165873
 20
-13472.62468489087
 30
0.0
 11
8018.070399999999
 21
-13472.62468489087
 31
0.0
  0
LINE
  5
5B549
330
475C5
100
AcDbEntity
  8
SIZE
  6
CONTINUOUS
 62
     0
100
AcDbLine
 10
7988.070399999999
 20
-13832.62468489087
 30
0.0
 11
7988.070399999999
 21
-13482.62468489087
 31
0.0
  0
INSERT
  5
5B54A
330
475C5
100
AcDbEntity
  8
SIZE
  6
CONTINUOUS
 62
     0
100
AcDbBlockReference
  2
_DOTBLANK
 10
7988.070399999999
 20
-13842.62468489087
 30
0.0
 41
10.0
 42
10.0
 43
10.0
 50
270.0
  0
INSERT
  5
5B54B
330
475C5
100
AcDbEntity
  8
SIZE
  6
CONTINUOUS
 62
     0
100
AcDbBlockReference
  2
_DOTBLANK
 10
7988.070399999999
 20
-13472.62468489087
 30
0.0
 41
10.0
 42
10.0
 43
10.0
 50
90.0
  0
MTEXT
  5
5B54C
330
475C5
100
AcDbEntity
  8
SIZE
  6
CONTINUOUS
 62
     0
100
AcDbMText
 10
7946.0704
 20
-13657.62468489087
 30
0.0
 40
64.0
 41
0.0
 71
     5
 72
     1
  1
\A1;370
 11
0.0000000000000001
 21
1.0
 31
0.0
1001
ACAD
1000
MTEXTBEGIN
1070
    73
1070
     1
1070
    44
1040
1.0
1070
    74
1070
     0
1000
MTEXTEND
  0
POINT
  5
5B54D
330
475C5
100
AcDbEntity
  8
DEFPOINTS
  6
CONTINUOUS
 62
     0
100
AcDbPoint
 10
7520.080874165874
 20
-13842.62468489087
 30
0.0
  0
POINT
  5
5B54E
330
475C5
100
AcDbEntity
  8
DEFPOINTS
  6
CONTINUOUS
 62
     0
100
AcDbPoint
 10
7520.080874165874
 20
-13472.62468489087
 30
0.0
  0
POINT
  5
5B54F
330
475C5
100
AcDbEntity
  8
DEFPOINTS
  6
CONTINUOUS
 62
     0
100
AcDbPoint
 10
7988.070399999999
 20
-13472.62468489087
 30
0.0
  0
ENDBLK
  5
475D0
330
475C5
100
AcDbEntity
  8
0
100
AcDbBlockEnd
  0
BLOCK
  5
475DB
330
475D1
100
AcDbEntity
  8
0
100
AcDbBlockBegin
  2
*D8
 70
     1
 10
0.0
 20
0.0
 30
0.0
  3
*D8
  1

  0
LINE
  5
5B57A
330
475D1
100
AcDbEntity
  8
SIZE
  6
CONTINUOUS
 62
     0
100
AcDbLine
 10
7536.080874165873
 20
-13870.62468489087
 30
0.0
 11
8162.534300000002
 21
-13870.62468489087
 31
0.0
  0
LINE
  5
5B57B
330
475D1
100
AcDbEntity
  8
SIZE
  6
CONTINUOUS
 62
     0
100
AcDbLine
 10
7536.080874165873
 20
-13453.62468489087
 30
0.0
 11
8162.534300000002
 21
-13453.62468489087
 31
0.0
  0
LINE
  5
5B57C
330
475D1
100
AcDbEntity
  8
SIZE
  6
CONTINUOUS
 62
     0
100
AcDbLine
 10
8132.534300000001
 20
-13860.62468489087
 30
0.0
 11
8132.534300000001
 21
-13463.62468489087
 31
0.0
  0
INSERT
  5
5B57D
330
475D1
100
AcDbEntity
  8
SIZE
  6
CONTINUOUS
 62
     0
100
AcDbBlockReference
  2
_DOTBLANK
 10
8132.534300000001
 20
-13870.62468489087
 30
0.0
 41
10.0
 42
10.0
 43
10.0
 50
270.0
  0
INSERT
  5
5B57E
330
475D1
100
AcDbEntity
  8
SIZE
  6
CONTINUOUS
 62
     0
100
AcDbBlockReference
  2
_DOTBLANK
 10
8132.534300000001
 20
-13453.62468489087
 30
0.0
 41
10.0
 42
10.0
 43
10.0
 50
90.0
  0
MTEXT
  5
5B57F
330
475D1
100
AcDbEntity
  8
SIZE
  6
CONTINUOUS
 62
     0
100
AcDbMText
 10
8090.534300000005
 20
-13662.12468489087
 30
0.0
 40
64.0
 41
0.0
 71
     5
 72
     1
  1
\A1;417
 11
0.0000000000000001
 21
1.0
 31
0.0
1001
ACAD
1000
MTEXTBEGIN
1070
    73
1070
     1
1070
    44
1040
1.0
1070
    74
1070
     0
1000
MTEXTEND
  0
POINT
  5
5B580
330
475D1
100
AcDbEntity
  8
DEFPOINTS
  6
CONTINUOUS
 62
     0
100
AcDbPoint
 10
7516.080874165872
 20
-13870.62468489087
 30
0.0
  0
POINT
  5
5B581
330
475D1
100
AcDbEntity
  8
DEFPOINTS
  6
CONTINUOUS
 62
     0
100
AcDbPoint
 10
7516.080874165872
 20
-13453.62468489087
 30
0.0
  0
POINT
  5
5B582
330
475D1
100
AcDbEntity
  8
DEFPOINTS
  6
CONTINUOUS
 62
     0
100
AcDbPoint
 10
8132.534300000001
 20
-13453.62468489087
 30
0.0
  0
ENDBLK
  5
475DC
330
475D1
100
AcDbEntity
  8
0
100
AcDbBlockEnd
  0
BLOCK
  5
475E7
330
475DD
100
AcDbEntity
  8
0
100
AcDbBlockBegin
  2
*D9
 70
     1
 10
0.0
 20
0.0
 30
0.0
  3
*D9
  1

  0
LINE
  5
5B583
330
475DD
100
AcDbEntity
  8
SIZE
  6
CONTINUOUS
 62
     0
100
AcDbLine
 10
6705.080874165872
 20
-13822.62468489087
 30
0.0
 11
6516.899306121607
 21
-13822.62468489087
 31
0.0
  0
LINE
  5
5B584
330
475DD
100
AcDbEntity
  8
SIZE
  6
CONTINUOUS
 62
     0
100
AcDbLine
 10
6705.080874165872
 20
-13492.62468489087
 30
0.0
 11
6516.899306121607
 21
-13492.62468489087
 31
0.0
  0
LINE
  5
5B585
330
475DD
100
AcDbEntity
  8
SIZE
  6
CONTINUOUS
 62
     0
100
AcDbLine
 10
6546.899306121606
 20
-13812.62468489087
 30
0.0
 11
6546.899306121606
 21
-13502.62468489087
 31
0.0
  0
INSERT
  5
5B586
330
475DD
100
AcDbEntity
  8
SIZE
  6
CONTINUOUS
 62
     0
100
AcDbBlockReference
  2
_DOTBLANK
 10
6546.899306121606
 20
-13822.62468489087
 30
0.0
 41
10.0
 42
10.0
 43
10.0
 50
270.0
  0
INSERT
  5
5B587
330
475DD
100
AcDbEntity
  8
SIZE
  6
CONTINUOUS
 62
     0
100
AcDbBlockReference
  2
_DOTBLANK
 10
6546.899306121606
 20
-13492.62468489087
 30
0.0
 41
10.0
 42
10.0
 43
10.0
 50
90.0
  0
MTEXT
  5
5B588
330
475DD
100
AcDbEntity
  8
SIZE
  6
CONTINUOUS
 62
     0
100
AcDbMText
 10
6504.899306121609
 20
-13656.67740178077
 30
0.0
 40
64.0
 41
0.0
 71
     5
 72
     1
  1
\A1;330
 11
0.0000000000000001
 21
1.0
 31
0.0
1001
ACAD
1000
MTEXTBEGIN
1070
    73
1070
     1
1070
    44
1040
1.0
1070
    74
1070
     0
1000
MTEXTEND
  0
POINT
  5
5B589
330
475DD
100
AcDbEntity
  8
DEFPOINTS
  6
CONTINUOUS
 62
     0
100
AcDbPoint
 10
6725.080874165873
 20
-13822.62468489087
 30
0.0
  0
POINT
  5
5B58A
330
475DD
100
AcDbEntity
  8
DEFPOINTS
  6
CONTINUOUS
 62
     0
100
AcDbPoint
 10
6725.080874165873
 20
-13492.62468489087
 30
0.0
  0
POINT
  5
5B58B
330
475DD
100
AcDbEntity
  8
DEFPOINTS
  6
CONTINUOUS
 62
     0
100
AcDbPoint
 10
6546.899306121606
 20
-13492.62468489087
 30
0.0
  0
ENDBLK
  5
475E8
330
475DD
100
AcDbEntity
  8
0
100
AcDbBlockEnd
  0
BLOCK
  5
475F3
330
475E9
100
AcDbEntity
  8
0
100
AcDbBlockBegin
  2
*D10
 70
     1
 10
0.0
 20
0.0
 30
0.0
  3
*D10
  1

  0
LINE
  5
588B8
330
475E9
100
AcDbEntity
  8
SIZE
  6
CONTINUOUS
 62
     0
100
AcDbLine
 10
6725.080874165873
 20
-13842.62468489087
 30
0.0
 11
6725.080874165873
 21
-14137.84176423013
 31
0.0
  0
LINE
  5
588B9
330
475E9
100
AcDbEntity
  8
SIZE
  6
CONTINUOUS
 62
     0
100
AcDbLine
 10
7047.080874165873
 20
-13930.49030439087
 30
0.0
 11
7047.080874165873
 21
-14137.84176423013
 31
0.0
  0
LINE
  5
588BA
330
475E9
100
AcDbEntity
  8
SIZE
  6
CONTINUOUS
 62
     0
100
AcDbLine
 10
6735.080874165872
 20
-14107.84176423013
 30
0.0
 11
7037.080874165873
 21
-14107.84176423013
 31
0.0
  0
INSERT
  5
588BB
330
475E9
100
AcDbEntity
  8
SIZE
  6
CONTINUOUS
 62
     0
100
AcDbBlockReference
  2
_DOTBLANK
 10
6725.080874165873
 20
-14107.84176423013
 30
0.0
 41
10.0
 42
10.0
 43
10.0
 50
180.0
  0
INSERT
  5
588BC
330
475E9
100
AcDbEntity
  8
SIZE
  6
CONTINUOUS
 62
     0
100
AcDbBlockReference
  2
_DOTBLANK
 10
7047.080874165873
 20
-14107.84176423013
 30
0.0
 41
10.0
 42
10.0
 43
10.0
  0
MTEXT
  5
588BD
330
475E9
100
AcDbEntity
  8
SIZE
  6
CONTINUOUS
 62
     0
100
AcDbMText
 10
6907.888536448414
 20
-14065.84176423013
 30
0.0
 40
64.0
 41
0.0
 71
     5
 72
     1
  1
\A1;322
1001
ACAD
1000
MTEXTBEGIN
1070
    73
1070
     1
1070
    44
1040
1.0
1070
    74
1070
     0
1000
MTEXTEND
  0
POINT
  5
588BE
330
475E9
100
AcDbEntity
  8
DEFPOINTS
  6
CONTINUOUS
 62
     0
100
AcDbPoint
 10
6725.080874165873
 20
-13822.62468489087
 30
0.0
  0
POINT
  5
588BF
330
475E9
100
AcDbEntity
  8
DEFPOINTS
  6
CONTINUOUS
 62
     0
100
AcDbPoint
 10
7047.080874165873
 20
-13910.49030439087
 30
0.0
  0
POINT
  5
588C0
330
475E9
100
AcDbEntity
  8
DEFPOINTS
  6
CONTINUOUS
 62
     0
100
AcDbPoint
 10
7047.080874165873
 20
-14107.84176423013
 30
0.0
  0
ENDBLK
  5
475F4
330
475E9
100
AcDbEntity
  8
0
100
AcDbBlockEnd
  0
BLOCK
  5
47600
330
475F5
100
AcDbEntity
  8
0
100
AcDbBlockBegin
  2
*D11
 70
     1
 10
0.0
 20
0.0
 30
0.0
  3
*D11
  1

  0
LINE
  5
5B58C
330
475F5
100
AcDbEntity
  8
SIZE
  6
CONTINUOUS
 62
     0
100
AcDbLine
 10
6705.080874165872
 20
-13822.62468489087
 30
0.0
 11
6516.899306121607
 21
-13822.62468489087
 31
0.0
  0
LINE
  5
5B58D
330
475F5
100
AcDbEntity
  8
SIZE
  6
CONTINUOUS
 62
     0
100
AcDbLine
 10
6738.080874166026
 20
-13847.62468489087
 30
0.0
 11
6516.899306121607
 21
-13847.62468489087
 31
0.0
  0
LINE
  5
5B58E
330
475F5
100
AcDbEntity
  8
SIZE
  6
CONTINUOUS
 62
     0
100
AcDbLine
 10
6546.899306121606
 20
-13812.62468489087
 30
0.0
 11
6546.899306121606
 21
-13802.62468489087
 31
0.0
  0
LINE
  5
5B58F
330
475F5
100
AcDbEntity
  8
SIZE
  6
CONTINUOUS
 62
     0
100
AcDbLine
 10
6546.899306121606
 20
-13857.62468489087
 30
0.0
 11
6546.899306121606
 21
-14005.10049941195
 31
0.0
  0
LINE
  5
5B590
330
475F5
100
AcDbEntity
  8
SIZE
  6
CONTINUOUS
 62
     0
100
AcDbLine
 10
6546.899306121606
 20
-13822.62468489087
 30
0.0
 11
6546.899306121606
 21
-13847.62468489087
 31
0.0
  0
INSERT
  5
5B591
330
475F5
100
AcDbEntity
  8
SIZE
  6
CONTINUOUS
 62
     0
100
AcDbBlockReference
  2
_DOTBLANK
 10
6546.899306121606
 20
-13822.62468489087
 30
0.0
 41
10.0
 42
10.0
 43
10.0
 50
270.0
  0
INSERT
  5
5B592
330
475F5
100
AcDbEntity
  8
SIZE
  6
CONTINUOUS
 62
     0
100
AcDbBlockReference
  2
_DOTBLANK
 10
6546.899306121606
 20
-13847.62468489087
 30
0.0
 41
10.0
 42
10.0
 43
10.0
 50
90.0
  0
MTEXT
  5
5B593
330
475F5
100
AcDbEntity
  8
SIZE
  6
CONTINUOUS
 62
     0
100
AcDbMText
 10
6504.899306121609
 20
-13948.47192798338
 30
0.0
 40
64.0
 41
0.0
 71
     5
 72
     1
  1
\A1;25
 11
0.0000000000000001
 21
1.0
 31
0.0
1001
ACAD
1000
MTEXTBEGIN
1070
    73
1070
     1
1070
    44
1040
1.0
1070
    74
1070
     0
1000
MTEXTEND
  0
POINT
  5
5B594
330
475F5
100
AcDbEntity
  8
DEFPOINTS
  6
CONTINUOUS
 62
     0
100
AcDbPoint
 10
6725.080874165873
 20
-13822.62468489087
 30
0.0
  0
POINT
  5
5B595
330
475F5
100
AcDbEntity
  8
DEFPOINTS
  6
CONTINUOUS
 62
     0
100
AcDbPoint
 10
6758.080874166026
 20
-13847.62468489087
 30
0.0
  0
POINT
  5
5B596
330
475F5
100
AcDbEntity
  8
DEFPOINTS
  6
CONTINUOUS
 62
     0
100
AcDbPoint
 10
6546.899306121606
 20
-13847.62468489087
 30
0.0
  0
ENDBLK
  5
47601
330
475F5
100
AcDbEntity
  8
0
100
AcDbBlockEnd
  0
BLOCK
  5
47633
330
47628
100
AcDbEntity
  8
0
100
AcDbBlockBegin
  2
*D12
 70
     1
 10
0.0
 20
0.0
 30
0.0
  3
*D12
  1

  0
LINE
  5
5B566
330
47628
100
AcDbEntity
  8
SIZE
  6
CONTINUOUS
 62
     0
100
AcDbLine
 10
7540.080874165873
 20
-13842.62468489087
 30
0.0
 11
8018.070399999999
 21
-13842.62468489087
 31
0.0
  0
LINE
  5
5B567
330
47628
100
AcDbEntity
  8
SIZE
  6
CONTINUOUS
 62
     0
100
AcDbLine
 10
7536.080874165873
 20
-13870.62468489087
 30
0.0
 11
8018.070399999999
 21
-13870.62468489087
 31
0.0
  0
LINE
  5
5B568
330
47628
100
AcDbEntity
  8
SIZE
  6
CONTINUOUS
 62
     0
100
AcDbLine
 10
7988.070399999999
 20
-13832.62468489087
 30
0.0
 11
7988.070399999999
 21
-13822.62468489087
 31
0.0
  0
LINE
  5
5B569
330
47628
100
AcDbEntity
  8
SIZE
  6
CONTINUOUS
 62
     0
100
AcDbLine
 10
7988.070399999999
 20
-13880.62468489087
 30
0.0
 11
7988.070399999999
 21
-14011.61135560718
 31
0.0
  0
LINE
  5
5B56A
330
47628
100
AcDbEntity
  8
SIZE
  6
CONTINUOUS
 62
     0
100
AcDbLine
 10
7988.070399999999
 20
-13842.62468489087
 30
0.0
 11
7988.070399999999
 21
-13870.62468489087
 31
0.0
  0
INSERT
  5
5B56B
330
47628
100
AcDbEntity
  8
SIZE
  6
CONTINUOUS
 62
     0
100
AcDbBlockReference
  2
_DOTBLANK
 10
7988.070399999999
 20
-13842.62468489087
 30
0.0
 41
10.0
 42
10.0
 43
10.0
 50
270.0
  0
INSERT
  5
5B56C
330
47628
100
AcDbEntity
  8
SIZE
  6
CONTINUOUS
 62
     0
100
AcDbBlockReference
  2
_DOTBLANK
 10
7988.070399999999
 20
-13870.62468489087
 30
0.0
 41
10.0
 42
10.0
 43
10.0
 50
90.0
  0
MTEXT
  5
5B56D
330
47628
100
AcDbEntity
  8
SIZE
  6
CONTINUOUS
 62
     0
100
AcDbMText
 10
7946.0704
 20
-13954.98278417861
 30
0.0
 40
64.0
 41
0.0
 71
     5
 72
     1
  1
\A1;28
 11
0.0000000000000001
 21
1.0
 31
0.0
1001
ACAD
1000
MTEXTBEGIN
1070
    73
1070
     1
1070
    44
1040
1.0
1070
    74
1070
     0
1000
MTEXTEND
  0
POINT
  5
5B56E
330
47628
100
AcDbEntity
  8
DEFPOINTS
  6
CONTINUOUS
 62
     0
100
AcDbPoint
 10
7520.080874165874
 20
-13842.62468489087
 30
0.0
  0
POINT
  5
5B56F
330
47628
100
AcDbEntity
  8
DEFPOINTS
  6
CONTINUOUS
 62
     0
100
AcDbPoint
 10
7516.080874165872
 20
-13870.62468489087
 30
0.0
  0
POINT
  5
5B570
330
47628
100
AcDbEntity
  8
DEFPOINTS
  6
CONTINUOUS
 62
     0
100
AcDbPoint
 10
7988.070399999999
 20
-13870.62468489087
 30
0.0
  0
ENDBLK
  5
47634
330
47628
100
AcDbEntity
  8
0
100
AcDbBlockEnd
  0
BLOCK
  5
4768B
330
4767F
100
AcDbEntity
  8
0
100
AcDbBlockBegin
  2
*D13
 70
     1
 10
0.0
 20
0.0
 30
0.0
  3
*D13
  1

  0
LINE
  5
58871
330
4767F
100
AcDbEntity
  8
SIZE
  6
CONTINUOUS
 62
     0
100
AcDbLine
 10
6725.080874165873
 20
-13472.62468489087
 30
0.0
 11
6725.080874165873
 21
-12992.14610200235
 31
0.0
  0
LINE
  5
58872
330
4767F
100
AcDbEntity
  8
SIZE
  6
CONTINUOUS
 62
     0
100
AcDbLine
 10
6900.080874165873
 20
-13437.62468489087
 30
0.0
 11
6900.080874165873
 21
-12992.14610200235
 31
0.0
  0
LINE
  5
58873
330
4767F
100
AcDbEntity
  8
SIZE
  6
CONTINUOUS
 62
     0
100
AcDbLine
 10
6715.080874165874
 20
-13022.14610200236
 30
0.0
 11
6705.080874165872
 21
-13022.14610200236
 31
0.0
  0
LINE
  5
58874
330
4767F
100
AcDbEntity
  8
SIZE
  6
CONTINUOUS
 62
     0
100
AcDbLine
 10
6910.080874165872
 20
-13022.14610200236
 30
0.0
 11
6920.080874165873
 21
-13022.14610200236
 31
0.0
  0
LINE
  5
58875
330
4767F
100
AcDbEntity
  8
SIZE
  6
CONTINUOUS
 62
     0
100
AcDbLine
 10
6725.080874165873
 20
-13022.14610200236
 30
0.0
 11
6900.080874165873
 21
-13022.14610200236
 31
0.0
  0
INSERT
  5
58876
330
4767F
100
AcDbEntity
  8
SIZE
  6
CONTINUOUS
 62
     0
100
AcDbBlockReference
  2
_DOTBLANK
 10
6725.080874165873
 20
-13022.14610200236
 30
0.0
 41
10.0
 42
10.0
 43
10.0
  0
INSERT
  5
58877
330
4767F
100
AcDbEntity
  8
SIZE
  6
CONTINUOUS
 62
     0
100
AcDbBlockReference
  2
_DOTBLANK
 10
6900.080874165873
 20
-13022.14610200236
 30
0.0
 41
10.0
 42
10.0
 43
10.0
 50
180.0
  0
MTEXT
  5
58878
330
4767F
100
AcDbEntity
  8
SIZE
  6
CONTINUOUS
 62
     0
100
AcDbMText
 10
6823.900104058338
 20
-12980.14610200236
 30
0.0
 40
64.0
 41
0.0
 71
     5
 72
     1
  1
\A1;175
1001
ACAD
1000
MTEXTBEGIN
1070
    73
1070
     1
1070
    44
1040
1.0
1070
    74
1070
     0
1000
MTEXTEND
  0
POINT
  5
58879
330
4767F
100
AcDbEntity
  8
DEFPOINTS
  6
CONTINUOUS
 62
     0
100
AcDbPoint
 10
6725.080874165873
 20
-13492.62468489087
 30
0.0
  0
POINT
  5
5887A
330
4767F
100
AcDbEntity
  8
DEFPOINTS
  6
CONTINUOUS
 62
     0
100
AcDbPoint
 10
6900.080874165873
 20
-13457.62468489087
 30
0.0
  0
POINT
  5
5887B
330
4767F
100
AcDbEntity
  8
DEFPOINTS
  6
CONTINUOUS
 62
     0
100
AcDbPoint
 10
6900.080874165873
 20
-13022.14610200236
 30
0.0
  0
ENDBLK
  5
4768C
330
4767F
100
AcDbEntity
  8
0
100
AcDbBlockEnd
  0
BLOCK
  5
47697
330
4768D
100
AcDbEntity
  8
0
100
AcDbBlockBegin
  2
*D14
 70
     1
 10
0.0
 20
0.0
 30
0.0
  3
*D14
  1

  0
LINE
  5
58868
330
4768D
100
AcDbEntity
  8
SIZE
  6
CONTINUOUS
 62
     0
100
AcDbLine
 10
6725.080874165873
 20
-13472.62468489087
 30
0.0
 11
6725.080874165873
 21
-12854.51817593731
 31
0.0
  0
LINE
  5
58869
330
4768D
100
AcDbEntity
  8
SIZE
  6
CONTINUOUS
 62
     0
100
AcDbLine
 10
7675.080874165873
 20
-13472.62468489087
 30
0.0
 11
7675.080874165873
 21
-12854.51817593731
 31
0.0
  0
LINE
  5
5886A
330
4768D
100
AcDbEntity
  8
SIZE
  6
CONTINUOUS
 62
     0
100
AcDbLine
 10
6735.080874165872
 20
-12884.51817593731
 30
0.0
 11
7665.080874165873
 21
-12884.51817593731
 31
0.0
  0
INSERT
  5
5886B
330
4768D
100
AcDbEntity
  8
SIZE
  6
CONTINUOUS
 62
     0
100
AcDbBlockReference
  2
_DOTBLANK
 10
6725.080874165873
 20
-12884.51817593731
 30
0.0
 41
10.0
 42
10.0
 43
10.0
 50
180.0
  0
INSERT
  5
5886C
330
4768D
100
AcDbEntity
  8
SIZE
  6
CONTINUOUS
 62
     0
100
AcDbBlockReference
  2
_DOTBLANK
 10
7675.080874165873
 20
-12884.51817593731
 30
0.0
 41
10.0
 42
10.0
 43
10.0
  0
MTEXT
  5
5886D
330
4768D
100
AcDbEntity
  8
SIZE
  6
CONTINUOUS
 62
     0
100
AcDbMText
 10
7160.322182217213
 20
-12842.51817593731
 30
0.0
 40
64.0
 41
0.0
 71
     5
 72
     1
  1
\A1;950
1001
ACAD
1000
MTEXTBEGIN
1070
    73
1070
     1
1070
    44
1040
1.0
1070
    74
1070
     0
1000
MTEXTEND
  0
POINT
  5
5886E
330
4768D
100
AcDbEntity
  8
DEFPOINTS
  6
CONTINUOUS
 62
     0
100
AcDbPoint
 10
6725.080874165873
 20
-13492.62468489087
 30
0.0
  0
POINT
  5
5886F
330
4768D
100
AcDbEntity
  8
DEFPOINTS
  6
CONTINUOUS
 62
     0
100
AcDbPoint
 10
7675.080874165873
 20
-13492.62468489087
 30
0.0
  0
POINT
  5
58870
330
4768D
100
AcDbEntity
  8
DEFPOINTS
  6
CONTINUOUS
 62
     0
100
AcDbPoint
 10
7675.080874165873
 20
-12884.51817593731
 30
0.0
  0
ENDBLK
  5
47698
330
4768D
100
AcDbEntity
  8
0
100
AcDbBlockEnd
  0
BLOCK
  5
476A4
330
47699
100
AcDbEntity
  8
0
100
AcDbBlockBegin
  2
*D15
 70
     1
 10
0.0
 20
0.0
 30
0.0
  3
*D15
  1

  0
LINE
  5
64C4B
330
47699
100
AcDbEntity
  8
SIZE
  6
CONTINUOUS
 62
     0
100
AcDbLine
 10
-495.0
 20
23.0
 30
0.0
 11
-626.1243741658727
 21
23.00000000000004
 31
0.0
  0
LINE
  5
64C4C
330
47699
100
AcDbEntity
  8
SIZE
  6
CONTINUOUS
 62
     0
100
AcDbLine
 10
-340.0
 20
0.0000000000000057
 30
0.0
 11
-626.1243741658727
 21
0.0000000000000867
 31
0.0
  0
LINE
  5
64C4D
330
47699
100
AcDbEntity
  8
SIZE
  6
CONTINUOUS
 62
     0
100
AcDbLine
 10
-596.1243741658726
 20
33.00000000000003
 30
0.0
 11
-596.1243741658726
 21
43.00000000000003
 31
0.0
  0
LINE
  5
64C4E
330
47699
100
AcDbEntity
  8
SIZE
  6
CONTINUOUS
 62
     0
100
AcDbLine
 10
-596.1243741658726
 20
-9.99999999999992
 30
0.0
 11
-596.1243741658726
 21
-133.2571428571427
 31
0.0
  0
LINE
  5
64C4F
330
47699
100
AcDbEntity
  8
SIZE
  6
CONTINUOUS
 62
     0
100
AcDbLine
 10
-596.1243741658726
 20
23.00000000000003
 30
0.0
 11
-596.1243741658726
 21
0.0000000000000782
 31
0.0
  0
INSERT
  5
64C50
330
47699
100
AcDbEntity
  8
SIZE
  6
CONTINUOUS
 62
     0
100
AcDbBlockReference
  2
_DOTBLANK
 10
-596.1243741658726
 20
23.00000000000003
 30
0.0
 41
10.0
 42
10.0
 43
10.0
 50
270.0
  0
INSERT
  5
64C51
330
47699
100
AcDbEntity
  8
SIZE
  6
CONTINUOUS
 62
     0
100
AcDbBlockReference
  2
_DOTBLANK
 10
-596.1243741658726
 20
0.0000000000000782
 30
0.0
 41
10.0
 42
10.0
 43
10.0
 50
90.0
  0
MTEXT
  5
64C52
330
47699
100
AcDbEntity
  8
SIZE
  6
CONTINUOUS
 62
     0
100
AcDbMText
 10
-638.1243741658727
 20
-76.62857142857145
 30
0.0
 40
64.0
 41
0.0
 71
     5
 72
     1
  1
\A1;23
 11
0.0000000000000001
 21
1.0
 31
0.0
1001
ACAD
1000
MTEXTBEGIN
1070
    73
1070
     1
1070
    44
1040
1.0
1070
    74
1070
     0
1000
MTEXTEND
  0
POINT
  5
64C53
330
47699
100
AcDbEntity
  8
DEFPOINTS
  6
CONTINUOUS
 62
     0
100
AcDbPoint
 10
-475.0
 20
23.0
 30
0.0
  0
POINT
  5
64C54
330
47699
100
AcDbEntity
  8
DEFPOINTS
  6
CONTINUOUS
 62
     0
100
AcDbPoint
 10
-320.0
 20
0.0
 30
0.0
  0
POINT
  5
64C55
330
47699
100
AcDbEntity
  8
DEFPOINTS
  6
CONTINUOUS
 62
     0
100
AcDbPoint
 10
-596.1243741658726
 20
0.0000000000000782
 30
0.0
  0
ENDBLK
  5
476A5
330
47699
100
AcDbEntity
  8
0
100
AcDbBlockEnd
  0
BLOCK
  5
476B0
330
476A6
100
AcDbEntity
  8
0
100
AcDbBlockBegin
  2
*D16
 70
     1
 10
0.0
 20
0.0
 30
0.0
  3
*D16
  1

  0
LINE
  5
64C40
330
476A6
100
AcDbEntity
  8
SIZE
  6
CONTINUOUS
 62
     0
100
AcDbLine
 10
-300.0
 20
-40.0
 30
0.0
 11
-300.0
 21
-389.3546031281512
 31
0.0
  0
LINE
  5
64C41
330
476A6
100
AcDbEntity
  8
SIZE
  6
CONTINUOUS
 62
     0
100
AcDbLine
 10
-475.0
 20
3.0
 30
0.0
 11
-475.0
 21
-389.3546031281512
 31
0.0
  0
LINE
  5
64C42
330
476A6
100
AcDbEntity
  8
SIZE
  6
CONTINUOUS
 62
     0
100
AcDbLine
 10
-290.0
 20
-359.3546031281512
 30
0.0
 11
-280.0
 21
-359.3546031281512
 31
0.0
  0
LINE
  5
64C43
330
476A6
100
AcDbEntity
  8
SIZE
  6
CONTINUOUS
 62
     0
100
AcDbLine
 10
-485.0
 20
-359.3546031281512
 30
0.0
 11
-495.0
 21
-359.3546031281512
 31
0.0
  0
LINE
  5
64C44
330
476A6
100
AcDbEntity
  8
SIZE
  6
CONTINUOUS
 62
     0
100
AcDbLine
 10
-300.0
 20
-359.3546031281512
 30
0.0
 11
-475.0
 21
-359.3546031281512
 31
0.0
  0
INSERT
  5
64C45
330
476A6
100
AcDbEntity
  8
SIZE
  6
CONTINUOUS
 62
     0
100
AcDbBlockReference
  2
_DOTBLANK
 10
-300.0
 20
-359.3546031281512
 30
0.0
 41
10.0
 42
10.0
 43
10.0
 50
180.0
  0
INSERT
  5
64C46
330
476A6
100
AcDbEntity
  8
SIZE
  6
CONTINUOUS
 62
     0
100
AcDbBlockReference
  2
_DOTBLANK
 10
-475.0
 20
-359.3546031281512
 30
0.0
 41
10.0
 42
10.0
 43
10.0
  0
MTEXT
  5
64C47
330
476A6
100
AcDbEntity
  8
SIZE
  6
CONTINUOUS
 62
     0
100
AcDbMText
 10
-378.8500425708971
 20
-317.3546031281512
 30
0.0
 40
64.0
 41
0.0
 71
     5
 72
     1
  1
\A1;175
1001
ACAD
1000
MTEXTBEGIN
1070
    73
1070
     1
1070
    44
1040
1.0
1070
    74
1070
     0
1000
MTEXTEND
  0
POINT
  5
64C48
330
476A6
100
AcDbEntity
  8
DEFPOINTS
  6
CONTINUOUS
 62
     0
100
AcDbPoint
 10
-300.0
 20
-20.0
 30
0.0
  0
POINT
  5
64C49
330
476A6
100
AcDbEntity
  8
DEFPOINTS
  6
CONTINUOUS
 62
     0
100
AcDbPoint
 10
-475.0
 20
23.0
 30
0.0
  0
POINT
  5
64C4A
330
476A6
100
AcDbEntity
  8
DEFPOINTS
  6
CONTINUOUS
 62
     0
100
AcDbPoint
 10
-475.0
 20
-359.3546031281512
 30
0.0
  0
ENDBLK
  5
476B1
330
476A6
100
AcDbEntity
  8
0
100
AcDbBlockEnd
  0
BLOCK
  5
476BC
330
476B2
100
AcDbEntity
  8
0
100
AcDbBlockBegin
  2
*D17
 70
     1
 10
0.0
 20
0.0
 30
0.0
  3
*D17
  1

  0
LINE
  5
64C37
330
476B2
100
AcDbEntity
  8
SIZE
  6
CONTINUOUS
 62
     0
100
AcDbLine
 10
475.0
 20
3.0
 30
0.0
 11
474.9999999999999
 21
-521.1671690452495
 31
0.0
  0
LINE
  5
64C38
330
476B2
100
AcDbEntity
  8
SIZE
  6
CONTINUOUS
 62
     0
100
AcDbLine
 10
-475.0
 20
3.0
 30
0.0
 11
-475.0
 21
-521.1671690452495
 31
0.0
  0
LINE
  5
64C39
330
476B2
100
AcDbEntity
  8
SIZE
  6
CONTINUOUS
 62
     0
100
AcDbLine
 10
464.9999999999999
 20
-491.1671690452494
 30
0.0
 11
-465.0
 21
-491.1671690452494
 31
0.0
  0
INSERT
  5
64C3A
330
476B2
100
AcDbEntity
  8
SIZE
  6
CONTINUOUS
 62
     0
100
AcDbBlockReference
  2
_DOTBLANK
 10
474.9999999999999
 20
-491.1671690452494
 30
0.0
 41
10.0
 42
10.0
 43
10.0
  0
INSERT
  5
64C3B
330
476B2
100
AcDbEntity
  8
SIZE
  6
CONTINUOUS
 62
     0
100
AcDbBlockReference
  2
_DOTBLANK
 10
-475.0
 20
-491.1671690452494
 30
0.0
 41
10.0
 42
10.0
 43
10.0
 50
180.0
  0
MTEXT
  5
64C3C
330
476B2
100
AcDbEntity
  8
SIZE
  6
CONTINUOUS
 62
     0
100
AcDbMText
 10
3.824670963287647
 20
-449.1671690452494
 30
0.0
 40
64.0
 41
0.0
 71
     5
 72
     1
  1
\A1;950
1001
ACAD
1000
MTEXTBEGIN
1070
    73
1070
     1
1070
    44
1040
1.0
1070
    74
1070
     0
1000
MTEXTEND
  0
POINT
  5
64C3D
330
476B2
100
AcDbEntity
  8
DEFPOINTS
  6
CONTINUOUS
 62
     0
100
AcDbPoint
 10
475.0
 20
23.0
 30
0.0
  0
POINT
  5
64C3E
330
476B2
100
AcDbEntity
  8
DEFPOINTS
  6
CONTINUOUS
 62
     0
100
AcDbPoint
 10
-475.0
 20
23.0
 30
0.0
  0
POINT
  5
64C3F
330
476B2
100
AcDbEntity
  8
DEFPOINTS
  6
CONTINUOUS
 62
     0
100
AcDbPoint
 10
-475.0
 20
-491.1671690452494
 30
0.0
  0
ENDBLK
  5
476BD
330
476B2
100
AcDbEntity
  8
0
100
AcDbBlockEnd
  0
BLOCK
  5
476E6
330
476DA
100
AcDbEntity
  8
0
100
AcDbBlockBegin
  2
*D18
 70
     1
 10
0.0
 20
0.0
 30
0.0
  3
*D18
  1

  0
LINE
  5
5887C
330
476DA
100
AcDbEntity
  8
SIZE
  6
CONTINUOUS
 62
     0
100
AcDbLine
 10
7500.080874165873
 20
-13437.62468489087
 30
0.0
 11
7500.080874165873
 21
-12992.14610200235
 31
0.0
  0
LINE
  5
5887D
330
476DA
100
AcDbEntity
  8
SIZE
  6
CONTINUOUS
 62
     0
100
AcDbLine
 10
7675.080874165873
 20
-13472.62468489087
 30
0.0
 11
7675.080874165873
 21
-12992.14610200235
 31
0.0
  0
LINE
  5
5887E
330
476DA
100
AcDbEntity
  8
SIZE
  6
CONTINUOUS
 62
     0
100
AcDbLine
 10
7490.080874165873
 20
-13022.14610200236
 30
0.0
 11
7480.080874165873
 21
-13022.14610200236
 31
0.0
  0
LINE
  5
5887F
330
476DA
100
AcDbEntity
  8
SIZE
  6
CONTINUOUS
 62
     0
100
AcDbLine
 10
7685.080874165873
 20
-13022.14610200236
 30
0.0
 11
7695.080874165873
 21
-13022.14610200236
 31
0.0
  0
LINE
  5
58880
330
476DA
100
AcDbEntity
  8
SIZE
  6
CONTINUOUS
 62
     0
100
AcDbLine
 10
7500.080874165873
 20
-13022.14610200236
 30
0.0
 11
7675.080874165873
 21
-13022.14610200236
 31
0.0
  0
INSERT
  5
58881
330
476DA
100
AcDbEntity
  8
SIZE
  6
CONTINUOUS
 62
     0
100
AcDbBlockReference
  2
_DOTBLANK
 10
7500.080874165873
 20
-13022.14610200236
 30
0.0
 41
10.0
 42
10.0
 43
10.0
  0
INSERT
  5
58882
330
476DA
100
AcDbEntity
  8
SIZE
  6
CONTINUOUS
 62
     0
100
AcDbBlockReference
  2
_DOTBLANK
 10
7675.080874165873
 20
-13022.14610200236
 30
0.0
 41
10.0
 42
10.0
 43
10.0
 50
180.0
  0
MTEXT
  5
58883
330
476DA
100
AcDbEntity
  8
SIZE
  6
CONTINUOUS
 62
     0
100
AcDbMText
 10
7578.725400990553
 20
-12980.14610200236
 30
0.0
 40
64.0
 41
0.0
 71
     5
 72
     1
  1
\A1;175
1001
ACAD
1000
MTEXTBEGIN
1070
    73
1070
     1
1070
    44
1040
1.0
1070
    74
1070
     0
1000
MTEXTEND
  0
POINT
  5
58884
330
476DA
100
AcDbEntity
  8
DEFPOINTS
  6
CONTINUOUS
 62
     0
100
AcDbPoint
 10
7500.080874165873
 20
-13457.62468489087
 30
0.0
  0
POINT
  5
58885
330
476DA
100
AcDbEntity
  8
DEFPOINTS
  6
CONTINUOUS
 62
     0
100
AcDbPoint
 10
7675.080874165873
 20
-13492.62468489087
 30
0.0
  0
POINT
  5
58886
330
476DA
100
AcDbEntity
  8
DEFPOINTS
  6
CONTINUOUS
 62
     0
100
AcDbPoint
 10
7675.080874165873
 20
-13022.14610200236
 30
0.0
  0
ENDBLK
  5
476E7
330
476DA
100
AcDbEntity
  8
0
100
AcDbBlockEnd
  0
BLOCK
  5
476F4
330
476E8
100
AcDbEntity
  8
0
100
AcDbBlockBegin
  2
*D19
 70
     1
 10
0.0
 20
0.0
 30
0.0
  3
*D19
  1

  0
LINE
  5
5B550
330
476E8
100
AcDbEntity
  8
SIZE
  6
CONTINUOUS
 62
     0
100
AcDbLine
 10
7540.080874165873
 20
-13472.62468489087
 30
0.0
 11
8018.070399999999
 21
-13472.62468489087
 31
0.0
  0
LINE
  5
5B551
330
476E8
100
AcDbEntity
  8
SIZE
  6
CONTINUOUS
 62
     0
100
AcDbLine
 10
7536.080874165873
 20
-13453.62468489087
 30
0.0
 11
8018.070399999999
 21
-13453.62468489087
 31
0.0
  0
LINE
  5
5B552
330
476E8
100
AcDbEntity
  8
SIZE
  6
CONTINUOUS
 62
     0
100
AcDbLine
 10
7988.070399999999
 20
-13482.62468489087
 30
0.0
 11
7988.070399999999
 21
-13492.62468489087
 31
0.0
  0
LINE
  5
5B553
330
476E8
100
AcDbEntity
  8
SIZE
  6
CONTINUOUS
 62
     0
100
AcDbLine
 10
7988.070399999999
 20
-13443.62468489087
 30
0.0
 11
7988.070399999999
 21
-13334.08182774802
 31
0.0
  0
LINE
  5
5B554
330
476E8
100
AcDbEntity
  8
SIZE
  6
CONTINUOUS
 62
     0
100
AcDbLine
 10
7988.070399999999
 20
-13472.62468489087
 30
0.0
 11
7988.070399999999
 21
-13453.62468489087
 31
0.0
  0
INSERT
  5
5B555
330
476E8
100
AcDbEntity
  8
SIZE
  6
CONTINUOUS
 62
     0
100
AcDbBlockReference
  2
_DOTBLANK
 10
7988.070399999999
 20
-13472.62468489087
 30
0.0
 41
10.0
 42
10.0
 43
10.0
 50
90.0
  0
INSERT
  5
5B556
330
476E8
100
AcDbEntity
  8
SIZE
  6
CONTINUOUS
 62
     0
100
AcDbBlockReference
  2
_DOTBLANK
 10
7988.070399999999
 20
-13453.62468489087
 30
0.0
 41
10.0
 42
10.0
 43
10.0
 50
270.0
  0
MTEXT
  5
5B557
330
476E8
100
AcDbEntity
  8
SIZE
  6
CONTINUOUS
 62
     0
100
AcDbMText
 10
7946.0704
 20
-13383.85325631944
 30
0.0
 40
64.0
 41
0.0
 71
     5
 72
     1
  1
\A1;19
 11
0.0000000000000001
 21
1.0
 31
0.0
1001
ACAD
1000
MTEXTBEGIN
1070
    73
1070
     1
1070
    44
1040
1.0
1070
    74
1070
     0
1000
MTEXTEND
  0
POINT
  5
5B558
330
476E8
100
AcDbEntity
  8
DEFPOINTS
  6
CONTINUOUS
 62
     0
100
AcDbPoint
 10
7520.080874165874
 20
-13472.62468489087
 30
0.0
  0
POINT
  5
5B559
330
476E8
100
AcDbEntity
  8
DEFPOINTS
  6
CONTINUOUS
 62
     0
100
AcDbPoint
 10
7516.080874165872
 20
-13453.62468489087
 30
0.0
  0
POINT
  5
5B55A
330
476E8
100
AcDbEntity
  8
DEFPOINTS
  6
CONTINUOUS
 62
     0
100
AcDbPoint
 10
7988.070399999999
 20
-13453.62468489087
 30
0.0
  0
ENDBLK
  5
476F5
330
476E8
100
AcDbEntity
  8
0
100
AcDbBlockEnd
  0
BLOCK
  5
47700
330
476F6
100
AcDbEntity
  8
0
100
AcDbBlockBegin
  2
*D20
 70
     1
 10
0.0
 20
0.0
 30
0.0
  3
*D20
  1

  0
LINE
  5
58887
330
476F6
100
AcDbEntity
  8
SIZE
  6
CONTINUOUS
 62
     0
100
AcDbLine
 10
6900.080874165873
 20
-13437.62468489087
 30
0.0
 11
6900.080874165873
 21
-12992.14610200235
 31
0.0
  0
LINE
  5
58888
330
476F6
100
AcDbEntity
  8
SIZE
  6
CONTINUOUS
 62
     0
100
AcDbLine
 10
7500.080874165873
 20
-13437.62468489087
 30
0.0
 11
7500.080874165873
 21
-12992.14610200235
 31
0.0
  0
LINE
  5
58889
330
476F6
100
AcDbEntity
  8
SIZE
  6
CONTINUOUS
 62
     0
100
AcDbLine
 10
6910.080874165872
 20
-13022.14610200236
 30
0.0
 11
7490.080874165873
 21
-13022.14610200236
 31
0.0
  0
INSERT
  5
5888A
330
476F6
100
AcDbEntity
  8
SIZE
  6
CONTINUOUS
 62
     0
100
AcDbBlockReference
  2
_DOTBLANK
 10
6900.080874165873
 20
-13022.14610200236
 30
0.0
 41
10.0
 42
10.0
 43
10.0
 50
180.0
  0
INSERT
  5
5888B
330
476F6
100
AcDbEntity
  8
SIZE
  6
CONTINUOUS
 62
     0
100
AcDbBlockReference
  2
_DOTBLANK
 10
7500.080874165873
 20
-13022.14610200236
 30
0.0
 41
10.0
 42
10.0
 43
10.0
  0
MTEXT
  5
5888C
330
476F6
100
AcDbEntity
  8
SIZE
  6
CONTINUOUS
 62
     0
100
AcDbMText
 10
7183.036698901742
 20
-12980.14610200236
 30
0.0
 40
64.0
 41
0.0
 71
     5
 72
     1
  1
\A1;600
1001
ACAD
1000
MTEXTBEGIN
1070
    73
1070
     1
1070
    44
1040
1.0
1070
    74
1070
     0
1000
MTEXTEND
  0
POINT
  5
5888D
330
476F6
100
AcDbEntity
  8
DEFPOINTS
  6
CONTINUOUS
 62
     0
100
AcDbPoint
 10
6900.080874165873
 20
-13457.62468489087
 30
0.0
  0
POINT
  5
5888E
330
476F6
100
AcDbEntity
  8
DEFPOINTS
  6
CONTINUOUS
 62
     0
100
AcDbPoint
 10
7500.080874165873
 20
-13457.62468489087
 30
0.0
  0
POINT
  5
5888F
330
476F6
100
AcDbEntity
  8
DEFPOINTS
  6
CONTINUOUS
 62
     0
100
AcDbPoint
 10
7500.080874165873
 20
-13022.14610200236
 30
0.0
  0
ENDBLK
  5
47701
330
476F6
100
AcDbEntity
  8
0
100
AcDbBlockEnd
  0
BLOCK
  5
4773D
330
47733
100
AcDbEntity
  8
0
100
AcDbBlockBegin
  2
*D21
 70
     1
 10
0.0
 20
0.0
 30
0.0
  3
*D21
  1

  0
LINE
  5
64C2C
330
47733
100
AcDbEntity
  8
SIZE
  6
CONTINUOUS
 62
     0
100
AcDbLine
 10
300.0
 20
-40.0
 30
0.0
 11
300.0
 21
-386.1396645981221
 31
0.0
  0
LINE
  5
64C2D
330
47733
100
AcDbEntity
  8
SIZE
  6
CONTINUOUS
 62
     0
100
AcDbLine
 10
475.0
 20
3.0
 30
0.0
 11
475.0
 21
-386.1396645981221
 31
0.0
  0
LINE
  5
64C2E
330
47733
100
AcDbEntity
  8
SIZE
  6
CONTINUOUS
 62
     0
100
AcDbLine
 10
290.0
 20
-356.1396645981222
 30
0.0
 11
280.0
 21
-356.1396645981222
 31
0.0
  0
LINE
  5
64C2F
330
47733
100
AcDbEntity
  8
SIZE
  6
CONTINUOUS
 62
     0
100
AcDbLine
 10
485.0
 20
-356.1396645981222
 30
0.0
 11
495.0
 21
-356.1396645981222
 31
0.0
  0
LINE
  5
64C30
330
47733
100
AcDbEntity
  8
SIZE
  6
CONTINUOUS
 62
     0
100
AcDbLine
 10
300.0
 20
-356.1396645981222
 30
0.0
 11
475.0
 21
-356.1396645981222
 31
0.0
  0
INSERT
  5
64C31
330
47733
100
AcDbEntity
  8
SIZE
  6
CONTINUOUS
 62
     0
100
AcDbBlockReference
  2
_DOTBLANK
 10
300.0
 20
-356.1396645981222
 30
0.0
 41
10.0
 42
10.0
 43
10.0
  0
INSERT
  5
64C32
330
47733
100
AcDbEntity
  8
SIZE
  6
CONTINUOUS
 62
     0
100
AcDbBlockReference
  2
_DOTBLANK
 10
475.0
 20
-356.1396645981222
 30
0.0
 41
10.0
 42
10.0
 43
10.0
 50
180.0
  0
MTEXT
  5
64C33
330
47733
100
AcDbEntity
  8
SIZE
  6
CONTINUOUS
 62
     0
100
AcDbMText
 10
384.7151420124446
 20
-314.1396645981221
 30
0.0
 40
64.0
 41
0.0
 71
     5
 72
     1
  1
\A1;175
1001
ACAD
1000
MTEXTBEGIN
1070
    73
1070
     1
1070
    44
1040
1.0
1070
    74
1070
     0
1000
MTEXTEND
  0
POINT
  5
64C34
330
47733
100
AcDbEntity
  8
DEFPOINTS
  6
CONTINUOUS
 62
     0
100
AcDbPoint
 10
300.0
 20
-20.0
 30
0.0
  0
POINT
  5
64C35
330
47733
100
AcDbEntity
  8
DEFPOINTS
  6
CONTINUOUS
 62
     0
100
AcDbPoint
 10
475.0
 20
23.0
 30
0.0
  0
POINT
  5
64C36
330
47733
100
AcDbEntity
  8
DEFPOINTS
  6
CONTINUOUS
 62
     0
100
AcDbPoint
 10
475.0
 20
-356.1396645981222
 30
0.0
  0
ENDBLK
  5
4773E
330
47733
100
AcDbEntity
  8
0
100
AcDbBlockEnd
  0
BLOCK
  5
47749
330
4773F
100
AcDbEntity
  8
0
100
AcDbBlockBegin
  2
*D22
 70
     1
 10
0.0
 20
0.0
 30
0.0
  3
*D22
  1

  0
LINE
  5
64C23
330
4773F
100
AcDbEntity
  8
SIZE
  6
CONTINUOUS
 62
     0
100
AcDbLine
 10
-300.0
 20
-40.0
 30
0.0
 11
-300.0
 21
-386.1396645981221
 31
0.0
  0
LINE
  5
64C24
330
4773F
100
AcDbEntity
  8
SIZE
  6
CONTINUOUS
 62
     0
100
AcDbLine
 10
300.0
 20
-40.0
 30
0.0
 11
300.0
 21
-386.1396645981221
 31
0.0
  0
LINE
  5
64C25
330
4773F
100
AcDbEntity
  8
SIZE
  6
CONTINUOUS
 62
     0
100
AcDbLine
 10
-290.0
 20
-356.1396645981222
 30
0.0
 11
290.0
 21
-356.1396645981222
 31
0.0
  0
INSERT
  5
64C26
330
4773F
100
AcDbEntity
  8
SIZE
  6
CONTINUOUS
 62
     0
100
AcDbBlockReference
  2
_DOTBLANK
 10
-300.0
 20
-356.1396645981222
 30
0.0
 41
10.0
 42
10.0
 43
10.0
 50
180.0
  0
INSERT
  5
64C27
330
4773F
100
AcDbEntity
  8
SIZE
  6
CONTINUOUS
 62
     0
100
AcDbBlockReference
  2
_DOTBLANK
 10
300.0
 20
-356.1396645981222
 30
0.0
 41
10.0
 42
10.0
 43
10.0
  0
MTEXT
  5
64C28
330
4773F
100
AcDbEntity
  8
SIZE
  6
CONTINUOUS
 62
     0
100
AcDbMText
 10
-2.6068362348833
 20
-314.1396645981221
 30
0.0
 40
64.0
 41
0.0
 71
     5
 72
     1
  1
\A1;600
1001
ACAD
1000
MTEXTBEGIN
1070
    73
1070
     1
1070
    44
1040
1.0
1070
    74
1070
     0
1000
MTEXTEND
  0
POINT
  5
64C29
330
4773F
100
AcDbEntity
  8
DEFPOINTS
  6
CONTINUOUS
 62
     0
100
AcDbPoint
 10
-300.0
 20
-20.0
 30
0.0
  0
POINT
  5
64C2A
330
4773F
100
AcDbEntity
  8
DEFPOINTS
  6
CONTINUOUS
 62
     0
100
AcDbPoint
 10
300.0
 20
-20.0
 30
0.0
  0
POINT
  5
64C2B
330
4773F
100
AcDbEntity
  8
DEFPOINTS
  6
CONTINUOUS
 62
     0
100
AcDbPoint
 10
300.0
 20
-356.1396645981222
 30
0.0
  0
ENDBLK
  5
4774A
330
4773F
100
AcDbEntity
  8
0
100
AcDbBlockEnd
  0
BLOCK
  5
477A2
330
47798
100
AcDbEntity
  8
0
100
AcDbBlockBegin
  2
*D23
 70
     1
 10
0.0
 20
0.0
 30
0.0
  3
*D23
  1

  0
LINE
  5
5B670
330
47798
100
AcDbEntity
  8
SIZE
  6
CONTINUOUS
 62
     0
100
AcDbLine
 10
7540.080874165873
 20
-9130.909472125471
 30
0.0
 11
8157.639848380531
 21
-9130.909472125471
 31
0.0
  0
LINE
  5
5B671
330
47798
100
AcDbEntity
  8
SIZE
  6
CONTINUOUS
 62
     0
100
AcDbLine
 10
7540.080874165873
 20
-8760.909472125472
 30
0.0
 11
8157.639848380531
 21
-8760.909472125472
 31
0.0
  0
LINE
  5
5B672
330
47798
100
AcDbEntity
  8
SIZE
  6
CONTINUOUS
 62
     0
100
AcDbLine
 10
8127.639848380532
 20
-9120.909472125472
 30
0.0
 11
8127.639848380532
 21
-8770.909472125472
 31
0.0
  0
INSERT
  5
5B673
330
47798
100
AcDbEntity
  8
SIZE
  6
CONTINUOUS
 62
     0
100
AcDbBlockReference
  2
_DOTBLANK
 10
8127.639848380532
 20
-9130.909472125471
 30
0.0
 41
10.0
 42
10.0
 43
10.0
 50
270.0
  0
INSERT
  5
5B674
330
47798
100
AcDbEntity
  8
SIZE
  6
CONTINUOUS
 62
     0
100
AcDbBlockReference
  2
_DOTBLANK
 10
8127.639848380532
 20
-8760.909472125472
 30
0.0
 41
10.0
 42
10.0
 43
10.0
 50
90.0
  0
MTEXT
  5
5B675
330
47798
100
AcDbEntity
  8
SIZE
  6
CONTINUOUS
 62
     0
100
AcDbMText
 10
8085.639848380534
 20
-8956.127706957234
 30
0.0
 40
64.0
 41
0.0
 71
     5
 72
     1
  1
\A1;370
 11
0.0000000000000001
 21
1.0
 31
0.0
1001
ACAD
1000
MTEXTBEGIN
1070
    73
1070
     1
1070
    44
1040
1.0
1070
    74
1070
     0
1000
MTEXTEND
  0
POINT
  5
5B676
330
47798
100
AcDbEntity
  8
DEFPOINTS
  6
CONTINUOUS
 62
     0
100
AcDbPoint
 10
7520.080874165874
 20
-9130.909472125471
 30
0.0
  0
POINT
  5
5B677
330
47798
100
AcDbEntity
  8
DEFPOINTS
  6
CONTINUOUS
 62
     0
100
AcDbPoint
 10
7520.080874165874
 20
-8760.909472125472
 30
0.0
  0
POINT
  5
5B678
330
47798
100
AcDbEntity
  8
DEFPOINTS
  6
CONTINUOUS
 62
     0
100
AcDbPoint
 10
8127.639848380532
 20
-8760.909472125472
 30
0.0
  0
ENDBLK
  5
477A3
330
47798
100
AcDbEntity
  8
0
100
AcDbBlockEnd
  0
BLOCK
  5
477D2
330
477C8
100
AcDbEntity
  8
0
100
AcDbBlockBegin
  2
*D24
 70
     1
 10
0.0
 20
0.0
 30
0.0
  3
*D24
  1

  0
LINE
  5
64B18
330
477C8
100
AcDbEntity
  8
SIZE
  6
CONTINUOUS
 62
     0
100
AcDbLine
 10
6725.080874165873
 20
-9130.909472125471
 30
0.0
 11
6725.080874165873
 21
-9891.019700000001
 31
0.0
  0
LINE
  5
64B19
330
477C8
100
AcDbEntity
  8
SIZE
  6
CONTINUOUS
 62
     0
100
AcDbLine
 10
7047.080874165873
 20
-9218.775091625472
 30
0.0
 11
7047.080874165873
 21
-9891.019700000001
 31
0.0
  0
LINE
  5
64B1A
330
477C8
100
AcDbEntity
  8
SIZE
  6
CONTINUOUS
 62
     0
100
AcDbLine
 10
6735.080874165872
 20
-9861.019700000001
 30
0.0
 11
7037.080874165873
 21
-9861.019700000001
 31
0.0
  0
INSERT
  5
64B1B
330
477C8
100
AcDbEntity
  8
SIZE
  6
CONTINUOUS
 62
     0
100
AcDbBlockReference
  2
_DOTBLANK
 10
6725.080874165873
 20
-9861.019700000001
 30
0.0
 41
10.0
 42
10.0
 43
10.0
 50
180.0
  0
INSERT
  5
64B1C
330
477C8
100
AcDbEntity
  8
SIZE
  6
CONTINUOUS
 62
     0
100
AcDbBlockReference
  2
_DOTBLANK
 10
7047.080874165873
 20
-9861.019700000001
 30
0.0
 41
10.0
 42
10.0
 43
10.0
  0
MTEXT
  5
64B1D
330
477C8
100
AcDbEntity
  8
SIZE
  6
CONTINUOUS
 62
     0
100
AcDbMText
 10
6905.8841
 20
-9819.019700000001
 30
0.0
 40
64.0
 41
0.0
 71
     5
 72
     1
  1
\A1;322
1001
ACAD
1000
MTEXTBEGIN
1070
    73
1070
     1
1070
    44
1040
1.0
1070
    74
1070
     0
1000
MTEXTEND
  0
POINT
  5
64B1E
330
477C8
100
AcDbEntity
  8
DEFPOINTS
  6
CONTINUOUS
 62
     0
100
AcDbPoint
 10
6725.080874165873
 20
-9110.909472125472
 30
0.0
  0
POINT
  5
64B1F
330
477C8
100
AcDbEntity
  8
DEFPOINTS
  6
CONTINUOUS
 62
     0
100
AcDbPoint
 10
7047.080874165873
 20
-9198.775091625472
 30
0.0
  0
POINT
  5
64B20
330
477C8
100
AcDbEntity
  8
DEFPOINTS
  6
CONTINUOUS
 62
     0
100
AcDbPoint
 10
7047.080874165873
 20
-9861.019700000001
 30
0.0
  0
ENDBLK
  5
477D3
330
477C8
100
AcDbEntity
  8
0
100
AcDbBlockEnd
  0
BLOCK
  5
477DF
330
477D4
100
AcDbEntity
  8
0
100
AcDbBlockBegin
  2
*D25
 70
     1
 10
0.0
 20
0.0
 30
0.0
  3
*D25
  1

  0
LINE
  5
5B6C8
330
477D4
100
AcDbEntity
  8
SIZE
  6
CONTINUOUS
 62
     0
100
AcDbLine
 10
6705.080874165872
 20
-9110.909472125472
 30
0.0
 11
6573.559
 21
-9110.909472125472
 31
0.0
  0
LINE
  5
5B6C9
330
477D4
100
AcDbEntity
  8
SIZE
  6
CONTINUOUS
 62
     0
100
AcDbLine
 10
6738.080874166026
 20
-9135.909472125472
 30
0.0
 11
6573.559
 21
-9135.909472125472
 31
0.0
  0
LINE
  5
5B6CA
330
477D4
100
AcDbEntity
  8
SIZE
  6
CONTINUOUS
 62
     0
100
AcDbLine
 10
6603.559
 20
-9100.90947212547
 30
0.0
 11
6603.559
 21
-9090.909472125472
 31
0.0
  0
LINE
  5
5B6CB
330
477D4
100
AcDbEntity
  8
SIZE
  6
CONTINUOUS
 62
     0
100
AcDbLine
 10
6603.559
 20
-9145.909472125472
 30
0.0
 11
6603.559
 21
-9269.166614982614
 31
0.0
  0
LINE
  5
5B6CC
330
477D4
100
AcDbEntity
  8
SIZE
  6
CONTINUOUS
 62
     0
100
AcDbLine
 10
6603.559
 20
-9110.909472125472
 30
0.0
 11
6603.559
 21
-9135.909472125472
 31
0.0
  0
INSERT
  5
5B6CD
330
477D4
100
AcDbEntity
  8
SIZE
  6
CONTINUOUS
 62
     0
100
AcDbBlockReference
  2
_DOTBLANK
 10
6603.559
 20
-9110.909472125472
 30
0.0
 41
10.0
 42
10.0
 43
10.0
 50
270.0
  0
INSERT
  5
5B6CE
330
477D4
100
AcDbEntity
  8
SIZE
  6
CONTINUOUS
 62
     0
100
AcDbBlockReference
  2
_DOTBLANK
 10
6603.559
 20
-9135.909472125472
 30
0.0
 41
10.0
 42
10.0
 43
10.0
 50
90.0
  0
MTEXT
  5
5B6CF
330
477D4
100
AcDbEntity
  8
SIZE
  6
CONTINUOUS
 62
     0
100
AcDbMText
 10
6561.559000000001
 20
-9212.53804355404
 30
0.0
 40
64.0
 41
0.0
 71
     5
 72
     1
  1
\A1;25
 11
0.0000000000000001
 21
1.0
 31
0.0
1001
ACAD
1000
MTEXTBEGIN
1070
    73
1070
     1
1070
    44
1040
1.0
1070
    74
1070
     0
1000
MTEXTEND
  0
POINT
  5
5B6D0
330
477D4
100
AcDbEntity
  8
DEFPOINTS
  6
CONTINUOUS
 62
     0
100
AcDbPoint
 10
6725.080874165873
 20
-9110.909472125472
 30
0.0
  0
POINT
  5
5B6D1
330
477D4
100
AcDbEntity
  8
DEFPOINTS
  6
CONTINUOUS
 62
     0
100
AcDbPoint
 10
6758.080874166026
 20
-9135.909472125472
 30
0.0
  0
POINT
  5
5B6D2
330
477D4
100
AcDbEntity
  8
DEFPOINTS
  6
CONTINUOUS
 62
     0
100
AcDbPoint
 10
6603.559
 20
-9135.909472125472
 30
0.0
  0
ENDBLK
  5
477E0
330
477D4
100
AcDbEntity
  8
0
100
AcDbBlockEnd
  0
BLOCK
  5
47811
330
47806
100
AcDbEntity
  8
0
100
AcDbBlockBegin
  2
*D26
 70
     1
 10
0.0
 20
0.0
 30
0.0
  3
*D26
  1

  0
LINE
  5
5B665
330
47806
100
AcDbEntity
  8
SIZE
  6
CONTINUOUS
 62
     0
100
AcDbLine
 10
7540.080874165873
 20
-9130.909472125471
 30
0.0
 11
8159.579708750172
 21
-9130.909472125471
 31
0.0
  0
LINE
  5
5B666
330
47806
100
AcDbEntity
  8
SIZE
  6
CONTINUOUS
 62
     0
100
AcDbLine
 10
7536.080874165873
 20
-9158.90947212547
 30
0.0
 11
8159.579708750172
 21
-9158.90947212547
 31
0.0
  0
LINE
  5
5B667
330
47806
100
AcDbEntity
  8
SIZE
  6
CONTINUOUS
 62
     0
100
AcDbLine
 10
8129.579708750171
 20
-9120.909472125472
 30
0.0
 11
8129.579708750171
 21
-9110.909472125472
 31
0.0
  0
LINE
  5
5B668
330
47806
100
AcDbEntity
  8
SIZE
  6
CONTINUOUS
 62
     0
100
AcDbLine
 10
8129.579708750171
 20
-9168.909472125472
 30
0.0
 11
8129.579708750171
 21
-9292.166614982614
 31
0.0
  0
LINE
  5
5B669
330
47806
100
AcDbEntity
  8
SIZE
  6
CONTINUOUS
 62
     0
100
AcDbLine
 10
8129.579708750171
 20
-9130.909472125471
 30
0.0
 11
8129.579708750171
 21
-9158.90947212547
 31
0.0
  0
INSERT
  5
5B66A
330
47806
100
AcDbEntity
  8
SIZE
  6
CONTINUOUS
 62
     0
100
AcDbBlockReference
  2
_DOTBLANK
 10
8129.579708750171
 20
-9130.909472125471
 30
0.0
 41
10.0
 42
10.0
 43
10.0
 50
270.0
  0
INSERT
  5
5B66B
330
47806
100
AcDbEntity
  8
SIZE
  6
CONTINUOUS
 62
     0
100
AcDbBlockReference
  2
_DOTBLANK
 10
8129.579708750171
 20
-9158.90947212547
 30
0.0
 41
10.0
 42
10.0
 43
10.0
 50
90.0
  0
MTEXT
  5
5B66C
330
47806
100
AcDbEntity
  8
SIZE
  6
CONTINUOUS
 62
     0
100
AcDbMText
 10
8087.579708750173
 20
-9235.538043554042
 30
0.0
 40
64.0
 41
0.0
 71
     5
 72
     1
  1
\A1;28
 11
0.0000000000000001
 21
1.0
 31
0.0
1001
ACAD
1000
MTEXTBEGIN
1070
    73
1070
     1
1070
    44
1040
1.0
1070
    74
1070
     0
1000
MTEXTEND
  0
POINT
  5
5B66D
330
47806
100
AcDbEntity
  8
DEFPOINTS
  6
CONTINUOUS
 62
     0
100
AcDbPoint
 10
7520.080874165874
 20
-9130.909472125471
 30
0.0
  0
POINT
  5
5B66E
330
47806
100
AcDbEntity
  8
DEFPOINTS
  6
CONTINUOUS
 62
     0
100
AcDbPoint
 10
7516.080874165872
 20
-9158.90947212547
 30
0.0
  0
POINT
  5
5B66F
330
47806
100
AcDbEntity
  8
DEFPOINTS
  6
CONTINUOUS
 62
     0
100
AcDbPoint
 10
8129.579708750171
 20
-9158.90947212547
 30
0.0
  0
ENDBLK
  5
47812
330
47806
100
AcDbEntity
  8
0
100
AcDbBlockEnd
  0
BLOCK
  5
47836
330
4782C
100
AcDbEntity
  8
0
100
AcDbBlockBegin
  2
*D27
 70
     1
 10
0.0
 20
0.0
 30
0.0
  3
*D27
  1

  0
LINE
  5
6467E
330
4782C
100
AcDbEntity
  8
SIZE
  6
CONTINUOUS
 62
     0
100
AcDbLine
 10
6725.080874165873
 20
-8760.909472125472
 30
0.0
 11
6725.080874165873
 21
-7881.550100000001
 31
0.0
  0
LINE
  5
6467F
330
4782C
100
AcDbEntity
  8
SIZE
  6
CONTINUOUS
 62
     0
100
AcDbLine
 10
7675.080874165873
 20
-8760.909472125472
 30
0.0
 11
7675.080874165873
 21
-7881.550100000001
 31
0.0
  0
LINE
  5
64680
330
4782C
100
AcDbEntity
  8
SIZE
  6
CONTINUOUS
 62
     0
100
AcDbLine
 10
6735.080874165872
 20
-7911.550100000001
 30
0.0
 11
7665.080874165873
 21
-7911.550100000001
 31
0.0
  0
INSERT
  5
64681
330
4782C
100
AcDbEntity
  8
SIZE
  6
CONTINUOUS
 62
     0
100
AcDbBlockReference
  2
_DOTBLANK
 10
6725.080874165873
 20
-7911.550100000001
 30
0.0
 41
10.0
 42
10.0
 43
10.0
 50
180.0
  0
INSERT
  5
64682
330
4782C
100
AcDbEntity
  8
SIZE
  6
CONTINUOUS
 62
     0
100
AcDbBlockReference
  2
_DOTBLANK
 10
7675.080874165873
 20
-7911.550100000001
 30
0.0
 41
10.0
 42
10.0
 43
10.0
  0
MTEXT
  5
64683
330
4782C
100
AcDbEntity
  8
SIZE
  6
CONTINUOUS
 62
     0
100
AcDbMText
 10
7189.0307
 20
-7869.550100000001
 30
0.0
 40
64.0
 41
0.0
 71
     5
 72
     1
  1
\A1;950
1001
ACAD
1000
MTEXTBEGIN
1070
    73
1070
     1
1070
    44
1040
1.0
1070
    74
1070
     0
1000
MTEXTEND
  0
POINT
  5
64684
330
4782C
100
AcDbEntity
  8
DEFPOINTS
  6
CONTINUOUS
 62
     0
100
AcDbPoint
 10
6725.080874165873
 20
-8780.90947212547
 30
0.0
  0
POINT
  5
64685
330
4782C
100
AcDbEntity
  8
DEFPOINTS
  6
CONTINUOUS
 62
     0
100
AcDbPoint
 10
7675.080874165873
 20
-8780.90947212547
 30
0.0
  0
POINT
  5
64686
330
4782C
100
AcDbEntity
  8
DEFPOINTS
  6
CONTINUOUS
 62
     0
100
AcDbPoint
 10
7675.080874165873
 20
-7911.550100000001
 30
0.0
  0
ENDBLK
  5
47837
330
4782C
100
AcDbEntity
  8
0
100
AcDbBlockEnd
  0
BLOCK
  5
47842
330
47838
100
AcDbEntity
  8
0
100
AcDbBlockBegin
  2
*D28
 70
     1
 10
0.0
 20
0.0
 30
0.0
  3
*D28
  1

  0
LINE
  5
6469B
330
47838
100
AcDbEntity
  8
SIZE
  6
CONTINUOUS
 62
     0
100
AcDbLine
 10
6725.080874165873
 20
-8760.909472125472
 30
0.0
 11
6725.080874165873
 21
-8032.770400000002
 31
0.0
  0
LINE
  5
6469C
330
47838
100
AcDbEntity
  8
SIZE
  6
CONTINUOUS
 62
     0
100
AcDbLine
 10
6900.080874165873
 20
-8725.90947212547
 30
0.0
 11
6900.080874165873
 21
-8032.770400000002
 31
0.0
  0
LINE
  5
6469D
330
47838
100
AcDbEntity
  8
SIZE
  6
CONTINUOUS
 62
     0
100
AcDbLine
 10
6715.080874165874
 20
-8062.770400000001
 30
0.0
 11
6705.080874165872
 21
-8062.770400000001
 31
0.0
  0
LINE
  5
6469E
330
47838
100
AcDbEntity
  8
SIZE
  6
CONTINUOUS
 62
     0
100
AcDbLine
 10
6910.080874165872
 20
-8062.770400000001
 30
0.0
 11
6920.080874165873
 21
-8062.770400000001
 31
0.0
  0
LINE
  5
6469F
330
47838
100
AcDbEntity
  8
SIZE
  6
CONTINUOUS
 62
     0
100
AcDbLine
 10
6725.080874165873
 20
-8062.770400000001
 30
0.0
 11
6900.080874165873
 21
-8062.770400000001
 31
0.0
  0
INSERT
  5
646A0
330
47838
100
AcDbEntity
  8
SIZE
  6
CONTINUOUS
 62
     0
100
AcDbBlockReference
  2
_DOTBLANK
 10
6725.080874165873
 20
-8062.770400000001
 30
0.0
 41
10.0
 42
10.0
 43
10.0
  0
INSERT
  5
646A1
330
47838
100
AcDbEntity
  8
SIZE
  6
CONTINUOUS
 62
     0
100
AcDbBlockReference
  2
_DOTBLANK
 10
6900.080874165873
 20
-8062.770400000001
 30
0.0
 41
10.0
 42
10.0
 43
10.0
 50
180.0
  0
MTEXT
  5
646A2
330
47838
100
AcDbEntity
  8
SIZE
  6
CONTINUOUS
 62
     0
100
AcDbMText
 10
6820.248949599181
 20
-8020.770400000001
 30
0.0
 40
64.0
 41
0.0
 71
     5
 72
     1
  1
\A1;175
1001
ACAD
1000
MTEXTBEGIN
1070
    73
1070
     1
1070
    44
1040
1.0
1070
    74
1070
     0
1000
MTEXTEND
  0
POINT
  5
646A3
330
47838
100
AcDbEntity
  8
DEFPOINTS
  6
CONTINUOUS
 62
     0
100
AcDbPoint
 10
6725.080874165873
 20
-8780.90947212547
 30
0.0
  0
POINT
  5
646A4
330
47838
100
AcDbEntity
  8
DEFPOINTS
  6
CONTINUOUS
 62
     0
100
AcDbPoint
 10
6900.080874165873
 20
-8745.909472125472
 30
0.0
  0
POINT
  5
646A5
330
47838
100
AcDbEntity
  8
DEFPOINTS
  6
CONTINUOUS
 62
     0
100
AcDbPoint
 10
6900.080874165873
 20
-8062.770400000001
 30
0.0
  0
ENDBLK
  5
47843
330
47838
100
AcDbEntity
  8
0
100
AcDbBlockEnd
  0
BLOCK
  5
4785E
330
47852
100
AcDbEntity
  8
0
100
AcDbBlockBegin
  2
*D29
 70
     1
 10
0.0
 20
0.0
 30
0.0
  3
*D29
  1

  0
LINE
  5
5B65A
330
47852
100
AcDbEntity
  8
SIZE
  6
CONTINUOUS
 62
     0
100
AcDbLine
 10
7540.080874165873
 20
-8760.909472125472
 30
0.0
 11
8159.579708750172
 21
-8760.909472125472
 31
0.0
  0
LINE
  5
5B65B
330
47852
100
AcDbEntity
  8
SIZE
  6
CONTINUOUS
 62
     0
100
AcDbLine
 10
7536.080874165873
 20
-8741.909472125472
 30
0.0
 11
8159.579708750172
 21
-8741.909472125472
 31
0.0
  0
LINE
  5
5B65C
330
47852
100
AcDbEntity
  8
SIZE
  6
CONTINUOUS
 62
     0
100
AcDbLine
 10
8129.579708750171
 20
-8770.909472125472
 30
0.0
 11
8129.579708750171
 21
-8780.90947212547
 31
0.0
  0
LINE
  5
5B65D
330
47852
100
AcDbEntity
  8
SIZE
  6
CONTINUOUS
 62
     0
100
AcDbLine
 10
8129.579708750171
 20
-8731.909472125471
 30
0.0
 11
8129.579708750171
 21
-8622.366614982615
 31
0.0
  0
LINE
  5
5B65E
330
47852
100
AcDbEntity
  8
SIZE
  6
CONTINUOUS
 62
     0
100
AcDbLine
 10
8129.579708750171
 20
-8760.909472125472
 30
0.0
 11
8129.579708750171
 21
-8741.909472125472
 31
0.0
  0
INSERT
  5
5B65F
330
47852
100
AcDbEntity
  8
SIZE
  6
CONTINUOUS
 62
     0
100
AcDbBlockReference
  2
_DOTBLANK
 10
8129.579708750171
 20
-8760.909472125472
 30
0.0
 41
10.0
 42
10.0
 43
10.0
 50
90.0
  0
INSERT
  5
5B660
330
47852
100
AcDbEntity
  8
SIZE
  6
CONTINUOUS
 62
     0
100
AcDbBlockReference
  2
_DOTBLANK
 10
8129.579708750171
 20
-8741.909472125472
 30
0.0
 41
10.0
 42
10.0
 43
10.0
 50
270.0
  0
MTEXT
  5
5B661
330
47852
100
AcDbEntity
  8
SIZE
  6
CONTINUOUS
 62
     0
100
AcDbMText
 10
8087.579708750173
 20
-8672.13804355404
 30
0.0
 40
64.0
 41
0.0
 71
     5
 72
     1
  1
\A1;19
 11
0.0000000000000001
 21
1.0
 31
0.0
1001
ACAD
1000
MTEXTBEGIN
1070
    73
1070
     1
1070
    44
1040
1.0
1070
    74
1070
     0
1000
MTEXTEND
  0
POINT
  5
5B662
330
47852
100
AcDbEntity
  8
DEFPOINTS
  6
CONTINUOUS
 62
     0
100
AcDbPoint
 10
7520.080874165874
 20
-8760.909472125472
 30
0.0
  0
POINT
  5
5B663
330
47852
100
AcDbEntity
  8
DEFPOINTS
  6
CONTINUOUS
 62
     0
100
AcDbPoint
 10
7516.080874165872
 20
-8741.909472125472
 30
0.0
  0
POINT
  5
5B664
330
47852
100
AcDbEntity
  8
DEFPOINTS
  6
CONTINUOUS
 62
     0
100
AcDbPoint
 10
8129.579708750171
 20
-8741.909472125472
 30
0.0
  0
ENDBLK
  5
4785F
330
47852
100
AcDbEntity
  8
0
100
AcDbBlockEnd
  0
BLOCK
  5
4786C
330
47860
100
AcDbEntity
  8
0
100
AcDbBlockBegin
  2
*D30
 70
     1
 10
0.0
 20
0.0
 30
0.0
  3
*D30
  1

  0
LINE
  5
64690
330
47860
100
AcDbEntity
  8
SIZE
  6
CONTINUOUS
 62
     0
100
AcDbLine
 10
7500.080874165873
 20
-8725.90947212547
 30
0.0
 11
7500.080874165873
 21
-8032.770400000002
 31
0.0
  0
LINE
  5
64691
330
47860
100
AcDbEntity
  8
SIZE
  6
CONTINUOUS
 62
     0
100
AcDbLine
 10
7675.080874165873
 20
-8760.909472125472
 30
0.0
 11
7675.080874165873
 21
-8032.770400000002
 31
0.0
  0
LINE
  5
64692
330
47860
100
AcDbEntity
  8
SIZE
  6
CONTINUOUS
 62
     0
100
AcDbLine
 10
7490.080874165873
 20
-8062.770400000001
 30
0.0
 11
7480.080874165873
 21
-8062.770400000001
 31
0.0
  0
LINE
  5
64693
330
47860
100
AcDbEntity
  8
SIZE
  6
CONTINUOUS
 62
     0
100
AcDbLine
 10
7685.080874165873
 20
-8062.770400000001
 30
0.0
 11
7695.080874165873
 21
-8062.770400000001
 31
0.0
  0
LINE
  5
64694
330
47860
100
AcDbEntity
  8
SIZE
  6
CONTINUOUS
 62
     0
100
AcDbLine
 10
7500.080874165873
 20
-8062.770400000001
 30
0.0
 11
7675.080874165873
 21
-8062.770400000001
 31
0.0
  0
INSERT
  5
64695
330
47860
100
AcDbEntity
  8
SIZE
  6
CONTINUOUS
 62
     0
100
AcDbBlockReference
  2
_DOTBLANK
 10
7500.080874165873
 20
-8062.770400000001
 30
0.0
 41
10.0
 42
10.0
 43
10.0
  0
INSERT
  5
64696
330
47860
100
AcDbEntity
  8
SIZE
  6
CONTINUOUS
 62
     0
100
AcDbBlockReference
  2
_DOTBLANK
 10
7675.080874165873
 20
-8062.770400000001
 30
0.0
 41
10.0
 42
10.0
 43
10.0
 50
180.0
  0
MTEXT
  5
64697
330
47860
100
AcDbEntity
  8
SIZE
  6
CONTINUOUS
 62
     0
100
AcDbMText
 10
7566.814118733782
 20
-8020.770400000001
 30
0.0
 40
64.0
 41
0.0
 71
     5
 72
     1
  1
\A1;175
1001
ACAD
1000
MTEXTBEGIN
1070
    73
1070
     1
1070
    44
1040
1.0
1070
    74
1070
     0
1000
MTEXTEND
  0
POINT
  5
64698
330
47860
100
AcDbEntity
  8
DEFPOINTS
  6
CONTINUOUS
 62
     0
100
AcDbPoint
 10
7500.080874165873
 20
-8745.909472125472
 30
0.0
  0
POINT
  5
64699
330
47860
100
AcDbEntity
  8
DEFPOINTS
  6
CONTINUOUS
 62
     0
100
AcDbPoint
 10
7675.080874165873
 20
-8780.90947212547
 30
0.0
  0
POINT
  5
6469A
330
47860
100
AcDbEntity
  8
DEFPOINTS
  6
CONTINUOUS
 62
     0
100
AcDbPoint
 10
7675.080874165873
 20
-8062.770400000001
 30
0.0
  0
ENDBLK
  5
4786D
330
47860
100
AcDbEntity
  8
0
100
AcDbBlockEnd
  0
BLOCK
  5
47878
330
4786E
100
AcDbEntity
  8
0
100
AcDbBlockBegin
  2
*D31
 70
     1
 10
0.0
 20
0.0
 30
0.0
  3
*D31
  1

  0
LINE
  5
64687
330
4786E
100
AcDbEntity
  8
SIZE
  6
CONTINUOUS
 62
     0
100
AcDbLine
 10
6900.080874165873
 20
-8725.90947212547
 30
0.0
 11
6900.080874165873
 21
-8032.770400000002
 31
0.0
  0
LINE
  5
64688
330
4786E
100
AcDbEntity
  8
SIZE
  6
CONTINUOUS
 62
     0
100
AcDbLine
 10
7500.080874165873
 20
-8725.90947212547
 30
0.0
 11
7500.080874165873
 21
-8032.770400000002
 31
0.0
  0
LINE
  5
64689
330
4786E
100
AcDbEntity
  8
SIZE
  6
CONTINUOUS
 62
     0
100
AcDbLine
 10
6910.080874165872
 20
-8062.770400000001
 30
0.0
 11
7490.080874165873
 21
-8062.770400000001
 31
0.0
  0
INSERT
  5
6468A
330
4786E
100
AcDbEntity
  8
SIZE
  6
CONTINUOUS
 62
     0
100
AcDbBlockReference
  2
_DOTBLANK
 10
6900.080874165873
 20
-8062.770400000001
 30
0.0
 41
10.0
 42
10.0
 43
10.0
 50
180.0
  0
INSERT
  5
6468B
330
4786E
100
AcDbEntity
  8
SIZE
  6
CONTINUOUS
 62
     0
100
AcDbBlockReference
  2
_DOTBLANK
 10
7500.080874165873
 20
-8062.770400000001
 30
0.0
 41
10.0
 42
10.0
 43
10.0
  0
MTEXT
  5
6468C
330
4786E
100
AcDbEntity
  8
SIZE
  6
CONTINUOUS
 62
     0
100
AcDbMText
 10
7196.1492
 20
-8020.770400000001
 30
0.0
 40
64.0
 41
0.0
 71
     5
 72
     1
  1
\A1;600
1001
ACAD
1000
MTEXTBEGIN
1070
    73
1070
     1
1070
    44
1040
1.0
1070
    74
1070
     0
1000
MTEXTEND
  0
POINT
  5
6468D
330
4786E
100
AcDbEntity
  8
DEFPOINTS
  6
CONTINUOUS
 62
     0
100
AcDbPoint
 10
6900.080874165873
 20
-8745.909472125472
 30
0.0
  0
POINT
  5
6468E
330
4786E
100
AcDbEntity
  8
DEFPOINTS
  6
CONTINUOUS
 62
     0
100
AcDbPoint
 10
7500.080874165873
 20
-8745.909472125472
 30
0.0
  0
POINT
  5
6468F
330
4786E
100
AcDbEntity
  8
DEFPOINTS
  6
CONTINUOUS
 62
     0
100
AcDbPoint
 10
7500.080874165873
 20
-8062.770400000001
 30
0.0
  0
ENDBLK
  5
47879
330
4786E
100
AcDbEntity
  8
0
100
AcDbBlockEnd
  0
BLOCK
  5
47891
330
47887
100
AcDbEntity
  8
0
100
AcDbBlockBegin
  2
*D32
 70
     1
 10
0.0
 20
0.0
 30
0.0
  3
*D32
  1

  0
LINE
  5
5B7F4
330
47887
100
AcDbEntity
  8
SIZE
  6
CONTINUOUS
 62
     0
100
AcDbLine
 10
9116.532542703714
 20
-11825.319374921
 30
0.0
 11
8930.4108
 21
-11825.319374921
 31
0.0
  0
LINE
  5
5B7F5
330
47887
100
AcDbEntity
  8
SIZE
  6
CONTINUOUS
 62
     0
100
AcDbLine
 10
9074.103346703713
 20
-11352.31937492146
 30
0.0
 11
8930.4108
 21
-11352.31937492146
 31
0.0
  0
LINE
  5
5B7F6
330
47887
100
AcDbEntity
  8
SIZE
  6
CONTINUOUS
 62
     0
100
AcDbLine
 10
8960.4108
 20
-11815.319374921
 30
0.0
 11
8960.4108
 21
-11362.31937492146
 31
0.0
  0
INSERT
  5
5B7F7
330
47887
100
AcDbEntity
  8
SIZE
  6
CONTINUOUS
 62
     0
100
AcDbBlockReference
  2
_DOTBLANK
 10
8960.4108
 20
-11825.319374921
 30
0.0
 41
10.0
 42
10.0
 43
10.0
 50
270.0
  0
INSERT
  5
5B7F8
330
47887
100
AcDbEntity
  8
SIZE
  6
CONTINUOUS
 62
     0
100
AcDbBlockReference
  2
_DOTBLANK
 10
8960.4108
 20
-11352.31937492146
 30
0.0
 41
10.0
 42
10.0
 43
10.0
 50
90.0
  0
MTEXT
  5
5B7F9
330
47887
100
AcDbEntity
  8
SIZE
  6
CONTINUOUS
 62
     0
100
AcDbMText
 10
8918.410800000001
 20
-11588.81937492123
 30
0.0
 40
64.0
 41
0.0
 71
     5
 72
     1
  1
\A1;473
 11
0.0000000000000001
 21
1.0
 31
0.0
1001
ACAD
1000
MTEXTBEGIN
1070
    73
1070
     1
1070
    44
1040
1.0
1070
    74
1070
     0
1000
MTEXTEND
  0
POINT
  5
5B7FA
330
47887
100
AcDbEntity
  8
DEFPOINTS
  6
CONTINUOUS
 62
     0
100
AcDbPoint
 10
9136.532542703715
 20
-11825.319374921
 30
0.0
  0
POINT
  5
5B7FB
330
47887
100
AcDbEntity
  8
DEFPOINTS
  6
CONTINUOUS
 62
     0
100
AcDbPoint
 10
9094.103346703715
 20
-11352.31937492146
 30
0.0
  0
POINT
  5
5B7FC
330
47887
100
AcDbEntity
  8
DEFPOINTS
  6
CONTINUOUS
 62
     0
100
AcDbPoint
 10
8960.4108
 20
-11352.31937492146
 30
0.0
  0
ENDBLK
  5
47892
330
47887
100
AcDbEntity
  8
0
100
AcDbBlockEnd
  0
BLOCK
  5
4789D
330
47893
100
AcDbEntity
  8
0
100
AcDbBlockBegin
  2
*D33
 70
     1
 10
0.0
 20
0.0
 30
0.0
  3
*D33
  1

  0
LINE
  5
643A6
330
47893
100
AcDbEntity
  8
SIZE
  6
CONTINUOUS
 62
     0
100
AcDbLine
 10
9116.532542703714
 20
-11825.319374921
 30
0.0
 11
8751.966800000001
 21
-11825.319374921
 31
0.0
  0
LINE
  5
643A7
330
47893
100
AcDbEntity
  8
SIZE
  6
CONTINUOUS
 62
     0
100
AcDbLine
 10
9164.532542703716
 20
-10880.319374921
 30
0.0
 11
8751.966800000001
 21
-10880.319374921
 31
0.0
  0
LINE
  5
643A8
330
47893
100
AcDbEntity
  8
SIZE
  6
CONTINUOUS
 62
     0
100
AcDbLine
 10
8781.966800000001
 20
-11815.319374921
 30
0.0
 11
8781.966800000001
 21
-10890.319374921
 31
0.0
  0
INSERT
  5
643A9
330
47893
100
AcDbEntity
  8
SIZE
  6
CONTINUOUS
 62
     0
100
AcDbBlockReference
  2
_DOTBLANK
 10
8781.966800000001
 20
-11825.319374921
 30
0.0
 41
10.0
 42
10.0
 43
10.0
 50
270.0
  0
INSERT
  5
643AA
330
47893
100
AcDbEntity
  8
SIZE
  6
CONTINUOUS
 62
     0
100
AcDbBlockReference
  2
_DOTBLANK
 10
8781.966800000001
 20
-10880.319374921
 30
0.0
 41
10.0
 42
10.0
 43
10.0
 50
90.0
  0
MTEXT
  5
643AB
330
47893
100
AcDbEntity
  8
SIZE
  6
CONTINUOUS
 62
     0
100
AcDbMText
 10
8739.966800000003
 20
-11352.819374921
 30
0.0
 40
64.0
 41
0.0
 71
     5
 72
     1
  1
\A1;945
 11
0.0000000000000001
 21
1.0
 31
0.0
1001
ACAD
1000
MTEXTBEGIN
1070
    73
1070
     1
1070
    44
1040
1.0
1070
    74
1070
     0
1000
MTEXTEND
  0
POINT
  5
643AC
330
47893
100
AcDbEntity
  8
DEFPOINTS
  6
CONTINUOUS
 62
     0
100
AcDbPoint
 10
9136.532542703715
 20
-11825.319374921
 30
0.0
  0
POINT
  5
643AD
330
47893
100
AcDbEntity
  8
DEFPOINTS
  6
CONTINUOUS
 62
     0
100
AcDbPoint
 10
9184.532542703715
 20
-10880.319374921
 30
0.0
  0
POINT
  5
643AE
330
47893
100
AcDbEntity
  8
DEFPOINTS
  6
CONTINUOUS
 62
     0
100
AcDbPoint
 10
8781.966800000001
 20
-10880.319374921
 30
0.0
  0
ENDBLK
  5
4789E
330
47893
100
AcDbEntity
  8
0
100
AcDbBlockEnd
  0
BLOCK
  5
478CD
330
478C3
100
AcDbEntity
  8
0
100
AcDbBlockBegin
  2
*D34
 70
     1
 10
0.0
 20
0.0
 30
0.0
  3
*D34
  1

  0
LINE
  5
64A54
330
478C3
100
AcDbEntity
  8
SIZE
  6
CONTINUOUS
 62
     0
100
AcDbLine
 10
12094.26933105091
 20
-11825.319374921
 30
0.0
 11
12743.4821
 21
-11825.319374921
 31
0.0
  0
LINE
  5
64A55
330
478C3
100
AcDbEntity
  8
SIZE
  6
CONTINUOUS
 62
     0
100
AcDbLine
 10
12249.26933105091
 20
-10880.319374921
 30
0.0
 11
12743.4821
 21
-10880.319374921
 31
0.0
  0
LINE
  5
64A56
330
478C3
100
AcDbEntity
  8
SIZE
  6
CONTINUOUS
 62
     0
100
AcDbLine
 10
12713.48209999999
 20
-11815.319374921
 30
0.0
 11
12713.48209999999
 21
-10890.319374921
 31
0.0
  0
INSERT
  5
64A57
330
478C3
100
AcDbEntity
  8
SIZE
  6
CONTINUOUS
 62
     0
100
AcDbBlockReference
  2
_DOTBLANK
 10
12713.48209999999
 20
-11825.319374921
 30
0.0
 41
10.0
 42
10.0
 43
10.0
 50
270.0
  0
INSERT
  5
64A58
330
478C3
100
AcDbEntity
  8
SIZE
  6
CONTINUOUS
 62
     0
100
AcDbBlockReference
  2
_DOTBLANK
 10
12713.48209999999
 20
-10880.319374921
 30
0.0
 41
10.0
 42
10.0
 43
10.0
 50
90.0
  0
MTEXT
  5
64A59
330
478C3
100
AcDbEntity
  8
SIZE
  6
CONTINUOUS
 62
     0
100
AcDbMText
 10
12671.4821
 20
-11337.5354
 30
0.0
 40
64.0
 41
0.0
 71
     5
 72
     1
  1
\A1;945
 11
0.0000000000000001
 21
1.0
 31
0.0
1001
ACAD
1000
MTEXTBEGIN
1070
    73
1070
     1
1070
    44
1040
1.0
1070
    74
1070
     0
1000
MTEXTEND
  0
POINT
  5
64A5A
330
478C3
100
AcDbEntity
  8
DEFPOINTS
  6
CONTINUOUS
 62
     0
100
AcDbPoint
 10
12074.26933105091
 20
-11825.319374921
 30
0.0
  0
POINT
  5
64A5B
330
478C3
100
AcDbEntity
  8
DEFPOINTS
  6
CONTINUOUS
 62
     0
100
AcDbPoint
 10
12229.26933105091
 20
-10880.319374921
 30
0.0
  0
POINT
  5
64A5C
330
478C3
100
AcDbEntity
  8
DEFPOINTS
  6
CONTINUOUS
 62
     0
100
AcDbPoint
 10
12713.48209999999
 20
-10880.319374921
 30
0.0
  0
ENDBLK
  5
478CE
330
478C3
100
AcDbEntity
  8
0
100
AcDbBlockEnd
  0
BLOCK
  5
478D9
330
478CF
100
AcDbEntity
  8
0
100
AcDbBlockBegin
  2
*D35
 70
     1
 10
0.0
 20
0.0
 30
0.0
  3
*D35
  1

  0
LINE
  5
64A01
330
478CF
100
AcDbEntity
  8
SIZE
  6
CONTINUOUS
 62
     0
100
AcDbLine
 10
11454.26933105091
 20
-11865.319374921
 30
0.0
 11
11454.26933105091
 21
-12124.6859
 31
0.0
  0
LINE
  5
64A02
330
478CF
100
AcDbEntity
  8
SIZE
  6
CONTINUOUS
 62
     0
100
AcDbLine
 10
11279.26933105091
 20
-11822.319374921
 30
0.0
 11
11279.26933105091
 21
-12124.6859
 31
0.0
  0
LINE
  5
64A03
330
478CF
100
AcDbEntity
  8
SIZE
  6
CONTINUOUS
 62
     0
100
AcDbLine
 10
11464.26933105091
 20
-12094.6859
 30
0.0
 11
11474.26933105091
 21
-12094.6859
 31
0.0
  0
LINE
  5
64A04
330
478CF
100
AcDbEntity
  8
SIZE
  6
CONTINUOUS
 62
     0
100
AcDbLine
 10
11269.26933105091
 20
-12094.6859
 30
0.0
 11
11259.26933105091
 21
-12094.6859
 31
0.0
  0
LINE
  5
64A05
330
478CF
100
AcDbEntity
  8
SIZE
  6
CONTINUOUS
 62
     0
100
AcDbLine
 10
11454.26933105091
 20
-12094.6859
 30
0.0
 11
11279.26933105091
 21
-12094.6859
 31
0.0
  0
INSERT
  5
64A06
330
478CF
100
AcDbEntity
  8
SIZE
  6
CONTINUOUS
 62
     0
100
AcDbBlockReference
  2
_DOTBLANK
 10
11454.26933105091
 20
-12094.6859
 30
0.0
 41
10.0
 42
10.0
 43
10.0
 50
180.0
  0
INSERT
  5
64A07
330
478CF
100
AcDbEntity
  8
SIZE
  6
CONTINUOUS
 62
     0
100
AcDbBlockReference
  2
_DOTBLANK
 10
11279.26933105091
 20
-12094.6859
 30
0.0
 41
10.0
 42
10.0
 43
10.0
  0
MTEXT
  5
64A08
330
478CF
100
AcDbEntity
  8
SIZE
  6
CONTINUOUS
 62
     0
100
AcDbMText
 10
11358.798155695
 20
-12052.6859
 30
0.0
 40
64.0
 41
0.0
 71
     5
 72
     1
  1
\A1;175
1001
ACAD
1000
MTEXTBEGIN
1070
    73
1070
     1
1070
    44
1040
1.0
1070
    74
1070
     0
1000
MTEXTEND
  0
POINT
  5
64A09
330
478CF
100
AcDbEntity
  8
DEFPOINTS
  6
CONTINUOUS
 62
     0
100
AcDbPoint
 10
11454.26933105091
 20
-11845.319374921
 30
0.0
  0
POINT
  5
64A0A
330
478CF
100
AcDbEntity
  8
DEFPOINTS
  6
CONTINUOUS
 62
     0
100
AcDbPoint
 10
11279.26933105091
 20
-11802.319374921
 30
0.0
  0
POINT
  5
64A0B
330
478CF
100
AcDbEntity
  8
DEFPOINTS
  6
CONTINUOUS
 62
     0
100
AcDbPoint
 10
11279.26933105091
 20
-12094.6859
 30
0.0
  0
ENDBLK
  5
478DA
330
478CF
100
AcDbEntity
  8
0
100
AcDbBlockEnd
  0
BLOCK
  5
478E5
330
478DB
100
AcDbEntity
  8
0
100
AcDbBlockBegin
  2
*D36
 70
     1
 10
0.0
 20
0.0
 30
0.0
  3
*D36
  1

  0
LINE
  5
649A7
330
478DB
100
AcDbEntity
  8
SIZE
  6
CONTINUOUS
 62
     0
100
AcDbLine
 10
11279.26933105091
 20
-11822.319374921
 30
0.0
 11
11279.26933105091
 21
-12266.6778
 31
0.0
  0
LINE
  5
649A8
330
478DB
100
AcDbEntity
  8
SIZE
  6
CONTINUOUS
 62
     0
100
AcDbLine
 10
12229.26933105091
 20
-11822.319374921
 30
0.0
 11
12229.26933105091
 21
-12266.6778
 31
0.0
  0
LINE
  5
649A9
330
478DB
100
AcDbEntity
  8
SIZE
  6
CONTINUOUS
 62
     0
100
AcDbLine
 10
11289.26933105091
 20
-12236.6778
 30
0.0
 11
12219.26933105091
 21
-12236.6778
 31
0.0
  0
INSERT
  5
649AA
330
478DB
100
AcDbEntity
  8
SIZE
  6
CONTINUOUS
 62
     0
100
AcDbBlockReference
  2
_DOTBLANK
 10
11279.26933105091
 20
-12236.6778
 30
0.0
 41
10.0
 42
10.0
 43
10.0
 50
180.0
  0
INSERT
  5
649AB
330
478DB
100
AcDbEntity
  8
SIZE
  6
CONTINUOUS
 62
     0
100
AcDbBlockReference
  2
_DOTBLANK
 10
12229.26933105091
 20
-12236.6778
 30
0.0
 41
10.0
 42
10.0
 43
10.0
  0
MTEXT
  5
649AC
330
478DB
100
AcDbEntity
  8
SIZE
  6
CONTINUOUS
 62
     0
100
AcDbMText
 10
11764.30339443151
 20
-12194.6778
 30
0.0
 40
64.0
 41
0.0
 71
     5
 72
     1
  1
\A1;950
1001
ACAD
1000
MTEXTBEGIN
1070
    73
1070
     1
1070
    44
1040
1.0
1070
    74
1070
     0
1000
MTEXTEND
  0
POINT
  5
649AD
330
478DB
100
AcDbEntity
  8
DEFPOINTS
  6
CONTINUOUS
 62
     0
100
AcDbPoint
 10
11279.26933105091
 20
-11802.319374921
 30
0.0
  0
POINT
  5
649AE
330
478DB
100
AcDbEntity
  8
DEFPOINTS
  6
CONTINUOUS
 62
     0
100
AcDbPoint
 10
12229.26933105091
 20
-11802.319374921
 30
0.0
  0
POINT
  5
649AF
330
478DB
100
AcDbEntity
  8
DEFPOINTS
  6
CONTINUOUS
 62
     0
100
AcDbPoint
 10
12229.26933105091
 20
-12236.6778
 30
0.0
  0
ENDBLK
  5
478E6
330
478DB
100
AcDbEntity
  8
0
100
AcDbBlockEnd
  0
BLOCK
  5
478F1
330
478E7
100
AcDbEntity
  8
0
100
AcDbBlockBegin
  2
*D37
 70
     1
 10
0.0
 20
0.0
 30
0.0
  3
*D37
  1

  0
LINE
  5
5B806
330
478E7
100
AcDbEntity
  8
SIZE
  6
CONTINUOUS
 62
     0
100
AcDbLine
 10
9553.532542703715
 20
-11845.319374921
 30
0.0
 11
9553.532542703715
 21
-12325.79520647358
 31
0.0
  0
LINE
  5
5B807
330
478E7
100
AcDbEntity
  8
SIZE
  6
CONTINUOUS
 62
     0
100
AcDbLine
 10
9136.532542703715
 20
-11845.319374921
 30
0.0
 11
9136.532542703715
 21
-12325.79520647358
 31
0.0
  0
LINE
  5
5B808
330
478E7
100
AcDbEntity
  8
SIZE
  6
CONTINUOUS
 62
     0
100
AcDbLine
 10
9543.532542703715
 20
-12295.79520647358
 30
0.0
 11
9146.532542703715
 21
-12295.79520647358
 31
0.0
  0
INSERT
  5
5B809
330
478E7
100
AcDbEntity
  8
SIZE
  6
CONTINUOUS
 62
     0
100
AcDbBlockReference
  2
_DOTBLANK
 10
9553.532542703715
 20
-12295.79520647358
 30
0.0
 41
10.0
 42
10.0
 43
10.0
  0
INSERT
  5
5B80A
330
478E7
100
AcDbEntity
  8
SIZE
  6
CONTINUOUS
 62
     0
100
AcDbBlockReference
  2
_DOTBLANK
 10
9136.532542703715
 20
-12295.79520647358
 30
0.0
 41
10.0
 42
10.0
 43
10.0
 50
180.0
  0
MTEXT
  5
5B80B
330
478E7
100
AcDbEntity
  8
SIZE
  6
CONTINUOUS
 62
     0
100
AcDbMText
 10
9345.032542703716
 20
-12253.79520647358
 30
0.0
 40
64.0
 41
0.0
 71
     5
 72
     1
  1
\A1;417
1001
ACAD
1000
MTEXTBEGIN
1070
    73
1070
     1
1070
    44
1040
1.0
1070
    74
1070
     0
1000
MTEXTEND
  0
POINT
  5
5B80C
330
478E7
100
AcDbEntity
  8
DEFPOINTS
  6
CONTINUOUS
 62
     0
100
AcDbPoint
 10
9553.532542703715
 20
-11825.319374921
 30
0.0
  0
POINT
  5
5B80D
330
478E7
100
AcDbEntity
  8
DEFPOINTS
  6
CONTINUOUS
 62
     0
100
AcDbPoint
 10
9136.532542703715
 20
-11825.319374921
 30
0.0
  0
POINT
  5
5B80E
330
478E7
100
AcDbEntity
  8
DEFPOINTS
  6
CONTINUOUS
 62
     0
100
AcDbPoint
 10
9136.532542703715
 20
-12295.79520647358
 30
0.0
  0
ENDBLK
  5
478F2
330
478E7
100
AcDbEntity
  8
0
100
AcDbBlockEnd
  0
BLOCK
  5
478FD
330
478F3
100
AcDbEntity
  8
0
100
AcDbBlockBegin
  2
*D38
 70
     1
 10
0.0
 20
0.0
 30
0.0
  3
*D38
  1

  0
LINE
  5
5BAA8
330
478F3
100
AcDbEntity
  8
SIZE
  6
CONTINUOUS
 62
     0
100
AcDbLine
 10
9534.532542703713
 20
-11865.319374921
 30
0.0
 11
9534.532542703713
 21
-12154.75346149574
 31
0.0
  0
LINE
  5
5BAA9
330
478F3
100
AcDbEntity
  8
SIZE
  6
CONTINUOUS
 62
     0
100
AcDbLine
 10
9164.532542703716
 20
-11865.319374921
 30
0.0
 11
9164.532542703716
 21
-12154.75346149574
 31
0.0
  0
LINE
  5
5BAAA
330
478F3
100
AcDbEntity
  8
SIZE
  6
CONTINUOUS
 62
     0
100
AcDbLine
 10
9524.532542703713
 20
-12124.75346149574
 30
0.0
 11
9174.532542703715
 21
-12124.75346149574
 31
0.0
  0
INSERT
  5
5BAAB
330
478F3
100
AcDbEntity
  8
SIZE
  6
CONTINUOUS
 62
     0
100
AcDbBlockReference
  2
_DOTBLANK
 10
9534.532542703713
 20
-12124.75346149574
 30
0.0
 41
10.0
 42
10.0
 43
10.0
  0
INSERT
  5
5BAAC
330
478F3
100
AcDbEntity
  8
SIZE
  6
CONTINUOUS
 62
     0
100
AcDbBlockReference
  2
_DOTBLANK
 10
9164.532542703716
 20
-12124.75346149574
 30
0.0
 41
10.0
 42
10.0
 43
10.0
 50
180.0
  0
MTEXT
  5
5BAAD
330
478F3
100
AcDbEntity
  8
SIZE
  6
CONTINUOUS
 62
     0
100
AcDbMText
 10
9349.532542703713
 20
-12082.75346149574
 30
0.0
 40
64.0
 41
0.0
 71
     5
 72
     1
  1
\A1;370
1001
ACAD
1000
MTEXTBEGIN
1070
    73
1070
     1
1070
    44
1040
1.0
1070
    74
1070
     0
1000
MTEXTEND
  0
POINT
  5
5BAAE
330
478F3
100
AcDbEntity
  8
DEFPOINTS
  6
CONTINUOUS
 62
     0
100
AcDbPoint
 10
9534.532542703713
 20
-11845.319374921
 30
0.0
  0
POINT
  5
5BAAF
330
478F3
100
AcDbEntity
  8
DEFPOINTS
  6
CONTINUOUS
 62
     0
100
AcDbPoint
 10
9164.532542703716
 20
-11845.319374921
 30
0.0
  0
POINT
  5
5BAB0
330
478F3
100
AcDbEntity
  8
DEFPOINTS
  6
CONTINUOUS
 62
     0
100
AcDbPoint
 10
9164.532542703716
 20
-12124.75346149574
 30
0.0
  0
ENDBLK
  5
478FE
330
478F3
100
AcDbEntity
  8
0
100
AcDbBlockEnd
  0
BLOCK
  5
4790A
330
478FF
100
AcDbEntity
  8
0
100
AcDbBlockBegin
  2
*D39
 70
     1
 10
0.0
 20
0.0
 30
0.0
  3
*D39
  1

  0
LINE
  5
5B80F
330
478FF
100
AcDbEntity
  8
SIZE
  6
CONTINUOUS
 62
     0
100
AcDbLine
 10
9164.532542703716
 20
-11865.319374921
 30
0.0
 11
9164.532542703716
 21
-12154.75346149574
 31
0.0
  0
LINE
  5
5B810
330
478FF
100
AcDbEntity
  8
SIZE
  6
CONTINUOUS
 62
     0
100
AcDbLine
 10
9136.532542703715
 20
-11845.319374921
 30
0.0
 11
9136.532542703715
 21
-12154.75346149574
 31
0.0
  0
LINE
  5
5B811
330
478FF
100
AcDbEntity
  8
SIZE
  6
CONTINUOUS
 62
     0
100
AcDbLine
 10
9174.532542703715
 20
-12124.75346149574
 30
0.0
 11
9184.532542703715
 21
-12124.75346149574
 31
0.0
  0
LINE
  5
5B812
330
478FF
100
AcDbEntity
  8
SIZE
  6
CONTINUOUS
 62
     0
100
AcDbLine
 10
9126.532542703715
 20
-12124.75346149574
 30
0.0
 11
9003.275399846572
 21
-12124.75346149574
 31
0.0
  0
LINE
  5
5B813
330
478FF
100
AcDbEntity
  8
SIZE
  6
CONTINUOUS
 62
     0
100
AcDbLine
 10
9164.532542703716
 20
-12124.75346149574
 30
0.0
 11
9136.532542703715
 21
-12124.75346149574
 31
0.0
  0
INSERT
  5
5B814
330
478FF
100
AcDbEntity
  8
SIZE
  6
CONTINUOUS
 62
     0
100
AcDbBlockReference
  2
_DOTBLANK
 10
9164.532542703716
 20
-12124.75346149574
 30
0.0
 41
10.0
 42
10.0
 43
10.0
 50
180.0
  0
INSERT
  5
5B815
330
478FF
100
AcDbEntity
  8
SIZE
  6
CONTINUOUS
 62
     0
100
AcDbBlockReference
  2
_DOTBLANK
 10
9136.532542703715
 20
-12124.75346149574
 30
0.0
 41
10.0
 42
10.0
 43
10.0
  0
MTEXT
  5
5B816
330
478FF
100
AcDbEntity
  8
SIZE
  6
CONTINUOUS
 62
     0
100
AcDbMText
 10
9059.903971275144
 20
-12082.75346149574
 30
0.0
 40
64.0
 41
0.0
 71
     5
 72
     1
  1
\A1;28
1001
ACAD
1000
MTEXTBEGIN
1070
    73
1070
     1
1070
    44
1040
1.0
1070
    74
1070
     0
1000
MTEXTEND
  0
POINT
  5
5B817
330
478FF
100
AcDbEntity
  8
DEFPOINTS
  6
CONTINUOUS
 62
     0
100
AcDbPoint
 10
9164.532542703716
 20
-11845.319374921
 30
0.0
  0
POINT
  5
5B818
330
478FF
100
AcDbEntity
  8
DEFPOINTS
  6
CONTINUOUS
 62
     0
100
AcDbPoint
 10
9136.532542703715
 20
-11825.319374921
 30
0.0
  0
POINT
  5
5B819
330
478FF
100
AcDbEntity
  8
DEFPOINTS
  6
CONTINUOUS
 62
     0
100
AcDbPoint
 10
9136.532542703715
 20
-12124.75346149574
 30
0.0
  0
ENDBLK
  5
4790B
330
478FF
100
AcDbEntity
  8
0
100
AcDbBlockEnd
  0
BLOCK
  5
47918
330
4790C
100
AcDbEntity
  8
0
100
AcDbBlockBegin
  2
*D40
 70
     1
 10
0.0
 20
0.0
 30
0.0
  3
*D40
  1

  0
LINE
  5
5BAB1
330
4790C
100
AcDbEntity
  8
SIZE
  6
CONTINUOUS
 62
     0
100
AcDbLine
 10
9534.532542703713
 20
-11865.319374921
 30
0.0
 11
9534.532542703713
 21
-12154.75346149574
 31
0.0
  0
LINE
  5
5BAB2
330
4790C
100
AcDbEntity
  8
SIZE
  6
CONTINUOUS
 62
     0
100
AcDbLine
 10
9553.532542703715
 20
-11845.319374921
 30
0.0
 11
9553.532542703715
 21
-12154.75346149574
 31
0.0
  0
LINE
  5
5BAB3
330
4790C
100
AcDbEntity
  8
SIZE
  6
CONTINUOUS
 62
     0
100
AcDbLine
 10
9524.532542703713
 20
-12124.75346149574
 30
0.0
 11
9514.532542703713
 21
-12124.75346149574
 31
0.0
  0
LINE
  5
5BAB4
330
4790C
100
AcDbEntity
  8
SIZE
  6
CONTINUOUS
 62
     0
100
AcDbLine
 10
9563.532542703716
 20
-12124.75346149574
 30
0.0
 11
9673.075399846572
 21
-12124.75346149574
 31
0.0
  0
LINE
  5
5BAB5
330
4790C
100
AcDbEntity
  8
SIZE
  6
CONTINUOUS
 62
     0
100
AcDbLine
 10
9534.532542703713
 20
-12124.75346149574
 30
0.0
 11
9553.532542703715
 21
-12124.75346149574
 31
0.0
  0
INSERT
  5
5BAB6
330
4790C
100
AcDbEntity
  8
SIZE
  6
CONTINUOUS
 62
     0
100
AcDbBlockReference
  2
_DOTBLANK
 10
9534.532542703713
 20
-12124.75346149574
 30
0.0
 41
10.0
 42
10.0
 43
10.0
  0
INSERT
  5
5BAB7
330
4790C
100
AcDbEntity
  8
SIZE
  6
CONTINUOUS
 62
     0
100
AcDbBlockReference
  2
_DOTBLANK
 10
9553.532542703715
 20
-12124.75346149574
 30
0.0
 41
10.0
 42
10.0
 43
10.0
 50
180.0
  0
MTEXT
  5
5BAB8
330
4790C
100
AcDbEntity
  8
SIZE
  6
CONTINUOUS
 62
     0
100
AcDbMText
 10
9623.303971275143
 20
-12082.75346149574
 30
0.0
 40
64.0
 41
0.0
 71
     5
 72
     1
  1
\A1;19
1001
ACAD
1000
MTEXTBEGIN
1070
    73
1070
     1
1070
    44
1040
1.0
1070
    74
1070
     0
1000
MTEXTEND
  0
POINT
  5
5BAB9
330
4790C
100
AcDbEntity
  8
DEFPOINTS
  6
CONTINUOUS
 62
     0
100
AcDbPoint
 10
9534.532542703713
 20
-11845.319374921
 30
0.0
  0
POINT
  5
5BABA
330
4790C
100
AcDbEntity
  8
DEFPOINTS
  6
CONTINUOUS
 62
     0
100
AcDbPoint
 10
9553.532542703715
 20
-11825.319374921
 30
0.0
  0
POINT
  5
5BABB
330
4790C
100
AcDbEntity
  8
DEFPOINTS
  6
CONTINUOUS
 62
     0
100
AcDbPoint
 10
9553.532542703715
 20
-12124.75346149574
 30
0.0
  0
ENDBLK
  5
47919
330
4790C
100
AcDbEntity
  8
0
100
AcDbBlockEnd
  0
BLOCK
  5
47925
330
4791A
100
AcDbEntity
  8
0
100
AcDbBlockBegin
  2
*D41
 70
     1
 10
0.0
 20
0.0
 30
0.0
  3
*D41
  1

  0
LINE
  5
649B0
330
4791A
100
AcDbEntity
  8
SIZE
  6
CONTINUOUS
 62
     0
100
AcDbLine
 10
12249.26933105091
 20
-11802.319374921
 30
0.0
 11
12382.0255
 21
-11802.319374921
 31
0.0
  0
LINE
  5
649B1
330
4791A
100
AcDbEntity
  8
SIZE
  6
CONTINUOUS
 62
     0
100
AcDbLine
 10
12094.26933105091
 20
-11825.319374921
 30
0.0
 11
12382.0255
 21
-11825.319374921
 31
0.0
  0
LINE
  5
649B2
330
4791A
100
AcDbEntity
  8
SIZE
  6
CONTINUOUS
 62
     0
100
AcDbLine
 10
12352.0255
 20
-11835.319374921
 30
0.0
 11
12352.0255
 21
-11845.319374921
 31
0.0
  0
LINE
  5
649B3
330
4791A
100
AcDbEntity
  8
SIZE
  6
CONTINUOUS
 62
     0
100
AcDbLine
 10
12352.0255
 20
-11792.319374921
 30
0.0
 11
12352.0255
 21
-11664.83644277247
 31
0.0
  0
LINE
  5
649B4
330
4791A
100
AcDbEntity
  8
SIZE
  6
CONTINUOUS
 62
     0
100
AcDbLine
 10
12352.0255
 20
-11825.319374921
 30
0.0
 11
12352.0255
 21
-11802.319374921
 31
0.0
  0
INSERT
  5
649B5
330
4791A
100
AcDbEntity
  8
SIZE
  6
CONTINUOUS
 62
     0
100
AcDbBlockReference
  2
_DOTBLANK
 10
12352.0255
 20
-11825.319374921
 30
0.0
 41
10.0
 42
10.0
 43
10.0
 50
90.0
  0
INSERT
  5
649B6
330
4791A
100
AcDbEntity
  8
SIZE
  6
CONTINUOUS
 62
     0
100
AcDbBlockReference
  2
_DOTBLANK
 10
12352.0255
 20
-11802.319374921
 30
0.0
 41
10.0
 42
10.0
 43
10.0
 50
270.0
  0
MTEXT
  5
649B7
330
4791A
100
AcDbEntity
  8
SIZE
  6
CONTINUOUS
 62
     0
100
AcDbMText
 10
12310.0255
 20
-11721.46501420104
 30
0.0
 40
64.0
 41
0.0
 71
     5
 72
     1
  1
\A1;23
 11
0.0000000000000001
 21
1.0
 31
0.0
1001
ACAD
1000
MTEXTBEGIN
1070
    73
1070
     1
1070
    44
1040
1.0
1070
    74
1070
     0
1000
MTEXTEND
  0
POINT
  5
649B8
330
4791A
100
AcDbEntity
  8
DEFPOINTS
  6
CONTINUOUS
 62
     0
100
AcDbPoint
 10
12229.26933105091
 20
-11802.319374921
 30
0.0
  0
POINT
  5
649B9
330
4791A
100
AcDbEntity
  8
DEFPOINTS
  6
CONTINUOUS
 62
     0
100
AcDbPoint
 10
12074.26933105091
 20
-11825.319374921
 30
0.0
  0
POINT
  5
649BA
330
4791A
100
AcDbEntity
  8
DEFPOINTS
  6
CONTINUOUS
 62
     0
100
AcDbPoint
 10
12352.0255
 20
-11825.319374921
 30
0.0
  0
ENDBLK
  5
47926
330
4791A
100
AcDbEntity
  8
0
100
AcDbBlockEnd
  0
BLOCK
  5
47931
330
47927
100
AcDbEntity
  8
0
100
AcDbBlockBegin
  2
*D42
 70
     1
 10
0.0
 20
0.0
 30
0.0
  3
*D42
  1

  0
LINE
  5
6499C
330
47927
100
AcDbEntity
  8
SIZE
  6
CONTINUOUS
 62
     0
100
AcDbLine
 10
12054.26933105091
 20
-11865.319374921
 30
0.0
 11
12054.26933105091
 21
-12124.6859
 31
0.0
  0
LINE
  5
6499D
330
47927
100
AcDbEntity
  8
SIZE
  6
CONTINUOUS
 62
     0
100
AcDbLine
 10
12229.26933105091
 20
-11822.319374921
 30
0.0
 11
12229.26933105091
 21
-12124.6859
 31
0.0
  0
LINE
  5
6499E
330
47927
100
AcDbEntity
  8
SIZE
  6
CONTINUOUS
 62
     0
100
AcDbLine
 10
12044.26933105091
 20
-12094.6859
 30
0.0
 11
12034.26933105091
 21
-12094.6859
 31
0.0
  0
LINE
  5
6499F
330
47927
100
AcDbEntity
  8
SIZE
  6
CONTINUOUS
 62
     0
100
AcDbLine
 10
12239.26933105091
 20
-12094.6859
 30
0.0
 11
12249.26933105091
 21
-12094.6859
 31
0.0
  0
LINE
  5
649A0
330
47927
100
AcDbEntity
  8
SIZE
  6
CONTINUOUS
 62
     0
100
AcDbLine
 10
12054.26933105091
 20
-12094.6859
 30
0.0
 11
12229.26933105091
 21
-12094.6859
 31
0.0
  0
INSERT
  5
649A1
330
47927
100
AcDbEntity
  8
SIZE
  6
CONTINUOUS
 62
     0
100
AcDbBlockReference
  2
_DOTBLANK
 10
12054.26933105091
 20
-12094.6859
 30
0.0
 41
10.0
 42
10.0
 43
10.0
  0
INSERT
  5
649A2
330
47927
100
AcDbEntity
  8
SIZE
  6
CONTINUOUS
 62
     0
100
AcDbBlockReference
  2
_DOTBLANK
 10
12229.26933105091
 20
-12094.6859
 30
0.0
 41
10.0
 42
10.0
 43
10.0
 50
180.0
  0
MTEXT
  5
649A3
330
47927
100
AcDbEntity
  8
SIZE
  6
CONTINUOUS
 62
     0
100
AcDbMText
 10
12143.218135675
 20
-12052.6859
 30
0.0
 40
64.0
 41
0.0
 71
     5
 72
     1
  1
\A1;175
1001
ACAD
1000
MTEXTBEGIN
1070
    73
1070
     1
1070
    44
1040
1.0
1070
    74
1070
     0
1000
MTEXTEND
  0
POINT
  5
649A4
330
47927
100
AcDbEntity
  8
DEFPOINTS
  6
CONTINUOUS
 62
     0
100
AcDbPoint
 10
12054.26933105091
 20
-11845.319374921
 30
0.0
  0
POINT
  5
649A5
330
47927
100
AcDbEntity
  8
DEFPOINTS
  6
CONTINUOUS
 62
     0
100
AcDbPoint
 10
12229.26933105091
 20
-11802.319374921
 30
0.0
  0
POINT
  5
649A6
330
47927
100
AcDbEntity
  8
DEFPOINTS
  6
CONTINUOUS
 62
     0
100
AcDbPoint
 10
12229.26933105091
 20
-12094.6859
 30
0.0
  0
ENDBLK
  5
47932
330
47927
100
AcDbEntity
  8
0
100
AcDbBlockEnd
  0
BLOCK
  5
4793D
330
47933
100
AcDbEntity
  8
0
100
AcDbBlockBegin
  2
*D43
 70
     1
 10
0.0
 20
0.0
 30
0.0
  3
*D43
  1

  0
LINE
  5
64993
330
47933
100
AcDbEntity
  8
SIZE
  6
CONTINUOUS
 62
     0
100
AcDbLine
 10
12054.26933105091
 20
-11865.319374921
 30
0.0
 11
12054.26933105091
 21
-12124.6859
 31
0.0
  0
LINE
  5
64994
330
47933
100
AcDbEntity
  8
SIZE
  6
CONTINUOUS
 62
     0
100
AcDbLine
 10
11454.26933105091
 20
-11865.319374921
 30
0.0
 11
11454.26933105091
 21
-12124.6859
 31
0.0
  0
LINE
  5
64995
330
47933
100
AcDbEntity
  8
SIZE
  6
CONTINUOUS
 62
     0
100
AcDbLine
 10
12044.26933105091
 20
-12094.6859
 30
0.0
 11
11464.26933105091
 21
-12094.6859
 31
0.0
  0
INSERT
  5
64996
330
47933
100
AcDbEntity
  8
SIZE
  6
CONTINUOUS
 62
     0
100
AcDbBlockReference
  2
_DOTBLANK
 10
12054.26933105091
 20
-12094.6859
 30
0.0
 41
10.0
 42
10.0
 43
10.0
  0
INSERT
  5
64997
330
47933
100
AcDbEntity
  8
SIZE
  6
CONTINUOUS
 62
     0
100
AcDbBlockReference
  2
_DOTBLANK
 10
11454.26933105091
 20
-12094.6859
 30
0.0
 41
10.0
 42
10.0
 43
10.0
 50
180.0
  0
MTEXT
  5
64998
330
47933
100
AcDbEntity
  8
SIZE
  6
CONTINUOUS
 62
     0
100
AcDbMText
 10
11760.97958536751
 20
-12052.6859
 30
0.0
 40
64.0
 41
0.0
 71
     5
 72
     1
  1
\A1;600
1001
ACAD
1000
MTEXTBEGIN
1070
    73
1070
     1
1070
    44
1040
1.0
1070
    74
1070
     0
1000
MTEXTEND
  0
POINT
  5
64999
330
47933
100
AcDbEntity
  8
DEFPOINTS
  6
CONTINUOUS
 62
     0
100
AcDbPoint
 10
12054.26933105091
 20
-11845.319374921
 30
0.0
  0
POINT
  5
6499A
330
47933
100
AcDbEntity
  8
DEFPOINTS
  6
CONTINUOUS
 62
     0
100
AcDbPoint
 10
11454.26933105091
 20
-11845.319374921
 30
0.0
  0
POINT
  5
6499B
330
47933
100
AcDbEntity
  8
DEFPOINTS
  6
CONTINUOUS
 62
     0
100
AcDbPoint
 10
11454.26933105091
 20
-12094.6859
 30
0.0
  0
ENDBLK
  5
4793E
330
47933
100
AcDbEntity
  8
0
100
AcDbBlockEnd
  0
BLOCK
  5
4796F
330
47965
100
AcDbEntity
  8
0
100
AcDbBlockBegin
  2
*D44
 70
     1
 10
0.0
 20
0.0
 30
0.0
  3
*D44
  1

  0
LINE
  5
64495
330
47965
100
AcDbEntity
  8
SIZE
  6
CONTINUOUS
 62
     0
100
AcDbLine
 10
9514.532542703715
 20
-10860.319374921
 30
0.0
 11
9514.532542703715
 21
-10376.633
 31
0.0
  0
LINE
  5
64496
330
47965
100
AcDbEntity
  8
SIZE
  6
CONTINUOUS
 62
     0
100
AcDbLine
 10
9184.532542703715
 20
-10860.319374921
 30
0.0
 11
9184.532542703715
 21
-10376.633
 31
0.0
  0
LINE
  5
64497
330
47965
100
AcDbEntity
  8
SIZE
  6
CONTINUOUS
 62
     0
100
AcDbLine
 10
9504.532542703715
 20
-10406.633
 30
0.0
 11
9194.532542703715
 21
-10406.633
 31
0.0
  0
INSERT
  5
64498
330
47965
100
AcDbEntity
  8
SIZE
  6
CONTINUOUS
 62
     0
100
AcDbBlockReference
  2
_DOTBLANK
 10
9514.532542703715
 20
-10406.633
 30
0.0
 41
10.0
 42
10.0
 43
10.0
  0
INSERT
  5
64499
330
47965
100
AcDbEntity
  8
SIZE
  6
CONTINUOUS
 62
     0
100
AcDbBlockReference
  2
_DOTBLANK
 10
9184.532542703715
 20
-10406.633
 30
0.0
 41
10.0
 42
10.0
 43
10.0
 50
180.0
  0
MTEXT
  5
6449A
330
47965
100
AcDbEntity
  8
SIZE
  6
CONTINUOUS
 62
     0
100
AcDbMText
 10
9349.532542703716
 20
-10364.633
 30
0.0
 40
64.0
 41
0.0
 71
     5
 72
     1
  1
\A1;330
1001
ACAD
1000
MTEXTBEGIN
1070
    73
1070
     1
1070
    44
1040
1.0
1070
    74
1070
     0
1000
MTEXTEND
  0
POINT
  5
6449B
330
47965
100
AcDbEntity
  8
DEFPOINTS
  6
CONTINUOUS
 62
     0
100
AcDbPoint
 10
9514.532542703715
 20
-10880.319374921
 30
0.0
  0
POINT
  5
6449C
330
47965
100
AcDbEntity
  8
DEFPOINTS
  6
CONTINUOUS
 62
     0
100
AcDbPoint
 10
9184.532542703715
 20
-10880.319374921
 30
0.0
  0
POINT
  5
6449D
330
47965
100
AcDbEntity
  8
DEFPOINTS
  6
CONTINUOUS
 62
     0
100
AcDbPoint
 10
9184.532542703715
 20
-10406.633
 30
0.0
  0
ENDBLK
  5
47970
330
47965
100
AcDbEntity
  8
0
100
AcDbBlockEnd
  0
BLOCK
  5
4797C
330
47971
100
AcDbEntity
  8
0
100
AcDbBlockBegin
  2
*D45
 70
     1
 10
0.0
 20
0.0
 30
0.0
  3
*D45
  1

  0
LINE
  5
6448A
330
47971
100
AcDbEntity
  8
SIZE
  6
CONTINUOUS
 62
     0
100
AcDbLine
 10
9184.532542703715
 20
-10860.319374921
 30
0.0
 11
9184.532542703715
 21
-10376.633
 31
0.0
  0
LINE
  5
6448B
330
47971
100
AcDbEntity
  8
SIZE
  6
CONTINUOUS
 62
     0
100
AcDbLine
 10
9159.532542703715
 20
-11041.319374921
 30
0.0
 11
9159.532542703715
 21
-10376.633
 31
0.0
  0
LINE
  5
6448C
330
47971
100
AcDbEntity
  8
SIZE
  6
CONTINUOUS
 62
     0
100
AcDbLine
 10
9194.532542703715
 20
-10406.633
 30
0.0
 11
9204.532542703715
 21
-10406.633
 31
0.0
  0
LINE
  5
6448D
330
47971
100
AcDbEntity
  8
SIZE
  6
CONTINUOUS
 62
     0
100
AcDbLine
 10
9149.532542703715
 20
-10406.633
 30
0.0
 11
9026.275399846573
 21
-10406.633
 31
0.0
  0
LINE
  5
6448E
330
47971
100
AcDbEntity
  8
SIZE
  6
CONTINUOUS
 62
     0
100
AcDbLine
 10
9184.532542703715
 20
-10406.633
 30
0.0
 11
9159.532542703715
 21
-10406.633
 31
0.0
  0
INSERT
  5
6448F
330
47971
100
AcDbEntity
  8
SIZE
  6
CONTINUOUS
 62
     0
100
AcDbBlockReference
  2
_DOTBLANK
 10
9184.532542703715
 20
-10406.633
 30
0.0
 41
10.0
 42
10.0
 43
10.0
 50
180.0
  0
INSERT
  5
64490
330
47971
100
AcDbEntity
  8
SIZE
  6
CONTINUOUS
 62
     0
100
AcDbBlockReference
  2
_DOTBLANK
 10
9159.532542703715
 20
-10406.633
 30
0.0
 41
10.0
 42
10.0
 43
10.0
  0
MTEXT
  5
64491
330
47971
100
AcDbEntity
  8
SIZE
  6
CONTINUOUS
 62
     0
100
AcDbMText
 10
9082.903971275143
 20
-10364.633
 30
0.0
 40
64.0
 41
0.0
 71
     5
 72
     1
  1
\A1;25
1001
ACAD
1000
MTEXTBEGIN
1070
    73
1070
     1
1070
    44
1040
1.0
1070
    74
1070
     0
1000
MTEXTEND
  0
POINT
  5
64492
330
47971
100
AcDbEntity
  8
DEFPOINTS
  6
CONTINUOUS
 62
     0
100
AcDbPoint
 10
9184.532542703715
 20
-10880.319374921
 30
0.0
  0
POINT
  5
64493
330
47971
100
AcDbEntity
  8
DEFPOINTS
  6
CONTINUOUS
 62
     0
100
AcDbPoint
 10
9159.532542703715
 20
-11061.319374921
 30
0.0
  0
POINT
  5
64494
330
47971
100
AcDbEntity
  8
DEFPOINTS
  6
CONTINUOUS
 62
     0
100
AcDbPoint
 10
9159.532542703715
 20
-10406.633
 30
0.0
  0
ENDBLK
  5
4797D
330
47971
100
AcDbEntity
  8
0
100
AcDbBlockEnd
  0
BLOCK
  5
5787A
330
57870
100
AcDbEntity
  8
0
100
AcDbBlockBegin
  2
*D46
 70
     1
 10
0.0
 20
0.0
 30
0.0
  3
*D46
  1

  0
LINE
  5
64B0D
330
57870
100
AcDbEntity
  8
SIZE
  6
CONTINUOUS
 62
     0
100
AcDbLine
 10
12046.26933105091
 20
-10851.7754
 30
0.0
 11
12046.26933105091
 21
-10136.2352773868
 31
0.0
  0
LINE
  5
64B0E
330
57870
100
AcDbEntity
  8
SIZE
  6
CONTINUOUS
 62
     0
100
AcDbLine
 10
12229.26933105091
 20
-11050.631774921
 30
0.0
 11
12229.26933105091
 21
-10136.2352773868
 31
0.0
  0
LINE
  5
64B0F
330
57870
100
AcDbEntity
  8
SIZE
  6
CONTINUOUS
 62
     0
100
AcDbLine
 10
12056.26933105091
 20
-10166.23527738679
 30
0.0
 11
12219.26933105091
 21
-10166.23527738679
 31
0.0
  0
INSERT
  5
64B10
330
57870
100
AcDbEntity
  8
SIZE
  6
CONTINUOUS
 62
     0
100
AcDbBlockReference
  2
_DOTBLANK
 10
12046.26933105091
 20
-10166.23527738679
 30
0.0
 41
10.0
 42
10.0
 43
10.0
 50
180.0
  0
INSERT
  5
64B11
330
57870
100
AcDbEntity
  8
SIZE
  6
CONTINUOUS
 62
     0
100
AcDbBlockReference
  2
_DOTBLANK
 10
12229.26933105091
 20
-10166.23527738679
 30
0.0
 41
10.0
 42
10.0
 43
10.0
  0
MTEXT
  5
64B12
330
57870
100
AcDbEntity
  8
SIZE
  6
CONTINUOUS
 62
     0
100
AcDbMText
 10
12137.76933105091
 20
-10124.23527738679
 30
0.0
 40
64.0
 41
0.0
 71
     5
 72
     1
  1
\A1;183
1001
ACAD
1000
MTEXTBEGIN
1070
    73
1070
     1
1070
    44
1040
1.0
1070
    74
1070
     0
1000
MTEXTEND
  0
POINT
  5
64B13
330
57870
100
AcDbEntity
  8
DEFPOINTS
  6
CONTINUOUS
 62
     0
100
AcDbPoint
 10
12046.26933105091
 20
-10871.7754
 30
0.0
  0
POINT
  5
64B14
330
57870
100
AcDbEntity
  8
DEFPOINTS
  6
CONTINUOUS
 62
     0
100
AcDbPoint
 10
12229.26933105091
 20
-11070.631774921
 30
0.0
  0
POINT
  5
64B15
330
57870
100
AcDbEntity
  8
DEFPOINTS
  6
CONTINUOUS
 62
     0
100
AcDbPoint
 10
12229.26933105091
 20
-10166.23527738679
 30
0.0
  0
ENDBLK
  5
5787B
330
57870
100
AcDbEntity
  8
0
100
AcDbBlockEnd
  0
BLOCK
  5
578C3
330
578B7
100
AcDbEntity
  8
0
100
AcDbBlockBegin
  2
*D47
 70
     1
 10
0.0
 20
0.0
 30
0.0
  3
*D47
  1

  0
LINE
  5
649D9
330
578B7
100
AcDbEntity
  8
SIZE
  6
CONTINUOUS
 62
     0
100
AcDbLine
 10
12058.8693310509
 20
-10859.319374921
 30
0.0
 11
12058.8693310509
 21
-10705.1193
 31
0.0
  0
LINE
  5
649DA
330
578B7
100
AcDbEntity
  8
SIZE
  6
CONTINUOUS
 62
     0
100
AcDbLine
 10
12007.86933105067
 20
-10810.51937492109
 30
0.0
 11
12007.86933105067
 21
-10705.1193
 31
0.0
  0
LINE
  5
649DB
330
578B7
100
AcDbEntity
  8
SIZE
  6
CONTINUOUS
 62
     0
100
AcDbLine
 10
12048.8693310509
 20
-10735.1193
 30
0.0
 11
12017.86933105067
 21
-10735.1193
 31
0.0
  0
LINE
  5
649DC
330
578B7
100
AcDbEntity
  8
SIZE
  6
CONTINUOUS
 62
     0
100
AcDbLine
 10
12007.86933105067
 20
-10735.1193
 30
0.0
 11
11909.29790247924
 21
-10735.1193
 31
0.0
  0
INSERT
  5
649DD
330
578B7
100
AcDbEntity
  8
SIZE
  6
CONTINUOUS
 62
     0
100
AcDbBlockReference
  2
_DOTBLANK
 10
12058.8693310509
 20
-10735.1193
 30
0.0
 41
10.0
 42
10.0
 43
10.0
  0
INSERT
  5
649DE
330
578B7
100
AcDbEntity
  8
SIZE
  6
CONTINUOUS
 62
     0
100
AcDbBlockReference
  2
_DOTBLANK
 10
12007.86933105067
 20
-10735.1193
 30
0.0
 41
10.0
 42
10.0
 43
10.0
 50
180.0
  0
MTEXT
  5
649DF
330
578B7
100
AcDbEntity
  8
SIZE
  6
CONTINUOUS
 62
     0
100
AcDbMText
 10
11953.58361676496
 20
-10693.1193
 30
0.0
 40
64.0
 41
0.0
 71
     5
 72
     1
  1
\A1;51
1001
ACAD
1000
MTEXTBEGIN
1070
    73
1070
     1
1070
    44
1040
1.0
1070
    74
1070
     0
1000
MTEXTEND
  0
POINT
  5
649E0
330
578B7
100
AcDbEntity
  8
DEFPOINTS
  6
CONTINUOUS
 62
     0
100
AcDbPoint
 10
12058.8693310509
 20
-10879.319374921
 30
0.0
  0
POINT
  5
649E1
330
578B7
100
AcDbEntity
  8
DEFPOINTS
  6
CONTINUOUS
 62
     0
100
AcDbPoint
 10
12007.86933105067
 20
-10830.51937492109
 30
0.0
  0
POINT
  5
649E2
330
578B7
100
AcDbEntity
  8
DEFPOINTS
  6
CONTINUOUS
 62
     0
100
AcDbPoint
 10
12007.86933105067
 20
-10735.1193
 30
0.0
  0
ENDBLK
  5
578C4
330
578B7
100
AcDbEntity
  8
0
100
AcDbBlockEnd
  0
BLOCK
  5
5797D
330
57973
100
AcDbEntity
  8
0
100
AcDbBlockBegin
  2
*D48
 70
     1
 10
0.0
 20
0.0
 30
0.0
  3
*D48
  1

  0
LINE
  5
64A68
330
57973
100
AcDbEntity
  8
SIZE
  6
CONTINUOUS
 62
     0
100
AcDbLine
 10
12067.34537288641
 20
-10789.319374921
 30
0.0
 11
12743.4821
 21
-10789.319374921
 31
0.0
  0
LINE
  5
64A69
330
57973
100
AcDbEntity
  8
SIZE
  6
CONTINUOUS
 62
     0
100
AcDbLine
 10
12076.26933105091
 20
-10880.319374921
 30
0.0
 11
12743.4821
 21
-10880.319374921
 31
0.0
  0
LINE
  5
64A6A
330
57973
100
AcDbEntity
  8
SIZE
  6
CONTINUOUS
 62
     0
100
AcDbLine
 10
12713.48209999999
 20
-10779.319374921
 30
0.0
 11
12713.48209999999
 21
-10769.319374921
 31
0.0
  0
LINE
  5
64A6B
330
57973
100
AcDbEntity
  8
SIZE
  6
CONTINUOUS
 62
     0
100
AcDbLine
 10
12713.48209999999
 20
-10890.319374921
 30
0.0
 11
12713.48209999999
 21
-10900.319374921
 31
0.0
  0
LINE
  5
64A6C
330
57973
100
AcDbEntity
  8
SIZE
  6
CONTINUOUS
 62
     0
100
AcDbLine
 10
12713.48209999999
 20
-10789.319374921
 30
0.0
 11
12713.48209999999
 21
-10880.319374921
 31
0.0
  0
INSERT
  5
64A6D
330
57973
100
AcDbEntity
  8
SIZE
  6
CONTINUOUS
 62
     0
100
AcDbBlockReference
  2
_DOTBLANK
 10
12713.48209999999
 20
-10789.319374921
 30
0.0
 41
10.0
 42
10.0
 43
10.0
 50
270.0
  0
INSERT
  5
64A6E
330
57973
100
AcDbEntity
  8
SIZE
  6
CONTINUOUS
 62
     0
100
AcDbBlockReference
  2
_DOTBLANK
 10
12713.48209999999
 20
-10880.319374921
 30
0.0
 41
10.0
 42
10.0
 43
10.0
 50
90.0
  0
MTEXT
  5
64A6F
330
57973
100
AcDbEntity
  8
SIZE
  6
CONTINUOUS
 62
     0
100
AcDbMText
 10
12671.4821
 20
-10838.5463
 30
0.0
 40
64.0
 41
0.0
 71
     5
 72
     1
  1
\A1;91
 11
0.0000000000000001
 21
1.0
 31
0.0
1001
ACAD
1000
MTEXTBEGIN
1070
    73
1070
     1
1070
    44
1040
1.0
1070
    74
1070
     0
1000
MTEXTEND
  0
POINT
  5
64A70
330
57973
100
AcDbEntity
  8
DEFPOINTS
  6
CONTINUOUS
 62
     0
100
AcDbPoint
 10
12047.34537288641
 20
-10789.319374921
 30
0.0
  0
POINT
  5
64A71
330
57973
100
AcDbEntity
  8
DEFPOINTS
  6
CONTINUOUS
 62
     0
100
AcDbPoint
 10
12056.26933105091
 20
-10880.319374921
 30
0.0
  0
POINT
  5
64A72
330
57973
100
AcDbEntity
  8
DEFPOINTS
  6
CONTINUOUS
 62
     0
100
AcDbPoint
 10
12713.48209999999
 20
-10880.319374921
 30
0.0
  0
ENDBLK
  5
5797E
330
57973
100
AcDbEntity
  8
0
100
AcDbBlockEnd
  0
BLOCK
  5
579A8
330
5799C
100
AcDbEntity
  8
0
100
AcDbBlockBegin
  2
*D49
 70
     1
 10
0.0
 20
0.0
 30
0.0
  3
*D49
  1

  0
LINE
  5
64A73
330
5799C
100
AcDbEntity
  8
SIZE
  6
CONTINUOUS
 62
     0
100
AcDbLine
 10
12076.26933105091
 20
-10880.319374921
 30
0.0
 11
12573.2452
 21
-10880.319374921
 31
0.0
  0
LINE
  5
64A74
330
5799C
100
AcDbEntity
  8
SIZE
  6
CONTINUOUS
 62
     0
100
AcDbLine
 10
12041.66933105057
 20
-10844.319374921
 30
0.0
 11
12573.2452
 21
-10844.319374921
 31
0.0
  0
LINE
  5
64A75
330
5799C
100
AcDbEntity
  8
SIZE
  6
CONTINUOUS
 62
     0
100
AcDbLine
 10
12543.2452
 20
-10834.319374921
 30
0.0
 11
12543.2452
 21
-10824.319374921
 31
0.0
  0
LINE
  5
64A76
330
5799C
100
AcDbEntity
  8
SIZE
  6
CONTINUOUS
 62
     0
100
AcDbLine
 10
12543.2452
 20
-10890.319374921
 30
0.0
 11
12543.2452
 21
-11029.37546793614
 31
0.0
  0
LINE
  5
64A77
330
5799C
100
AcDbEntity
  8
SIZE
  6
CONTINUOUS
 62
     0
100
AcDbLine
 10
12543.2452
 20
-10844.319374921
 30
0.0
 11
12543.2452
 21
-10880.319374921
 31
0.0
  0
INSERT
  5
64A78
330
5799C
100
AcDbEntity
  8
SIZE
  6
CONTINUOUS
 62
     0
100
AcDbBlockReference
  2
_DOTBLANK
 10
12543.2452
 20
-10844.319374921
 30
0.0
 41
10.0
 42
10.0
 43
10.0
 50
270.0
  0
INSERT
  5
64A79
330
5799C
100
AcDbEntity
  8
SIZE
  6
CONTINUOUS
 62
     0
100
AcDbBlockReference
  2
_DOTBLANK
 10
12543.2452
 20
-10880.319374921
 30
0.0
 41
10.0
 42
10.0
 43
10.0
 50
90.0
  0
MTEXT
  5
64A7A
330
5799C
100
AcDbEntity
  8
SIZE
  6
CONTINUOUS
 62
     0
100
AcDbMText
 10
12501.2452
 20
-10974.11832507899
 30
0.0
 40
64.0
 41
0.0
 71
     5
 72
     1
  1
\A1;36
 11
0.0000000000000001
 21
1.0
 31
0.0
1001
ACAD
1000
MTEXTBEGIN
1070
    73
1070
     1
1070
    44
1040
1.0
1070
    74
1070
     0
1000
MTEXTEND
  0
POINT
  5
64A7B
330
5799C
100
AcDbEntity
  8
DEFPOINTS
  6
CONTINUOUS
 62
     0
100
AcDbPoint
 10
12056.26933105091
 20
-10880.319374921
 30
0.0
  0
POINT
  5
64A7C
330
5799C
100
AcDbEntity
  8
DEFPOINTS
  6
CONTINUOUS
 62
     0
100
AcDbPoint
 10
12021.66933105057
 20
-10844.319374921
 30
0.0
  0
POINT
  5
64A7D
330
5799C
100
AcDbEntity
  8
DEFPOINTS
  6
CONTINUOUS
 62
     0
100
AcDbPoint
 10
12543.2452
 20
-10844.319374921
 30
0.0
  0
ENDBLK
  5
579A9
330
5799C
100
AcDbEntity
  8
0
100
AcDbBlockEnd
  0
BLOCK
  5
58459
330
5844F
100
AcDbEntity
  8
0
100
AcDbBlockBegin
  2
*D50
 70
     1
 10
0.0
 20
0.0
 30
0.0
  3
*D50
  1

  0
LINE
  5
64B9D
330
5844F
100
AcDbEntity
  8
SIZE
  6
CONTINUOUS
 62
     0
100
AcDbLine
 10
9531.232542703717
 20
-10872.319374921
 30
0.0
 11
10389.1606
 21
-10872.319374921
 31
0.0
  0
LINE
  5
64B9E
330
5844F
100
AcDbEntity
  8
SIZE
  6
CONTINUOUS
 62
     0
100
AcDbLine
 10
9531.332542703713
 20
-11774.3193783763
 30
0.0
 11
10389.1606
 21
-11774.3193783763
 31
0.0
  0
LINE
  5
64B9F
330
5844F
100
AcDbEntity
  8
SIZE
  6
CONTINUOUS
 62
     0
100
AcDbLine
 10
10359.16059999999
 20
-10882.319374921
 30
0.0
 11
10359.16059999999
 21
-11764.3193783763
 31
0.0
  0
INSERT
  5
64BA0
330
5844F
100
AcDbEntity
  8
SIZE
  6
CONTINUOUS
 62
     0
100
AcDbBlockReference
  2
_DOTBLANK
 10
10359.16059999999
 20
-10872.319374921
 30
0.0
 41
10.0
 42
10.0
 43
10.0
 50
90.0
  0
INSERT
  5
64BA1
330
5844F
100
AcDbEntity
  8
SIZE
  6
CONTINUOUS
 62
     0
100
AcDbBlockReference
  2
_DOTBLANK
 10
10359.16059999999
 20
-11774.3193783763
 30
0.0
 41
10.0
 42
10.0
 43
10.0
 50
270.0
  0
MTEXT
  5
64BA2
330
5844F
100
AcDbEntity
  8
SIZE
  6
CONTINUOUS
 62
     0
100
AcDbMText
 10
10317.1606
 20
-11321.3967
 30
0.0
 40
64.0
 41
0.0
 71
     5
 72
     1
  1
\A1;902
 11
0.0000000000000001
 21
1.0
 31
0.0
1001
ACAD
1000
MTEXTBEGIN
1070
    73
1070
     1
1070
    44
1040
1.0
1070
    74
1070
     0
1000
MTEXTEND
  0
POINT
  5
64BA3
330
5844F
100
AcDbEntity
  8
DEFPOINTS
  6
CONTINUOUS
 62
     0
100
AcDbPoint
 10
9511.232542703716
 20
-10872.319374921
 30
0.0
  0
POINT
  5
64BA4
330
5844F
100
AcDbEntity
  8
DEFPOINTS
  6
CONTINUOUS
 62
     0
100
AcDbPoint
 10
9511.332542703714
 20
-11774.3193783763
 30
0.0
  0
POINT
  5
64BA5
330
5844F
100
AcDbEntity
  8
DEFPOINTS
  6
CONTINUOUS
 62
     0
100
AcDbPoint
 10
10359.16059999999
 20
-11774.3193783763
 30
0.0
  0
ENDBLK
  5
5845A
330
5844F
100
AcDbEntity
  8
0
100
AcDbBlockEnd
  0
BLOCK
  5
5852C
330
58520
100
AcDbEntity
  8
0
100
AcDbBlockBegin
  2
*D51
 70
     1
 10
0.0
 20
0.0
 30
0.0
  3
*D51
  1

  0
LINE
  5
64974
330
58520
100
AcDbEntity
  8
SIZE
  6
CONTINUOUS
 62
     0
100
AcDbLine
 10
9343.032542703715
 20
-10859.319374921
 30
0.0
 11
9343.032542703715
 21
-10520.731
 31
0.0
  0
LINE
  5
64975
330
58520
100
AcDbEntity
  8
SIZE
  6
CONTINUOUS
 62
     0
100
AcDbLine
 10
9495.532542703715
 20
-10859.319374921
 30
0.0
 11
9495.532542703715
 21
-10520.731
 31
0.0
  0
LINE
  5
64976
330
58520
100
AcDbEntity
  8
SIZE
  6
CONTINUOUS
 62
     0
100
AcDbLine
 10
9333.032542703715
 20
-10550.731
 30
0.0
 11
9323.032542703716
 21
-10550.731
 31
0.0
  0
LINE
  5
64977
330
58520
100
AcDbEntity
  8
SIZE
  6
CONTINUOUS
 62
     0
100
AcDbLine
 10
9505.532542703715
 20
-10550.731
 30
0.0
 11
9515.532542703715
 21
-10550.731
 31
0.0
  0
LINE
  5
64978
330
58520
100
AcDbEntity
  8
SIZE
  6
CONTINUOUS
 62
     0
100
AcDbLine
 10
9343.032542703715
 20
-10550.731
 30
0.0
 11
9495.532542703715
 21
-10550.731
 31
0.0
  0
INSERT
  5
64979
330
58520
100
AcDbEntity
  8
SIZE
  6
CONTINUOUS
 62
     0
100
AcDbBlockReference
  2
_DOTBLANK
 10
9343.032542703715
 20
-10550.731
 30
0.0
 41
10.0
 42
10.0
 43
10.0
  0
INSERT
  5
6497A
330
58520
100
AcDbEntity
  8
SIZE
  6
CONTINUOUS
 62
     0
100
AcDbBlockReference
  2
_DOTBLANK
 10
9495.532542703715
 20
-10550.731
 30
0.0
 41
10.0
 42
10.0
 43
10.0
 50
180.0
  0
MTEXT
  5
6497B
330
58520
100
AcDbEntity
  8
SIZE
  6
CONTINUOUS
 62
     0
100
AcDbMText
 10
9355.622100000001
 20
-10508.731
 30
0.0
 40
64.0
 41
0.0
 71
     5
 72
     1
  1
\A1;152.5
1001
ACAD
1000
MTEXTBEGIN
1070
    73
1070
     1
1070
    44
1040
1.0
1070
    74
1070
     0
1000
MTEXTEND
  0
POINT
  5
6497C
330
58520
100
AcDbEntity
  8
DEFPOINTS
  6
CONTINUOUS
 62
     0
100
AcDbPoint
 10
9343.032542703715
 20
-10879.319374921
 30
0.0
  0
POINT
  5
6497D
330
58520
100
AcDbEntity
  8
DEFPOINTS
  6
CONTINUOUS
 62
     0
100
AcDbPoint
 10
9495.532542703715
 20
-10879.319374921
 30
0.0
  0
POINT
  5
6497E
330
58520
100
AcDbEntity
  8
DEFPOINTS
  6
CONTINUOUS
 62
     0
100
AcDbPoint
 10
9495.532542703715
 20
-10550.731
 30
0.0
  0
ENDBLK
  5
5852D
330
58520
100
AcDbEntity
  8
0
100
AcDbBlockEnd
  0
BLOCK
  5
58545
330
58539
100
AcDbEntity
  8
0
100
AcDbBlockBegin
  2
*D52
 70
     1
 10
0.0
 20
0.0
 30
0.0
  3
*D52
  1

  0
LINE
  5
64474
330
58539
100
AcDbEntity
  8
SIZE
  6
CONTINUOUS
 62
     0
100
AcDbLine
 10
9495.532542703715
 20
-10859.319374921
 30
0.0
 11
9495.532542703715
 21
-10644.9783
 31
0.0
  0
LINE
  5
64475
330
58539
100
AcDbEntity
  8
SIZE
  6
CONTINUOUS
 62
     0
100
AcDbLine
 10
9514.532542703715
 20
-10857.319374921
 30
0.0
 11
9514.532542703715
 21
-10644.9783
 31
0.0
  0
LINE
  5
64476
330
58539
100
AcDbEntity
  8
SIZE
  6
CONTINUOUS
 62
     0
100
AcDbLine
 10
9524.532542703715
 20
-10674.9783
 30
0.0
 11
9534.532542703715
 21
-10674.9783
 31
0.0
  0
LINE
  5
64477
330
58539
100
AcDbEntity
  8
SIZE
  6
CONTINUOUS
 62
     0
100
AcDbLine
 10
9485.532542703715
 20
-10674.9783
 30
0.0
 11
9375.989685560858
 21
-10674.9783
 31
0.0
  0
LINE
  5
64478
330
58539
100
AcDbEntity
  8
SIZE
  6
CONTINUOUS
 62
     0
100
AcDbLine
 10
9514.532542703715
 20
-10674.9783
 30
0.0
 11
9495.532542703715
 21
-10674.9783
 31
0.0
  0
INSERT
  5
64479
330
58539
100
AcDbEntity
  8
SIZE
  6
CONTINUOUS
 62
     0
100
AcDbBlockReference
  2
_DOTBLANK
 10
9514.532542703715
 20
-10674.9783
 30
0.0
 41
10.0
 42
10.0
 43
10.0
 50
180.0
  0
INSERT
  5
6447A
330
58539
100
AcDbEntity
  8
SIZE
  6
CONTINUOUS
 62
     0
100
AcDbBlockReference
  2
_DOTBLANK
 10
9495.532542703715
 20
-10674.9783
 30
0.0
 41
10.0
 42
10.0
 43
10.0
  0
MTEXT
  5
6447B
330
58539
100
AcDbEntity
  8
SIZE
  6
CONTINUOUS
 62
     0
100
AcDbMText
 10
9425.761114132287
 20
-10632.9783
 30
0.0
 40
64.0
 41
0.0
 71
     5
 72
     1
  1
\A1;19
1001
ACAD
1000
MTEXTBEGIN
1070
    73
1070
     1
1070
    44
1040
1.0
1070
    74
1070
     0
1000
MTEXTEND
  0
POINT
  5
6447C
330
58539
100
AcDbEntity
  8
DEFPOINTS
  6
CONTINUOUS
 62
     0
100
AcDbPoint
 10
9495.532542703715
 20
-10879.319374921
 30
0.0
  0
POINT
  5
6447D
330
58539
100
AcDbEntity
  8
DEFPOINTS
  6
CONTINUOUS
 62
     0
100
AcDbPoint
 10
9514.532542703715
 20
-10877.319374921
 30
0.0
  0
POINT
  5
6447E
330
58539
100
AcDbEntity
  8
DEFPOINTS
  6
CONTINUOUS
 62
     0
100
AcDbPoint
 10
9514.532542703715
 20
-10674.9783
 30
0.0
  0
ENDBLK
  5
58546
330
58539
100
AcDbEntity
  8
0
100
AcDbBlockEnd
  0
BLOCK
  5
58552
330
58548
100
AcDbEntity
  8
0
100
AcDbBlockBegin
  2
*D53
 70
     1
 10
0.0
 20
0.0
 30
0.0
  3
*D53
  1

  0
LINE
  5
6446B
330
58548
100
AcDbEntity
  8
SIZE
  6
CONTINUOUS
 62
     0
100
AcDbLine
 10
9514.532542703715
 20
-10857.319374921
 30
0.0
 11
9514.532542703715
 21
-10644.9783
 31
0.0
  0
LINE
  5
6446C
330
58548
100
AcDbEntity
  8
SIZE
  6
CONTINUOUS
 62
     0
100
AcDbLine
 10
9694.532542703715
 20
-11142.319374921
 30
0.0
 11
9694.532542703715
 21
-10644.9783
 31
0.0
  0
LINE
  5
6446D
330
58548
100
AcDbEntity
  8
SIZE
  6
CONTINUOUS
 62
     0
100
AcDbLine
 10
9524.532542703715
 20
-10674.9783
 30
0.0
 11
9684.532542703715
 21
-10674.9783
 31
0.0
  0
INSERT
  5
6446E
330
58548
100
AcDbEntity
  8
SIZE
  6
CONTINUOUS
 62
     0
100
AcDbBlockReference
  2
_DOTBLANK
 10
9514.532542703715
 20
-10674.9783
 30
0.0
 41
10.0
 42
10.0
 43
10.0
 50
180.0
  0
INSERT
  5
6446F
330
58548
100
AcDbEntity
  8
SIZE
  6
CONTINUOUS
 62
     0
100
AcDbBlockReference
  2
_DOTBLANK
 10
9694.532542703715
 20
-10674.9783
 30
0.0
 41
10.0
 42
10.0
 43
10.0
  0
MTEXT
  5
64470
330
58548
100
AcDbEntity
  8
SIZE
  6
CONTINUOUS
 62
     0
100
AcDbMText
 10
9604.532542703715
 20
-10632.9783
 30
0.0
 40
64.0
 41
0.0
 71
     5
 72
     1
  1
\A1;180
1001
ACAD
1000
MTEXTBEGIN
1070
    73
1070
     1
1070
    44
1040
1.0
1070
    74
1070
     0
1000
MTEXTEND
  0
POINT
  5
64471
330
58548
100
AcDbEntity
  8
DEFPOINTS
  6
CONTINUOUS
 62
     0
100
AcDbPoint
 10
9514.532542703715
 20
-10877.319374921
 30
0.0
  0
POINT
  5
64472
330
58548
100
AcDbEntity
  8
DEFPOINTS
  6
CONTINUOUS
 62
     0
100
AcDbPoint
 10
9694.532542703715
 20
-11162.319374921
 30
0.0
  0
POINT
  5
64473
330
58548
100
AcDbEntity
  8
DEFPOINTS
  6
CONTINUOUS
 62
     0
100
AcDbPoint
 10
9694.532542703715
 20
-10674.9783
 30
0.0
  0
ENDBLK
  5
58553
330
58548
100
AcDbEntity
  8
0
100
AcDbBlockEnd
  0
BLOCK
  5
585D7
330
585CB
100
AcDbEntity
  8
0
100
AcDbBlockBegin
  2
*D54
 70
     1
 10
0.0
 20
0.0
 30
0.0
  3
*D54
  1

  0
LINE
  5
644B1
330
585CB
100
AcDbEntity
  8
SIZE
  6
CONTINUOUS
 62
     0
100
AcDbLine
 10
9437.532542703715
 20
-10908.319374921
 30
0.0
 11
9437.532542703715
 21
-11120.9077
 31
0.0
  0
LINE
  5
644B2
330
585CB
100
AcDbEntity
  8
SIZE
  6
CONTINUOUS
 62
     0
100
AcDbLine
 10
9514.532542703715
 20
-10900.319374921
 30
0.0
 11
9514.532542703715
 21
-11120.9077
 31
0.0
  0
LINE
  5
644B3
330
585CB
100
AcDbEntity
  8
SIZE
  6
CONTINUOUS
 62
     0
100
AcDbLine
 10
9447.532542703715
 20
-11090.9077
 30
0.0
 11
9504.532542703715
 21
-11090.9077
 31
0.0
  0
LINE
  5
644B4
330
585CB
100
AcDbEntity
  8
SIZE
  6
CONTINUOUS
 62
     0
100
AcDbLine
 10
9514.532542703715
 20
-11090.9077
 30
0.0
 11
9639.736442857142
 21
-11090.9077
 31
0.0
  0
INSERT
  5
644B5
330
585CB
100
AcDbEntity
  8
SIZE
  6
CONTINUOUS
 62
     0
100
AcDbBlockReference
  2
_DOTBLANK
 10
9437.532542703715
 20
-11090.9077
 30
0.0
 41
10.0
 42
10.0
 43
10.0
 50
180.0
  0
INSERT
  5
644B6
330
585CB
100
AcDbEntity
  8
SIZE
  6
CONTINUOUS
 62
     0
100
AcDbBlockReference
  2
_DOTBLANK
 10
9514.532542703715
 20
-11090.9077
 30
0.0
 41
10.0
 42
10.0
 43
10.0
  0
MTEXT
  5
644B7
330
585CB
100
AcDbEntity
  8
SIZE
  6
CONTINUOUS
 62
     0
100
AcDbMText
 10
9583.107871428572
 20
-11048.9077
 30
0.0
 40
64.0
 41
0.0
 71
     5
 72
     1
  1
\A1;77
1001
ACAD
1000
MTEXTBEGIN
1070
    73
1070
     1
1070
    44
1040
1.0
1070
    74
1070
     0
1000
MTEXTEND
  0
POINT
  5
644B8
330
585CB
100
AcDbEntity
  8
DEFPOINTS
  6
CONTINUOUS
 62
     0
100
AcDbPoint
 10
9437.532542703715
 20
-10888.319374921
 30
0.0
  0
POINT
  5
644B9
330
585CB
100
AcDbEntity
  8
DEFPOINTS
  6
CONTINUOUS
 62
     0
100
AcDbPoint
 10
9514.532542703715
 20
-10880.319374921
 30
0.0
  0
POINT
  5
644BA
330
585CB
100
AcDbEntity
  8
DEFPOINTS
  6
CONTINUOUS
 62
     0
100
AcDbPoint
 10
9514.532542703715
 20
-11090.9077
 30
0.0
  0
ENDBLK
  5
585D8
330
585CB
100
AcDbEntity
  8
0
100
AcDbBlockEnd
  0
BLOCK
  5
58909
330
588FF
100
AcDbEntity
  8
0
100
AcDbBlockBegin
  2
*D55
 70
     1
 10
0.0
 20
0.0
 30
0.0
  3
*D55
  1

  0
LINE
  5
64C69
330
588FF
100
AcDbEntity
  8
SIZE
  6
CONTINUOUS
 62
     0
100
AcDbLine
 10
-292.0
 20
970.6002587492948
 30
0.0
 11
-291.9999999999999
 21
1665.587374921
 31
0.0
  0
LINE
  5
64C6A
330
588FF
100
AcDbEntity
  8
SIZE
  6
CONTINUOUS
 62
     0
100
AcDbLine
 10
-475.0
 20
965.0
 30
0.0
 11
-474.9999999999999
 21
1665.587374921
 31
0.0
  0
LINE
  5
64C6B
330
588FF
100
AcDbEntity
  8
SIZE
  6
CONTINUOUS
 62
     0
100
AcDbLine
 10
-301.9999999999999
 20
1635.587374921
 30
0.0
 11
-464.9999999999999
 21
1635.587374921
 31
0.0
  0
INSERT
  5
64C6C
330
588FF
100
AcDbEntity
  8
SIZE
  6
CONTINUOUS
 62
     0
100
AcDbBlockReference
  2
_DOTBLANK
 10
-291.9999999999999
 20
1635.587374921
 30
0.0
 41
10.0
 42
10.0
 43
10.0
  0
INSERT
  5
64C6D
330
588FF
100
AcDbEntity
  8
SIZE
  6
CONTINUOUS
 62
     0
100
AcDbBlockReference
  2
_DOTBLANK
 10
-474.9999999999999
 20
1635.587374921
 30
0.0
 41
10.0
 42
10.0
 43
10.0
 50
180.0
  0
MTEXT
  5
64C6E
330
588FF
100
AcDbEntity
  8
SIZE
  6
CONTINUOUS
 62
     0
100
AcDbMText
 10
-383.8764741658724
 20
1677.587374921
 30
0.0
 40
64.0
 41
0.0
 71
     5
 72
     1
  1
\A1;183
1001
ACAD
1000
MTEXTBEGIN
1070
    73
1070
     1
1070
    44
1040
1.0
1070
    74
1070
     0
1000
MTEXTEND
  0
POINT
  5
64C6F
330
588FF
100
AcDbEntity
  8
DEFPOINTS
  6
CONTINUOUS
 62
     0
100
AcDbPoint
 10
-292.0
 20
950.6002587492949
 30
0.0
  0
POINT
  5
64C70
330
588FF
100
AcDbEntity
  8
DEFPOINTS
  6
CONTINUOUS
 62
     0
100
AcDbPoint
 10
-475.0
 20
945.0
 30
0.0
  0
POINT
  5
64C71
330
588FF
100
AcDbEntity
  8
DEFPOINTS
  6
CONTINUOUS
 62
     0
100
AcDbPoint
 10
-474.9999999999999
 20
1635.587374921
 30
0.0
  0
ENDBLK
  5
5890A
330
588FF
100
AcDbEntity
  8
0
100
AcDbBlockEnd
  0
BLOCK
  5
58CDC
330
58CD2
100
AcDbEntity
  8
0
100
AcDbBlockBegin
  2
*D56
 70
     1
 10
0.0
 20
0.0
 30
0.0
  3
*D56
  1

  0
LINE
  5
64C1A
330
58CD2
100
AcDbEntity
  8
SIZE
  6
CONTINUOUS
 62
     0
100
AcDbLine
 10
-152.9999999998472
 20
139.2021547495387
 30
0.0
 11
-152.9999999998472
 21
-209.9833250789997
 31
0.0
  0
LINE
  5
64C1B
330
58CD2
100
AcDbEntity
  8
SIZE
  6
CONTINUOUS
 62
     0
100
AcDbLine
 10
-475.0
 20
3.0
 30
0.0
 11
-475.0
 21
-209.9833250789997
 31
0.0
  0
LINE
  5
64C1C
330
58CD2
100
AcDbEntity
  8
SIZE
  6
CONTINUOUS
 62
     0
100
AcDbLine
 10
-162.9999999998472
 20
-179.9833250789997
 30
0.0
 11
-465.0
 21
-179.9833250789997
 31
0.0
  0
INSERT
  5
64C1D
330
58CD2
100
AcDbEntity
  8
SIZE
  6
CONTINUOUS
 62
     0
100
AcDbBlockReference
  2
_DOTBLANK
 10
-152.9999999998472
 20
-179.9833250789997
 30
0.0
 41
10.0
 42
10.0
 43
10.0
  0
INSERT
  5
64C1E
330
58CD2
100
AcDbEntity
  8
SIZE
  6
CONTINUOUS
 62
     0
100
AcDbBlockReference
  2
_DOTBLANK
 10
-475.0
 20
-179.9833250789997
 30
0.0
 41
10.0
 42
10.0
 43
10.0
 50
180.0
  0
MTEXT
  5
64C1F
330
58CD2
100
AcDbEntity
  8
SIZE
  6
CONTINUOUS
 62
     0
100
AcDbMText
 10
-313.9999999999236
 20
-137.9833250789997
 30
0.0
 40
64.0
 41
0.0
 71
     5
 72
     1
  1
\A1;322
1001
ACAD
1000
MTEXTBEGIN
1070
    73
1070
     1
1070
    44
1040
1.0
1070
    74
1070
     0
1000
MTEXTEND
  0
POINT
  5
64C20
330
58CD2
100
AcDbEntity
  8
DEFPOINTS
  6
CONTINUOUS
 62
     0
100
AcDbPoint
 10
-152.9999999998472
 20
159.2021547495387
 30
0.0
  0
POINT
  5
64C21
330
58CD2
100
AcDbEntity
  8
DEFPOINTS
  6
CONTINUOUS
 62
     0
100
AcDbPoint
 10
-475.0
 20
23.0
 30
0.0
  0
POINT
  5
64C22
330
58CD2
100
AcDbEntity
  8
DEFPOINTS
  6
CONTINUOUS
 62
     0
100
AcDbPoint
 10
-475.0
 20
-179.9833250789997
 30
0.0
  0
ENDBLK
  5
58CDD
330
58CD2
100
AcDbEntity
  8
0
100
AcDbBlockEnd
  0
BLOCK
  5
58D59
330
58D4F
100
AcDbEntity
  8
0
100
AcDbBlockBegin
  2
*D57
 70
     1
 10
0.0
 20
0.0
 30
0.0
  3
*D57
  1

  0
LINE
  5
64C9B
330
58D4F
100
AcDbEntity
  8
SIZE
  6
CONTINUOUS
 62
     0
100
AcDbLine
 10
6.876041835505019
 20
1036.0
 30
0.0
 11
438.9398258341272
 21
1036.0
 31
0.0
  0
LINE
  5
64C9C
330
58D4F
100
AcDbEntity
  8
SIZE
  6
CONTINUOUS
 62
     0
100
AcDbLine
 10
15.79999999999927
 20
945.0
 30
0.0
 11
438.9398258341272
 21
944.9999999999999
 31
0.0
  0
LINE
  5
64C9D
330
58D4F
100
AcDbEntity
  8
SIZE
  6
CONTINUOUS
 62
     0
100
AcDbLine
 10
408.9398258341272
 20
954.9999999999998
 30
0.0
 11
408.9398258341272
 21
1026.0
 31
0.0
  0
LINE
  5
64C9E
330
58D4F
100
AcDbEntity
  8
SIZE
  6
CONTINUOUS
 62
     0
100
AcDbLine
 10
408.9398258341272
 20
1036.0
 30
0.0
 11
408.9398258341272
 21
1140.497589206714
 31
0.0
  0
INSERT
  5
64C9F
330
58D4F
100
AcDbEntity
  8
SIZE
  6
CONTINUOUS
 62
     0
100
AcDbBlockReference
  2
_DOTBLANK
 10
408.9398258341272
 20
944.9999999999999
 30
0.0
 41
10.0
 42
10.0
 43
10.0
 50
270.0
  0
INSERT
  5
64CA0
330
58D4F
100
AcDbEntity
  8
SIZE
  6
CONTINUOUS
 62
     0
100
AcDbBlockReference
  2
_DOTBLANK
 10
408.9398258341272
 20
1036.0
 30
0.0
 41
10.0
 42
10.0
 43
10.0
 50
90.0
  0
MTEXT
  5
64CA1
330
58D4F
100
AcDbEntity
  8
SIZE
  6
CONTINUOUS
 62
     0
100
AcDbMText
 10
366.939825834127
 20
1096.211874921
 30
0.0
 40
64.0
 41
0.0
 71
     5
 72
     1
  1
\A1;91
 11
0.0000000000000001
 21
1.0
 31
0.0
1001
ACAD
1000
MTEXTBEGIN
1070
    73
1070
     1
1070
    44
1040
1.0
1070
    74
1070
     0
1000
MTEXTEND
  0
POINT
  5
64CA2
330
58D4F
100
AcDbEntity
  8
DEFPOINTS
  6
CONTINUOUS
 62
     0
100
AcDbPoint
 10
-13.12395816449497
 20
1036.0
 30
0.0
  0
POINT
  5
64CA3
330
58D4F
100
AcDbEntity
  8
DEFPOINTS
  6
CONTINUOUS
 62
     0
100
AcDbPoint
 10
-4.200000000000727
 20
945.0
 30
0.0
  0
POINT
  5
64CA4
330
58D4F
100
AcDbEntity
  8
DEFPOINTS
  6
CONTINUOUS
 62
     0
100
AcDbPoint
 10
408.9398258341272
 20
944.9999999999999
 30
0.0
  0
ENDBLK
  5
58D5A
330
58D4F
100
AcDbEntity
  8
0
100
AcDbBlockEnd
  0
BLOCK
  5
59115
330
59109
100
AcDbEntity
  8
0
100
AcDbBlockBegin
  2
*D58
 70
     1
 10
0.0
 20
0.0
 30
0.0
  3
*D58
  1

  0
LINE
  5
64CA5
330
59109
100
AcDbEntity
  8
SIZE
  6
CONTINUOUS
 62
     0
100
AcDbLine
 10
-322.0
 20
945.1280750789992
 30
0.0
 11
-621.5792689490806
 21
945.1280750789992
 31
0.0
  0
LINE
  5
64CA6
330
59109
100
AcDbEntity
  8
SIZE
  6
CONTINUOUS
 62
     0
100
AcDbLine
 10
-287.3999999996594
 20
981.1280750789991
 30
0.0
 11
-621.5792689490806
 21
981.1280750789991
 31
0.0
  0
LINE
  5
64CA7
330
59109
100
AcDbEntity
  8
SIZE
  6
CONTINUOUS
 62
     0
100
AcDbLine
 10
-591.5792689490806
 20
991.1280750789993
 30
0.0
 11
-591.5792689490806
 21
1001.128075078999
 31
0.0
  0
LINE
  5
64CA8
330
59109
100
AcDbEntity
  8
SIZE
  6
CONTINUOUS
 62
     0
100
AcDbLine
 10
-591.5792689490806
 20
935.1280750789992
 30
0.0
 11
-591.5792689490806
 21
806.3325071428572
 31
0.0
  0
LINE
  5
64CA9
330
59109
100
AcDbEntity
  8
SIZE
  6
CONTINUOUS
 62
     0
100
AcDbLine
 10
-591.5792689490806
 20
981.1280750789991
 30
0.0
 11
-591.5792689490806
 21
945.1280750789992
 31
0.0
  0
INSERT
  5
64CAA
330
59109
100
AcDbEntity
  8
SIZE
  6
CONTINUOUS
 62
     0
100
AcDbBlockReference
  2
_DOTBLANK
 10
-591.5792689490806
 20
981.1280750789991
 30
0.0
 41
10.0
 42
10.0
 43
10.0
 50
270.0
  0
INSERT
  5
64CAB
330
59109
100
AcDbEntity
  8
SIZE
  6
CONTINUOUS
 62
     0
100
AcDbBlockReference
  2
_DOTBLANK
 10
-591.5792689490806
 20
945.1280750789992
 30
0.0
 41
10.0
 42
10.0
 43
10.0
 50
90.0
  0
MTEXT
  5
64CAC
330
59109
100
AcDbEntity
  8
SIZE
  6
CONTINUOUS
 62
     0
100
AcDbMText
 10
-633.5792689490808
 20
861.5896499999999
 30
0.0
 40
64.0
 41
0.0
 71
     5
 72
     1
  1
\A1;36
 11
0.0000000000000001
 21
1.0
 31
0.0
1001
ACAD
1000
MTEXTBEGIN
1070
    73
1070
     1
1070
    44
1040
1.0
1070
    74
1070
     0
1000
MTEXTEND
  0
POINT
  5
64CAD
330
59109
100
AcDbEntity
  8
DEFPOINTS
  6
CONTINUOUS
 62
     0
100
AcDbPoint
 10
-302.0
 20
945.1280750789992
 30
0.0
  0
POINT
  5
64CAE
330
59109
100
AcDbEntity
  8
DEFPOINTS
  6
CONTINUOUS
 62
     0
100
AcDbPoint
 10
-267.3999999996595
 20
981.1280750789991
 30
0.0
  0
POINT
  5
64CAF
330
59109
100
AcDbEntity
  8
DEFPOINTS
  6
CONTINUOUS
 62
     0
100
AcDbPoint
 10
-591.5792689490806
 20
981.1280750789991
 30
0.0
  0
ENDBLK
  5
59116
330
59109
100
AcDbEntity
  8
0
100
AcDbBlockEnd
  0
BLOCK
  5
59122
330
59117
100
AcDbEntity
  8
0
100
AcDbBlockBegin
  2
*D59
 70
     1
 10
0.0
 20
0.0
 30
0.0
  3
*D59
  1

  0
LINE
  5
64C91
330
59117
100
AcDbEntity
  8
SIZE
  6
CONTINUOUS
 62
     0
100
AcDbLine
 10
-304.5999999999912
 20
966.1280750789993
 30
0.0
 11
-304.5999999999912
 21
1183.099374920999
 31
0.0
  0
LINE
  5
64C92
330
59117
100
AcDbEntity
  8
SIZE
  6
CONTINUOUS
 62
     0
100
AcDbLine
 10
-253.5999999997584
 20
1014.9280750789
 30
0.0
 11
-253.5999999997584
 21
1183.099374920999
 31
0.0
  0
LINE
  5
64C93
330
59117
100
AcDbEntity
  8
SIZE
  6
CONTINUOUS
 62
     0
100
AcDbLine
 10
-294.5999999999912
 20
1153.099374920999
 30
0.0
 11
-263.5999999997584
 21
1153.099374920999
 31
0.0
  0
LINE
  5
64C94
330
59117
100
AcDbEntity
  8
SIZE
  6
CONTINUOUS
 62
     0
100
AcDbLine
 10
-253.5999999997584
 20
1153.099374920999
 30
0.0
 11
-137.8857142854735
 21
1153.099374920999
 31
0.0
  0
INSERT
  5
64C95
330
59117
100
AcDbEntity
  8
SIZE
  6
CONTINUOUS
 62
     0
100
AcDbBlockReference
  2
_DOTBLANK
 10
-304.5999999999912
 20
1153.099374920999
 30
0.0
 41
10.0
 42
10.0
 43
10.0
 50
180.0
  0
INSERT
  5
64C96
330
59117
100
AcDbEntity
  8
SIZE
  6
CONTINUOUS
 62
     0
100
AcDbBlockReference
  2
_DOTBLANK
 10
-253.5999999997584
 20
1153.099374920999
 30
0.0
 41
10.0
 42
10.0
 43
10.0
  0
MTEXT
  5
64C97
330
59117
100
AcDbEntity
  8
SIZE
  6
CONTINUOUS
 62
     0
100
AcDbMText
 10
-182.1714285711878
 20
1195.099374920999
 30
0.0
 40
64.0
 41
0.0
 71
     5
 72
     1
  1
\A1;51
1001
ACAD
1000
MTEXTBEGIN
1070
    73
1070
     1
1070
    44
1040
1.0
1070
    74
1070
     0
1000
MTEXTEND
  0
POINT
  5
64C98
330
59117
100
AcDbEntity
  8
DEFPOINTS
  6
CONTINUOUS
 62
     0
100
AcDbPoint
 10
-304.5999999999912
 20
946.1280750789992
 30
0.0
  0
POINT
  5
64C99
330
59117
100
AcDbEntity
  8
DEFPOINTS
  6
CONTINUOUS
 62
     0
100
AcDbPoint
 10
-253.5999999997584
 20
994.9280750789002
 30
0.0
  0
POINT
  5
64C9A
330
59117
100
AcDbEntity
  8
DEFPOINTS
  6
CONTINUOUS
 62
     0
100
AcDbPoint
 10
-253.5999999997584
 20
1153.099374920999
 30
0.0
  0
ENDBLK
  5
59123
330
59117
100
AcDbEntity
  8
0
100
AcDbBlockEnd
  0
BLOCK
  5
59B01
330
59AF6
100
AcDbEntity
  8
0
100
AcDbBlockBegin
  2
*D60
 70
     1
 10
0.0
 20
0.0
 30
0.0
  3
*D60
  1

  0
LINE
  5
64408
330
59AF6
100
AcDbEntity
  8
SIZE
  6
CONTINUOUS
 62
     0
100
AcDbLine
 10
4017.160339507181
 20
-10908.319374921
 30
0.0
 11
4017.160339507181
 21
-11120.9077
 31
0.0
  0
LINE
  5
64409
330
59AF6
100
AcDbEntity
  8
SIZE
  6
CONTINUOUS
 62
     0
100
AcDbLine
 10
3940.160339507181
 20
-10900.319374921
 30
0.0
 11
3940.160339507181
 21
-11120.9077
 31
0.0
  0
LINE
  5
6440A
330
59AF6
100
AcDbEntity
  8
SIZE
  6
CONTINUOUS
 62
     0
100
AcDbLine
 10
4007.16033950718
 20
-11090.9077
 30
0.0
 11
3950.16033950718
 21
-11090.9077
 31
0.0
  0
LINE
  5
6440B
330
59AF6
100
AcDbEntity
  8
SIZE
  6
CONTINUOUS
 62
     0
100
AcDbLine
 10
3940.160339507181
 20
-11090.9077
 30
0.0
 11
3814.956439353753
 21
-11090.9077
 31
0.0
  0
INSERT
  5
6440C
330
59AF6
100
AcDbEntity
  8
SIZE
  6
CONTINUOUS
 62
     0
100
AcDbBlockReference
  2
_DOTBLANK
 10
4017.160339507181
 20
-11090.9077
 30
0.0
 41
10.0
 42
10.0
 43
10.0
  0
INSERT
  5
6440D
330
59AF6
100
AcDbEntity
  8
SIZE
  6
CONTINUOUS
 62
     0
100
AcDbBlockReference
  2
_DOTBLANK
 10
3940.160339507181
 20
-11090.9077
 30
0.0
 41
10.0
 42
10.0
 43
10.0
 50
180.0
  0
MTEXT
  5
6440E
330
59AF6
100
AcDbEntity
  8
SIZE
  6
CONTINUOUS
 62
     0
100
AcDbMText
 10
3871.585010782325
 20
-11048.9077
 30
0.0
 40
64.0
 41
0.0
 71
     5
 72
     1
  1
\A1;77
1001
ACAD
1000
MTEXTBEGIN
1070
    73
1070
     1
1070
    44
1040
1.0
1070
    74
1070
     0
1000
MTEXTEND
  0
POINT
  5
6440F
330
59AF6
100
AcDbEntity
  8
DEFPOINTS
  6
CONTINUOUS
 62
     0
100
AcDbPoint
 10
4017.160339507181
 20
-10888.319374921
 30
0.0
  0
POINT
  5
64410
330
59AF6
100
AcDbEntity
  8
DEFPOINTS
  6
CONTINUOUS
 62
     0
100
AcDbPoint
 10
3940.160339507181
 20
-10880.319374921
 30
0.0
  0
POINT
  5
64411
330
59AF6
100
AcDbEntity
  8
DEFPOINTS
  6
CONTINUOUS
 62
     0
100
AcDbPoint
 10
3940.160339507181
 20
-11090.9077
 30
0.0
  0
ENDBLK
  5
59B02
330
59AF6
100
AcDbEntity
  8
0
100
AcDbBlockEnd
  0
BLOCK
  5
59B0D
330
59B03
100
AcDbEntity
  8
0
100
AcDbBlockBegin
  2
*D61
 70
     1
 10
0.0
 20
0.0
 30
0.0
  3
*D61
  1

  0
LINE
  5
64BE4
330
59B03
100
AcDbEntity
  8
SIZE
  6
CONTINUOUS
 62
     0
100
AcDbLine
 10
3923.46033950718
 20
-10872.319374921
 30
0.0
 11
3179.273599999998
 21
-10872.319374921
 31
0.0
  0
LINE
  5
64BE5
330
59B03
100
AcDbEntity
  8
SIZE
  6
CONTINUOUS
 62
     0
100
AcDbLine
 10
3923.360339507182
 20
-11774.31937837629
 30
0.0
 11
3179.273599999998
 21
-11774.31937837629
 31
0.0
  0
LINE
  5
64BE6
330
59B03
100
AcDbEntity
  8
SIZE
  6
CONTINUOUS
 62
     0
100
AcDbLine
 10
3209.273599999999
 20
-10882.319374921
 30
0.0
 11
3209.273599999998
 21
-11764.31937837629
 31
0.0
  0
INSERT
  5
64BE7
330
59B03
100
AcDbEntity
  8
SIZE
  6
CONTINUOUS
 62
     0
100
AcDbBlockReference
  2
_DOTBLANK
 10
3209.273599999999
 20
-10872.319374921
 30
0.0
 41
10.0
 42
10.0
 43
10.0
 50
90.0
  0
INSERT
  5
64BE8
330
59B03
100
AcDbEntity
  8
SIZE
  6
CONTINUOUS
 62
     0
100
AcDbBlockReference
  2
_DOTBLANK
 10
3209.273599999998
 20
-11774.31937837629
 30
0.0
 41
10.0
 42
10.0
 43
10.0
 50
270.0
  0
MTEXT
  5
64BE9
330
59B03
100
AcDbEntity
  8
SIZE
  6
CONTINUOUS
 62
     0
100
AcDbMText
 10
3167.2736
 20
-11316.1039
 30
0.0
 40
64.0
 41
0.0
 71
     5
 72
     1
  1
\A1;902
 11
0.0000000000000001
 21
1.0
 31
0.0
1001
ACAD
1000
MTEXTBEGIN
1070
    73
1070
     1
1070
    44
1040
1.0
1070
    74
1070
     0
1000
MTEXTEND
  0
POINT
  5
64BEA
330
59B03
100
AcDbEntity
  8
DEFPOINTS
  6
CONTINUOUS
 62
     0
100
AcDbPoint
 10
3943.460339507179
 20
-10872.319374921
 30
0.0
  0
POINT
  5
64BEB
330
59B03
100
AcDbEntity
  8
DEFPOINTS
  6
CONTINUOUS
 62
     0
100
AcDbPoint
 10
3943.360339507181
 20
-11774.31937837629
 30
0.0
  0
POINT
  5
64BEC
330
59B03
100
AcDbEntity
  8
DEFPOINTS
  6
CONTINUOUS
 62
     0
100
AcDbPoint
 10
3209.273599999998
 20
-11774.31937837629
 30
0.0
  0
ENDBLK
  5
59B0E
330
59B03
100
AcDbEntity
  8
0
100
AcDbBlockEnd
  0
BLOCK
  5
59B19
330
59B0F
100
AcDbEntity
  8
0
100
AcDbBlockBegin
  2
*D62
 70
     1
 10
0.0
 20
0.0
 30
0.0
  3
*D62
  1

  0
LINE
  5
64391
330
59B0F
100
AcDbEntity
  8
SIZE
  6
CONTINUOUS
 62
     0
100
AcDbLine
 10
4338.16033950718
 20
-11825.319374921
 30
0.0
 11
4830.3622
 21
-11825.319374921
 31
0.0
  0
LINE
  5
64392
330
59B0F
100
AcDbEntity
  8
SIZE
  6
CONTINUOUS
 62
     0
100
AcDbLine
 10
4290.160339507179
 20
-10880.319374921
 30
0.0
 11
4830.3622
 21
-10880.319374921
 31
0.0
  0
LINE
  5
64393
330
59B0F
100
AcDbEntity
  8
SIZE
  6
CONTINUOUS
 62
     0
100
AcDbLine
 10
4800.362200000001
 20
-11815.319374921
 30
0.0
 11
4800.362200000001
 21
-10890.319374921
 31
0.0
  0
INSERT
  5
64394
330
59B0F
100
AcDbEntity
  8
SIZE
  6
CONTINUOUS
 62
     0
100
AcDbBlockReference
  2
_DOTBLANK
 10
4800.362200000001
 20
-11825.319374921
 30
0.0
 41
10.0
 42
10.0
 43
10.0
 50
270.0
  0
INSERT
  5
64395
330
59B0F
100
AcDbEntity
  8
SIZE
  6
CONTINUOUS
 62
     0
100
AcDbBlockReference
  2
_DOTBLANK
 10
4800.362200000001
 20
-10880.319374921
 30
0.0
 41
10.0
 42
10.0
 43
10.0
 50
90.0
  0
MTEXT
  5
64396
330
59B0F
100
AcDbEntity
  8
SIZE
  6
CONTINUOUS
 62
     0
100
AcDbMText
 10
4758.362200000003
 20
-11352.81937492099
 30
0.0
 40
64.0
 41
0.0
 71
     5
 72
     1
  1
\A1;945
 11
0.0000000000000001
 21
1.0
 31
0.0
1001
ACAD
1000
MTEXTBEGIN
1070
    73
1070
     1
1070
    44
1040
1.0
1070
    74
1070
     0
1000
MTEXTEND
  0
POINT
  5
64397
330
59B0F
100
AcDbEntity
  8
DEFPOINTS
  6
CONTINUOUS
 62
     0
100
AcDbPoint
 10
4318.160339507181
 20
-11825.319374921
 30
0.0
  0
POINT
  5
64398
330
59B0F
100
AcDbEntity
  8
DEFPOINTS
  6
CONTINUOUS
 62
     0
100
AcDbPoint
 10
4270.160339507179
 20
-10880.319374921
 30
0.0
  0
POINT
  5
64399
330
59B0F
100
AcDbEntity
  8
DEFPOINTS
  6
CONTINUOUS
 62
     0
100
AcDbPoint
 10
4800.362200000001
 20
-10880.319374921
 30
0.0
  0
ENDBLK
  5
59B1A
330
59B0F
100
AcDbEntity
  8
0
100
AcDbBlockEnd
  0
BLOCK
  5
59B25
330
59B1B
100
AcDbEntity
  8
0
100
AcDbBlockBegin
  2
*D63
 70
     1
 10
0.0
 20
0.0
 30
0.0
  3
*D63
  1

  0
LINE
  5
61C81
330
59B1B
100
AcDbEntity
  8
SIZE
  6
CONTINUOUS
 62
     0
100
AcDbLine
 10
4338.16033950718
 20
-11825.319374921
 30
0.0
 11
4524.282082210896
 21
-11825.319374921
 31
0.0
  0
LINE
  5
61C82
330
59B1B
100
AcDbEntity
  8
SIZE
  6
CONTINUOUS
 62
     0
100
AcDbLine
 10
4380.589535507182
 20
-11352.31937492146
 30
0.0
 11
4524.282082210896
 21
-11352.31937492146
 31
0.0
  0
LINE
  5
61C83
330
59B1B
100
AcDbEntity
  8
SIZE
  6
CONTINUOUS
 62
     0
100
AcDbLine
 10
4494.282082210896
 20
-11815.319374921
 30
0.0
 11
4494.282082210896
 21
-11362.31937492146
 31
0.0
  0
INSERT
  5
61C84
330
59B1B
100
AcDbEntity
  8
SIZE
  6
CONTINUOUS
 62
     0
100
AcDbBlockReference
  2
_DOTBLANK
 10
4494.282082210896
 20
-11825.319374921
 30
0.0
 41
10.0
 42
10.0
 43
10.0
 50
270.0
  0
INSERT
  5
61C85
330
59B1B
100
AcDbEntity
  8
SIZE
  6
CONTINUOUS
 62
     0
100
AcDbBlockReference
  2
_DOTBLANK
 10
4494.282082210896
 20
-11352.31937492146
 30
0.0
 41
10.0
 42
10.0
 43
10.0
 50
90.0
  0
MTEXT
  5
61C86
330
59B1B
100
AcDbEntity
  8
SIZE
  6
CONTINUOUS
 62
     0
100
AcDbMText
 10
4452.282082210898
 20
-11588.81937492123
 30
0.0
 40
64.0
 41
0.0
 71
     5
 72
     1
  1
\A1;473
 11
0.0000000000000001
 21
1.0
 31
0.0
1001
ACAD
1000
MTEXTBEGIN
1070
    73
1070
     1
1070
    44
1040
1.0
1070
    74
1070
     0
1000
MTEXTEND
  0
POINT
  5
61C87
330
59B1B
100
AcDbEntity
  8
DEFPOINTS
  6
CONTINUOUS
 62
     0
100
AcDbPoint
 10
4318.160339507181
 20
-11825.319374921
 30
0.0
  0
POINT
  5
61C88
330
59B1B
100
AcDbEntity
  8
DEFPOINTS
  6
CONTINUOUS
 62
     0
100
AcDbPoint
 10
4360.589535507181
 20
-11352.31937492146
 30
0.0
  0
POINT
  5
61C89
330
59B1B
100
AcDbEntity
  8
DEFPOINTS
  6
CONTINUOUS
 62
     0
100
AcDbPoint
 10
4494.282082210896
 20
-11352.31937492146
 30
0.0
  0
ENDBLK
  5
59B26
330
59B1B
100
AcDbEntity
  8
0
100
AcDbBlockEnd
  0
BLOCK
  5
59B4B
330
59B3F
100
AcDbEntity
  8
0
100
AcDbBlockBegin
  2
*D64
 70
     1
 10
0.0
 20
0.0
 30
0.0
  3
*D64
  1

  0
LINE
  5
61C46
330
59B3F
100
AcDbEntity
  8
SIZE
  6
CONTINUOUS
 62
     0
100
AcDbLine
 10
4290.16033950718
 20
-11865.319374921
 30
0.0
 11
4290.16033950718
 21
-12149.18823797387
 31
0.0
  0
LINE
  5
61C47
330
59B3F
100
AcDbEntity
  8
SIZE
  6
CONTINUOUS
 62
     0
100
AcDbLine
 10
4318.160339507181
 20
-11845.319374921
 30
0.0
 11
4318.160339507181
 21
-12149.18823797387
 31
0.0
  0
LINE
  5
61C48
330
59B3F
100
AcDbEntity
  8
SIZE
  6
CONTINUOUS
 62
     0
100
AcDbLine
 10
4280.16033950718
 20
-12119.18823797387
 30
0.0
 11
4270.160339507181
 21
-12119.18823797387
 31
0.0
  0
LINE
  5
61C49
330
59B3F
100
AcDbEntity
  8
SIZE
  6
CONTINUOUS
 62
     0
100
AcDbLine
 10
4328.160339507181
 20
-12119.18823797387
 30
0.0
 11
4451.417482364323
 21
-12119.18823797387
 31
0.0
  0
LINE
  5
61C4A
330
59B3F
100
AcDbEntity
  8
SIZE
  6
CONTINUOUS
 62
     0
100
AcDbLine
 10
4290.16033950718
 20
-12119.18823797387
 30
0.0
 11
4318.160339507181
 21
-12119.18823797387
 31
0.0
  0
INSERT
  5
61C4B
330
59B3F
100
AcDbEntity
  8
SIZE
  6
CONTINUOUS
 62
     0
100
AcDbBlockReference
  2
_DOTBLANK
 10
4290.16033950718
 20
-12119.18823797387
 30
0.0
 41
10.0
 42
10.0
 43
10.0
  0
INSERT
  5
61C4C
330
59B3F
100
AcDbEntity
  8
SIZE
  6
CONTINUOUS
 62
     0
100
AcDbBlockReference
  2
_DOTBLANK
 10
4318.160339507181
 20
-12119.18823797387
 30
0.0
 41
10.0
 42
10.0
 43
10.0
 50
180.0
  0
MTEXT
  5
61C4D
330
59B3F
100
AcDbEntity
  8
SIZE
  6
CONTINUOUS
 62
     0
100
AcDbMText
 10
4394.788910935751
 20
-12077.18823797387
 30
0.0
 40
64.0
 41
0.0
 71
     5
 72
     1
  1
\A1;28
1001
ACAD
1000
MTEXTBEGIN
1070
    73
1070
     1
1070
    44
1040
1.0
1070
    74
1070
     0
1000
MTEXTEND
  0
POINT
  5
61C4E
330
59B3F
100
AcDbEntity
  8
DEFPOINTS
  6
CONTINUOUS
 62
     0
100
AcDbPoint
 10
4290.16033950718
 20
-11845.319374921
 30
0.0
  0
POINT
  5
61C4F
330
59B3F
100
AcDbEntity
  8
DEFPOINTS
  6
CONTINUOUS
 62
     0
100
AcDbPoint
 10
4318.160339507181
 20
-11825.319374921
 30
0.0
  0
POINT
  5
61C50
330
59B3F
100
AcDbEntity
  8
DEFPOINTS
  6
CONTINUOUS
 62
     0
100
AcDbPoint
 10
4318.160339507181
 20
-12119.18823797387
 30
0.0
  0
ENDBLK
  5
59B4C
330
59B3F
100
AcDbEntity
  8
0
100
AcDbBlockEnd
  0
BLOCK
  5
59B65
330
59B5B
100
AcDbEntity
  8
0
100
AcDbBlockBegin
  2
*D65
 70
     1
 10
0.0
 20
0.0
 30
0.0
  3
*D65
  1

  0
LINE
  5
643B9
330
59B5B
100
AcDbEntity
  8
SIZE
  6
CONTINUOUS
 62
     0
100
AcDbLine
 10
3940.160339507181
 20
-10857.319374921
 30
0.0
 11
3940.160339507181
 21
-10695.2043
 31
0.0
  0
LINE
  5
643BA
330
59B5B
100
AcDbEntity
  8
SIZE
  6
CONTINUOUS
 62
     0
100
AcDbLine
 10
3760.16033950718
 20
-11142.319374921
 30
0.0
 11
3760.16033950718
 21
-10695.2043
 31
0.0
  0
LINE
  5
643BB
330
59B5B
100
AcDbEntity
  8
SIZE
  6
CONTINUOUS
 62
     0
100
AcDbLine
 10
3930.16033950718
 20
-10725.2043
 30
0.0
 11
3770.16033950718
 21
-10725.2043
 31
0.0
  0
INSERT
  5
643BC
330
59B5B
100
AcDbEntity
  8
SIZE
  6
CONTINUOUS
 62
     0
100
AcDbBlockReference
  2
_DOTBLANK
 10
3940.160339507181
 20
-10725.2043
 30
0.0
 41
10.0
 42
10.0
 43
10.0
  0
INSERT
  5
643BD
330
59B5B
100
AcDbEntity
  8
SIZE
  6
CONTINUOUS
 62
     0
100
AcDbBlockReference
  2
_DOTBLANK
 10
3760.16033950718
 20
-10725.2043
 30
0.0
 41
10.0
 42
10.0
 43
10.0
 50
180.0
  0
MTEXT
  5
643BE
330
59B5B
100
AcDbEntity
  8
SIZE
  6
CONTINUOUS
 62
     0
100
AcDbMText
 10
3850.16033950718
 20
-10683.2043
 30
0.0
 40
64.0
 41
0.0
 71
     5
 72
     1
  1
\A1;180
1001
ACAD
1000
MTEXTBEGIN
1070
    73
1070
     1
1070
    44
1040
1.0
1070
    74
1070
     0
1000
MTEXTEND
  0
POINT
  5
643BF
330
59B5B
100
AcDbEntity
  8
DEFPOINTS
  6
CONTINUOUS
 62
     0
100
AcDbPoint
 10
3940.160339507181
 20
-10877.319374921
 30
0.0
  0
POINT
  5
643C0
330
59B5B
100
AcDbEntity
  8
DEFPOINTS
  6
CONTINUOUS
 62
     0
100
AcDbPoint
 10
3760.16033950718
 20
-11162.319374921
 30
0.0
  0
POINT
  5
643C1
330
59B5B
100
AcDbEntity
  8
DEFPOINTS
  6
CONTINUOUS
 62
     0
100
AcDbPoint
 10
3760.16033950718
 20
-10725.2043
 30
0.0
  0
ENDBLK
  5
59B66
330
59B5B
100
AcDbEntity
  8
0
100
AcDbBlockEnd
  0
BLOCK
  5
59B73
330
59B67
100
AcDbEntity
  8
0
100
AcDbBlockBegin
  2
*D66
 70
     1
 10
0.0
 20
0.0
 30
0.0
  3
*D66
  1

  0
LINE
  5
643E1
330
59B67
100
AcDbEntity
  8
SIZE
  6
CONTINUOUS
 62
     0
100
AcDbLine
 10
3959.16033950718
 20
-10859.319374921
 30
0.0
 11
3959.16033950718
 21
-10695.109
 31
0.0
  0
LINE
  5
643E2
330
59B67
100
AcDbEntity
  8
SIZE
  6
CONTINUOUS
 62
     0
100
AcDbLine
 10
3940.160339507181
 20
-10857.319374921
 30
0.0
 11
3940.160339507181
 21
-10695.109
 31
0.0
  0
LINE
  5
643E3
330
59B67
100
AcDbEntity
  8
SIZE
  6
CONTINUOUS
 62
     0
100
AcDbLine
 10
3930.16033950718
 20
-10725.109
 30
0.0
 11
3920.16033950718
 21
-10725.109
 31
0.0
  0
LINE
  5
643E4
330
59B67
100
AcDbEntity
  8
SIZE
  6
CONTINUOUS
 62
     0
100
AcDbLine
 10
3969.160339507181
 20
-10725.109
 30
0.0
 11
4078.703196650038
 21
-10725.109
 31
0.0
  0
LINE
  5
643E5
330
59B67
100
AcDbEntity
  8
SIZE
  6
CONTINUOUS
 62
     0
100
AcDbLine
 10
3940.160339507181
 20
-10725.109
 30
0.0
 11
3959.16033950718
 21
-10725.109
 31
0.0
  0
INSERT
  5
643E6
330
59B67
100
AcDbEntity
  8
SIZE
  6
CONTINUOUS
 62
     0
100
AcDbBlockReference
  2
_DOTBLANK
 10
3940.160339507181
 20
-10725.109
 30
0.0
 41
10.0
 42
10.0
 43
10.0
  0
INSERT
  5
643E7
330
59B67
100
AcDbEntity
  8
SIZE
  6
CONTINUOUS
 62
     0
100
AcDbBlockReference
  2
_DOTBLANK
 10
3959.16033950718
 20
-10725.109
 30
0.0
 41
10.0
 42
10.0
 43
10.0
 50
180.0
  0
MTEXT
  5
643E8
330
59B67
100
AcDbEntity
  8
SIZE
  6
CONTINUOUS
 62
     0
100
AcDbMText
 10
4028.931768078609
 20
-10683.109
 30
0.0
 40
64.0
 41
0.0
 71
     5
 72
     1
  1
\A1;19
1001
ACAD
1000
MTEXTBEGIN
1070
    73
1070
     1
1070
    44
1040
1.0
1070
    74
1070
     0
1000
MTEXTEND
  0
POINT
  5
643E9
330
59B67
100
AcDbEntity
  8
DEFPOINTS
  6
CONTINUOUS
 62
     0
100
AcDbPoint
 10
3959.16033950718
 20
-10879.319374921
 30
0.0
  0
POINT
  5
643EA
330
59B67
100
AcDbEntity
  8
DEFPOINTS
  6
CONTINUOUS
 62
     0
100
AcDbPoint
 10
3940.160339507181
 20
-10877.319374921
 30
0.0
  0
POINT
  5
643EB
330
59B67
100
AcDbEntity
  8
DEFPOINTS
  6
CONTINUOUS
 62
     0
100
AcDbPoint
 10
3940.160339507181
 20
-10725.109
 30
0.0
  0
ENDBLK
  5
59B74
330
59B67
100
AcDbEntity
  8
0
100
AcDbBlockEnd
  0
BLOCK
  5
59B81
330
59B75
100
AcDbEntity
  8
0
100
AcDbBlockBegin
  2
*D67
 70
     1
 10
0.0
 20
0.0
 30
0.0
  3
*D67
  1

  0
LINE
  5
64597
330
59B75
100
AcDbEntity
  8
SIZE
  6
CONTINUOUS
 62
     0
100
AcDbLine
 10
4111.660339507181
 20
-10859.319374921
 30
0.0
 11
4111.660339507181
 21
-10554.7736
 31
0.0
  0
LINE
  5
64598
330
59B75
100
AcDbEntity
  8
SIZE
  6
CONTINUOUS
 62
     0
100
AcDbLine
 10
3959.16033950718
 20
-10859.319374921
 30
0.0
 11
3959.16033950718
 21
-10554.7736
 31
0.0
  0
LINE
  5
64599
330
59B75
100
AcDbEntity
  8
SIZE
  6
CONTINUOUS
 62
     0
100
AcDbLine
 10
4121.66033950718
 20
-10584.7736
 30
0.0
 11
4131.66033950718
 21
-10584.7736
 31
0.0
  0
LINE
  5
6459A
330
59B75
100
AcDbEntity
  8
SIZE
  6
CONTINUOUS
 62
     0
100
AcDbLine
 10
3949.16033950718
 20
-10584.7736
 30
0.0
 11
3939.16033950718
 21
-10584.7736
 31
0.0
  0
LINE
  5
6459B
330
59B75
100
AcDbEntity
  8
SIZE
  6
CONTINUOUS
 62
     0
100
AcDbLine
 10
4111.660339507181
 20
-10584.7736
 30
0.0
 11
3959.16033950718
 21
-10584.7736
 31
0.0
  0
INSERT
  5
6459C
330
59B75
100
AcDbEntity
  8
SIZE
  6
CONTINUOUS
 62
     0
100
AcDbBlockReference
  2
_DOTBLANK
 10
4111.660339507181
 20
-10584.7736
 30
0.0
 41
10.0
 42
10.0
 43
10.0
 50
180.0
  0
INSERT
  5
6459D
330
59B75
100
AcDbEntity
  8
SIZE
  6
CONTINUOUS
 62
     0
100
AcDbBlockReference
  2
_DOTBLANK
 10
3959.16033950718
 20
-10584.7736
 30
0.0
 41
10.0
 42
10.0
 43
10.0
  0
MTEXT
  5
6459E
330
59B75
100
AcDbEntity
  8
SIZE
  6
CONTINUOUS
 62
     0
100
AcDbMText
 10
4088.1359
 20
-10542.7736
 30
0.0
 40
64.0
 41
0.0
 71
     5
 72
     1
  1
\A1;152.5
1001
ACAD
1000
MTEXTBEGIN
1070
    73
1070
     1
1070
    44
1040
1.0
1070
    74
1070
     0
1000
MTEXTEND
  0
POINT
  5
6459F
330
59B75
100
AcDbEntity
  8
DEFPOINTS
  6
CONTINUOUS
 62
     0
100
AcDbPoint
 10
4111.660339507181
 20
-10879.319374921
 30
0.0
  0
POINT
  5
645A0
330
59B75
100
AcDbEntity
  8
DEFPOINTS
  6
CONTINUOUS
 62
     0
100
AcDbPoint
 10
3959.16033950718
 20
-10879.319374921
 30
0.0
  0
POINT
  5
645A1
330
59B75
100
AcDbEntity
  8
DEFPOINTS
  6
CONTINUOUS
 62
     0
100
AcDbPoint
 10
3959.16033950718
 20
-10584.7736
 30
0.0
  0
ENDBLK
  5
59B82
330
59B75
100
AcDbEntity
  8
0
100
AcDbBlockEnd
  0
BLOCK
  5
59B8F
330
59B83
100
AcDbEntity
  8
0
100
AcDbBlockBegin
  2
*D68
 70
     1
 10
0.0
 20
0.0
 30
0.0
  3
*D68
  1

  0
LINE
  5
643CB
330
59B83
100
AcDbEntity
  8
SIZE
  6
CONTINUOUS
 62
     0
100
AcDbLine
 10
4270.160339507181
 20
-10860.319374921
 30
0.0
 11
4270.160339507181
 21
-10376.63299999999
 31
0.0
  0
LINE
  5
643CC
330
59B83
100
AcDbEntity
  8
SIZE
  6
CONTINUOUS
 62
     0
100
AcDbLine
 10
4295.16033950718
 20
-11041.319374921
 30
0.0
 11
4295.16033950718
 21
-10376.63299999999
 31
0.0
  0
LINE
  5
643CD
330
59B83
100
AcDbEntity
  8
SIZE
  6
CONTINUOUS
 62
     0
100
AcDbLine
 10
4260.16033950718
 20
-10406.633
 30
0.0
 11
4250.16033950718
 21
-10406.633
 31
0.0
  0
LINE
  5
643CE
330
59B83
100
AcDbEntity
  8
SIZE
  6
CONTINUOUS
 62
     0
100
AcDbLine
 10
4305.160339507181
 20
-10406.633
 30
0.0
 11
4428.417482364323
 21
-10406.633
 31
0.0
  0
LINE
  5
643CF
330
59B83
100
AcDbEntity
  8
SIZE
  6
CONTINUOUS
 62
     0
100
AcDbLine
 10
4270.160339507181
 20
-10406.633
 30
0.0
 11
4295.16033950718
 21
-10406.633
 31
0.0
  0
INSERT
  5
643D0
330
59B83
100
AcDbEntity
  8
SIZE
  6
CONTINUOUS
 62
     0
100
AcDbBlockReference
  2
_DOTBLANK
 10
4270.160339507181
 20
-10406.633
 30
0.0
 41
10.0
 42
10.0
 43
10.0
  0
INSERT
  5
643D1
330
59B83
100
AcDbEntity
  8
SIZE
  6
CONTINUOUS
 62
     0
100
AcDbBlockReference
  2
_DOTBLANK
 10
4295.16033950718
 20
-10406.633
 30
0.0
 41
10.0
 42
10.0
 43
10.0
 50
180.0
  0
MTEXT
  5
643D2
330
59B83
100
AcDbEntity
  8
SIZE
  6
CONTINUOUS
 62
     0
100
AcDbMText
 10
4371.788910935752
 20
-10364.633
 30
0.0
 40
64.0
 41
0.0
 71
     5
 72
     1
  1
\A1;25
1001
ACAD
1000
MTEXTBEGIN
1070
    73
1070
     1
1070
    44
1040
1.0
1070
    74
1070
     0
1000
MTEXTEND
  0
POINT
  5
643D3
330
59B83
100
AcDbEntity
  8
DEFPOINTS
  6
CONTINUOUS
 62
     0
100
AcDbPoint
 10
4270.160339507181
 20
-10880.319374921
 30
0.0
  0
POINT
  5
643D4
330
59B83
100
AcDbEntity
  8
DEFPOINTS
  6
CONTINUOUS
 62
     0
100
AcDbPoint
 10
4295.16033950718
 20
-11061.319374921
 30
0.0
  0
POINT
  5
643D5
330
59B83
100
AcDbEntity
  8
DEFPOINTS
  6
CONTINUOUS
 62
     0
100
AcDbPoint
 10
4295.16033950718
 20
-10406.633
 30
0.0
  0
ENDBLK
  5
59B90
330
59B83
100
AcDbEntity
  8
0
100
AcDbBlockEnd
  0
BLOCK
  5
59B9B
330
59B91
100
AcDbEntity
  8
0
100
AcDbBlockBegin
  2
*D69
 70
     1
 10
0.0
 20
0.0
 30
0.0
  3
*D69
  1

  0
LINE
  5
643C2
330
59B91
100
AcDbEntity
  8
SIZE
  6
CONTINUOUS
 62
     0
100
AcDbLine
 10
3940.160339507181
 20
-10860.319374921
 30
0.0
 11
3940.160339507181
 21
-10376.63299999999
 31
0.0
  0
LINE
  5
643C3
330
59B91
100
AcDbEntity
  8
SIZE
  6
CONTINUOUS
 62
     0
100
AcDbLine
 10
4270.160339507181
 20
-10860.319374921
 30
0.0
 11
4270.160339507181
 21
-10376.63299999999
 31
0.0
  0
LINE
  5
643C4
330
59B91
100
AcDbEntity
  8
SIZE
  6
CONTINUOUS
 62
     0
100
AcDbLine
 10
3950.16033950718
 20
-10406.633
 30
0.0
 11
4260.16033950718
 21
-10406.633
 31
0.0
  0
INSERT
  5
643C5
330
59B91
100
AcDbEntity
  8
SIZE
  6
CONTINUOUS
 62
     0
100
AcDbBlockReference
  2
_DOTBLANK
 10
3940.160339507181
 20
-10406.633
 30
0.0
 41
10.0
 42
10.0
 43
10.0
 50
180.0
  0
INSERT
  5
643C6
330
59B91
100
AcDbEntity
  8
SIZE
  6
CONTINUOUS
 62
     0
100
AcDbBlockReference
  2
_DOTBLANK
 10
4270.160339507181
 20
-10406.633
 30
0.0
 41
10.0
 42
10.0
 43
10.0
  0
MTEXT
  5
643C7
330
59B91
100
AcDbEntity
  8
SIZE
  6
CONTINUOUS
 62
     0
100
AcDbMText
 10
4105.160339507181
 20
-10364.633
 30
0.0
 40
64.0
 41
0.0
 71
     5
 72
     1
  1
\A1;330
1001
ACAD
1000
MTEXTBEGIN
1070
    73
1070
     1
1070
    44
1040
1.0
1070
    74
1070
     0
1000
MTEXTEND
  0
POINT
  5
643C8
330
59B91
100
AcDbEntity
  8
DEFPOINTS
  6
CONTINUOUS
 62
     0
100
AcDbPoint
 10
3940.160339507181
 20
-10880.319374921
 30
0.0
  0
POINT
  5
643C9
330
59B91
100
AcDbEntity
  8
DEFPOINTS
  6
CONTINUOUS
 62
     0
100
AcDbPoint
 10
4270.160339507181
 20
-10880.319374921
 30
0.0
  0
POINT
  5
643CA
330
59B91
100
AcDbEntity
  8
DEFPOINTS
  6
CONTINUOUS
 62
     0
100
AcDbPoint
 10
4270.160339507181
 20
-10406.633
 30
0.0
  0
ENDBLK
  5
59B9C
330
59B91
100
AcDbEntity
  8
0
100
AcDbBlockEnd
  0
BLOCK
  5
5B2DD
330
5B2D3
100
AcDbEntity
  8
0
100
AcDbBlockBegin
  2
*D70
 70
     1
 10
0.0
 20
0.0
 30
0.0
  3
*D70
  1

  0
LINE
  5
648BC
330
5B2D3
100
AcDbEntity
  8
SIZE
  6
CONTINUOUS
 62
     0
100
AcDbLine
 10
7074.480874165866
 20
-8600.909472125474
 30
0.0
 11
7462.559399999998
 21
-8600.909472125474
 31
0.0
  0
LINE
  5
648BD
330
5B2D3
100
AcDbEntity
  8
SIZE
  6
CONTINUOUS
 62
     0
100
AcDbLine
 10
7134.48087416587
 20
-8780.90947212547
 30
0.0
 11
7462.559399999998
 21
-8780.90947212547
 31
0.0
  0
LINE
  5
648BE
330
5B2D3
100
AcDbEntity
  8
SIZE
  6
CONTINUOUS
 62
     0
100
AcDbLine
 10
7432.559399999998
 20
-8770.909472125472
 30
0.0
 11
7432.559399999998
 21
-8610.909472125474
 31
0.0
  0
LINE
  5
648BF
330
5B2D3
100
AcDbEntity
  8
SIZE
  6
CONTINUOUS
 62
     0
100
AcDbLine
 10
7432.559399999998
 20
-8600.909472125474
 30
0.0
 11
7432.559399999998
 21
-8349.411871777027
 31
0.0
  0
INSERT
  5
648C0
330
5B2D3
100
AcDbEntity
  8
SIZE
  6
CONTINUOUS
 62
     0
100
AcDbBlockReference
  2
_DOTBLANK
 10
7432.559399999998
 20
-8780.90947212547
 30
0.0
 41
10.0
 42
10.0
 43
10.0
 50
270.0
  0
INSERT
  5
648C1
330
5B2D3
100
AcDbEntity
  8
SIZE
  6
CONTINUOUS
 62
     0
100
AcDbBlockReference
  2
_DOTBLANK
 10
7432.559399999998
 20
-8600.909472125474
 30
0.0
 41
10.0
 42
10.0
 43
10.0
 50
90.0
  0
MTEXT
  5
648C2
330
5B2D3
100
AcDbEntity
  8
SIZE
  6
CONTINUOUS
 62
     0
100
AcDbMText
 10
7390.559399999999
 20
-8427.983300348452
 30
0.0
 40
64.0
 41
0.0
 71
     5
 72
     1
  1
\A1;180
 11
0.0000000000000001
 21
1.0
 31
0.0
1001
ACAD
1000
MTEXTBEGIN
1070
    73
1070
     1
1070
    44
1040
1.0
1070
    74
1070
     0
1000
MTEXTEND
  0
POINT
  5
648C3
330
5B2D3
100
AcDbEntity
  8
DEFPOINTS
  6
CONTINUOUS
 62
     0
100
AcDbPoint
 10
7054.480874165865
 20
-8600.909472125474
 30
0.0
  0
POINT
  5
648C4
330
5B2D3
100
AcDbEntity
  8
DEFPOINTS
  6
CONTINUOUS
 62
     0
100
AcDbPoint
 10
7114.480874165869
 20
-8780.90947212547
 30
0.0
  0
POINT
  5
648C5
330
5B2D3
100
AcDbEntity
  8
DEFPOINTS
  6
CONTINUOUS
 62
     0
100
AcDbPoint
 10
7432.559399999998
 20
-8780.90947212547
 30
0.0
  0
ENDBLK
  5
5B2DE
330
5B2D3
100
AcDbEntity
  8
0
100
AcDbBlockEnd
  0
BLOCK
  5
5B306
330
5B2FA
100
AcDbEntity
  8
0
100
AcDbBlockBegin
  2
*D71
 70
     1
 10
0.0
 20
0.0
 30
0.0
  3
*D71
  1

  0
LINE
  5
648A7
330
5B2FA
100
AcDbEntity
  8
SIZE
  6
CONTINUOUS
 62
     0
100
AcDbLine
 10
7134.48087416587
 20
-8780.90947212547
 30
0.0
 11
7462.559399999999
 21
-8780.90947212547
 31
0.0
  0
LINE
  5
648A8
330
5B2FA
100
AcDbEntity
  8
SIZE
  6
CONTINUOUS
 62
     0
100
AcDbLine
 10
7206.503256584811
 20
-8799.909472125472
 30
0.0
 11
7462.559399999999
 21
-8799.909472125472
 31
0.0
  0
LINE
  5
648A9
330
5B2FA
100
AcDbEntity
  8
SIZE
  6
CONTINUOUS
 62
     0
100
AcDbLine
 10
7432.559399999999
 20
-8770.909472125472
 30
0.0
 11
7432.559399999999
 21
-8760.909472125472
 31
0.0
  0
LINE
  5
648AA
330
5B2FA
100
AcDbEntity
  8
SIZE
  6
CONTINUOUS
 62
     0
100
AcDbLine
 10
7432.559399999999
 20
-8809.909472125472
 30
0.0
 11
7432.559399999999
 21
-8920.386528571432
 31
0.0
  0
LINE
  5
648AB
330
5B2FA
100
AcDbEntity
  8
SIZE
  6
CONTINUOUS
 62
     0
100
AcDbLine
 10
7432.559399999999
 20
-8780.90947212547
 30
0.0
 11
7432.559399999999
 21
-8799.909472125472
 31
0.0
  0
INSERT
  5
648AC
330
5B2FA
100
AcDbEntity
  8
SIZE
  6
CONTINUOUS
 62
     0
100
AcDbBlockReference
  2
_DOTBLANK
 10
7432.559399999999
 20
-8780.90947212547
 30
0.0
 41
10.0
 42
10.0
 43
10.0
 50
270.0
  0
INSERT
  5
648AD
330
5B2FA
100
AcDbEntity
  8
SIZE
  6
CONTINUOUS
 62
     0
100
AcDbBlockReference
  2
_DOTBLANK
 10
7432.559399999999
 20
-8799.909472125472
 30
0.0
 41
10.0
 42
10.0
 43
10.0
 50
90.0
  0
MTEXT
  5
648AE
330
5B2FA
100
AcDbEntity
  8
SIZE
  6
CONTINUOUS
 62
     0
100
AcDbMText
 10
7390.5594
 20
-8870.6151
 30
0.0
 40
64.0
 41
0.0
 71
     5
 72
     1
  1
\A1;19
 11
0.0000000000000001
 21
1.0
 31
0.0
1001
ACAD
1000
MTEXTBEGIN
1070
    73
1070
     1
1070
    44
1040
1.0
1070
    74
1070
     0
1000
MTEXTEND
  0
POINT
  5
648AF
330
5B2FA
100
AcDbEntity
  8
DEFPOINTS
  6
CONTINUOUS
 62
     0
100
AcDbPoint
 10
7114.480874165869
 20
-8780.90947212547
 30
0.0
  0
POINT
  5
648B0
330
5B2FA
100
AcDbEntity
  8
DEFPOINTS
  6
CONTINUOUS
 62
     0
100
AcDbPoint
 10
7186.503256584811
 20
-8799.909472125472
 30
0.0
  0
POINT
  5
648B1
330
5B2FA
100
AcDbEntity
  8
DEFPOINTS
  6
CONTINUOUS
 62
     0
100
AcDbPoint
 10
7432.559399999999
 20
-8799.909472125472
 30
0.0
  0
ENDBLK
  5
5B307
330
5B2FA
100
AcDbEntity
  8
0
100
AcDbBlockEnd
  0
BLOCK
  5
5B381
330
5B377
100
AcDbEntity
  8
0
100
AcDbBlockBegin
  2
*D72
 70
     1
 10
0.0
 20
0.0
 30
0.0
  3
*D72
  1

  0
LINE
  5
5F8E3
330
5B377
100
AcDbEntity
  8
SIZE
  6
CONTINUOUS
 62
     0
100
AcDbLine
 10
7695.080874165873
 20
-8780.90947212547
 30
0.0
 11
7912.363400000001
 21
-8780.90947212547
 31
0.0
  0
LINE
  5
5F8E4
330
5B377
100
AcDbEntity
  8
SIZE
  6
CONTINUOUS
 62
     0
100
AcDbLine
 10
7695.080874165873
 20
-9110.909472125472
 30
0.0
 11
7912.363400000001
 21
-9110.909472125472
 31
0.0
  0
LINE
  5
5F8E5
330
5B377
100
AcDbEntity
  8
SIZE
  6
CONTINUOUS
 62
     0
100
AcDbLine
 10
7882.3634
 20
-8790.909472125472
 30
0.0
 11
7882.3634
 21
-9100.90947212547
 31
0.0
  0
INSERT
  5
5F8E6
330
5B377
100
AcDbEntity
  8
SIZE
  6
CONTINUOUS
 62
     0
100
AcDbBlockReference
  2
_DOTBLANK
 10
7882.3634
 20
-8780.90947212547
 30
0.0
 41
10.0
 42
10.0
 43
10.0
 50
90.0
  0
INSERT
  5
5F8E7
330
5B377
100
AcDbEntity
  8
SIZE
  6
CONTINUOUS
 62
     0
100
AcDbBlockReference
  2
_DOTBLANK
 10
7882.3634
 20
-9110.909472125472
 30
0.0
 41
10.0
 42
10.0
 43
10.0
 50
270.0
  0
MTEXT
  5
5F8E8
330
5B377
100
AcDbEntity
  8
SIZE
  6
CONTINUOUS
 62
     0
100
AcDbMText
 10
7840.363400000001
 20
-8945.909472125469
 30
0.0
 40
64.0
 41
0.0
 71
     5
 72
     1
  1
\A1;330
 11
0.0000000000000001
 21
1.0
 31
0.0
1001
ACAD
1000
MTEXTBEGIN
1070
    73
1070
     1
1070
    44
1040
1.0
1070
    74
1070
     0
1000
MTEXTEND
  0
POINT
  5
5F8E9
330
5B377
100
AcDbEntity
  8
DEFPOINTS
  6
CONTINUOUS
 62
     0
100
AcDbPoint
 10
7675.080874165873
 20
-8780.90947212547
 30
0.0
  0
POINT
  5
5F8EA
330
5B377
100
AcDbEntity
  8
DEFPOINTS
  6
CONTINUOUS
 62
     0
100
AcDbPoint
 10
7675.080874165873
 20
-9110.909472125472
 30
0.0
  0
POINT
  5
5F8EB
330
5B377
100
AcDbEntity
  8
DEFPOINTS
  6
CONTINUOUS
 62
     0
100
AcDbPoint
 10
7882.3634
 20
-9110.909472125472
 30
0.0
  0
ENDBLK
  5
5B382
330
5B377
100
AcDbEntity
  8
0
100
AcDbBlockEnd
  0
BLOCK
  5
5B4C1
330
5B4B7
100
AcDbEntity
  8
0
100
AcDbBlockBegin
  2
*D73
 70
     1
 10
0.0
 20
0.0
 30
0.0
  3
*D73
  1

  0
LINE
  5
646F9
330
5B4B7
100
AcDbEntity
  8
SIZE
  6
CONTINUOUS
 62
     0
100
AcDbLine
 10
6954.480874165866
 20
-8588.409472125468
 30
0.0
 11
6954.480874165866
 21
-8265.015000000001
 31
0.0
  0
LINE
  5
646FA
330
5B4B7
100
AcDbEntity
  8
SIZE
  6
CONTINUOUS
 62
     0
100
AcDbLine
 10
7154.480874165866
 20
-8588.409472125468
 30
0.0
 11
7154.480874165866
 21
-8265.015000000001
 31
0.0
  0
LINE
  5
646FB
330
5B4B7
100
AcDbEntity
  8
SIZE
  6
CONTINUOUS
 62
     0
100
AcDbLine
 10
6964.480874165865
 20
-8295.015000000001
 30
0.0
 11
7144.480874165866
 21
-8295.015000000001
 31
0.0
  0
INSERT
  5
646FC
330
5B4B7
100
AcDbEntity
  8
SIZE
  6
CONTINUOUS
 62
     0
100
AcDbBlockReference
  2
_DOTBLANK
 10
6954.480874165866
 20
-8295.015000000001
 30
0.0
 41
10.0
 42
10.0
 43
10.0
 50
180.0
  0
INSERT
  5
646FD
330
5B4B7
100
AcDbEntity
  8
SIZE
  6
CONTINUOUS
 62
     0
100
AcDbBlockReference
  2
_DOTBLANK
 10
7154.480874165866
 20
-8295.015000000001
 30
0.0
 41
10.0
 42
10.0
 43
10.0
  0
MTEXT
  5
646FE
330
5B4B7
100
AcDbEntity
  8
SIZE
  6
CONTINUOUS
 62
     0
100
AcDbMText
 10
7054.480874165865
 20
-8253.015000000003
 30
0.0
 40
64.0
 41
0.0
 71
     5
 72
     1
  1
\A1;200
1001
ACAD
1000
MTEXTBEGIN
1070
    73
1070
     1
1070
    44
1040
1.0
1070
    74
1070
     0
1000
MTEXTEND
  0
POINT
  5
646FF
330
5B4B7
100
AcDbEntity
  8
DEFPOINTS
  6
CONTINUOUS
 62
     0
100
AcDbPoint
 10
6954.480874165866
 20
-8608.409472125469
 30
0.0
  0
POINT
  5
64700
330
5B4B7
100
AcDbEntity
  8
DEFPOINTS
  6
CONTINUOUS
 62
     0
100
AcDbPoint
 10
7154.480874165866
 20
-8608.409472125469
 30
0.0
  0
POINT
  5
64701
330
5B4B7
100
AcDbEntity
  8
DEFPOINTS
  6
CONTINUOUS
 62
     0
100
AcDbPoint
 10
7154.480874165866
 20
-8295.015000000001
 30
0.0
  0
ENDBLK
  5
5B4C2
330
5B4B7
100
AcDbEntity
  8
0
100
AcDbBlockEnd
  0
BLOCK
  5
5B4CE
330
5B4C4
100
AcDbEntity
  8
0
100
AcDbBlockBegin
  2
*D74
 70
     1
 10
0.0
 20
0.0
 30
0.0
  3
*D74
  1

  0
LINE
  5
5F972
330
5B4C4
100
AcDbEntity
  8
SIZE
  6
CONTINUOUS
 62
     0
100
AcDbLine
 10
6908.080874165873
 20
-8897.809472125471
 30
0.0
 11
6908.080874165873
 21
-9675.515469816925
 31
0.0
  0
LINE
  5
5F973
330
5B4C4
100
AcDbEntity
  8
SIZE
  6
CONTINUOUS
 62
     0
100
AcDbLine
 10
6725.080874165873
 20
-9130.909472125471
 30
0.0
 11
6725.080874165873
 21
-9675.515469816925
 31
0.0
  0
LINE
  5
5F974
330
5B4C4
100
AcDbEntity
  8
SIZE
  6
CONTINUOUS
 62
     0
100
AcDbLine
 10
6898.080874165874
 20
-9645.515469816926
 30
0.0
 11
6735.080874165872
 21
-9645.515469816926
 31
0.0
  0
INSERT
  5
5F975
330
5B4C4
100
AcDbEntity
  8
SIZE
  6
CONTINUOUS
 62
     0
100
AcDbBlockReference
  2
_DOTBLANK
 10
6908.080874165873
 20
-9645.515469816926
 30
0.0
 41
10.0
 42
10.0
 43
10.0
  0
INSERT
  5
5F976
330
5B4C4
100
AcDbEntity
  8
SIZE
  6
CONTINUOUS
 62
     0
100
AcDbBlockReference
  2
_DOTBLANK
 10
6725.080874165873
 20
-9645.515469816926
 30
0.0
 41
10.0
 42
10.0
 43
10.0
 50
180.0
  0
MTEXT
  5
5F977
330
5B4C4
100
AcDbEntity
  8
SIZE
  6
CONTINUOUS
 62
     0
100
AcDbMText
 10
6816.580874165873
 20
-9603.515469816926
 30
0.0
 40
64.0
 41
0.0
 71
     5
 72
     1
  1
\A1;183
1001
ACAD
1000
MTEXTBEGIN
1070
    73
1070
     1
1070
    44
1040
1.0
1070
    74
1070
     0
1000
MTEXTEND
  0
POINT
  5
5F978
330
5B4C4
100
AcDbEntity
  8
DEFPOINTS
  6
CONTINUOUS
 62
     0
100
AcDbPoint
 10
6908.080874165873
 20
-8877.809472125472
 30
0.0
  0
POINT
  5
5F979
330
5B4C4
100
AcDbEntity
  8
DEFPOINTS
  6
CONTINUOUS
 62
     0
100
AcDbPoint
 10
6725.080874165873
 20
-9110.909472125472
 30
0.0
  0
POINT
  5
5F97A
330
5B4C4
100
AcDbEntity
  8
DEFPOINTS
  6
CONTINUOUS
 62
     0
100
AcDbPoint
 10
6725.080874165873
 20
-9645.515469816926
 30
0.0
  0
ENDBLK
  5
5B4CF
330
5B4C4
100
AcDbEntity
  8
0
100
AcDbBlockEnd
  0
BLOCK
  5
5BADC
330
5BAD2
100
AcDbEntity
  8
0
100
AcDbBlockBegin
  2
*D75
 70
     1
 10
0.0
 20
0.0
 30
0.0
  3
*D75
  1

  0
LINE
  5
64938
330
5BAD2
100
AcDbEntity
  8
SIZE
  6
CONTINUOUS
 62
     0
100
AcDbLine
 10
9504.108584539221
 20
-10789.319374921
 30
0.0
 11
10228.54859999999
 21
-10789.319374921
 31
0.0
  0
LINE
  5
64939
330
5BAD2
100
AcDbEntity
  8
SIZE
  6
CONTINUOUS
 62
     0
100
AcDbLine
 10
9507.282542703716
 20
-10880.319374921
 30
0.0
 11
10228.54859999999
 21
-10880.319374921
 31
0.0
  0
LINE
  5
6493A
330
5BAD2
100
AcDbEntity
  8
SIZE
  6
CONTINUOUS
 62
     0
100
AcDbLine
 10
10198.54859999999
 20
-10779.319374921
 30
0.0
 11
10198.54859999999
 21
-10769.319374921
 31
0.0
  0
LINE
  5
6493B
330
5BAD2
100
AcDbEntity
  8
SIZE
  6
CONTINUOUS
 62
     0
100
AcDbLine
 10
10198.54859999999
 20
-10890.319374921
 30
0.0
 11
10198.54859999999
 21
-10900.319374921
 31
0.0
  0
LINE
  5
6493C
330
5BAD2
100
AcDbEntity
  8
SIZE
  6
CONTINUOUS
 62
     0
100
AcDbLine
 10
10198.54859999999
 20
-10789.319374921
 30
0.0
 11
10198.54859999999
 21
-10880.319374921
 31
0.0
  0
INSERT
  5
6493D
330
5BAD2
100
AcDbEntity
  8
SIZE
  6
CONTINUOUS
 62
     0
100
AcDbBlockReference
  2
_DOTBLANK
 10
10198.54859999999
 20
-10789.319374921
 30
0.0
 41
10.0
 42
10.0
 43
10.0
 50
270.0
  0
INSERT
  5
6493E
330
5BAD2
100
AcDbEntity
  8
SIZE
  6
CONTINUOUS
 62
     0
100
AcDbBlockReference
  2
_DOTBLANK
 10
10198.54859999999
 20
-10880.319374921
 30
0.0
 41
10.0
 42
10.0
 43
10.0
 50
90.0
  0
MTEXT
  5
6493F
330
5BAD2
100
AcDbEntity
  8
SIZE
  6
CONTINUOUS
 62
     0
100
AcDbMText
 10
10156.5486
 20
-10833.4636
 30
0.0
 40
64.0
 41
0.0
 71
     5
 72
     1
  1
\A1;91
 11
0.0000000000000001
 21
1.0
 31
0.0
1001
ACAD
1000
MTEXTBEGIN
1070
    73
1070
     1
1070
    44
1040
1.0
1070
    74
1070
     0
1000
MTEXTEND
  0
POINT
  5
64940
330
5BAD2
100
AcDbEntity
  8
DEFPOINTS
  6
CONTINUOUS
 62
     0
100
AcDbPoint
 10
9484.108584539221
 20
-10789.319374921
 30
0.0
  0
POINT
  5
64941
330
5BAD2
100
AcDbEntity
  8
DEFPOINTS
  6
CONTINUOUS
 62
     0
100
AcDbPoint
 10
9487.282542703715
 20
-10880.319374921
 30
0.0
  0
POINT
  5
64942
330
5BAD2
100
AcDbEntity
  8
DEFPOINTS
  6
CONTINUOUS
 62
     0
100
AcDbPoint
 10
10198.54859999999
 20
-10880.319374921
 30
0.0
  0
ENDBLK
  5
5BADD
330
5BAD2
100
AcDbEntity
  8
0
100
AcDbBlockEnd
  0
BLOCK
  5
5BAFD
330
5BAF1
100
AcDbEntity
  8
0
100
AcDbBlockBegin
  2
*D76
 70
     1
 10
0.0
 20
0.0
 30
0.0
  3
*D76
  1

  0
LINE
  5
5BB29
330
5BAF1
100
AcDbEntity
  8
SIZE
  6
CONTINUOUS
 62
     0
100
AcDbLine
 10
6954.480874165874
 20
-13300.12468489087
 30
0.0
 11
6954.480874165874
 21
-13135.3096
 31
0.0
  0
LINE
  5
5BB2A
330
5BAF1
100
AcDbEntity
  8
SIZE
  6
CONTINUOUS
 62
     0
100
AcDbLine
 10
7154.480874165874
 20
-13300.12468489087
 30
0.0
 11
7154.480874165874
 21
-13135.3096
 31
0.0
  0
LINE
  5
5BB2B
330
5BAF1
100
AcDbEntity
  8
SIZE
  6
CONTINUOUS
 62
     0
100
AcDbLine
 10
6964.480874165875
 20
-13165.3096
 30
0.0
 11
7144.480874165875
 21
-13165.3096
 31
0.0
  0
INSERT
  5
5BB2C
330
5BAF1
100
AcDbEntity
  8
SIZE
  6
CONTINUOUS
 62
     0
100
AcDbBlockReference
  2
_DOTBLANK
 10
6954.480874165874
 20
-13165.3096
 30
0.0
 41
10.0
 42
10.0
 43
10.0
 50
180.0
  0
INSERT
  5
5BB2D
330
5BAF1
100
AcDbEntity
  8
SIZE
  6
CONTINUOUS
 62
     0
100
AcDbBlockReference
  2
_DOTBLANK
 10
7154.480874165874
 20
-13165.3096
 30
0.0
 41
10.0
 42
10.0
 43
10.0
  0
MTEXT
  5
5BB2E
330
5BAF1
100
AcDbEntity
  8
SIZE
  6
CONTINUOUS
 62
     0
100
AcDbMText
 10
7054.480874165874
 20
-13123.3096
 30
0.0
 40
64.0
 41
0.0
 71
     5
 72
     1
  1
\A1;200
1001
ACAD
1000
MTEXTBEGIN
1070
    73
1070
     1
1070
    44
1040
1.0
1070
    74
1070
     0
1000
MTEXTEND
  0
POINT
  5
5BB2F
330
5BAF1
100
AcDbEntity
  8
DEFPOINTS
  6
CONTINUOUS
 62
     0
100
AcDbPoint
 10
6954.480874165874
 20
-13320.12468489087
 30
0.0
  0
POINT
  5
5BB30
330
5BAF1
100
AcDbEntity
  8
DEFPOINTS
  6
CONTINUOUS
 62
     0
100
AcDbPoint
 10
7154.480874165874
 20
-13320.12468489087
 30
0.0
  0
POINT
  5
5BB31
330
5BAF1
100
AcDbEntity
  8
DEFPOINTS
  6
CONTINUOUS
 62
     0
100
AcDbPoint
 10
7154.480874165874
 20
-13165.3096
 30
0.0
  0
ENDBLK
  5
5BAFE
330
5BAF1
100
AcDbEntity
  8
0
100
AcDbBlockEnd
  0
BLOCK
  5
5BB49
330
5BB3F
100
AcDbEntity
  8
0
100
AcDbBlockBegin
  2
*D77
 70
     1
 10
0.0
 20
0.0
 30
0.0
  3
*D77
  1

  0
LINE
  5
64BB9
330
5BB3F
100
AcDbEntity
  8
SIZE
  6
CONTINUOUS
 62
     0
100
AcDbLine
 10
11809.86933105091
 20
-10872.319374921
 30
0.0
 11
11466.04059999999
 21
-10872.319374921
 31
0.0
  0
LINE
  5
64BBA
330
5BB3F
100
AcDbEntity
  8
SIZE
  6
CONTINUOUS
 62
     0
100
AcDbLine
 10
11781.96933105091
 20
-11774.31937837629
 30
0.0
 11
11466.04059999999
 21
-11774.31937837629
 31
0.0
  0
LINE
  5
64BBB
330
5BB3F
100
AcDbEntity
  8
SIZE
  6
CONTINUOUS
 62
     0
100
AcDbLine
 10
11496.04059999999
 20
-10882.319374921
 30
0.0
 11
11496.04059999999
 21
-11764.31937837629
 31
0.0
  0
INSERT
  5
64BBC
330
5BB3F
100
AcDbEntity
  8
SIZE
  6
CONTINUOUS
 62
     0
100
AcDbBlockReference
  2
_DOTBLANK
 10
11496.04059999999
 20
-10872.319374921
 30
0.0
 41
10.0
 42
10.0
 43
10.0
 50
90.0
  0
INSERT
  5
64BBD
330
5BB3F
100
AcDbEntity
  8
SIZE
  6
CONTINUOUS
 62
     0
100
AcDbBlockReference
  2
_DOTBLANK
 10
11496.04059999999
 20
-11774.31937837629
 30
0.0
 41
10.0
 42
10.0
 43
10.0
 50
270.0
  0
MTEXT
  5
64BBE
330
5BB3F
100
AcDbEntity
  8
SIZE
  6
CONTINUOUS
 62
     0
100
AcDbMText
 10
11454.0406
 20
-11323.31937664864
 30
0.0
 40
64.0
 41
0.0
 71
     5
 72
     1
  1
\A1;902
 11
0.0000000000000001
 21
1.0
 31
0.0
1001
ACAD
1000
MTEXTBEGIN
1070
    73
1070
     1
1070
    44
1040
1.0
1070
    74
1070
     0
1000
MTEXTEND
  0
POINT
  5
64BBF
330
5BB3F
100
AcDbEntity
  8
DEFPOINTS
  6
CONTINUOUS
 62
     0
100
AcDbPoint
 10
11829.86933105091
 20
-10872.319374921
 30
0.0
  0
POINT
  5
64BC0
330
5BB3F
100
AcDbEntity
  8
DEFPOINTS
  6
CONTINUOUS
 62
     0
100
AcDbPoint
 10
11801.96933105091
 20
-11774.31937837629
 30
0.0
  0
POINT
  5
64BC1
330
5BB3F
100
AcDbEntity
  8
DEFPOINTS
  6
CONTINUOUS
 62
     0
100
AcDbPoint
 10
11496.04059999999
 20
-11774.31937837629
 30
0.0
  0
ENDBLK
  5
5BB4A
330
5BB3F
100
AcDbEntity
  8
0
100
AcDbBlockEnd
  0
BLOCK
  5
5BBC4
330
5BBBA
100
AcDbEntity
  8
0
100
AcDbBlockBegin
  2
*D78
 70
     1
 10
0.0
 20
0.0
 30
0.0
  3
*D78
  1

  0
LINE
  5
646E5
330
5BBBA
100
AcDbEntity
  8
SIZE
  6
CONTINUOUS
 62
     0
100
AcDbLine
 10
6895.480874165875
 20
-8791.887089706531
 30
0.0
 11
6895.480874165875
 21
-8161.1677
 31
0.0
  0
LINE
  5
646E6
330
5BBBA
100
AcDbEntity
  8
SIZE
  6
CONTINUOUS
 62
     0
100
AcDbLine
 10
7198.480874165873
 20
-8791.887089706532
 30
0.0
 11
7198.480874165873
 21
-8161.1677
 31
0.0
  0
LINE
  5
646E7
330
5BBBA
100
AcDbEntity
  8
SIZE
  6
CONTINUOUS
 62
     0
100
AcDbLine
 10
6905.480874165874
 20
-8191.167699999999
 30
0.0
 11
7188.480874165873
 21
-8191.167699999999
 31
0.0
  0
INSERT
  5
646E8
330
5BBBA
100
AcDbEntity
  8
SIZE
  6
CONTINUOUS
 62
     0
100
AcDbBlockReference
  2
_DOTBLANK
 10
6895.480874165875
 20
-8191.167699999999
 30
0.0
 41
10.0
 42
10.0
 43
10.0
 50
180.0
  0
INSERT
  5
646E9
330
5BBBA
100
AcDbEntity
  8
SIZE
  6
CONTINUOUS
 62
     0
100
AcDbBlockReference
  2
_DOTBLANK
 10
7198.480874165873
 20
-8191.167699999999
 30
0.0
 41
10.0
 42
10.0
 43
10.0
  0
MTEXT
  5
646EA
330
5BBBA
100
AcDbEntity
  8
SIZE
  6
CONTINUOUS
 62
     0
100
AcDbMText
 10
7050.737000000001
 20
-8149.167699999999
 30
0.0
 40
64.0
 41
0.0
 71
     5
 72
     1
  1
\A1;303
1001
ACAD
1000
MTEXTBEGIN
1070
    73
1070
     1
1070
    44
1040
1.0
1070
    74
1070
     0
1000
MTEXTEND
  0
POINT
  5
646EB
330
5BBBA
100
AcDbEntity
  8
DEFPOINTS
  6
CONTINUOUS
 62
     0
100
AcDbPoint
 10
6895.480874165875
 20
-8811.88708970653
 30
0.0
  0
POINT
  5
646EC
330
5BBBA
100
AcDbEntity
  8
DEFPOINTS
  6
CONTINUOUS
 62
     0
100
AcDbPoint
 10
7198.480874165873
 20
-8811.887089706534
 30
0.0
  0
POINT
  5
646ED
330
5BBBA
100
AcDbEntity
  8
DEFPOINTS
  6
CONTINUOUS
 62
     0
100
AcDbPoint
 10
7198.480874165873
 20
-8191.167699999999
 30
0.0
  0
ENDBLK
  5
5BBC5
330
5BBBA
100
AcDbEntity
  8
0
100
AcDbBlockEnd
  0
BLOCK
  5
5BDAA
330
5BD9E
100
AcDbEntity
  8
0
100
AcDbBlockBegin
  2
*D79
 70
     1
 10
0.0
 20
0.0
 30
0.0
  3
*D79
  1

  0
LINE
  5
643F5
330
5BD9E
100
AcDbEntity
  8
SIZE
  6
CONTINUOUS
 62
     0
100
AcDbLine
 10
4017.160339507181
 20
-10920.219374921
 30
0.0
 11
4017.160339507181
 21
-11120.9077
 31
0.0
  0
LINE
  5
643F6
330
5BD9E
100
AcDbEntity
  8
SIZE
  6
CONTINUOUS
 62
     0
100
AcDbLine
 10
4099.16033950718
 20
-10920.219374921
 30
0.0
 11
4099.16033950718
 21
-11120.9077
 31
0.0
  0
LINE
  5
643F7
330
5BD9E
100
AcDbEntity
  8
SIZE
  6
CONTINUOUS
 62
     0
100
AcDbLine
 10
4027.16033950718
 20
-11090.9077
 30
0.0
 11
4089.16033950718
 21
-11090.9077
 31
0.0
  0
LINE
  5
643F8
330
5BD9E
100
AcDbEntity
  8
SIZE
  6
CONTINUOUS
 62
     0
100
AcDbLine
 10
4099.16033950718
 20
-11090.9077
 30
0.0
 11
4434.895871428572
 21
-11090.9077
 31
0.0
  0
INSERT
  5
643F9
330
5BD9E
100
AcDbEntity
  8
SIZE
  6
CONTINUOUS
 62
     0
100
AcDbBlockReference
  2
_DOTBLANK
 10
4017.160339507181
 20
-11090.9077
 30
0.0
 41
10.0
 42
10.0
 43
10.0
 50
180.0
  0
INSERT
  5
643FA
330
5BD9E
100
AcDbEntity
  8
SIZE
  6
CONTINUOUS
 62
     0
100
AcDbBlockReference
  2
_DOTBLANK
 10
4099.16033950718
 20
-11090.9077
 30
0.0
 41
10.0
 42
10.0
 43
10.0
  0
MTEXT
  5
643FB
330
5BD9E
100
AcDbEntity
  8
SIZE
  6
CONTINUOUS
 62
     0
100
AcDbMText
 10
4378.2673
 20
-11048.9077
 30
0.0
 40
64.0
 41
0.0
 71
     5
 72
     1
  1
\A1;82
1001
ACAD
1000
MTEXTBEGIN
1070
    73
1070
     1
1070
    44
1040
1.0
1070
    74
1070
     0
1000
MTEXTEND
  0
POINT
  5
643FC
330
5BD9E
100
AcDbEntity
  8
DEFPOINTS
  6
CONTINUOUS
 62
     0
100
AcDbPoint
 10
4017.160339507181
 20
-10900.219374921
 30
0.0
  0
POINT
  5
643FD
330
5BD9E
100
AcDbEntity
  8
DEFPOINTS
  6
CONTINUOUS
 62
     0
100
AcDbPoint
 10
4099.16033950718
 20
-10900.219374921
 30
0.0
  0
POINT
  5
643FE
330
5BD9E
100
AcDbEntity
  8
DEFPOINTS
  6
CONTINUOUS
 62
     0
100
AcDbPoint
 10
4099.16033950718
 20
-11090.9077
 30
0.0
  0
ENDBLK
  5
5BDAB
330
5BD9E
100
AcDbEntity
  8
0
100
AcDbBlockEnd
  0
BLOCK
  5
5BDD8
330
5BDCC
100
AcDbEntity
  8
0
100
AcDbBlockBegin
  2
*D80
 70
     1
 10
0.0
 20
0.0
 30
0.0
  3
*D80
  1

  0
LINE
  5
6449E
330
5BDCC
100
AcDbEntity
  8
SIZE
  6
CONTINUOUS
 62
     0
100
AcDbLine
 10
9355.532542703715
 20
-10920.219374921
 30
0.0
 11
9355.532542703715
 21
-11120.9077
 31
0.0
  0
LINE
  5
6449F
330
5BDCC
100
AcDbEntity
  8
SIZE
  6
CONTINUOUS
 62
     0
100
AcDbLine
 10
9437.532542703715
 20
-10920.219374921
 30
0.0
 11
9437.532542703715
 21
-11120.9077
 31
0.0
  0
LINE
  5
644A0
330
5BDCC
100
AcDbEntity
  8
SIZE
  6
CONTINUOUS
 62
     0
100
AcDbLine
 10
9427.532542703714
 20
-11090.9077
 30
0.0
 11
9365.532542703716
 21
-11090.9077
 31
0.0
  0
LINE
  5
644A1
330
5BDCC
100
AcDbEntity
  8
SIZE
  6
CONTINUOUS
 62
     0
100
AcDbLine
 10
9355.532542703715
 20
-11090.9077
 30
0.0
 11
9037.121728571428
 21
-11090.9077
 31
0.0
  0
INSERT
  5
644A2
330
5BDCC
100
AcDbEntity
  8
SIZE
  6
CONTINUOUS
 62
     0
100
AcDbBlockReference
  2
_DOTBLANK
 10
9437.532542703715
 20
-11090.9077
 30
0.0
 41
10.0
 42
10.0
 43
10.0
  0
INSERT
  5
644A3
330
5BDCC
100
AcDbEntity
  8
SIZE
  6
CONTINUOUS
 62
     0
100
AcDbBlockReference
  2
_DOTBLANK
 10
9355.532542703715
 20
-11090.9077
 30
0.0
 41
10.0
 42
10.0
 43
10.0
 50
180.0
  0
MTEXT
  5
644A4
330
5BDCC
100
AcDbEntity
  8
SIZE
  6
CONTINUOUS
 62
     0
100
AcDbMText
 10
9093.750299999999
 20
-11048.9077
 30
0.0
 40
64.0
 41
0.0
 71
     5
 72
     1
  1
\A1;82
1001
ACAD
1000
MTEXTBEGIN
1070
    73
1070
     1
1070
    44
1040
1.0
1070
    74
1070
     0
1000
MTEXTEND
  0
POINT
  5
644A5
330
5BDCC
100
AcDbEntity
  8
DEFPOINTS
  6
CONTINUOUS
 62
     0
100
AcDbPoint
 10
9355.532542703715
 20
-10900.219374921
 30
0.0
  0
POINT
  5
644A6
330
5BDCC
100
AcDbEntity
  8
DEFPOINTS
  6
CONTINUOUS
 62
     0
100
AcDbPoint
 10
9437.532542703715
 20
-10900.219374921
 30
0.0
  0
POINT
  5
644A7
330
5BDCC
100
AcDbEntity
  8
DEFPOINTS
  6
CONTINUOUS
 62
     0
100
AcDbPoint
 10
9437.532542703715
 20
-11090.9077
 30
0.0
  0
ENDBLK
  5
5BDD9
330
5BDCC
100
AcDbEntity
  8
0
100
AcDbBlockEnd
  0
BLOCK
  5
5F0E2
330
5F0D7
100
AcDbEntity
  8
0
100
AcDbBlockBegin
  2
*D81
 70
     1
 10
0.0
 20
0.0
 30
0.0
  3
*D81
  1

  0
LINE
  5
5F8EC
330
5F0D7
100
AcDbEntity
  8
SIZE
  6
CONTINUOUS
 62
     0
100
AcDbLine
 10
7695.080874165874
 20
-13492.62468489087
 30
0.0
 11
7874.237400449047
 21
-13492.62468489087
 31
0.0
  0
LINE
  5
5F8ED
330
5F0D7
100
AcDbEntity
  8
SIZE
  6
CONTINUOUS
 62
     0
100
AcDbLine
 10
7695.080874165874
 20
-13242.62468489087
 30
0.0
 11
7874.237400449047
 21
-13242.62468489087
 31
0.0
  0
LINE
  5
5F8EE
330
5F0D7
100
AcDbEntity
  8
SIZE
  6
CONTINUOUS
 62
     0
100
AcDbLine
 10
7844.237400449047
 20
-13482.62468489087
 30
0.0
 11
7844.237400449047
 21
-13252.62468489087
 31
0.0
  0
LINE
  5
5F8EF
330
5F0D7
100
AcDbEntity
  8
SIZE
  6
CONTINUOUS
 62
     0
100
AcDbLine
 10
7844.237400449047
 20
-13242.62468489087
 30
0.0
 11
7844.237400449047
 21
-13030.29963972518
 31
0.0
  0
INSERT
  5
5F8F0
330
5F0D7
100
AcDbEntity
  8
SIZE
  6
CONTINUOUS
 62
     0
100
AcDbBlockReference
  2
_DOTBLANK
 10
7844.237400449047
 20
-13492.62468489087
 30
0.0
 41
10.0
 42
10.0
 43
10.0
 50
270.0
  0
INSERT
  5
5F8F1
330
5F0D7
100
AcDbEntity
  8
SIZE
  6
CONTINUOUS
 62
     0
100
AcDbBlockReference
  2
_DOTBLANK
 10
7844.237400449047
 20
-13242.62468489087
 30
0.0
 41
10.0
 42
10.0
 43
10.0
 50
90.0
  0
MTEXT
  5
5F8F2
330
5F0D7
100
AcDbEntity
  8
SIZE
  6
CONTINUOUS
 62
     0
100
AcDbMText
 10
7802.237400449048
 20
-13114.35678258233
 30
0.0
 40
64.0
 41
0.0
 71
     5
 72
     1
  1
\A1;250
 11
0.0000000000000001
 21
1.0
 31
0.0
1001
ACAD
1000
MTEXTBEGIN
1070
    73
1070
     1
1070
    44
1040
1.0
1070
    74
1070
     0
1000
MTEXTEND
  0
POINT
  5
5F8F3
330
5F0D7
100
AcDbEntity
  8
DEFPOINTS
  6
CONTINUOUS
 62
     0
100
AcDbPoint
 10
7675.080874165875
 20
-13492.62468489087
 30
0.0
  0
POINT
  5
5F8F4
330
5F0D7
100
AcDbEntity
  8
DEFPOINTS
  6
CONTINUOUS
 62
     0
100
AcDbPoint
 10
7675.080874165875
 20
-13242.62468489087
 30
0.0
  0
POINT
  5
5F8F5
330
5F0D7
100
AcDbEntity
  8
DEFPOINTS
  6
CONTINUOUS
 62
     0
100
AcDbPoint
 10
7844.237400449047
 20
-13242.62468489087
 30
0.0
  0
ENDBLK
  5
5F0E3
330
5F0D7
100
AcDbEntity
  8
0
100
AcDbBlockEnd
  0
BLOCK
  5
5F8D7
330
5F8CC
100
AcDbEntity
  8
0
100
AcDbBlockBegin
  2
*D82
 70
     1
 10
0.0
 20
0.0
 30
0.0
  3
*D82
  1

  0
LINE
  5
5F8D9
330
5F8CC
100
AcDbEntity
  8
SIZE
  6
CONTINUOUS
 62
     0
100
AcDbLine
 10
7695.080874165872
 20
-8780.90947212547
 30
0.0
 11
7874.237400449046
 21
-8780.90947212547
 31
0.0
  0
LINE
  5
5F8DA
330
5F8CC
100
AcDbEntity
  8
SIZE
  6
CONTINUOUS
 62
     0
100
AcDbLine
 10
7695.080874165873
 20
-8530.90947212547
 30
0.0
 11
7874.237400449046
 21
-8530.90947212547
 31
0.0
  0
LINE
  5
5F8DB
330
5F8CC
100
AcDbEntity
  8
SIZE
  6
CONTINUOUS
 62
     0
100
AcDbLine
 10
7844.237400449046
 20
-8770.909472125472
 30
0.0
 11
7844.237400449046
 21
-8540.909472125472
 31
0.0
  0
LINE
  5
5F8DC
330
5F8CC
100
AcDbEntity
  8
SIZE
  6
CONTINUOUS
 62
     0
100
AcDbLine
 10
7844.237400449046
 20
-8530.90947212547
 30
0.0
 11
7844.237400449046
 21
-8318.584426959782
 31
0.0
  0
INSERT
  5
5F8DD
330
5F8CC
100
AcDbEntity
  8
SIZE
  6
CONTINUOUS
 62
     0
100
AcDbBlockReference
  2
_DOTBLANK
 10
7844.237400449046
 20
-8780.90947212547
 30
0.0
 41
10.0
 42
10.0
 43
10.0
 50
270.0
  0
INSERT
  5
5F8DE
330
5F8CC
100
AcDbEntity
  8
SIZE
  6
CONTINUOUS
 62
     0
100
AcDbBlockReference
  2
_DOTBLANK
 10
7844.237400449046
 20
-8530.90947212547
 30
0.0
 41
10.0
 42
10.0
 43
10.0
 50
90.0
  0
MTEXT
  5
5F8DF
330
5F8CC
100
AcDbEntity
  8
SIZE
  6
CONTINUOUS
 62
     0
100
AcDbMText
 10
7802.237400449048
 20
-8402.641569816925
 30
0.0
 40
64.0
 41
0.0
 71
     5
 72
     1
  1
\A1;250
 11
0.0000000000000001
 21
1.0
 31
0.0
1001
ACAD
1000
MTEXTBEGIN
1070
    73
1070
     1
1070
    44
1040
1.0
1070
    74
1070
     0
1000
MTEXTEND
  0
POINT
  5
5F8E0
330
5F8CC
100
AcDbEntity
  8
DEFPOINTS
  6
CONTINUOUS
 62
     0
100
AcDbPoint
 10
7675.080874165871
 20
-8780.90947212547
 30
0.0
  0
POINT
  5
5F8E1
330
5F8CC
100
AcDbEntity
  8
DEFPOINTS
  6
CONTINUOUS
 62
     0
100
AcDbPoint
 10
7675.080874165873
 20
-8530.90947212547
 30
0.0
  0
POINT
  5
5F8E2
330
5F8CC
100
AcDbEntity
  8
DEFPOINTS
  6
CONTINUOUS
 62
     0
100
AcDbPoint
 10
7844.237400449046
 20
-8530.90947212547
 30
0.0
  0
ENDBLK
  5
5F8D8
330
5F8CC
100
AcDbEntity
  8
0
100
AcDbBlockEnd
  0
BLOCK
  5
5F906
330
5F8FC
100
AcDbEntity
  8
0
100
AcDbBlockBegin
  2
*D83
 70
     1
 10
0.0
 20
0.0
 30
0.0
  3
*D83
  1

  0
LINE
  5
64C56
330
5F8FC
100
AcDbEntity
  8
SIZE
  6
CONTINUOUS
 62
     0
100
AcDbLine
 10
-304.6000000000049
 20
966.0000000000017
 30
0.0
 11
-304.6000000000048
 21
1804.745474920999
 31
0.0
  0
LINE
  5
64C57
330
5F8FC
100
AcDbEntity
  8
SIZE
  6
CONTINUOUS
 62
     0
100
AcDbLine
 10
-1.600000000004909
 20
966.0000000000017
 30
0.0
 11
-1.600000000004858
 21
1804.745474920999
 31
0.0
  0
LINE
  5
64C58
330
5F8FC
100
AcDbEntity
  8
SIZE
  6
CONTINUOUS
 62
     0
100
AcDbLine
 10
-294.6000000000048
 20
1774.745474920999
 30
0.0
 11
-11.60000000000485
 21
1774.745474920999
 31
0.0
  0
INSERT
  5
64C59
330
5F8FC
100
AcDbEntity
  8
SIZE
  6
CONTINUOUS
 62
     0
100
AcDbBlockReference
  2
_DOTBLANK
 10
-304.6000000000048
 20
1774.745474920999
 30
0.0
 41
10.0
 42
10.0
 43
10.0
 50
180.0
  0
INSERT
  5
64C5A
330
5F8FC
100
AcDbEntity
  8
SIZE
  6
CONTINUOUS
 62
     0
100
AcDbBlockReference
  2
_DOTBLANK
 10
-1.60000000000486
 20
1774.745474920999
 30
0.0
 41
10.0
 42
10.0
 43
10.0
  0
MTEXT
  5
64C5B
330
5F8FC
100
AcDbEntity
  8
SIZE
  6
CONTINUOUS
 62
     0
100
AcDbMText
 10
-143.559774165873
 20
1816.745474920999
 30
0.0
 40
64.0
 41
0.0
 71
     5
 72
     1
  1
\A1;303
1001
ACAD
1000
MTEXTBEGIN
1070
    73
1070
     1
1070
    44
1040
1.0
1070
    74
1070
     0
1000
MTEXTEND
  0
POINT
  5
64C5C
330
5F8FC
100
AcDbEntity
  8
DEFPOINTS
  6
CONTINUOUS
 62
     0
100
AcDbPoint
 10
-304.6000000000049
 20
946.0000000000018
 30
0.0
  0
POINT
  5
64C5D
330
5F8FC
100
AcDbEntity
  8
DEFPOINTS
  6
CONTINUOUS
 62
     0
100
AcDbPoint
 10
-1.600000000004911
 20
946.0000000000018
 30
0.0
  0
POINT
  5
64C5E
330
5F8FC
100
AcDbEntity
  8
DEFPOINTS
  6
CONTINUOUS
 62
     0
100
AcDbPoint
 10
-1.60000000000486
 20
1774.745474920999
 30
0.0
  0
ENDBLK
  5
5F907
330
5F8FC
100
AcDbEntity
  8
0
100
AcDbBlockEnd
  0
BLOCK
  5
5F913
330
5F908
100
AcDbEntity
  8
0
100
AcDbBlockBegin
  2
*D84
 70
     1
 10
0.0
 20
0.0
 30
0.0
  3
*D84
  1

  0
LINE
  5
64C5F
330
5F908
100
AcDbEntity
  8
SIZE
  6
CONTINUOUS
 62
     0
100
AcDbLine
 10
-291.9999999999991
 20
970.6002587492967
 30
0.0
 11
-291.999999999999
 21
1665.587374921
 31
0.0
  0
LINE
  5
64C60
330
5F908
100
AcDbEntity
  8
SIZE
  6
CONTINUOUS
 62
     0
100
AcDbLine
 10
-14.19999999999981
 20
973.8132587492964
 30
0.0
 11
-14.19999999999977
 21
1665.587374921
 31
0.0
  0
LINE
  5
64C61
330
5F908
100
AcDbEntity
  8
SIZE
  6
CONTINUOUS
 62
     0
100
AcDbLine
 10
-281.999999999999
 20
1635.587374921
 30
0.0
 11
-24.19999999999977
 21
1635.587374921
 31
0.0
  0
LINE
  5
64C62
330
5F908
100
AcDbEntity
  8
SIZE
  6
CONTINUOUS
 62
     0
100
AcDbLine
 10
-14.19999999999977
 20
1635.587374921
 30
0.0
 11
294.7758262831732
 21
1635.587374921
 31
0.0
  0
INSERT
  5
64C63
330
5F908
100
AcDbEntity
  8
SIZE
  6
CONTINUOUS
 62
     0
100
AcDbBlockReference
  2
_DOTBLANK
 10
-291.999999999999
 20
1635.587374921
 30
0.0
 41
10.0
 42
10.0
 43
10.0
 50
180.0
  0
INSERT
  5
64C64
330
5F908
100
AcDbEntity
  8
SIZE
  6
CONTINUOUS
 62
     0
100
AcDbBlockReference
  2
_DOTBLANK
 10
-14.19999999999977
 20
1635.587374921
 30
0.0
 41
10.0
 42
10.0
 43
10.0
  0
MTEXT
  5
64C65
330
5F908
100
AcDbEntity
  8
SIZE
  6
CONTINUOUS
 62
     0
100
AcDbMText
 10
169.5758262831732
 20
1677.587374921
 30
0.0
 40
64.0
 41
0.0
 71
     5
 72
     1
  1
\A1;277.8
1001
ACAD
1000
MTEXTBEGIN
1070
    73
1070
     1
1070
    44
1040
1.0
1070
    74
1070
     0
1000
MTEXTEND
  0
POINT
  5
64C66
330
5F908
100
AcDbEntity
  8
DEFPOINTS
  6
CONTINUOUS
 62
     0
100
AcDbPoint
 10
-291.9999999999991
 20
950.6002587492966
 30
0.0
  0
POINT
  5
64C67
330
5F908
100
AcDbEntity
  8
DEFPOINTS
  6
CONTINUOUS
 62
     0
100
AcDbPoint
 10
-14.19999999999981
 20
953.8132587492965
 30
0.0
  0
POINT
  5
64C68
330
5F908
100
AcDbEntity
  8
DEFPOINTS
  6
CONTINUOUS
 62
     0
100
AcDbPoint
 10
-14.19999999999977
 20
1635.587374921
 30
0.0
  0
ENDBLK
  5
5F914
330
5F908
100
AcDbEntity
  8
0
100
AcDbBlockEnd
  0
BLOCK
  5
5F920
330
5F915
100
AcDbEntity
  8
0
100
AcDbBlockBegin
  2
*D85
 70
     1
 10
0.0
 20
0.0
 30
0.0
  3
*D85
  1

  0
LINE
  5
64C87
330
5F915
100
AcDbEntity
  8
SIZE
  6
CONTINUOUS
 62
     0
100
AcDbLine
 10
-265.0999999999976
 20
969.1691587492988
 30
0.0
 11
-265.0999999999975
 21
1431.355897534204
 31
0.0
  0
LINE
  5
64C88
330
5F915
100
AcDbEntity
  8
SIZE
  6
CONTINUOUS
 62
     0
100
AcDbLine
 10
-41.09999999999764
 20
974.1403587492987
 30
0.0
 11
-41.0999999999976
 21
1431.355897534204
 31
0.0
  0
LINE
  5
64C89
330
5F915
100
AcDbEntity
  8
SIZE
  6
CONTINUOUS
 62
     0
100
AcDbLine
 10
-255.0999999999976
 20
1401.355897534203
 30
0.0
 11
-51.09999999999761
 21
1401.355897534203
 31
0.0
  0
LINE
  5
64C8A
330
5F915
100
AcDbEntity
  8
SIZE
  6
CONTINUOUS
 62
     0
100
AcDbLine
 10
-41.0999999999976
 20
1401.355897534203
 30
0.0
 11
224.4989977117464
 21
1401.355897534203
 31
0.0
  0
INSERT
  5
64C8B
330
5F915
100
AcDbEntity
  8
SIZE
  6
CONTINUOUS
 62
     0
100
AcDbBlockReference
  2
_DOTBLANK
 10
-265.0999999999976
 20
1401.355897534203
 30
0.0
 41
10.0
 42
10.0
 43
10.0
 50
180.0
  0
INSERT
  5
64C8C
330
5F915
100
AcDbEntity
  8
SIZE
  6
CONTINUOUS
 62
     0
100
AcDbBlockReference
  2
_DOTBLANK
 10
-41.0999999999976
 20
1401.355897534203
 30
0.0
 41
10.0
 42
10.0
 43
10.0
  0
MTEXT
  5
64C8D
330
5F915
100
AcDbEntity
  8
SIZE
  6
CONTINUOUS
 62
     0
100
AcDbMText
 10
139.070426283175
 20
1443.355897534203
 30
0.0
 40
64.0
 41
0.0
 71
     5
 72
     1
  1
\A1;224
1001
ACAD
1000
MTEXTBEGIN
1070
    73
1070
     1
1070
    44
1040
1.0
1070
    74
1070
     0
1000
MTEXTEND
  0
POINT
  5
64C8E
330
5F915
100
AcDbEntity
  8
DEFPOINTS
  6
CONTINUOUS
 62
     0
100
AcDbPoint
 10
-265.0999999999976
 20
949.1691587492987
 30
0.0
  0
POINT
  5
64C8F
330
5F915
100
AcDbEntity
  8
DEFPOINTS
  6
CONTINUOUS
 62
     0
100
AcDbPoint
 10
-41.09999999999764
 20
954.1403587492986
 30
0.0
  0
POINT
  5
64C90
330
5F915
100
AcDbEntity
  8
DEFPOINTS
  6
CONTINUOUS
 62
     0
100
AcDbPoint
 10
-41.0999999999976
 20
1401.355897534203
 30
0.0
  0
ENDBLK
  5
5F921
330
5F915
100
AcDbEntity
  8
0
100
AcDbBlockEnd
  0
BLOCK
  5
5F94F
330
5F944
100
AcDbEntity
  8
0
100
AcDbBlockBegin
  2
*D86
 70
     1
 10
0.0
 20
0.0
 30
0.0
  3
*D86
  1

  0
LINE
  5
5F95E
330
5F944
100
AcDbEntity
  8
SIZE
  6
CONTINUOUS
 62
     0
100
AcDbLine
 10
6908.080874165873
 20
-8897.809472125471
 30
0.0
 11
6908.080874165873
 21
-9675.515469816925
 31
0.0
  0
LINE
  5
5F95F
330
5F944
100
AcDbEntity
  8
SIZE
  6
CONTINUOUS
 62
     0
100
AcDbLine
 10
7185.880874165871
 20
-8897.809472125471
 30
0.0
 11
7185.880874165871
 21
-9675.515469816925
 31
0.0
  0
LINE
  5
5F960
330
5F944
100
AcDbEntity
  8
SIZE
  6
CONTINUOUS
 62
     0
100
AcDbLine
 10
6918.080874165873
 20
-9645.515469816926
 30
0.0
 11
7175.880874165871
 21
-9645.515469816926
 31
0.0
  0
LINE
  5
5F961
330
5F944
100
AcDbEntity
  8
SIZE
  6
CONTINUOUS
 62
     0
100
AcDbLine
 10
7185.880874165871
 20
-9645.515469816926
 30
0.0
 11
7495.671600449047
 21
-9645.515469816926
 31
0.0
  0
INSERT
  5
5F962
330
5F944
100
AcDbEntity
  8
SIZE
  6
CONTINUOUS
 62
     0
100
AcDbBlockReference
  2
_DOTBLANK
 10
6908.080874165873
 20
-9645.515469816926
 30
0.0
 41
10.0
 42
10.0
 43
10.0
 50
180.0
  0
INSERT
  5
5F963
330
5F944
100
AcDbEntity
  8
SIZE
  6
CONTINUOUS
 62
     0
100
AcDbBlockReference
  2
_DOTBLANK
 10
7185.880874165871
 20
-9645.515469816926
 30
0.0
 41
10.0
 42
10.0
 43
10.0
  0
MTEXT
  5
5F964
330
5F944
100
AcDbEntity
  8
SIZE
  6
CONTINUOUS
 62
     0
100
AcDbMText
 10
7370.471600449048
 20
-9603.515469816926
 30
0.0
 40
64.0
 41
0.0
 71
     5
 72
     1
  1
\A1;277.8
1001
ACAD
1000
MTEXTBEGIN
1070
    73
1070
     1
1070
    44
1040
1.0
1070
    74
1070
     0
1000
MTEXTEND
  0
POINT
  5
5F965
330
5F944
100
AcDbEntity
  8
DEFPOINTS
  6
CONTINUOUS
 62
     0
100
AcDbPoint
 10
6908.080874165873
 20
-8877.809472125472
 30
0.0
  0
POINT
  5
5F966
330
5F944
100
AcDbEntity
  8
DEFPOINTS
  6
CONTINUOUS
 62
     0
100
AcDbPoint
 10
7185.880874165871
 20
-8877.809472125472
 30
0.0
  0
POINT
  5
5F967
330
5F944
100
AcDbEntity
  8
DEFPOINTS
  6
CONTINUOUS
 62
     0
100
AcDbPoint
 10
7185.880874165871
 20
-9645.515469816926
 30
0.0
  0
ENDBLK
  5
5F950
330
5F944
100
AcDbEntity
  8
0
100
AcDbBlockEnd
  0
BLOCK
  5
5F95C
330
5F951
100
AcDbEntity
  8
0
100
AcDbBlockBegin
  2
*D87
 70
     1
 10
0.0
 20
0.0
 30
0.0
  3
*D87
  1

  0
LINE
  5
5F968
330
5F951
100
AcDbEntity
  8
SIZE
  6
CONTINUOUS
 62
     0
100
AcDbLine
 10
6934.980874165869
 20
-8979.809472125472
 30
0.0
 11
6934.980874165869
 21
-9482.418969816924
 31
0.0
  0
LINE
  5
5F969
330
5F951
100
AcDbEntity
  8
SIZE
  6
CONTINUOUS
 62
     0
100
AcDbLine
 10
7158.980874165869
 20
-8979.809472125472
 30
0.0
 11
7158.980874165869
 21
-9482.418969816924
 31
0.0
  0
LINE
  5
5F96A
330
5F951
100
AcDbEntity
  8
SIZE
  6
CONTINUOUS
 62
     0
100
AcDbLine
 10
6944.980874165868
 20
-9452.418969816925
 30
0.0
 11
7148.980874165869
 21
-9452.418969816925
 31
0.0
  0
LINE
  5
5F96B
330
5F951
100
AcDbEntity
  8
SIZE
  6
CONTINUOUS
 62
     0
100
AcDbLine
 10
7158.980874165869
 20
-9452.418969816925
 30
0.0
 11
7416.59527187762
 21
-9452.418969816925
 31
0.0
  0
INSERT
  5
5F96C
330
5F951
100
AcDbEntity
  8
SIZE
  6
CONTINUOUS
 62
     0
100
AcDbBlockReference
  2
_DOTBLANK
 10
6934.980874165869
 20
-9452.418969816925
 30
0.0
 41
10.0
 42
10.0
 43
10.0
 50
180.0
  0
INSERT
  5
5F96D
330
5F951
100
AcDbEntity
  8
SIZE
  6
CONTINUOUS
 62
     0
100
AcDbBlockReference
  2
_DOTBLANK
 10
7158.980874165869
 20
-9452.418969816925
 30
0.0
 41
10.0
 42
10.0
 43
10.0
  0
MTEXT
  5
5F96E
330
5F951
100
AcDbEntity
  8
SIZE
  6
CONTINUOUS
 62
     0
100
AcDbMText
 10
7331.166700449047
 20
-9410.418969816925
 30
0.0
 40
64.0
 41
0.0
 71
     5
 72
     1
  1
\A1;224
1001
ACAD
1000
MTEXTBEGIN
1070
    73
1070
     1
1070
    44
1040
1.0
1070
    74
1070
     0
1000
MTEXTEND
  0
POINT
  5
5F96F
330
5F951
100
AcDbEntity
  8
DEFPOINTS
  6
CONTINUOUS
 62
     0
100
AcDbPoint
 10
6934.980874165869
 20
-8959.809472125471
 30
0.0
  0
POINT
  5
5F970
330
5F951
100
AcDbEntity
  8
DEFPOINTS
  6
CONTINUOUS
 62
     0
100
AcDbPoint
 10
7158.980874165869
 20
-8959.809472125471
 30
0.0
  0
POINT
  5
5F971
330
5F951
100
AcDbEntity
  8
DEFPOINTS
  6
CONTINUOUS
 62
     0
100
AcDbPoint
 10
7158.980874165869
 20
-9452.418969816925
 30
0.0
  0
ENDBLK
  5
5F95D
330
5F951
100
AcDbEntity
  8
0
100
AcDbBlockEnd
  0
BLOCK
  5
5F994
330
5F989
100
AcDbEntity
  8
0
100
AcDbBlockBegin
  2
*D88
 70
     1
 10
0.0
 20
0.0
 30
0.0
  3
*D88
  1

  0
LINE
  5
5F9B1
330
5F989
100
AcDbEntity
  8
SIZE
  6
CONTINUOUS
 62
     0
100
AcDbLine
 10
6868.080874165873
 20
-8857.909472125472
 30
0.0
 11
6355.597900449047
 21
-8857.909472125472
 31
0.0
  0
LINE
  5
5F9B2
330
5F989
100
AcDbEntity
  8
SIZE
  6
CONTINUOUS
 62
     0
100
AcDbLine
 10
6894.980874165868
 20
-8939.909472125471
 30
0.0
 11
6355.597900449047
 21
-8939.909472125471
 31
0.0
  0
LINE
  5
5F9B3
330
5F989
100
AcDbEntity
  8
SIZE
  6
CONTINUOUS
 62
     0
100
AcDbLine
 10
6385.597900449046
 20
-8867.909472125472
 30
0.0
 11
6385.597900449046
 21
-8929.909472125471
 31
0.0
  0
LINE
  5
5F9B4
330
5F989
100
AcDbEntity
  8
SIZE
  6
CONTINUOUS
 62
     0
100
AcDbLine
 10
6385.597900449046
 20
-8939.909472125471
 30
0.0
 11
6385.597900449046
 21
-9176.508241245496
 31
0.0
  0
INSERT
  5
5F9B5
330
5F989
100
AcDbEntity
  8
SIZE
  6
CONTINUOUS
 62
     0
100
AcDbBlockReference
  2
_DOTBLANK
 10
6385.597900449046
 20
-8857.909472125472
 30
0.0
 41
10.0
 42
10.0
 43
10.0
 50
90.0
  0
INSERT
  5
5F9B6
330
5F989
100
AcDbEntity
  8
SIZE
  6
CONTINUOUS
 62
     0
100
AcDbBlockReference
  2
_DOTBLANK
 10
6385.597900449046
 20
-8939.909472125471
 30
0.0
 41
10.0
 42
10.0
 43
10.0
 50
270.0
  0
MTEXT
  5
5F9B7
330
5F989
100
AcDbEntity
  8
SIZE
  6
CONTINUOUS
 62
     0
100
AcDbMText
 10
6343.597900449047
 20
-9119.879669816922
 30
0.0
 40
64.0
 41
0.0
 71
     5
 72
     1
  1
\A1;82
 11
0.0000000000000001
 21
1.0
 31
0.0
1001
ACAD
1000
MTEXTBEGIN
1070
    73
1070
     1
1070
    44
1040
1.0
1070
    74
1070
     0
1000
MTEXTEND
  0
POINT
  5
5F9B8
330
5F989
100
AcDbEntity
  8
DEFPOINTS
  6
CONTINUOUS
 62
     0
100
AcDbPoint
 10
6888.080874165872
 20
-8857.909472125472
 30
0.0
  0
POINT
  5
5F9B9
330
5F989
100
AcDbEntity
  8
DEFPOINTS
  6
CONTINUOUS
 62
     0
100
AcDbPoint
 10
6914.980874165869
 20
-8939.909472125471
 30
0.0
  0
POINT
  5
5F9BA
330
5F989
100
AcDbEntity
  8
DEFPOINTS
  6
CONTINUOUS
 62
     0
100
AcDbPoint
 10
6385.597900449046
 20
-8939.909472125471
 30
0.0
  0
ENDBLK
  5
5F995
330
5F989
100
AcDbEntity
  8
0
100
AcDbBlockEnd
  0
BLOCK
  5
5F9A2
330
5F996
100
AcDbEntity
  8
0
100
AcDbBlockBegin
  2
*D89
 70
     1
 10
0.0
 20
0.0
 30
0.0
  3
*D89
  1

  0
LINE
  5
5F9BB
330
5F996
100
AcDbEntity
  8
SIZE
  6
CONTINUOUS
 62
     0
100
AcDbLine
 10
6887.458491746937
 20
-8799.909472125472
 30
0.0
 11
6090.995900449048
 21
-8799.909472125472
 31
0.0
  0
LINE
  5
5F9BC
330
5F996
100
AcDbEntity
  8
SIZE
  6
CONTINUOUS
 62
     0
100
AcDbLine
 10
6888.596401964078
 20
-8952.409472125472
 30
0.0
 11
6090.995900449048
 21
-8952.409472125472
 31
0.0
  0
LINE
  5
5F9BD
330
5F996
100
AcDbEntity
  8
SIZE
  6
CONTINUOUS
 62
     0
100
AcDbLine
 10
6120.995900449048
 20
-8789.90947212547
 30
0.0
 11
6120.995900449048
 21
-8779.909472125472
 31
0.0
  0
LINE
  5
5F9BE
330
5F996
100
AcDbEntity
  8
SIZE
  6
CONTINUOUS
 62
     0
100
AcDbLine
 10
6120.995900449048
 20
-8962.409472125472
 30
0.0
 11
6120.995900449048
 21
-8972.409472125471
 31
0.0
  0
LINE
  5
5F9BF
330
5F996
100
AcDbEntity
  8
SIZE
  6
CONTINUOUS
 62
     0
100
AcDbLine
 10
6120.995900449048
 20
-8799.909472125472
 30
0.0
 11
6120.995900449048
 21
-8952.409472125472
 31
0.0
  0
INSERT
  5
5F9C0
330
5F996
100
AcDbEntity
  8
SIZE
  6
CONTINUOUS
 62
     0
100
AcDbBlockReference
  2
_DOTBLANK
 10
6120.995900449048
 20
-8799.909472125472
 30
0.0
 41
10.0
 42
10.0
 43
10.0
 50
270.0
  0
INSERT
  5
5F9C1
330
5F996
100
AcDbEntity
  8
SIZE
  6
CONTINUOUS
 62
     0
100
AcDbBlockReference
  2
_DOTBLANK
 10
6120.995900449048
 20
-8952.409472125472
 30
0.0
 41
10.0
 42
10.0
 43
10.0
 50
90.0
  0
MTEXT
  5
5F9C2
330
5F996
100
AcDbEntity
  8
SIZE
  6
CONTINUOUS
 62
     0
100
AcDbMText
 10
6078.995900449048
 20
-8876.15947212547
 30
0.0
 40
64.0
 41
0.0
 71
     5
 72
     1
  1
\A1;152.5
 11
0.0000000000000001
 21
1.0
 31
0.0
1001
ACAD
1000
MTEXTBEGIN
1070
    73
1070
     1
1070
    44
1040
1.0
1070
    74
1070
     0
1000
MTEXTEND
  0
POINT
  5
5F9C3
330
5F996
100
AcDbEntity
  8
DEFPOINTS
  6
CONTINUOUS
 62
     0
100
AcDbPoint
 10
6907.458491746936
 20
-8799.909472125472
 30
0.0
  0
POINT
  5
5F9C4
330
5F996
100
AcDbEntity
  8
DEFPOINTS
  6
CONTINUOUS
 62
     0
100
AcDbPoint
 10
6908.596401964079
 20
-8952.409472125472
 30
0.0
  0
POINT
  5
5F9C5
330
5F996
100
AcDbEntity
  8
DEFPOINTS
  6
CONTINUOUS
 62
     0
100
AcDbPoint
 10
6120.995900449048
 20
-8952.409472125472
 30
0.0
  0
ENDBLK
  5
5F9A3
330
5F996
100
AcDbEntity
  8
0
100
AcDbBlockEnd
  0
BLOCK
  5
5F9AF
330
5F9A4
100
AcDbEntity
  8
0
100
AcDbBlockBegin
  2
*D90
 70
     1
 10
0.0
 20
0.0
 30
0.0
  3
*D90
  1

  0
LINE
  5
5F9C6
330
5F9A4
100
AcDbEntity
  8
SIZE
  6
CONTINUOUS
 62
     0
100
AcDbLine
 10
6705.080874165872
 20
-8780.90947212547
 30
0.0
 11
6355.277200449047
 21
-8780.90947212547
 31
0.0
  0
LINE
  5
5F9C7
330
5F9A4
100
AcDbEntity
  8
SIZE
  6
CONTINUOUS
 62
     0
100
AcDbLine
 10
6868.080874165873
 20
-8857.909472125472
 30
0.0
 11
6355.277200449047
 21
-8857.909472125472
 31
0.0
  0
LINE
  5
5F9C8
330
5F9A4
100
AcDbEntity
  8
SIZE
  6
CONTINUOUS
 62
     0
100
AcDbLine
 10
6385.277200449047
 20
-8847.90947212547
 30
0.0
 11
6385.277200449047
 21
-8790.909472125472
 31
0.0
  0
LINE
  5
5F9C9
330
5F9A4
100
AcDbEntity
  8
SIZE
  6
CONTINUOUS
 62
     0
100
AcDbLine
 10
6385.277200449047
 20
-8780.90947212547
 30
0.0
 11
6385.277200449047
 21
-8653.090626959782
 31
0.0
  0
INSERT
  5
5F9CA
330
5F9A4
100
AcDbEntity
  8
SIZE
  6
CONTINUOUS
 62
     0
100
AcDbBlockReference
  2
_DOTBLANK
 10
6385.277200449047
 20
-8857.909472125472
 30
0.0
 41
10.0
 42
10.0
 43
10.0
 50
270.0
  0
INSERT
  5
5F9CB
330
5F9A4
100
AcDbEntity
  8
SIZE
  6
CONTINUOUS
 62
     0
100
AcDbBlockReference
  2
_DOTBLANK
 10
6385.277200449047
 20
-8780.90947212547
 30
0.0
 41
10.0
 42
10.0
 43
10.0
 50
90.0
  0
MTEXT
  5
5F9CC
330
5F9A4
100
AcDbEntity
  8
SIZE
  6
CONTINUOUS
 62
     0
100
AcDbMText
 10
6343.277200449048
 20
-8709.719198388352
 30
0.0
 40
64.0
 41
0.0
 71
     5
 72
     1
  1
\A1;77
 11
0.0000000000000001
 21
1.0
 31
0.0
1001
ACAD
1000
MTEXTBEGIN
1070
    73
1070
     1
1070
    44
1040
1.0
1070
    74
1070
     0
1000
MTEXTEND
  0
POINT
  5
5F9CD
330
5F9A4
100
AcDbEntity
  8
DEFPOINTS
  6
CONTINUOUS
 62
     0
100
AcDbPoint
 10
6725.080874165873
 20
-8780.90947212547
 30
0.0
  0
POINT
  5
5F9CE
330
5F9A4
100
AcDbEntity
  8
DEFPOINTS
  6
CONTINUOUS
 62
     0
100
AcDbPoint
 10
6888.080874165872
 20
-8857.909472125472
 30
0.0
  0
POINT
  5
5F9CF
330
5F9A4
100
AcDbEntity
  8
DEFPOINTS
  6
CONTINUOUS
 62
     0
100
AcDbPoint
 10
6385.277200449047
 20
-8857.909472125472
 30
0.0
  0
ENDBLK
  5
5F9B0
330
5F9A4
100
AcDbEntity
  8
0
100
AcDbBlockEnd
  0
BLOCK
  5
5F9DE
330
5F9D4
100
AcDbEntity
  8
0
100
AcDbBlockBegin
  2
*D91
 70
     1
 10
0.0
 20
0.0
 30
0.0
  3
*D91
  1

  0
LINE
  5
64732
330
5F9D4
100
AcDbEntity
  8
SIZE
  6
CONTINUOUS
 62
     0
100
AcDbLine
 10
3940.160339507181
 20
-10860.319374921
 30
0.0
 11
3940.160339507181
 21
-10376.63299999999
 31
0.0
  0
LINE
  5
64733
330
5F9D4
100
AcDbEntity
  8
SIZE
  6
CONTINUOUS
 62
     0
100
AcDbLine
 10
3690.160339507181
 20
-10769.319374921
 30
0.0
 11
3690.160339507181
 21
-10376.63299999999
 31
0.0
  0
LINE
  5
64734
330
5F9D4
100
AcDbEntity
  8
SIZE
  6
CONTINUOUS
 62
     0
100
AcDbLine
 10
3930.16033950718
 20
-10406.633
 30
0.0
 11
3700.16033950718
 21
-10406.633
 31
0.0
  0
INSERT
  5
64735
330
5F9D4
100
AcDbEntity
  8
SIZE
  6
CONTINUOUS
 62
     0
100
AcDbBlockReference
  2
_DOTBLANK
 10
3940.160339507181
 20
-10406.633
 30
0.0
 41
10.0
 42
10.0
 43
10.0
  0
INSERT
  5
64736
330
5F9D4
100
AcDbEntity
  8
SIZE
  6
CONTINUOUS
 62
     0
100
AcDbBlockReference
  2
_DOTBLANK
 10
3690.160339507181
 20
-10406.633
 30
0.0
 41
10.0
 42
10.0
 43
10.0
 50
180.0
  0
MTEXT
  5
64737
330
5F9D4
100
AcDbEntity
  8
SIZE
  6
CONTINUOUS
 62
     0
100
AcDbMText
 10
3815.160339507181
 20
-10364.633
 30
0.0
 40
64.0
 41
0.0
 71
     5
 72
     1
  1
\A1;250
1001
ACAD
1000
MTEXTBEGIN
1070
    73
1070
     1
1070
    44
1040
1.0
1070
    74
1070
     0
1000
MTEXTEND
  0
POINT
  5
64738
330
5F9D4
100
AcDbEntity
  8
DEFPOINTS
  6
CONTINUOUS
 62
     0
100
AcDbPoint
 10
3940.160339507181
 20
-10880.319374921
 30
0.0
  0
POINT
  5
64739
330
5F9D4
100
AcDbEntity
  8
DEFPOINTS
  6
CONTINUOUS
 62
     0
100
AcDbPoint
 10
3690.160339507181
 20
-10789.319374921
 30
0.0
  0
POINT
  5
6473A
330
5F9D4
100
AcDbEntity
  8
DEFPOINTS
  6
CONTINUOUS
 62
     0
100
AcDbPoint
 10
3690.160339507181
 20
-10406.633
 30
0.0
  0
ENDBLK
  5
5F9DF
330
5F9D4
100
AcDbEntity
  8
0
100
AcDbBlockEnd
  0
BLOCK
  5
5F9F7
330
5F9ED
100
AcDbEntity
  8
0
100
AcDbBlockBegin
  2
*D92
 70
     1
 10
0.0
 20
0.0
 30
0.0
  3
*D92
  1

  0
LINE
  5
6473C
330
5F9ED
100
AcDbEntity
  8
SIZE
  6
CONTINUOUS
 62
     0
100
AcDbLine
 10
9764.532542703715
 20
-10769.319374921
 30
0.0
 11
9764.532542703715
 21
-10376.633
 31
0.0
  0
LINE
  5
6473D
330
5F9ED
100
AcDbEntity
  8
SIZE
  6
CONTINUOUS
 62
     0
100
AcDbLine
 10
9514.532542703715
 20
-10860.319374921
 30
0.0
 11
9514.532542703715
 21
-10376.633
 31
0.0
  0
LINE
  5
6473E
330
5F9ED
100
AcDbEntity
  8
SIZE
  6
CONTINUOUS
 62
     0
100
AcDbLine
 10
9754.532542703715
 20
-10406.633
 30
0.0
 11
9524.532542703715
 21
-10406.633
 31
0.0
  0
INSERT
  5
6473F
330
5F9ED
100
AcDbEntity
  8
SIZE
  6
CONTINUOUS
 62
     0
100
AcDbBlockReference
  2
_DOTBLANK
 10
9764.532542703715
 20
-10406.633
 30
0.0
 41
10.0
 42
10.0
 43
10.0
  0
INSERT
  5
64740
330
5F9ED
100
AcDbEntity
  8
SIZE
  6
CONTINUOUS
 62
     0
100
AcDbBlockReference
  2
_DOTBLANK
 10
9514.532542703715
 20
-10406.633
 30
0.0
 41
10.0
 42
10.0
 43
10.0
 50
180.0
  0
MTEXT
  5
64741
330
5F9ED
100
AcDbEntity
  8
SIZE
  6
CONTINUOUS
 62
     0
100
AcDbMText
 10
9639.532542703715
 20
-10364.633
 30
0.0
 40
64.0
 41
0.0
 71
     5
 72
     1
  1
\A1;250
1001
ACAD
1000
MTEXTBEGIN
1070
    73
1070
     1
1070
    44
1040
1.0
1070
    74
1070
     0
1000
MTEXTEND
  0
POINT
  5
64742
330
5F9ED
100
AcDbEntity
  8
DEFPOINTS
  6
CONTINUOUS
 62
     0
100
AcDbPoint
 10
9764.532542703715
 20
-10789.319374921
 30
0.0
  0
POINT
  5
64743
330
5F9ED
100
AcDbEntity
  8
DEFPOINTS
  6
CONTINUOUS
 62
     0
100
AcDbPoint
 10
9514.532542703715
 20
-10880.319374921
 30
0.0
  0
POINT
  5
64744
330
5F9ED
100
AcDbEntity
  8
DEFPOINTS
  6
CONTINUOUS
 62
     0
100
AcDbPoint
 10
9514.532542703715
 20
-10406.633
 30
0.0
  0
ENDBLK
  5
5F9F8
330
5F9ED
100
AcDbEntity
  8
0
100
AcDbBlockEnd
  0
BLOCK
  5
5FA12
330
5FA08
100
AcDbEntity
  8
0
100
AcDbBlockBegin
  2
*D93
 70
     1
 10
0.0
 20
0.0
 30
0.0
  3
*D93
  1

  0
LINE
  5
649BB
330
5FA08
100
AcDbEntity
  8
SIZE
  6
CONTINUOUS
 62
     0
100
AcDbLine
 10
11755.8693310509
 20
-10859.31937492099
 30
0.0
 11
11755.8693310509
 21
-10037.60547738679
 31
0.0
  0
LINE
  5
649BC
330
5FA08
100
AcDbEntity
  8
SIZE
  6
CONTINUOUS
 62
     0
100
AcDbLine
 10
12058.8693310509
 20
-10859.31937492099
 30
0.0
 11
12058.8693310509
 21
-10037.60547738679
 31
0.0
  0
LINE
  5
649BD
330
5FA08
100
AcDbEntity
  8
SIZE
  6
CONTINUOUS
 62
     0
100
AcDbLine
 10
11765.8693310509
 20
-10067.60547738679
 30
0.0
 11
12048.8693310509
 21
-10067.60547738679
 31
0.0
  0
INSERT
  5
649BE
330
5FA08
100
AcDbEntity
  8
SIZE
  6
CONTINUOUS
 62
     0
100
AcDbBlockReference
  2
_DOTBLANK
 10
11755.8693310509
 20
-10067.60547738679
 30
0.0
 41
10.0
 42
10.0
 43
10.0
 50
180.0
  0
INSERT
  5
649BF
330
5FA08
100
AcDbEntity
  8
SIZE
  6
CONTINUOUS
 62
     0
100
AcDbBlockReference
  2
_DOTBLANK
 10
12058.8693310509
 20
-10067.60547738679
 30
0.0
 41
10.0
 42
10.0
 43
10.0
  0
MTEXT
  5
649C0
330
5FA08
100
AcDbEntity
  8
SIZE
  6
CONTINUOUS
 62
     0
100
AcDbMText
 10
11907.3693310509
 20
-10025.60547738679
 30
0.0
 40
64.0
 41
0.0
 71
     5
 72
     1
  1
\A1;303
1001
ACAD
1000
MTEXTBEGIN
1070
    73
1070
     1
1070
    44
1040
1.0
1070
    74
1070
     0
1000
MTEXTEND
  0
POINT
  5
649C1
330
5FA08
100
AcDbEntity
  8
DEFPOINTS
  6
CONTINUOUS
 62
     0
100
AcDbPoint
 10
11755.8693310509
 20
-10879.31937492099
 30
0.0
  0
POINT
  5
649C2
330
5FA08
100
AcDbEntity
  8
DEFPOINTS
  6
CONTINUOUS
 62
     0
100
AcDbPoint
 10
12058.8693310509
 20
-10879.31937492099
 30
0.0
  0
POINT
  5
649C3
330
5FA08
100
AcDbEntity
  8
DEFPOINTS
  6
CONTINUOUS
 62
     0
100
AcDbPoint
 10
12058.8693310509
 20
-10067.60547738679
 30
0.0
  0
ENDBLK
  5
5FA13
330
5FA08
100
AcDbEntity
  8
0
100
AcDbBlockEnd
  0
BLOCK
  5
5FA1F
330
5FA14
100
AcDbEntity
  8
0
100
AcDbBlockBegin
  2
*D94
 70
     1
 10
0.0
 20
0.0
 30
0.0
  3
*D94
  1

  0
LINE
  5
649C4
330
5FA14
100
AcDbEntity
  8
SIZE
  6
CONTINUOUS
 62
     0
100
AcDbLine
 10
11768.46933105091
 20
-10853.8707
 30
0.0
 11
11768.46933105091
 21
-10136.2352773868
 31
0.0
  0
LINE
  5
649C5
330
5FA14
100
AcDbEntity
  8
SIZE
  6
CONTINUOUS
 62
     0
100
AcDbLine
 10
12046.26933105091
 20
-10851.7754
 30
0.0
 11
12046.26933105091
 21
-10136.2352773868
 31
0.0
  0
LINE
  5
649C6
330
5FA14
100
AcDbEntity
  8
SIZE
  6
CONTINUOUS
 62
     0
100
AcDbLine
 10
12036.26933105091
 20
-10166.23527738679
 30
0.0
 11
11778.46933105091
 21
-10166.23527738679
 31
0.0
  0
LINE
  5
649C7
330
5FA14
100
AcDbEntity
  8
SIZE
  6
CONTINUOUS
 62
     0
100
AcDbLine
 10
11768.46933105091
 20
-10166.23527738679
 30
0.0
 11
11455.66642975005
 21
-10166.23527738679
 31
0.0
  0
INSERT
  5
649C8
330
5FA14
100
AcDbEntity
  8
SIZE
  6
CONTINUOUS
 62
     0
100
AcDbBlockReference
  2
_DOTBLANK
 10
12046.26933105091
 20
-10166.23527738679
 30
0.0
 41
10.0
 42
10.0
 43
10.0
  0
INSERT
  5
649C9
330
5FA14
100
AcDbEntity
  8
SIZE
  6
CONTINUOUS
 62
     0
100
AcDbBlockReference
  2
_DOTBLANK
 10
11768.46933105091
 20
-10166.23527738679
 30
0.0
 41
10.0
 42
10.0
 43
10.0
 50
180.0
  0
MTEXT
  5
649CA
330
5FA14
100
AcDbEntity
  8
SIZE
  6
CONTINUOUS
 62
     0
100
AcDbMText
 10
11580.86642975005
 20
-10124.23527738679
 30
0.0
 40
64.0
 41
0.0
 71
     5
 72
     1
  1
\A1;277.8
1001
ACAD
1000
MTEXTBEGIN
1070
    73
1070
     1
1070
    44
1040
1.0
1070
    74
1070
     0
1000
MTEXTEND
  0
POINT
  5
649CB
330
5FA14
100
AcDbEntity
  8
DEFPOINTS
  6
CONTINUOUS
 62
     0
100
AcDbPoint
 10
11768.46933105091
 20
-10873.8707
 30
0.0
  0
POINT
  5
649CC
330
5FA14
100
AcDbEntity
  8
DEFPOINTS
  6
CONTINUOUS
 62
     0
100
AcDbPoint
 10
12046.26933105091
 20
-10871.7754
 30
0.0
  0
POINT
  5
649CD
330
5FA14
100
AcDbEntity
  8
DEFPOINTS
  6
CONTINUOUS
 62
     0
100
AcDbPoint
 10
12046.26933105091
 20
-10166.23527738679
 30
0.0
  0
ENDBLK
  5
5FA20
330
5FA14
100
AcDbEntity
  8
0
100
AcDbBlockEnd
  0
BLOCK
  5
5FA2C
330
5FA21
100
AcDbEntity
  8
0
100
AcDbBlockBegin
  2
*D95
 70
     1
 10
0.0
 20
0.0
 30
0.0
  3
*D95
  1

  0
LINE
  5
64A21
330
5FA21
100
AcDbEntity
  8
SIZE
  6
CONTINUOUS
 62
     0
100
AcDbLine
 10
11795.36933105091
 20
-10853.8707
 30
0.0
 11
11795.36933105091
 21
-10319.64147738679
 31
0.0
  0
LINE
  5
64A22
330
5FA21
100
AcDbEntity
  8
SIZE
  6
CONTINUOUS
 62
     0
100
AcDbLine
 10
12019.36933105091
 20
-10851.7754
 30
0.0
 11
12019.36933105091
 21
-10319.64147738679
 31
0.0
  0
LINE
  5
64A23
330
5FA21
100
AcDbEntity
  8
SIZE
  6
CONTINUOUS
 62
     0
100
AcDbLine
 10
12009.36933105091
 20
-10349.64147738679
 30
0.0
 11
11805.36933105091
 21
-10349.64147738679
 31
0.0
  0
LINE
  5
64A24
330
5FA21
100
AcDbEntity
  8
SIZE
  6
CONTINUOUS
 62
     0
100
AcDbLine
 10
11795.36933105091
 20
-10349.64147738679
 30
0.0
 11
11491.22975832148
 21
-10349.64147738679
 31
0.0
  0
INSERT
  5
64A25
330
5FA21
100
AcDbEntity
  8
SIZE
  6
CONTINUOUS
 62
     0
100
AcDbBlockReference
  2
_DOTBLANK
 10
12019.36933105091
 20
-10349.64147738679
 30
0.0
 41
10.0
 42
10.0
 43
10.0
  0
INSERT
  5
64A26
330
5FA21
100
AcDbEntity
  8
SIZE
  6
CONTINUOUS
 62
     0
100
AcDbBlockReference
  2
_DOTBLANK
 10
11795.36933105091
 20
-10349.64147738679
 30
0.0
 41
10.0
 42
10.0
 43
10.0
 50
180.0
  0
MTEXT
  5
64A27
330
5FA21
100
AcDbEntity
  8
SIZE
  6
CONTINUOUS
 62
     0
100
AcDbMText
 10
11576.65832975005
 20
-10307.64147738679
 30
0.0
 40
64.0
 41
0.0
 71
     5
 72
     1
  1
\A1;224
1001
ACAD
1000
MTEXTBEGIN
1070
    73
1070
     1
1070
    44
1040
1.0
1070
    74
1070
     0
1000
MTEXTEND
  0
POINT
  5
64A28
330
5FA21
100
AcDbEntity
  8
DEFPOINTS
  6
CONTINUOUS
 62
     0
100
AcDbPoint
 10
11795.36933105091
 20
-10873.8707
 30
0.0
  0
POINT
  5
64A29
330
5FA21
100
AcDbEntity
  8
DEFPOINTS
  6
CONTINUOUS
 62
     0
100
AcDbPoint
 10
12019.36933105091
 20
-10871.7754
 30
0.0
  0
POINT
  5
64A2A
330
5FA21
100
AcDbEntity
  8
DEFPOINTS
  6
CONTINUOUS
 62
     0
100
AcDbPoint
 10
12019.36933105091
 20
-10349.64147738679
 30
0.0
  0
ENDBLK
  5
5FA2D
330
5FA21
100
AcDbEntity
  8
0
100
AcDbBlockEnd
  0
BLOCK
  5
64571
330
64565
100
AcDbEntity
  8
0
100
AcDbBlockBegin
  2
*D96
 70
     1
 10
0.0
 20
0.0
 30
0.0
  3
*D96
  1

  0
LINE
  5
646C2
330
64565
100
AcDbEntity
  8
SIZE
  6
CONTINUOUS
 62
     0
100
AcDbLine
 10
6946.480874166677
 20
-8729.722466551923
 30
0.0
 11
6946.480874166677
 21
-8431.726300000001
 31
0.0
  0
LINE
  5
646C3
330
64565
100
AcDbEntity
  8
SIZE
  6
CONTINUOUS
 62
     0
100
AcDbLine
 10
6895.480874165875
 20
-8791.887089706532
 30
0.0
 11
6895.480874165875
 21
-8431.726300000001
 31
0.0
  0
LINE
  5
646C4
330
64565
100
AcDbEntity
  8
SIZE
  6
CONTINUOUS
 62
     0
100
AcDbLine
 10
6936.480874166678
 20
-8461.7263
 30
0.0
 11
6905.480874165874
 21
-8461.7263
 31
0.0
  0
LINE
  5
646C5
330
64565
100
AcDbEntity
  8
SIZE
  6
CONTINUOUS
 62
     0
100
AcDbLine
 10
6895.480874165875
 20
-8461.7263
 30
0.0
 11
6765.306485714287
 21
-8461.7263
 31
0.0
  0
INSERT
  5
646C6
330
64565
100
AcDbEntity
  8
SIZE
  6
CONTINUOUS
 62
     0
100
AcDbBlockReference
  2
_DOTBLANK
 10
6946.480874166677
 20
-8461.7263
 30
0.0
 41
10.0
 42
10.0
 43
10.0
  0
INSERT
  5
646C7
330
64565
100
AcDbEntity
  8
SIZE
  6
CONTINUOUS
 62
     0
100
AcDbBlockReference
  2
_DOTBLANK
 10
6895.480874165875
 20
-8461.7263
 30
0.0
 41
10.0
 42
10.0
 43
10.0
 50
180.0
  0
MTEXT
  5
646C8
330
64565
100
AcDbEntity
  8
SIZE
  6
CONTINUOUS
 62
     0
100
AcDbMText
 10
6809.5922
 20
-8419.7263
 30
0.0
 40
64.0
 41
0.0
 71
     5
 72
     1
  1
\A1;51
1001
ACAD
1000
MTEXTBEGIN
1070
    73
1070
     1
1070
    44
1040
1.0
1070
    74
1070
     0
1000
MTEXTEND
  0
POINT
  5
646C9
330
64565
100
AcDbEntity
  8
DEFPOINTS
  6
CONTINUOUS
 62
     0
100
AcDbPoint
 10
6946.480874166677
 20
-8749.722466551922
 30
0.0
  0
POINT
  5
646CA
330
64565
100
AcDbEntity
  8
DEFPOINTS
  6
CONTINUOUS
 62
     0
100
AcDbPoint
 10
6895.480874165875
 20
-8811.887089706534
 30
0.0
  0
POINT
  5
646CB
330
64565
100
AcDbEntity
  8
DEFPOINTS
  6
CONTINUOUS
 62
     0
100
AcDbPoint
 10
6895.480874165875
 20
-8461.7263
 30
0.0
  0
ENDBLK
  5
64572
330
64565
100
AcDbEntity
  8
0
100
AcDbBlockEnd
  0
BLOCK
  5
6458A
330
6457E
100
AcDbEntity
  8
0
100
AcDbBlockBegin
  2
*D97
 70
     1
 10
0.0
 20
0.0
 30
0.0
  3
*D97
  1

  0
LINE
  5
645B8
330
6457E
100
AcDbEntity
  8
SIZE
  6
CONTINUOUS
 62
     0
100
AcDbLine
 10
3959.16033950718
 20
-10859.319374921
 30
0.0
 11
3959.16033950718
 21
-10554.7736
 31
0.0
  0
LINE
  5
645B9
330
6457E
100
AcDbEntity
  8
SIZE
  6
CONTINUOUS
 62
     0
100
AcDbLine
 10
3928.973339463901
 20
-10804.31928448064
 30
0.0
 11
3928.973339463901
 21
-10554.7736
 31
0.0
  0
LINE
  5
645BA
330
6457E
100
AcDbEntity
  8
SIZE
  6
CONTINUOUS
 62
     0
100
AcDbLine
 10
3969.160339507181
 20
-10584.7736
 30
0.0
 11
3979.160339507181
 21
-10584.7736
 31
0.0
  0
LINE
  5
645BB
330
6457E
100
AcDbEntity
  8
SIZE
  6
CONTINUOUS
 62
     0
100
AcDbLine
 10
3918.973339463901
 20
-10584.7736
 30
0.0
 11
3713.430482321045
 21
-10584.7736
 31
0.0
  0
LINE
  5
645BC
330
6457E
100
AcDbEntity
  8
SIZE
  6
CONTINUOUS
 62
     0
100
AcDbLine
 10
3959.16033950718
 20
-10584.7736
 30
0.0
 11
3928.973339463901
 21
-10584.7736
 31
0.0
  0
INSERT
  5
645BD
330
6457E
100
AcDbEntity
  8
SIZE
  6
CONTINUOUS
 62
     0
100
AcDbBlockReference
  2
_DOTBLANK
 10
3959.16033950718
 20
-10584.7736
 30
0.0
 41
10.0
 42
10.0
 43
10.0
 50
180.0
  0
INSERT
  5
645BE
330
6457E
100
AcDbEntity
  8
SIZE
  6
CONTINUOUS
 62
     0
100
AcDbBlockReference
  2
_DOTBLANK
 10
3928.973339463901
 20
-10584.7736
 30
0.0
 41
10.0
 42
10.0
 43
10.0
  0
MTEXT
  5
645BF
330
6457E
100
AcDbEntity
  8
SIZE
  6
CONTINUOUS
 62
     0
100
AcDbMText
 10
3811.201910892473
 20
-10542.7736
 30
0.0
 40
64.0
 41
0.0
 71
     5
 72
     1
  1
\A1;30.2
1001
ACAD
1000
MTEXTBEGIN
1070
    73
1070
     1
1070
    44
1040
1.0
1070
    74
1070
     0
1000
MTEXTEND
  0
POINT
  5
645C0
330
6457E
100
AcDbEntity
  8
DEFPOINTS
  6
CONTINUOUS
 62
     0
100
AcDbPoint
 10
3959.16033950718
 20
-10879.319374921
 30
0.0
  0
POINT
  5
645C1
330
6457E
100
AcDbEntity
  8
DEFPOINTS
  6
CONTINUOUS
 62
     0
100
AcDbPoint
 10
3928.973339463901
 20
-10824.31928448064
 30
0.0
  0
POINT
  5
645C2
330
6457E
100
AcDbEntity
  8
DEFPOINTS
  6
CONTINUOUS
 62
     0
100
AcDbPoint
 10
3928.973339463901
 20
-10584.7736
 30
0.0
  0
ENDBLK
  5
6458B
330
6457E
100
AcDbEntity
  8
0
100
AcDbBlockEnd
  0
BLOCK
  5
645D1
330
645C5
100
AcDbEntity
  8
0
100
AcDbBlockBegin
  2
*D98
 70
     1
 10
0.0
 20
0.0
 30
0.0
  3
*D98
  1

  0
LINE
  5
645DC
330
645C5
100
AcDbEntity
  8
SIZE
  6
CONTINUOUS
 62
     0
100
AcDbLine
 10
3888.9733394639
 20
-10844.31928448064
 30
0.0
 11
3596.195499999998
 21
-10844.31928448064
 31
0.0
  0
LINE
  5
645DD
330
645C5
100
AcDbEntity
  8
SIZE
  6
CONTINUOUS
 62
     0
100
AcDbLine
 10
3920.160339507181
 20
-10880.319374921
 30
0.0
 11
3596.195499999998
 21
-10880.319374921
 31
0.0
  0
LINE
  5
645DE
330
645C5
100
AcDbEntity
  8
SIZE
  6
CONTINUOUS
 62
     0
100
AcDbLine
 10
3626.195499999998
 20
-10834.31928448064
 30
0.0
 11
3626.195499999998
 21
-10824.31928448064
 31
0.0
  0
LINE
  5
645DF
330
645C5
100
AcDbEntity
  8
SIZE
  6
CONTINUOUS
 62
     0
100
AcDbLine
 10
3626.195499999998
 20
-10890.319374921
 30
0.0
 11
3626.195499999998
 21
-11010.83366063528
 31
0.0
  0
LINE
  5
645E0
330
645C5
100
AcDbEntity
  8
SIZE
  6
CONTINUOUS
 62
     0
100
AcDbLine
 10
3626.195499999998
 20
-10844.31928448064
 30
0.0
 11
3626.195499999998
 21
-10880.319374921
 31
0.0
  0
INSERT
  5
645E1
330
645C5
100
AcDbEntity
  8
SIZE
  6
CONTINUOUS
 62
     0
100
AcDbBlockReference
  2
_DOTBLANK
 10
3626.195499999998
 20
-10844.31928448064
 30
0.0
 41
10.0
 42
10.0
 43
10.0
 50
270.0
  0
INSERT
  5
645E2
330
645C5
100
AcDbEntity
  8
SIZE
  6
CONTINUOUS
 62
     0
100
AcDbBlockReference
  2
_DOTBLANK
 10
3626.195499999998
 20
-10880.319374921
 30
0.0
 41
10.0
 42
10.0
 43
10.0
 50
90.0
  0
MTEXT
  5
645E3
330
645C5
100
AcDbEntity
  8
SIZE
  6
CONTINUOUS
 62
     0
100
AcDbMText
 10
3584.1955
 20
-10955.57651777814
 30
0.0
 40
64.0
 41
0.0
 71
     5
 72
     1
  1
\A1;36
 11
0.0000000000000001
 21
1.0
 31
0.0
1001
ACAD
1000
MTEXTBEGIN
1070
    73
1070
     1
1070
    44
1040
1.0
1070
    74
1070
     0
1000
MTEXTEND
  0
POINT
  5
645E4
330
645C5
100
AcDbEntity
  8
DEFPOINTS
  6
CONTINUOUS
 62
     0
100
AcDbPoint
 10
3908.9733394639
 20
-10844.31928448064
 30
0.0
  0
POINT
  5
645E5
330
645C5
100
AcDbEntity
  8
DEFPOINTS
  6
CONTINUOUS
 62
     0
100
AcDbPoint
 10
3940.160339507181
 20
-10880.319374921
 30
0.0
  0
POINT
  5
645E6
330
645C5
100
AcDbEntity
  8
DEFPOINTS
  6
CONTINUOUS
 62
     0
100
AcDbPoint
 10
3626.195499999998
 20
-10880.319374921
 30
0.0
  0
ENDBLK
  5
645D2
330
645C5
100
AcDbEntity
  8
0
100
AcDbBlockEnd
  0
BLOCK
  5
645F6
330
645EA
100
AcDbEntity
  8
0
100
AcDbBlockBegin
  2
*D99
 70
     1
 10
0.0
 20
0.0
 30
0.0
  3
*D99
  1

  0
LINE
  5
645F8
330
645EA
100
AcDbEntity
  8
SIZE
  6
CONTINUOUS
 62
     0
100
AcDbLine
 10
6906.480874166675
 20
-8769.722466551924
 30
0.0
 11
6493.4364
 21
-8769.722466551924
 31
0.0
  0
LINE
  5
645F9
330
645EA
100
AcDbEntity
  8
SIZE
  6
CONTINUOUS
 62
     0
100
AcDbLine
 10
6887.458491746944
 20
-8799.909472125472
 30
0.0
 11
6493.4364
 21
-8799.909472125472
 31
0.0
  0
LINE
  5
645FA
330
645EA
100
AcDbEntity
  8
SIZE
  6
CONTINUOUS
 62
     0
100
AcDbLine
 10
6523.4364
 20
-8809.909472125472
 30
0.0
 11
6523.4364
 21
-8819.909472125472
 31
0.0
  0
LINE
  5
645FB
330
645EA
100
AcDbEntity
  8
SIZE
  6
CONTINUOUS
 62
     0
100
AcDbLine
 10
6523.4364
 20
-8759.722466551922
 30
0.0
 11
6523.4364
 21
-8554.179609409066
 31
0.0
  0
LINE
  5
645FC
330
645EA
100
AcDbEntity
  8
SIZE
  6
CONTINUOUS
 62
     0
100
AcDbLine
 10
6523.4364
 20
-8799.909472125472
 30
0.0
 11
6523.4364
 21
-8769.722466551924
 31
0.0
  0
INSERT
  5
645FD
330
645EA
100
AcDbEntity
  8
SIZE
  6
CONTINUOUS
 62
     0
100
AcDbBlockReference
  2
_DOTBLANK
 10
6523.4364
 20
-8799.909472125472
 30
0.0
 41
10.0
 42
10.0
 43
10.0
 50
90.0
  0
INSERT
  5
645FE
330
645EA
100
AcDbEntity
  8
SIZE
  6
CONTINUOUS
 62
     0
100
AcDbBlockReference
  2
_DOTBLANK
 10
6523.4364
 20
-8769.722466551924
 30
0.0
 41
10.0
 42
10.0
 43
10.0
 50
270.0
  0
MTEXT
  5
645FF
330
645EA
100
AcDbEntity
  8
SIZE
  6
CONTINUOUS
 62
     0
100
AcDbMText
 10
6481.436400000001
 20
-8651.951037980493
 30
0.0
 40
64.0
 41
0.0
 71
     5
 72
     1
  1
\A1;30.2
 11
0.0000000000000001
 21
1.0
 31
0.0
1001
ACAD
1000
MTEXTBEGIN
1070
    73
1070
     1
1070
    44
1040
1.0
1070
    74
1070
     0
1000
MTEXTEND
  0
POINT
  5
64600
330
645EA
100
AcDbEntity
  8
DEFPOINTS
  6
CONTINUOUS
 62
     0
100
AcDbPoint
 10
6926.480874166675
 20
-8769.722466551924
 30
0.0
  0
POINT
  5
64601
330
645EA
100
AcDbEntity
  8
DEFPOINTS
  6
CONTINUOUS
 62
     0
100
AcDbPoint
 10
6907.458491746943
 20
-8799.909472125472
 30
0.0
  0
POINT
  5
64602
330
645EA
100
AcDbEntity
  8
DEFPOINTS
  6
CONTINUOUS
 62
     0
100
AcDbPoint
 10
6523.4364
 20
-8799.909472125472
 30
0.0
  0
ENDBLK
  5
645F7
330
645EA
100
AcDbEntity
  8
0
100
AcDbBlockEnd
  0
BLOCK
  5
64614
330
64608
100
AcDbEntity
  8
0
100
AcDbBlockBegin
  2
*D100
 70
     1
 10
0.0
 20
0.0
 30
0.0
  3
*D100
  1

  0
LINE
  5
6489C
330
64608
100
AcDbEntity
  8
SIZE
  6
CONTINUOUS
 62
     0
100
AcDbLine
 10
7006.480874166229
 20
-8821.722466551923
 30
0.0
 11
7360.383599999998
 21
-8821.722466551923
 31
0.0
  0
LINE
  5
6489D
330
64608
100
AcDbEntity
  8
SIZE
  6
CONTINUOUS
 62
     0
100
AcDbLine
 10
7206.503256584811
 20
-8799.909472125472
 30
0.0
 11
7360.383599999998
 21
-8799.909472125472
 31
0.0
  0
LINE
  5
6489E
330
64608
100
AcDbEntity
  8
SIZE
  6
CONTINUOUS
 62
     0
100
AcDbLine
 10
7330.383599999999
 20
-8789.90947212547
 30
0.0
 11
7330.383599999999
 21
-8779.909472125472
 31
0.0
  0
LINE
  5
6489F
330
64608
100
AcDbEntity
  8
SIZE
  6
CONTINUOUS
 62
     0
100
AcDbLine
 10
7330.383599999999
 20
-8831.722466551921
 30
0.0
 11
7330.383599999999
 21
-9048.312714285717
 31
0.0
  0
LINE
  5
648A0
330
64608
100
AcDbEntity
  8
SIZE
  6
CONTINUOUS
 62
     0
100
AcDbLine
 10
7330.383599999999
 20
-8799.909472125472
 30
0.0
 11
7330.383599999999
 21
-8821.722466551923
 31
0.0
  0
INSERT
  5
648A1
330
64608
100
AcDbEntity
  8
SIZE
  6
CONTINUOUS
 62
     0
100
AcDbBlockReference
  2
_DOTBLANK
 10
7330.383599999999
 20
-8799.909472125472
 30
0.0
 41
10.0
 42
10.0
 43
10.0
 50
270.0
  0
INSERT
  5
648A2
330
64608
100
AcDbEntity
  8
SIZE
  6
CONTINUOUS
 62
     0
100
AcDbBlockReference
  2
_DOTBLANK
 10
7330.383599999999
 20
-8821.722466551923
 30
0.0
 41
10.0
 42
10.0
 43
10.0
 50
90.0
  0
MTEXT
  5
648A3
330
64608
100
AcDbEntity
  8
SIZE
  6
CONTINUOUS
 62
     0
100
AcDbMText
 10
7288.3836
 20
-8956.027
 30
0.0
 40
64.0
 41
0.0
 71
     5
 72
     1
  1
\A1;21.8
 11
0.0000000000000001
 21
1.0
 31
0.0
1001
ACAD
1000
MTEXTBEGIN
1070
    73
1070
     1
1070
    44
1040
1.0
1070
    74
1070
     0
1000
MTEXTEND
  0
POINT
  5
648A4
330
64608
100
AcDbEntity
  8
DEFPOINTS
  6
CONTINUOUS
 62
     0
100
AcDbPoint
 10
6986.480874166229
 20
-8821.722466551923
 30
0.0
  0
POINT
  5
648A5
330
64608
100
AcDbEntity
  8
DEFPOINTS
  6
CONTINUOUS
 62
     0
100
AcDbPoint
 10
7186.503256584811
 20
-8799.909472125472
 30
0.0
  0
POINT
  5
648A6
330
64608
100
AcDbEntity
  8
DEFPOINTS
  6
CONTINUOUS
 62
     0
100
AcDbPoint
 10
7330.383599999999
 20
-8799.909472125472
 30
0.0
  0
ENDBLK
  5
64615
330
64608
100
AcDbEntity
  8
0
100
AcDbBlockEnd
  0
BLOCK
  5
646D9
330
646CD
100
AcDbEntity
  8
0
100
AcDbBlockBegin
  2
*D101
 70
     1
 10
0.0
 20
0.0
 30
0.0
  3
*D101
  1

  0
LINE
  5
64751
330
646CD
100
AcDbEntity
  8
SIZE
  6
CONTINUOUS
 62
     0
100
AcDbLine
 10
6895.480874165875
 20
-8791.887089706531
 30
0.0
 11
6895.480874165875
 21
-8324.140699999999
 31
0.0
  0
LINE
  5
64752
330
646CD
100
AcDbEntity
  8
SIZE
  6
CONTINUOUS
 62
     0
100
AcDbLine
 10
6966.480874166229
 20
-8781.722466551922
 30
0.0
 11
6966.480874166229
 21
-8324.140699999999
 31
0.0
  0
LINE
  5
64753
330
646CD
100
AcDbEntity
  8
SIZE
  6
CONTINUOUS
 62
     0
100
AcDbLine
 10
6956.480874166229
 20
-8354.1407
 30
0.0
 11
6905.480874165874
 21
-8354.1407
 31
0.0
  0
LINE
  5
64754
330
646CD
100
AcDbEntity
  8
SIZE
  6
CONTINUOUS
 62
     0
100
AcDbLine
 10
6895.480874165875
 20
-8354.1407
 30
0.0
 11
6743.423731308732
 21
-8354.1407
 31
0.0
  0
INSERT
  5
64755
330
646CD
100
AcDbEntity
  8
SIZE
  6
CONTINUOUS
 62
     0
100
AcDbBlockReference
  2
_DOTBLANK
 10
6966.480874166229
 20
-8354.1407
 30
0.0
 41
10.0
 42
10.0
 43
10.0
  0
INSERT
  5
64756
330
646CD
100
AcDbEntity
  8
SIZE
  6
CONTINUOUS
 62
     0
100
AcDbBlockReference
  2
_DOTBLANK
 10
6895.480874165875
 20
-8354.1407
 30
0.0
 41
10.0
 42
10.0
 43
10.0
 50
180.0
  0
MTEXT
  5
64757
330
646CD
100
AcDbEntity
  8
SIZE
  6
CONTINUOUS
 62
     0
100
AcDbMText
 10
6787.709445594446
 20
-8312.1407
 30
0.0
 40
64.0
 41
0.0
 71
     5
 72
     1
  1
\A1;71
1001
ACAD
1000
MTEXTBEGIN
1070
    73
1070
     1
1070
    44
1040
1.0
1070
    74
1070
     0
1000
MTEXTEND
  0
POINT
  5
64758
330
646CD
100
AcDbEntity
  8
DEFPOINTS
  6
CONTINUOUS
 62
     0
100
AcDbPoint
 10
6895.480874165875
 20
-8811.88708970653
 30
0.0
  0
POINT
  5
64759
330
646CD
100
AcDbEntity
  8
DEFPOINTS
  6
CONTINUOUS
 62
     0
100
AcDbPoint
 10
6966.480874166229
 20
-8801.722466551922
 30
0.0
  0
POINT
  5
6475A
330
646CD
100
AcDbEntity
  8
DEFPOINTS
  6
CONTINUOUS
 62
     0
100
AcDbPoint
 10
6966.480874166229
 20
-8354.1407
 30
0.0
  0
ENDBLK
  5
646DA
330
646CD
100
AcDbEntity
  8
0
100
AcDbBlockEnd
  0
BLOCK
  5
647A4
330
64798
100
AcDbEntity
  8
0
100
AcDbBlockBegin
  2
*D102
 70
     1
 10
0.0
 20
0.0
 30
0.0
  3
*D102
  1

  0
LINE
  5
64C7C
330
64798
100
AcDbEntity
  8
SIZE
  6
CONTINUOUS
 62
     0
100
AcDbLine
 10
35.79999999999927
 20
945.0
 30
0.0
 11
267.8369258341291
 21
944.9999999999999
 31
0.0
  0
LINE
  5
64C7D
330
64798
100
AcDbEntity
  8
SIZE
  6
CONTINUOUS
 62
     0
100
AcDbLine
 10
-193.5999999996438
 20
965.0
 30
0.0
 11
267.8369258341291
 21
964.9999999999998
 31
0.0
  0
LINE
  5
64C7E
330
64798
100
AcDbEntity
  8
SIZE
  6
CONTINUOUS
 62
     0
100
AcDbLine
 10
237.8369258341291
 20
935.0
 30
0.0
 11
237.8369258341291
 21
925.0
 31
0.0
  0
LINE
  5
64C7F
330
64798
100
AcDbEntity
  8
SIZE
  6
CONTINUOUS
 62
     0
100
AcDbLine
 10
237.8369258341292
 20
975.0
 30
0.0
 11
237.8369258341292
 21
1150.58574634957
 31
0.0
  0
LINE
  5
64C80
330
64798
100
AcDbEntity
  8
SIZE
  6
CONTINUOUS
 62
     0
100
AcDbLine
 10
237.8369258341291
 20
945.0
 30
0.0
 11
237.8369258341292
 21
965.0
 31
0.0
  0
INSERT
  5
64C81
330
64798
100
AcDbEntity
  8
SIZE
  6
CONTINUOUS
 62
     0
100
AcDbBlockReference
  2
_DOTBLANK
 10
237.8369258341291
 20
945.0
 30
0.0
 41
10.0
 42
10.0
 43
10.0
 50
90.0
  0
INSERT
  5
64C82
330
64798
100
AcDbEntity
  8
SIZE
  6
CONTINUOUS
 62
     0
100
AcDbBlockReference
  2
_DOTBLANK
 10
237.8369258341292
 20
965.0
 30
0.0
 41
10.0
 42
10.0
 43
10.0
 50
270.0
  0
MTEXT
  5
64C83
330
64798
100
AcDbEntity
  8
SIZE
  6
CONTINUOUS
 62
     0
100
AcDbMText
 10
195.836925834129
 20
1093.957174920999
 30
0.0
 40
64.0
 41
0.0
 71
     5
 72
     1
  1
\A1;20
 11
0.0000000000000001
 21
1.0
 31
0.0
1001
ACAD
1000
MTEXTBEGIN
1070
    73
1070
     1
1070
    44
1040
1.0
1070
    74
1070
     0
1000
MTEXTEND
  0
POINT
  5
64C84
330
64798
100
AcDbEntity
  8
DEFPOINTS
  6
CONTINUOUS
 62
     0
100
AcDbPoint
 10
15.79999999999927
 20
945.0
 30
0.0
  0
POINT
  5
64C85
330
64798
100
AcDbEntity
  8
DEFPOINTS
  6
CONTINUOUS
 62
     0
100
AcDbPoint
 10
-213.5999999996438
 20
965.0
 30
0.0
  0
POINT
  5
64C86
330
64798
100
AcDbEntity
  8
DEFPOINTS
  6
CONTINUOUS
 62
     0
100
AcDbPoint
 10
237.8369258341292
 20
965.0
 30
0.0
  0
ENDBLK
  5
647A5
330
64798
100
AcDbEntity
  8
0
100
AcDbBlockEnd
  0
BLOCK
  5
647C8
330
647BC
100
AcDbEntity
  8
0
100
AcDbBlockBegin
  2
*D103
 70
     1
 10
0.0
 20
0.0
 30
0.0
  3
*D103
  1

  0
LINE
  5
64C72
330
647BC
100
AcDbEntity
  8
SIZE
  6
CONTINUOUS
 62
     0
100
AcDbLine
 10
-233.5999999996438
 20
1005.0
 30
0.0
 11
-233.5999999996438
 21
1278.878674920999
 31
0.0
  0
LINE
  5
64C73
330
647BC
100
AcDbEntity
  8
SIZE
  6
CONTINUOUS
 62
     0
100
AcDbLine
 10
-304.6000000000058
 20
966.0
 30
0.0
 11
-304.6000000000058
 21
1278.878674920999
 31
0.0
  0
LINE
  5
64C74
330
647BC
100
AcDbEntity
  8
SIZE
  6
CONTINUOUS
 62
     0
100
AcDbLine
 10
-294.6000000000058
 20
1248.878674920999
 30
0.0
 11
-243.5999999996438
 21
1248.878674920999
 31
0.0
  0
LINE
  5
64C75
330
647BC
100
AcDbEntity
  8
SIZE
  6
CONTINUOUS
 62
     0
100
AcDbLine
 10
-233.5999999996438
 20
1248.878674920999
 30
0.0
 11
-135.0285714282148
 21
1248.878674920999
 31
0.0
  0
INSERT
  5
64C76
330
647BC
100
AcDbEntity
  8
SIZE
  6
CONTINUOUS
 62
     0
100
AcDbBlockReference
  2
_DOTBLANK
 10
-304.6000000000058
 20
1248.878674920999
 30
0.0
 41
10.0
 42
10.0
 43
10.0
 50
180.0
  0
INSERT
  5
64C77
330
647BC
100
AcDbEntity
  8
SIZE
  6
CONTINUOUS
 62
     0
100
AcDbBlockReference
  2
_DOTBLANK
 10
-233.5999999996438
 20
1248.878674920999
 30
0.0
 41
10.0
 42
10.0
 43
10.0
  0
MTEXT
  5
64C78
330
647BC
100
AcDbEntity
  8
SIZE
  6
CONTINUOUS
 62
     0
100
AcDbMText
 10
-179.3142857139291
 20
1290.878674920999
 30
0.0
 40
64.0
 41
0.0
 71
     5
 72
     1
  1
\A1;71
1001
ACAD
1000
MTEXTBEGIN
1070
    73
1070
     1
1070
    44
1040
1.0
1070
    74
1070
     0
1000
MTEXTEND
  0
POINT
  5
64C79
330
647BC
100
AcDbEntity
  8
DEFPOINTS
  6
CONTINUOUS
 62
     0
100
AcDbPoint
 10
-233.5999999996438
 20
985.0
 30
0.0
  0
POINT
  5
64C7A
330
647BC
100
AcDbEntity
  8
DEFPOINTS
  6
CONTINUOUS
 62
     0
100
AcDbPoint
 10
-304.6000000000058
 20
946.0
 30
0.0
  0
POINT
  5
64C7B
330
647BC
100
AcDbEntity
  8
DEFPOINTS
  6
CONTINUOUS
 62
     0
100
AcDbPoint
 10
-304.6000000000058
 20
1248.878674920999
 30
0.0
  0
ENDBLK
  5
647C9
330
647BC
100
AcDbEntity
  8
0
100
AcDbBlockEnd
  0
BLOCK
  5
6483A
330
6482E
100
AcDbEntity
  8
0
100
AcDbBlockBegin
  2
*D104
 70
     1
 10
0.0
 20
0.0
 30
0.0
  3
*D104
  1

  0
LINE
  5
6483C
330
6482E
100
AcDbEntity
  8
SIZE
  6
CONTINUOUS
 62
     0
100
AcDbLine
 10
4129.160339507181
 20
-10880.319374921
 30
0.0
 11
4460.891099999997
 21
-10880.319374921
 31
0.0
  0
LINE
  5
6483D
330
6482E
100
AcDbEntity
  8
SIZE
  6
CONTINUOUS
 62
     0
100
AcDbLine
 10
4020.973339463902
 20
-10860.319374921
 30
0.0
 11
4460.891099999997
 21
-10860.319374921
 31
0.0
  0
LINE
  5
6483E
330
6482E
100
AcDbEntity
  8
SIZE
  6
CONTINUOUS
 62
     0
100
AcDbLine
 10
4430.891099999998
 20
-10890.319374921
 30
0.0
 11
4430.891099999998
 21
-10900.319374921
 31
0.0
  0
LINE
  5
6483F
330
6482E
100
AcDbEntity
  8
SIZE
  6
CONTINUOUS
 62
     0
100
AcDbLine
 10
4430.891099999998
 20
-10850.319374921
 30
0.0
 11
4430.891099999998
 21
-10727.06223206385
 31
0.0
  0
LINE
  5
64840
330
6482E
100
AcDbEntity
  8
SIZE
  6
CONTINUOUS
 62
     0
100
AcDbLine
 10
4430.891099999998
 20
-10880.319374921
 30
0.0
 11
4430.891099999998
 21
-10860.319374921
 31
0.0
  0
INSERT
  5
64841
330
6482E
100
AcDbEntity
  8
SIZE
  6
CONTINUOUS
 62
     0
100
AcDbBlockReference
  2
_DOTBLANK
 10
4430.891099999998
 20
-10880.319374921
 30
0.0
 41
10.0
 42
10.0
 43
10.0
 50
90.0
  0
INSERT
  5
64842
330
6482E
100
AcDbEntity
  8
SIZE
  6
CONTINUOUS
 62
     0
100
AcDbBlockReference
  2
_DOTBLANK
 10
4430.891099999998
 20
-10860.319374921
 30
0.0
 41
10.0
 42
10.0
 43
10.0
 50
270.0
  0
MTEXT
  5
64843
330
6482E
100
AcDbEntity
  8
SIZE
  6
CONTINUOUS
 62
     0
100
AcDbMText
 10
4388.8911
 20
-10783.69080349242
 30
0.0
 40
64.0
 41
0.0
 71
     5
 72
     1
  1
\A1;20
 11
0.0000000000000001
 21
1.0
 31
0.0
1001
ACAD
1000
MTEXTBEGIN
1070
    73
1070
     1
1070
    44
1040
1.0
1070
    74
1070
     0
1000
MTEXTEND
  0
POINT
  5
64844
330
6482E
100
AcDbEntity
  8
DEFPOINTS
  6
CONTINUOUS
 62
     0
100
AcDbPoint
 10
4109.16033950718
 20
-10880.319374921
 30
0.0
  0
POINT
  5
64845
330
6482E
100
AcDbEntity
  8
DEFPOINTS
  6
CONTINUOUS
 62
     0
100
AcDbPoint
 10
4000.973339463903
 20
-10860.319374921
 30
0.0
  0
POINT
  5
64846
330
6482E
100
AcDbEntity
  8
DEFPOINTS
  6
CONTINUOUS
 62
     0
100
AcDbPoint
 10
4430.891099999998
 20
-10860.319374921
 30
0.0
  0
ENDBLK
  5
6483B
330
6482E
100
AcDbEntity
  8
0
100
AcDbBlockEnd
  0
BLOCK
  5
64855
330
64849
100
AcDbEntity
  8
0
100
AcDbBlockBegin
  2
*D105
 70
     1
 10
0.0
 20
0.0
 30
0.0
  3
*D105
  1

  0
LINE
  5
64857
330
64849
100
AcDbEntity
  8
SIZE
  6
CONTINUOUS
 62
     0
100
AcDbLine
 10
3959.16033950718
 20
-10899.319374921
 30
0.0
 11
3959.16033950718
 21
-11017.4333
 31
0.0
  0
LINE
  5
64858
330
64849
100
AcDbEntity
  8
SIZE
  6
CONTINUOUS
 62
     0
100
AcDbLine
 10
3980.973339463902
 20
-10900.319374921
 30
0.0
 11
3980.973339463902
 21
-11017.4333
 31
0.0
  0
LINE
  5
64859
330
64849
100
AcDbEntity
  8
SIZE
  6
CONTINUOUS
 62
     0
100
AcDbLine
 10
3949.16033950718
 20
-10987.4333
 30
0.0
 11
3939.16033950718
 21
-10987.4333
 31
0.0
  0
LINE
  5
6485A
330
64849
100
AcDbEntity
  8
SIZE
  6
CONTINUOUS
 62
     0
100
AcDbLine
 10
3990.973339463902
 20
-10987.4333
 30
0.0
 11
4490.247514285714
 21
-10987.4333
 31
0.0
  0
LINE
  5
6485B
330
64849
100
AcDbEntity
  8
SIZE
  6
CONTINUOUS
 62
     0
100
AcDbLine
 10
3959.16033950718
 20
-10987.4333
 30
0.0
 11
3980.973339463902
 21
-10987.4333
 31
0.0
  0
INSERT
  5
6485C
330
64849
100
AcDbEntity
  8
SIZE
  6
CONTINUOUS
 62
     0
100
AcDbBlockReference
  2
_DOTBLANK
 10
3959.16033950718
 20
-10987.4333
 30
0.0
 41
10.0
 42
10.0
 43
10.0
  0
INSERT
  5
6485D
330
64849
100
AcDbEntity
  8
SIZE
  6
CONTINUOUS
 62
     0
100
AcDbBlockReference
  2
_DOTBLANK
 10
3980.973339463902
 20
-10987.4333
 30
0.0
 41
10.0
 42
10.0
 43
10.0
 50
180.0
  0
MTEXT
  5
6485E
330
64849
100
AcDbEntity
  8
SIZE
  6
CONTINUOUS
 62
     0
100
AcDbMText
 10
4397.9618
 20
-10945.4333
 30
0.0
 40
64.0
 41
0.0
 71
     5
 72
     1
  1
\A1;21.8
1001
ACAD
1000
MTEXTBEGIN
1070
    73
1070
     1
1070
    44
1040
1.0
1070
    74
1070
     0
1000
MTEXTEND
  0
POINT
  5
6485F
330
64849
100
AcDbEntity
  8
DEFPOINTS
  6
CONTINUOUS
 62
     0
100
AcDbPoint
 10
3959.16033950718
 20
-10879.319374921
 30
0.0
  0
POINT
  5
64860
330
64849
100
AcDbEntity
  8
DEFPOINTS
  6
CONTINUOUS
 62
     0
100
AcDbPoint
 10
3980.973339463902
 20
-10880.319374921
 30
0.0
  0
POINT
  5
64861
330
64849
100
AcDbEntity
  8
DEFPOINTS
  6
CONTINUOUS
 62
     0
100
AcDbPoint
 10
3980.973339463902
 20
-10987.4333
 30
0.0
  0
ENDBLK
  5
64856
330
64849
100
AcDbEntity
  8
0
100
AcDbBlockEnd
  0
BLOCK
  5
648E1
330
648D5
100
AcDbEntity
  8
0
100
AcDbBlockBegin
  2
*D106
 70
     1
 10
0.0
 20
0.0
 30
0.0
  3
*D106
  1

  0
LINE
  5
648E3
330
648D5
100
AcDbEntity
  8
SIZE
  6
CONTINUOUS
 62
     0
100
AcDbLine
 10
9495.532542703715
 20
-10899.319374921
 30
0.0
 11
9495.532542703715
 21
-11024.27519999999
 31
0.0
  0
LINE
  5
648E4
330
648D5
100
AcDbEntity
  8
SIZE
  6
CONTINUOUS
 62
     0
100
AcDbLine
 10
9473.719542746993
 20
-10900.319374921
 30
0.0
 11
9473.719542746993
 21
-11024.27519999999
 31
0.0
  0
LINE
  5
648E5
330
648D5
100
AcDbEntity
  8
SIZE
  6
CONTINUOUS
 62
     0
100
AcDbLine
 10
9505.532542703715
 20
-10994.2752
 30
0.0
 11
9515.532542703715
 21
-10994.2752
 31
0.0
  0
LINE
  5
648E6
330
648D5
100
AcDbEntity
  8
SIZE
  6
CONTINUOUS
 62
     0
100
AcDbLine
 10
9463.719542746991
 20
-10994.2752
 30
0.0
 11
8961.389285714286
 21
-10994.2752
 31
0.0
  0
LINE
  5
648E7
330
648D5
100
AcDbEntity
  8
SIZE
  6
CONTINUOUS
 62
     0
100
AcDbLine
 10
9495.532542703715
 20
-10994.2752
 30
0.0
 11
9473.719542746993
 21
-10994.2752
 31
0.0
  0
INSERT
  5
648E8
330
648D5
100
AcDbEntity
  8
SIZE
  6
CONTINUOUS
 62
     0
100
AcDbBlockReference
  2
_DOTBLANK
 10
9495.532542703715
 20
-10994.2752
 30
0.0
 41
10.0
 42
10.0
 43
10.0
 50
180.0
  0
INSERT
  5
648E9
330
648D5
100
AcDbEntity
  8
SIZE
  6
CONTINUOUS
 62
     0
100
AcDbBlockReference
  2
_DOTBLANK
 10
9473.719542746993
 20
-10994.2752
 30
0.0
 41
10.0
 42
10.0
 43
10.0
  0
MTEXT
  5
648EA
330
648D5
100
AcDbEntity
  8
SIZE
  6
CONTINUOUS
 62
     0
100
AcDbMText
 10
9053.675000000001
 20
-10952.2752
 30
0.0
 40
64.0
 41
0.0
 71
     5
 72
     1
  1
\A1;21.8
1001
ACAD
1000
MTEXTBEGIN
1070
    73
1070
     1
1070
    44
1040
1.0
1070
    74
1070
     0
1000
MTEXTEND
  0
POINT
  5
648EB
330
648D5
100
AcDbEntity
  8
DEFPOINTS
  6
CONTINUOUS
 62
     0
100
AcDbPoint
 10
9495.532542703715
 20
-10879.319374921
 30
0.0
  0
POINT
  5
648EC
330
648D5
100
AcDbEntity
  8
DEFPOINTS
  6
CONTINUOUS
 62
     0
100
AcDbPoint
 10
9473.719542746993
 20
-10880.319374921
 30
0.0
  0
POINT
  5
648ED
330
648D5
100
AcDbEntity
  8
DEFPOINTS
  6
CONTINUOUS
 62
     0
100
AcDbPoint
 10
9473.719542746993
 20
-10994.2752
 30
0.0
  0
ENDBLK
  5
648E2
330
648D5
100
AcDbEntity
  8
0
100
AcDbBlockEnd
  0
BLOCK
  5
6490F
330
64903
100
AcDbEntity
  8
0
100
AcDbBlockBegin
  2
*D107
 70
     1
 10
0.0
 20
0.0
 30
0.0
  3
*D107
  1

  0
LINE
  5
64911
330
64903
100
AcDbEntity
  8
SIZE
  6
CONTINUOUS
 62
     0
100
AcDbLine
 10
9527.282542703714
 20
-10880.319374921
 30
0.0
 11
9947.664099999999
 21
-10880.319374921
 31
0.0
  0
LINE
  5
64912
330
64903
100
AcDbEntity
  8
SIZE
  6
CONTINUOUS
 62
     0
100
AcDbLine
 10
9513.387438793413
 20
-10860.319374921
 30
0.0
 11
9947.664099999999
 21
-10860.319374921
 31
0.0
  0
LINE
  5
64913
330
64903
100
AcDbEntity
  8
SIZE
  6
CONTINUOUS
 62
     0
100
AcDbLine
 10
9917.664099999999
 20
-10850.319374921
 30
0.0
 11
9917.664099999999
 21
-10840.319374921
 31
0.0
  0
LINE
  5
64914
330
64903
100
AcDbEntity
  8
SIZE
  6
CONTINUOUS
 62
     0
100
AcDbLine
 10
9917.664099999999
 20
-10890.319374921
 30
0.0
 11
9917.664099999999
 21
-11013.57651777814
 31
0.0
  0
LINE
  5
64915
330
64903
100
AcDbEntity
  8
SIZE
  6
CONTINUOUS
 62
     0
100
AcDbLine
 10
9917.664099999999
 20
-10860.319374921
 30
0.0
 11
9917.664099999999
 21
-10880.319374921
 31
0.0
  0
INSERT
  5
64916
330
64903
100
AcDbEntity
  8
SIZE
  6
CONTINUOUS
 62
     0
100
AcDbBlockReference
  2
_DOTBLANK
 10
9917.664099999999
 20
-10860.319374921
 30
0.0
 41
10.0
 42
10.0
 43
10.0
 50
270.0
  0
INSERT
  5
64917
330
64903
100
AcDbEntity
  8
SIZE
  6
CONTINUOUS
 62
     0
100
AcDbBlockReference
  2
_DOTBLANK
 10
9917.664099999999
 20
-10880.319374921
 30
0.0
 41
10.0
 42
10.0
 43
10.0
 50
90.0
  0
MTEXT
  5
64918
330
64903
100
AcDbEntity
  8
SIZE
  6
CONTINUOUS
 62
     0
100
AcDbMText
 10
9875.664100000001
 20
-10956.94794634957
 30
0.0
 40
64.0
 41
0.0
 71
     5
 72
     1
  1
\A1;20
 11
0.0000000000000001
 21
1.0
 31
0.0
1001
ACAD
1000
MTEXTBEGIN
1070
    73
1070
     1
1070
    44
1040
1.0
1070
    74
1070
     0
1000
MTEXTEND
  0
POINT
  5
64919
330
64903
100
AcDbEntity
  8
DEFPOINTS
  6
CONTINUOUS
 62
     0
100
AcDbPoint
 10
9507.282542703716
 20
-10880.319374921
 30
0.0
  0
POINT
  5
6491A
330
64903
100
AcDbEntity
  8
DEFPOINTS
  6
CONTINUOUS
 62
     0
100
AcDbPoint
 10
9493.387438793412
 20
-10860.319374921
 30
0.0
  0
POINT
  5
6491B
330
64903
100
AcDbEntity
  8
DEFPOINTS
  6
CONTINUOUS
 62
     0
100
AcDbPoint
 10
9917.664099999999
 20
-10860.319374921
 30
0.0
  0
ENDBLK
  5
64910
330
64903
100
AcDbEntity
  8
0
100
AcDbBlockEnd
  0
BLOCK
  5
6492A
330
6491E
100
AcDbEntity
  8
0
100
AcDbBlockBegin
  2
*D108
 70
     1
 10
0.0
 20
0.0
 30
0.0
  3
*D108
  1

  0
LINE
  5
6492C
330
6491E
100
AcDbEntity
  8
SIZE
  6
CONTINUOUS
 62
     0
100
AcDbLine
 10
9565.719542746995
 20
-10844.319374921
 30
0.0
 11
10039.22579999999
 21
-10844.319374921
 31
0.0
  0
LINE
  5
6492D
330
6491E
100
AcDbEntity
  8
SIZE
  6
CONTINUOUS
 62
     0
100
AcDbLine
 10
9527.282542703714
 20
-10880.319374921
 30
0.0
 11
10039.22579999999
 21
-10880.319374921
 31
0.0
  0
LINE
  5
6492E
330
6491E
100
AcDbEntity
  8
SIZE
  6
CONTINUOUS
 62
     0
100
AcDbLine
 10
10009.22579999999
 20
-10890.319374921
 30
0.0
 11
10009.22579999999
 21
-10900.319374921
 31
0.0
  0
LINE
  5
6492F
330
6491E
100
AcDbEntity
  8
SIZE
  6
CONTINUOUS
 62
     0
100
AcDbLine
 10
10009.22579999999
 20
-10834.319374921
 30
0.0
 11
10009.22579999999
 21
-10682.79265714286
 31
0.0
  0
LINE
  5
64930
330
6491E
100
AcDbEntity
  8
SIZE
  6
CONTINUOUS
 62
     0
100
AcDbLine
 10
10009.22579999999
 20
-10880.319374921
 30
0.0
 11
10009.22579999999
 21
-10844.319374921
 31
0.0
  0
INSERT
  5
64931
330
6491E
100
AcDbEntity
  8
SIZE
  6
CONTINUOUS
 62
     0
100
AcDbBlockReference
  2
_DOTBLANK
 10
10009.22579999999
 20
-10880.319374921
 30
0.0
 41
10.0
 42
10.0
 43
10.0
 50
90.0
  0
INSERT
  5
64932
330
6491E
100
AcDbEntity
  8
SIZE
  6
CONTINUOUS
 62
     0
100
AcDbBlockReference
  2
_DOTBLANK
 10
10009.22579999999
 20
-10844.319374921
 30
0.0
 41
10.0
 42
10.0
 43
10.0
 50
270.0
  0
MTEXT
  5
64933
330
6491E
100
AcDbEntity
  8
SIZE
  6
CONTINUOUS
 62
     0
100
AcDbMText
 10
9967.225800000001
 20
-10738.0498
 30
0.0
 40
64.0
 41
0.0
 71
     5
 72
     1
  1
\A1;36
 11
0.0000000000000001
 21
1.0
 31
0.0
1001
ACAD
1000
MTEXTBEGIN
1070
    73
1070
     1
1070
    44
1040
1.0
1070
    74
1070
     0
1000
MTEXTEND
  0
POINT
  5
64934
330
6491E
100
AcDbEntity
  8
DEFPOINTS
  6
CONTINUOUS
 62
     0
100
AcDbPoint
 10
9545.719542746994
 20
-10844.319374921
 30
0.0
  0
POINT
  5
64935
330
6491E
100
AcDbEntity
  8
DEFPOINTS
  6
CONTINUOUS
 62
     0
100
AcDbPoint
 10
9507.282542703716
 20
-10880.319374921
 30
0.0
  0
POINT
  5
64936
330
6491E
100
AcDbEntity
  8
DEFPOINTS
  6
CONTINUOUS
 62
     0
100
AcDbPoint
 10
10009.22579999999
 20
-10880.319374921
 30
0.0
  0
ENDBLK
  5
6492B
330
6491E
100
AcDbEntity
  8
0
100
AcDbBlockEnd
  0
BLOCK
  5
64951
330
64945
100
AcDbEntity
  8
0
100
AcDbBlockBegin
  2
*D109
 70
     1
 10
0.0
 20
0.0
 30
0.0
  3
*D109
  1

  0
LINE
  5
6495E
330
64945
100
AcDbEntity
  8
SIZE
  6
CONTINUOUS
 62
     0
100
AcDbLine
 10
9495.532542703715
 20
-10859.319374921
 30
0.0
 11
9495.532542703715
 21
-10520.731
 31
0.0
  0
LINE
  5
6495F
330
64945
100
AcDbEntity
  8
SIZE
  6
CONTINUOUS
 62
     0
100
AcDbLine
 10
9525.719542746994
 20
-10804.319374921
 30
0.0
 11
9525.719542746994
 21
-10520.731
 31
0.0
  0
LINE
  5
64960
330
64945
100
AcDbEntity
  8
SIZE
  6
CONTINUOUS
 62
     0
100
AcDbLine
 10
9485.532542703715
 20
-10550.731
 30
0.0
 11
9475.532542703716
 21
-10550.731
 31
0.0
  0
LINE
  5
64961
330
64945
100
AcDbEntity
  8
SIZE
  6
CONTINUOUS
 62
     0
100
AcDbLine
 10
9535.719542746994
 20
-10550.731
 30
0.0
 11
9741.262399889851
 21
-10550.731
 31
0.0
  0
LINE
  5
64962
330
64945
100
AcDbEntity
  8
SIZE
  6
CONTINUOUS
 62
     0
100
AcDbLine
 10
9495.532542703715
 20
-10550.731
 30
0.0
 11
9525.719542746994
 21
-10550.731
 31
0.0
  0
INSERT
  5
64963
330
64945
100
AcDbEntity
  8
SIZE
  6
CONTINUOUS
 62
     0
100
AcDbBlockReference
  2
_DOTBLANK
 10
9495.532542703715
 20
-10550.731
 30
0.0
 41
10.0
 42
10.0
 43
10.0
  0
INSERT
  5
64964
330
64945
100
AcDbEntity
  8
SIZE
  6
CONTINUOUS
 62
     0
100
AcDbBlockReference
  2
_DOTBLANK
 10
9525.719542746994
 20
-10550.731
 30
0.0
 41
10.0
 42
10.0
 43
10.0
 50
180.0
  0
MTEXT
  5
64965
330
64945
100
AcDbEntity
  8
SIZE
  6
CONTINUOUS
 62
     0
100
AcDbMText
 10
9643.490971318422
 20
-10508.731
 30
0.0
 40
64.0
 41
0.0
 71
     5
 72
     1
  1
\A1;30.2
1001
ACAD
1000
MTEXTBEGIN
1070
    73
1070
     1
1070
    44
1040
1.0
1070
    74
1070
     0
1000
MTEXTEND
  0
POINT
  5
64966
330
64945
100
AcDbEntity
  8
DEFPOINTS
  6
CONTINUOUS
 62
     0
100
AcDbPoint
 10
9495.532542703715
 20
-10879.319374921
 30
0.0
  0
POINT
  5
64967
330
64945
100
AcDbEntity
  8
DEFPOINTS
  6
CONTINUOUS
 62
     0
100
AcDbPoint
 10
9525.719542746994
 20
-10824.319374921
 30
0.0
  0
POINT
  5
64968
330
64945
100
AcDbEntity
  8
DEFPOINTS
  6
CONTINUOUS
 62
     0
100
AcDbPoint
 10
9525.719542746994
 20
-10550.731
 30
0.0
  0
ENDBLK
  5
64952
330
64945
100
AcDbEntity
  8
0
100
AcDbBlockEnd
  0
BLOCK
  5
64A3A
330
64A2E
100
AcDbEntity
  8
0
100
AcDbBlockBegin
  2
*D110
 70
     1
 10
0.0
 20
0.0
 30
0.0
  3
*D110
  1

  0
LINE
  5
64A49
330
64A2E
100
AcDbEntity
  8
SIZE
  6
CONTINUOUS
 62
     0
100
AcDbLine
 10
11987.86933105288
 20
-10900.319374921
 30
0.0
 11
11987.86933105288
 21
-11076.9672
 31
0.0
  0
LINE
  5
64A4A
330
64A2E
100
AcDbEntity
  8
SIZE
  6
CONTINUOUS
 62
     0
100
AcDbLine
 10
12058.8693310509
 20
-10899.319374921
 30
0.0
 11
12058.8693310509
 21
-11076.9672
 31
0.0
  0
LINE
  5
64A4B
330
64A2E
100
AcDbEntity
  8
SIZE
  6
CONTINUOUS
 62
     0
100
AcDbLine
 10
11997.86933105288
 20
-11046.9672
 30
0.0
 11
12048.8693310509
 21
-11046.9672
 31
0.0
  0
LINE
  5
64A4C
330
64A2E
100
AcDbEntity
  8
SIZE
  6
CONTINUOUS
 62
     0
100
AcDbLine
 10
12058.8693310509
 20
-11046.9672
 30
0.0
 11
12185.23361428571
 21
-11046.9672
 31
0.0
  0
INSERT
  5
64A4D
330
64A2E
100
AcDbEntity
  8
SIZE
  6
CONTINUOUS
 62
     0
100
AcDbBlockReference
  2
_DOTBLANK
 10
11987.86933105288
 20
-11046.9672
 30
0.0
 41
10.0
 42
10.0
 43
10.0
 50
180.0
  0
INSERT
  5
64A4E
330
64A2E
100
AcDbEntity
  8
SIZE
  6
CONTINUOUS
 62
     0
100
AcDbBlockReference
  2
_DOTBLANK
 10
12058.8693310509
 20
-11046.9672
 30
0.0
 41
10.0
 42
10.0
 43
10.0
  0
MTEXT
  5
64A4F
330
64A2E
100
AcDbEntity
  8
SIZE
  6
CONTINUOUS
 62
     0
100
AcDbMText
 10
12140.9479
 20
-11004.9672
 30
0.0
 40
64.0
 41
0.0
 71
     5
 72
     1
  1
\A1;71
1001
ACAD
1000
MTEXTBEGIN
1070
    73
1070
     1
1070
    44
1040
1.0
1070
    74
1070
     0
1000
MTEXTEND
  0
POINT
  5
64A50
330
64A2E
100
AcDbEntity
  8
DEFPOINTS
  6
CONTINUOUS
 62
     0
100
AcDbPoint
 10
11987.86933105288
 20
-10880.319374921
 30
0.0
  0
POINT
  5
64A51
330
64A2E
100
AcDbEntity
  8
DEFPOINTS
  6
CONTINUOUS
 62
     0
100
AcDbPoint
 10
12058.8693310509
 20
-10879.319374921
 30
0.0
  0
POINT
  5
64A52
330
64A2E
100
AcDbEntity
  8
DEFPOINTS
  6
CONTINUOUS
 62
     0
100
AcDbPoint
 10
12058.8693310509
 20
-11046.9672
 30
0.0
  0
ENDBLK
  5
64A3B
330
64A2E
100
AcDbEntity
  8
0
100
AcDbBlockEnd
  0
BLOCK
  5
64A8B
330
64A7F
100
AcDbEntity
  8
0
100
AcDbBlockBegin
  2
*D111
 70
     1
 10
0.0
 20
0.0
 30
0.0
  3
*D111
  1

  0
LINE
  5
64A8D
330
64A7F
100
AcDbEntity
  8
SIZE
  6
CONTINUOUS
 62
     0
100
AcDbLine
 10
12027.86933105288
 20
-10860.319374921
 30
0.0
 11
12393.76129999999
 21
-10860.319374921
 31
0.0
  0
LINE
  5
64A8E
330
64A7F
100
AcDbEntity
  8
SIZE
  6
CONTINUOUS
 62
     0
100
AcDbLine
 10
12096.26933105091
 20
-10880.319374921
 30
0.0
 11
12393.76129999999
 21
-10880.319374921
 31
0.0
  0
LINE
  5
64A8F
330
64A7F
100
AcDbEntity
  8
SIZE
  6
CONTINUOUS
 62
     0
100
AcDbLine
 10
12363.76129999999
 20
-10850.319374921
 30
0.0
 11
12363.76129999999
 21
-10840.319374921
 31
0.0
  0
LINE
  5
64A90
330
64A7F
100
AcDbEntity
  8
SIZE
  6
CONTINUOUS
 62
     0
100
AcDbLine
 10
12363.76129999999
 20
-10890.319374921
 30
0.0
 11
12363.76129999999
 21
-11027.03777142857
 31
0.0
  0
LINE
  5
64A91
330
64A7F
100
AcDbEntity
  8
SIZE
  6
CONTINUOUS
 62
     0
100
AcDbLine
 10
12363.76129999999
 20
-10860.319374921
 30
0.0
 11
12363.76129999999
 21
-10880.319374921
 31
0.0
  0
INSERT
  5
64A92
330
64A7F
100
AcDbEntity
  8
SIZE
  6
CONTINUOUS
 62
     0
100
AcDbBlockReference
  2
_DOTBLANK
 10
12363.76129999999
 20
-10860.319374921
 30
0.0
 41
10.0
 42
10.0
 43
10.0
 50
270.0
  0
INSERT
  5
64A93
330
64A7F
100
AcDbEntity
  8
SIZE
  6
CONTINUOUS
 62
     0
100
AcDbBlockReference
  2
_DOTBLANK
 10
12363.76129999999
 20
-10880.319374921
 30
0.0
 41
10.0
 42
10.0
 43
10.0
 50
90.0
  0
MTEXT
  5
64A94
330
64A7F
100
AcDbEntity
  8
SIZE
  6
CONTINUOUS
 62
     0
100
AcDbMText
 10
12321.7613
 20
-10970.40919999999
 30
0.0
 40
64.0
 41
0.0
 71
     5
 72
     1
  1
\A1;20
 11
0.0000000000000001
 21
1.0
 31
0.0
1001
ACAD
1000
MTEXTBEGIN
1070
    73
1070
     1
1070
    44
1040
1.0
1070
    74
1070
     0
1000
MTEXTEND
  0
POINT
  5
64A95
330
64A7F
100
AcDbEntity
  8
DEFPOINTS
  6
CONTINUOUS
 62
     0
100
AcDbPoint
 10
12007.86933105288
 20
-10860.319374921
 30
0.0
  0
POINT
  5
64A96
330
64A7F
100
AcDbEntity
  8
DEFPOINTS
  6
CONTINUOUS
 62
     0
100
AcDbPoint
 10
12076.26933105091
 20
-10880.319374921
 30
0.0
  0
POINT
  5
64A97
330
64A7F
100
AcDbEntity
  8
DEFPOINTS
  6
CONTINUOUS
 62
     0
100
AcDbPoint
 10
12363.76129999999
 20
-10880.319374921
 30
0.0
  0
ENDBLK
  5
64A8C
330
64A7F
100
AcDbEntity
  8
0
100
AcDbBlockEnd
  0
BLOCK
  5
64AAB
330
64AA1
100
AcDbEntity
  8
0
100
AcDbBlockBegin
  2
*D112
 70
     1
 10
0.0
 20
0.0
 30
0.0
  3
*D112
  1

  0
LINE
  5
64AA2
330
64AA1
100
AcDbEntity
  8
SIZE
  6
CONTINUOUS
 62
     0
100
AcDbLine
 10
6705.080874165872
 20
-13492.62468489087
 30
0.0
 11
6516.899306121607
 21
-13492.62468489087
 31
0.0
  0
LINE
  5
64AA3
330
64AA1
100
AcDbEntity
  8
SIZE
  6
CONTINUOUS
 62
     0
100
AcDbLine
 10
7034.480874165875
 20
-13312.62468489087
 30
0.0
 11
6516.899306121607
 21
-13312.62468489087
 31
0.0
  0
LINE
  5
64AA4
330
64AA1
100
AcDbEntity
  8
SIZE
  6
CONTINUOUS
 62
     0
100
AcDbLine
 10
6546.899306121606
 20
-13482.62468489087
 30
0.0
 11
6546.899306121606
 21
-13322.62468489087
 31
0.0
  0
INSERT
  5
64AA5
330
64AA1
100
AcDbEntity
  8
SIZE
  6
CONTINUOUS
 62
     0
100
AcDbBlockReference
  2
_DOTBLANK
 10
6546.899306121606
 20
-13492.62468489087
 30
0.0
 41
10.0
 42
10.0
 43
10.0
 50
270.0
  0
INSERT
  5
64AA6
330
64AA1
100
AcDbEntity
  8
SIZE
  6
CONTINUOUS
 62
     0
100
AcDbBlockReference
  2
_DOTBLANK
 10
6546.899306121606
 20
-13312.62468489087
 30
0.0
 41
10.0
 42
10.0
 43
10.0
 50
90.0
  0
MTEXT
  5
64AA7
330
64AA1
100
AcDbEntity
  8
SIZE
  6
CONTINUOUS
 62
     0
100
AcDbMText
 10
6504.899306121609
 20
-13402.62468489087
 30
0.0
 40
64.0
 41
0.0
 71
     5
 72
     1
  1
\A1;180
 11
0.0000000000000001
 21
1.0
 31
0.0
1001
ACAD
1000
MTEXTBEGIN
1070
    73
1070
     1
1070
    44
1040
1.0
1070
    74
1070
     0
1000
MTEXTEND
  0
POINT
  5
64AA8
330
64AA1
100
AcDbEntity
  8
DEFPOINTS
  6
CONTINUOUS
 62
     0
100
AcDbPoint
 10
6725.080874165873
 20
-13492.62468489087
 30
0.0
  0
POINT
  5
64AA9
330
64AA1
100
AcDbEntity
  8
DEFPOINTS
  6
CONTINUOUS
 62
     0
100
AcDbPoint
 10
7054.480874165874
 20
-13312.62468489087
 30
0.0
  0
POINT
  5
64AAA
330
64AA1
100
AcDbEntity
  8
DEFPOINTS
  6
CONTINUOUS
 62
     0
100
AcDbPoint
 10
6546.899306121606
 20
-13312.62468489087
 30
0.0
  0
ENDBLK
  5
64AAC
330
64AA1
100
AcDbEntity
  8
0
100
AcDbBlockEnd
  0
BLOCK
  5
64B83
330
64B79
100
AcDbEntity
  8
0
100
AcDbBlockBegin
  2
*D113
 70
     1
 10
0.0
 20
0.0
 30
0.0
  3
*D113
  1

  0
LINE
  5
64BC2
330
64B79
100
AcDbEntity
  8
SIZE
 62
     0
100
AcDbLine
 10
11809.86933105091
 20
-10872.319374921
 30
0.0
 11
11642.8984
 21
-10872.319374921
 31
0.0
  0
LINE
  5
64BC3
330
64B79
100
AcDbEntity
  8
SIZE
 62
     0
100
AcDbLine
 10
11852.4263
 20
-11172.319374921
 30
0.0
 11
11642.8984
 21
-11172.319374921
 31
0.0
  0
LINE
  5
64BC4
330
64B79
100
AcDbEntity
  8
SIZE
 62
     0
100
AcDbLine
 10
11672.8984
 20
-10882.319374921
 30
0.0
 11
11672.8984
 21
-11162.319374921
 31
0.0
  0
INSERT
  5
64BC5
330
64B79
100
AcDbEntity
  8
SIZE
 62
     0
100
AcDbBlockReference
  2
_DOTBLANK
 10
11672.8984
 20
-10872.319374921
 30
0.0
 41
10.0
 42
10.0
 43
10.0
 50
90.0
  0
INSERT
  5
64BC6
330
64B79
100
AcDbEntity
  8
SIZE
 62
     0
100
AcDbBlockReference
  2
_DOTBLANK
 10
11672.8984
 20
-11172.319374921
 30
0.0
 41
10.0
 42
10.0
 43
10.0
 50
270.0
  0
MTEXT
  5
64BC7
330
64B79
100
AcDbEntity
  8
SIZE
 62
     0
100
AcDbMText
 10
11630.8984
 20
-11022.31937492099
 30
0.0
 40
64.0
 41
0.0
 71
     5
 72
     1
  1
\A1;300
 11
0.0000000000000001
 21
1.0
 31
0.0
1001
ACAD
1000
MTEXTBEGIN
1070
    73
1070
     1
1070
    44
1040
1.0
1070
    74
1070
     0
1000
MTEXTEND
  0
POINT
  5
64BC8
330
64B79
100
AcDbEntity
  8
DEFPOINTS
 62
     0
100
AcDbPoint
 10
11829.86933105091
 20
-10872.319374921
 30
0.0
  0
POINT
  5
64BC9
330
64B79
100
AcDbEntity
  8
DEFPOINTS
 62
     0
100
AcDbPoint
 10
11872.4263
 20
-11172.319374921
 30
0.0
  0
POINT
  5
64BCA
330
64B79
100
AcDbEntity
  8
DEFPOINTS
 62
     0
100
AcDbPoint
 10
11672.8984
 20
-11172.319374921
 30
0.0
  0
ENDBLK
  5
64B84
330
64B79
100
AcDbEntity
  8
0
100
AcDbBlockEnd
  0
BLOCK
  5
64B92
330
64B88
100
AcDbEntity
  8
0
100
AcDbBlockBegin
  2
*D114
 70
     1
 10
0.0
 20
0.0
 30
0.0
  3
*D114
  1

  0
LINE
  5
64BA6
330
64B88
100
AcDbEntity
  8
SIZE
 62
     0
100
AcDbLine
 10
9728.1501
 20
-11172.319374921
 30
0.0
 11
10299.7563
 21
-11172.319374921
 31
0.0
  0
LINE
  5
64BA7
330
64B88
100
AcDbEntity
  8
SIZE
 62
     0
100
AcDbLine
 10
9531.232542703717
 20
-10872.319374921
 30
0.0
 11
10299.7563
 21
-10872.319374921
 31
0.0
  0
LINE
  5
64BA8
330
64B88
100
AcDbEntity
  8
SIZE
 62
     0
100
AcDbLine
 10
10269.75629999999
 20
-11162.319374921
 30
0.0
 11
10269.75629999999
 21
-10882.319374921
 31
0.0
  0
INSERT
  5
64BA9
330
64B88
100
AcDbEntity
  8
SIZE
 62
     0
100
AcDbBlockReference
  2
_DOTBLANK
 10
10269.75629999999
 20
-11172.319374921
 30
0.0
 41
10.0
 42
10.0
 43
10.0
 50
270.0
  0
INSERT
  5
64BAA
330
64B88
100
AcDbEntity
  8
SIZE
 62
     0
100
AcDbBlockReference
  2
_DOTBLANK
 10
10269.75629999999
 20
-10872.319374921
 30
0.0
 41
10.0
 42
10.0
 43
10.0
 50
90.0
  0
MTEXT
  5
64BAB
330
64B88
100
AcDbEntity
  8
SIZE
 62
     0
100
AcDbMText
 10
10227.7563
 20
-11022.319374921
 30
0.0
 40
64.0
 41
0.0
 71
     5
 72
     1
  1
\A1;300
 11
0.0000000000000001
 21
1.0
 31
0.0
1001
ACAD
1000
MTEXTBEGIN
1070
    73
1070
     1
1070
    44
1040
1.0
1070
    74
1070
     0
1000
MTEXTEND
  0
POINT
  5
64BAC
330
64B88
100
AcDbEntity
  8
DEFPOINTS
 62
     0
100
AcDbPoint
 10
9708.150100000001
 20
-11172.319374921
 30
0.0
  0
POINT
  5
64BAD
330
64B88
100
AcDbEntity
  8
DEFPOINTS
 62
     0
100
AcDbPoint
 10
9511.232542703716
 20
-10872.319374921
 30
0.0
  0
POINT
  5
64BAE
330
64B88
100
AcDbEntity
  8
DEFPOINTS
 62
     0
100
AcDbPoint
 10
10269.75629999999
 20
-10872.319374921
 30
0.0
  0
ENDBLK
  5
64B93
330
64B88
100
AcDbEntity
  8
0
100
AcDbBlockEnd
  0
BLOCK
  5
64BD8
330
64BCE
100
AcDbEntity
  8
0
100
AcDbBlockBegin
  2
*D115
 70
     1
 10
0.0
 20
0.0
 30
0.0
  3
*D115
  1

  0
LINE
  5
64BED
330
64BCE
100
AcDbEntity
  8
SIZE
 62
     0
100
AcDbLine
 10
3923.46033950718
 20
-10872.319374921
 30
0.0
 11
3362.414699999998
 21
-10872.319374921
 31
0.0
  0
LINE
  5
64BEE
330
64BCE
100
AcDbEntity
  8
SIZE
 62
     0
100
AcDbLine
 10
3723.4727
 20
-11172.319374921
 30
0.0
 11
3362.414699999998
 21
-11172.319374921
 31
0.0
  0
LINE
  5
64BEF
330
64BCE
100
AcDbEntity
  8
SIZE
 62
     0
100
AcDbLine
 10
3392.414699999998
 20
-10882.319374921
 30
0.0
 11
3392.414699999998
 21
-11162.319374921
 31
0.0
  0
INSERT
  5
64BF0
330
64BCE
100
AcDbEntity
  8
SIZE
 62
     0
100
AcDbBlockReference
  2
_DOTBLANK
 10
3392.414699999998
 20
-10872.319374921
 30
0.0
 41
10.0
 42
10.0
 43
10.0
 50
90.0
  0
INSERT
  5
64BF1
330
64BCE
100
AcDbEntity
  8
SIZE
 62
     0
100
AcDbBlockReference
  2
_DOTBLANK
 10
3392.414699999998
 20
-11172.319374921
 30
0.0
 41
10.0
 42
10.0
 43
10.0
 50
270.0
  0
MTEXT
  5
64BF2
330
64BCE
100
AcDbEntity
  8
SIZE
 62
     0
100
AcDbMText
 10
3350.4147
 20
-11022.319374921
 30
0.0
 40
64.0
 41
0.0
 71
     5
 72
     1
  1
\A1;300
 11
0.0000000000000001
 21
1.0
 31
0.0
1001
ACAD
1000
MTEXTBEGIN
1070
    73
1070
     1
1070
    44
1040
1.0
1070
    74
1070
     0
1000
MTEXTEND
  0
POINT
  5
64BF3
330
64BCE
100
AcDbEntity
  8
DEFPOINTS
 62
     0
100
AcDbPoint
 10
3943.460339507179
 20
-10872.319374921
 30
0.0
  0
POINT
  5
64BF4
330
64BCE
100
AcDbEntity
  8
DEFPOINTS
 62
     0
100
AcDbPoint
 10
3743.4727
 20
-11172.319374921
 30
0.0
  0
POINT
  5
64BF5
330
64BCE
100
AcDbEntity
  8
DEFPOINTS
 62
     0
100
AcDbPoint
 10
3392.414699999998
 20
-11172.319374921
 30
0.0
  0
ENDBLK
  5
64BD9
330
64BCE
100
AcDbEntity
  8
0
100
AcDbBlockEnd
  0
ENDSEC
  0
SECTION
  2
ENTITIES
  0
LINE
  5
47290
330
1E
100
AcDbEntity
  8
0
  6
CONTINOUS
100
AcDbLine
 10
475.0
 20
23.0
 30
0.0
 11
475.0
 21
945.0
 31
0.0
  0
LINE
  5
47297
330
1E
100
AcDbEntity
  8
0
100
AcDbLine
 10
112.0000000001527
 20
762.0
 30
0.0
 11
112.0000000001527
 21
184.0
 31
0.0
  0
LINE
  5
47298
330
1E
100
AcDbEntity
  8
0
100
AcDbLine
 10
122.0000000001528
 20
762.0
 30
0.0
 11
122.0000000001528
 21
184.0
 31
0.0
  0
LINE
  5
47299
330
1E
100
AcDbEntity
  8
0
100
AcDbLine
 10
-427.9999999998472
 20
762.0
 30
0.0
 11
-427.9999999998472
 21
184.0
 31
0.0
  0
LINE
  5
4729A
330
1E
100
AcDbEntity
  8
0
100
AcDbLine
 10
-417.9999999998472
 20
762.0
 30
0.0
 11
-417.9999999998472
 21
184.0
 31
0.0
  0
LINE
  5
4729B
330
1E
100
AcDbEntity
  8
BASIS
  6
DASHDOT
100
AcDbLine
 10
0.0
 20
985.8255614349982
 30
0.0
 11
0.0
 21
-80.0290897449995
 31
0.0
  0
LINE
  5
4729C
330
1E
100
AcDbEntity
  8
0
  6
CONTINOUS
100
AcDbLine
 10
-475.0
 20
23.0
 30
0.0
 11
-475.0
 21
945.0
 31
0.0
  0
LINE
  5
4729D
330
1E
100
AcDbEntity
  8
0
100
AcDbLine
 10
136.0000000001527
 20
752.5014468960144
 30
0.0
 11
136.0000000001527
 21
193.4985531035272
 31
0.0
  0
LINE
  5
4729E
330
1E
100
AcDbEntity
  8
0
100
AcDbLine
 10
-441.9999999998472
 20
193.4985531025959
 30
0.0
 11
-441.9999999998472
 21
752.5014468960144
 31
0.0
  0
LINE
  5
4729F
330
1E
100
AcDbEntity
  8
BASIS
  6
DASHDOT
100
AcDbLine
 10
-152.9999999998472
 20
1070.504274921
 30
0.0
 11
-152.9999999998472
 21
159.2021547495387
 31
0.0
  0
LINE
  5
472A0
330
1E
100
AcDbEntity
  8
0
100
AcDbLine
 10
-157.9999999998472
 20
762.0
 30
0.0
 11
-157.9999999998472
 21
184.0
 31
0.0
  0
LINE
  5
472A1
330
1E
100
AcDbEntity
  8
0
100
AcDbLine
 10
-147.9999999998472
 20
762.0
 30
0.0
 11
-147.9999999998472
 21
184.0
 31
0.0
  0
LINE
  5
472A2
330
1E
100
AcDbEntity
  8
0
100
AcDbLine
 10
-137.9999999998472
 20
762.0
 30
0.0
 11
-137.9999999998472
 21
184.0
 31
0.0
  0
LINE
  5
472A3
330
1E
100
AcDbEntity
  8
0
100
AcDbLine
 10
-127.9999999998472
 20
762.0
 30
0.0
 11
-127.9999999998472
 21
184.0
 31
0.0
  0
LINE
  5
472A4
330
1E
100
AcDbEntity
  8
0
100
AcDbLine
 10
-117.9999999998472
 20
762.0
 30
0.0
 11
-117.9999999998472
 21
184.0
 31
0.0
  0
LINE
  5
472A5
330
1E
100
AcDbEntity
  8
0
100
AcDbLine
 10
-107.9999999998472
 20
762.0
 30
0.0
 11
-107.9999999998472
 21
184.0
 31
0.0
  0
LINE
  5
472A6
330
1E
100
AcDbEntity
  8
0
100
AcDbLine
 10
-97.9999999998472
 20
762.0
 30
0.0
 11
-97.9999999998472
 21
184.0
 31
0.0
  0
LINE
  5
472A7
330
1E
100
AcDbEntity
  8
0
100
AcDbLine
 10
-87.9999999998472
 20
762.0
 30
0.0
 11
-87.9999999998472
 21
184.0
 31
0.0
  0
LINE
  5
472A8
330
1E
100
AcDbEntity
  8
0
100
AcDbLine
 10
-77.9999999998472
 20
762.0
 30
0.0
 11
-77.9999999998472
 21
184.0
 31
0.0
  0
LINE
  5
472A9
330
1E
100
AcDbEntity
  8
0
100
AcDbLine
 10
-67.9999999998472
 20
762.0
 30
0.0
 11
-67.9999999998472
 21
184.0
 31
0.0
  0
LINE
  5
472AA
330
1E
100
AcDbEntity
  8
0
100
AcDbLine
 10
-57.9999999998472
 20
762.0
 30
0.0
 11
-57.9999999998472
 21
184.0
 31
0.0
  0
LINE
  5
472AB
330
1E
100
AcDbEntity
  8
0
100
AcDbLine
 10
-47.9999999998472
 20
762.0
 30
0.0
 11
-47.9999999998472
 21
184.0
 31
0.0
  0
LINE
  5
472AC
330
1E
100
AcDbEntity
  8
0
100
AcDbLine
 10
-37.9999999998472
 20
762.0
 30
0.0
 11
-37.9999999998472
 21
184.0
 31
0.0
  0
LINE
  5
472AD
330
1E
100
AcDbEntity
  8
0
100
AcDbLine
 10
-27.9999999998472
 20
762.0
 30
0.0
 11
-27.9999999998472
 21
184.0
 31
0.0
  0
LINE
  5
472AE
330
1E
100
AcDbEntity
  8
0
100
AcDbLine
 10
-17.9999999998472
 20
762.0
 30
0.0
 11
-17.9999999998472
 21
184.0
 31
0.0
  0
LINE
  5
472AF
330
1E
100
AcDbEntity
  8
0
100
AcDbLine
 10
-7.999999999847204
 20
762.0
 30
0.0
 11
-7.999999999847204
 21
184.0
 31
0.0
  0
LINE
  5
472B0
330
1E
100
AcDbEntity
  8
0
100
AcDbLine
 10
2.000000000152795
 20
762.0
 30
0.0
 11
2.000000000152795
 21
184.0
 31
0.0
  0
LINE
  5
472B1
330
1E
100
AcDbEntity
  8
0
100
AcDbLine
 10
12.00000000015279
 20
762.0
 30
0.0
 11
12.00000000015279
 21
184.0
 31
0.0
  0
LINE
  5
472B2
330
1E
100
AcDbEntity
  8
0
100
AcDbLine
 10
22.00000000015279
 20
762.0
 30
0.0
 11
22.00000000015279
 21
184.0
 31
0.0
  0
LINE
  5
472B3
330
1E
100
AcDbEntity
  8
0
100
AcDbLine
 10
32.00000000015279
 20
762.0
 30
0.0
 11
32.00000000015279
 21
184.0
 31
0.0
  0
LINE
  5
472B4
330
1E
100
AcDbEntity
  8
0
100
AcDbLine
 10
42.00000000015279
 20
762.0
 30
0.0
 11
42.00000000015279
 21
184.0
 31
0.0
  0
LINE
  5
472B5
330
1E
100
AcDbEntity
  8
0
100
AcDbLine
 10
52.00000000015279
 20
762.0
 30
0.0
 11
52.00000000015279
 21
184.0
 31
0.0
  0
LINE
  5
472B6
330
1E
100
AcDbEntity
  8
0
100
AcDbLine
 10
62.00000000015279
 20
762.0
 30
0.0
 11
62.00000000015279
 21
184.0
 31
0.0
  0
LINE
  5
472B7
330
1E
100
AcDbEntity
  8
0
100
AcDbLine
 10
72.00000000015279
 20
762.0
 30
0.0
 11
72.00000000015279
 21
184.0
 31
0.0
  0
LINE
  5
472B8
330
1E
100
AcDbEntity
  8
0
100
AcDbLine
 10
82.00000000015279
 20
762.0
 30
0.0
 11
82.00000000015279
 21
184.0
 31
0.0
  0
LINE
  5
472B9
330
1E
100
AcDbEntity
  8
0
100
AcDbLine
 10
92.00000000015279
 20
762.0
 30
0.0
 11
92.00000000015279
 21
184.0
 31
0.0
  0
LINE
  5
472BA
330
1E
100
AcDbEntity
  8
0
100
AcDbLine
 10
102.0000000001527
 20
762.0
 30
0.0
 11
102.0000000001527
 21
184.0
 31
0.0
  0
LINE
  5
472BB
330
1E
100
AcDbEntity
  8
0
100
AcDbLine
 10
-327.9999999998472
 20
762.0
 30
0.0
 11
-327.9999999998472
 21
184.0
 31
0.0
  0
LINE
  5
472BC
330
1E
100
AcDbEntity
  8
0
100
AcDbLine
 10
-407.9999999998472
 20
762.0
 30
0.0
 11
-407.9999999998472
 21
184.0
 31
0.0
  0
LINE
  5
472BD
330
1E
100
AcDbEntity
  8
0
100
AcDbLine
 10
-397.9999999998472
 20
762.0
 30
0.0
 11
-397.9999999998472
 21
184.0
 31
0.0
  0
LINE
  5
472BE
330
1E
100
AcDbEntity
  8
0
100
AcDbLine
 10
-387.9999999998472
 20
762.0
 30
0.0
 11
-387.9999999998472
 21
184.0
 31
0.0
  0
LINE
  5
472BF
330
1E
100
AcDbEntity
  8
0
100
AcDbLine
 10
-377.9999999998472
 20
762.0
 30
0.0
 11
-377.9999999998472
 21
184.0
 31
0.0
  0
LINE
  5
472C0
330
1E
100
AcDbEntity
  8
0
100
AcDbLine
 10
-367.9999999998472
 20
762.0
 30
0.0
 11
-367.9999999998472
 21
184.0
 31
0.0
  0
LINE
  5
472C1
330
1E
100
AcDbEntity
  8
0
100
AcDbLine
 10
-357.9999999998471
 20
762.0
 30
0.0
 11
-357.9999999998471
 21
184.0
 31
0.0
  0
LINE
  5
472C2
330
1E
100
AcDbEntity
  8
0
100
AcDbLine
 10
-347.9999999998472
 20
762.0
 30
0.0
 11
-347.9999999998472
 21
184.0
 31
0.0
  0
LINE
  5
472C3
330
1E
100
AcDbEntity
  8
0
100
AcDbLine
 10
-337.9999999998472
 20
762.0
 30
0.0
 11
-337.9999999998472
 21
184.0
 31
0.0
  0
LINE
  5
472C4
330
1E
100
AcDbEntity
  8
0
100
AcDbLine
 10
-317.9999999998472
 20
762.0
 30
0.0
 11
-317.9999999998472
 21
184.0
 31
0.0
  0
LINE
  5
472C5
330
1E
100
AcDbEntity
  8
0
100
AcDbLine
 10
-307.9999999998471
 20
762.0
 30
0.0
 11
-307.9999999998471
 21
184.0
 31
0.0
  0
LINE
  5
472C6
330
1E
100
AcDbEntity
  8
0
100
AcDbLine
 10
-237.9999999998472
 20
762.0
 30
0.0
 11
-237.9999999998472
 21
184.0
 31
0.0
  0
LINE
  5
472C7
330
1E
100
AcDbEntity
  8
0
100
AcDbLine
 10
-227.9999999998472
 20
762.0
 30
0.0
 11
-227.9999999998472
 21
184.0
 31
0.0
  0
LINE
  5
472C8
330
1E
100
AcDbEntity
  8
0
100
AcDbLine
 10
-217.9999999998472
 20
762.0
 30
0.0
 11
-217.9999999998472
 21
184.0
 31
0.0
  0
LINE
  5
472C9
330
1E
100
AcDbEntity
  8
0
100
AcDbLine
 10
-207.9999999998471
 20
762.0
 30
0.0
 11
-207.9999999998471
 21
184.0
 31
0.0
  0
LINE
  5
472CA
330
1E
100
AcDbEntity
  8
0
100
AcDbLine
 10
-197.9999999998472
 20
762.0
 30
0.0
 11
-197.9999999998472
 21
184.0
 31
0.0
  0
LINE
  5
472CB
330
1E
100
AcDbEntity
  8
0
100
AcDbLine
 10
-187.9999999998472
 20
762.0
 30
0.0
 11
-187.9999999998472
 21
184.0
 31
0.0
  0
LINE
  5
472CC
330
1E
100
AcDbEntity
  8
0
100
AcDbLine
 10
-177.9999999998472
 20
762.0
 30
0.0
 11
-177.9999999998472
 21
184.0
 31
0.0
  0
LINE
  5
472CD
330
1E
100
AcDbEntity
  8
0
100
AcDbLine
 10
-167.9999999998472
 20
762.0
 30
0.0
 11
-167.9999999998472
 21
184.0
 31
0.0
  0
LINE
  5
472CE
330
1E
100
AcDbEntity
  8
0
100
AcDbLine
 10
-297.9999999998472
 20
762.0
 30
0.0
 11
-297.9999999998472
 21
184.0
 31
0.0
  0
LINE
  5
472CF
330
1E
100
AcDbEntity
  8
0
100
AcDbLine
 10
-287.9999999998472
 20
762.0
 30
0.0
 11
-287.9999999998472
 21
184.0
 31
0.0
  0
LINE
  5
472D0
330
1E
100
AcDbEntity
  8
0
100
AcDbLine
 10
-277.9999999998472
 20
762.0
 30
0.0
 11
-277.9999999998472
 21
184.0
 31
0.0
  0
LINE
  5
472D1
330
1E
100
AcDbEntity
  8
0
100
AcDbLine
 10
-267.9999999998472
 20
762.0
 30
0.0
 11
-267.9999999998472
 21
184.0
 31
0.0
  0
LINE
  5
472D2
330
1E
100
AcDbEntity
  8
0
100
AcDbLine
 10
-257.9999999998471
 20
762.0
 30
0.0
 11
-257.9999999998471
 21
184.0
 31
0.0
  0
LINE
  5
472D3
330
1E
100
AcDbEntity
  8
0
100
AcDbLine
 10
-247.9999999998472
 20
762.0
 30
0.0
 11
-247.9999999998472
 21
184.0
 31
0.0
  0
LINE
  5
472D4
330
1E
100
AcDbEntity
  8
0
100
AcDbLine
 10
-157.9999999998472
 20
762.0
 30
0.0
 11
-157.9999999998472
 21
184.0
 31
0.0
  0
LINE
  5
47355
330
1E
100
AcDbEntity
  8
0
100
AcDbLine
 10
126.5014468961671
 20
184.0
 30
0.0
 11
-432.5014468963172
 21
184.0
 31
0.0
  0
LINE
  5
47357
330
1E
100
AcDbEntity
  8
0
  6
CONTINUOUS
100
AcDbLine
 10
475.0
 20
23.0
 30
0.0
 11
-475.0
 21
23.0
 31
0.0
  0
ARC
  5
47361
330
1E
100
AcDbEntity
  8
0
100
AcDbCircle
 10
-432.4999999998472
 20
193.5
 30
0.0
 40
9.500000110184636
100
AcDbArc
 50
180.0087264246409
 51
269.991273575333
  0
CIRCLE
  5
47390
330
1E
100
AcDbEntity
  8
ARRANGE
  6
CONTINUOUS
100
AcDbCircle
 10
0.0
 20
0.0
 30
0.0
 40
40.0
  0
POINT
  5
47391
330
1E
100
AcDbEntity
  8
ARRANGE
  6
CONTINUOUS
100
AcDbPoint
 10
0.0
 20
0.0
 30
0.0
  0
LINE
  5
47392
330
1E
100
AcDbEntity
  8
0
  6
CONTINOUS
100
AcDbLine
 10
-284.0
 20
23.0
 30
0.0
 11
-284.0
 21
0.0
 31
0.0
  0
LINE
  5
47393
330
1E
100
AcDbEntity
  8
0
  6
CONTINOUS
100
AcDbLine
 10
-316.0
 20
23.0
 30
0.0
 11
-316.0
 21
0.0
 31
0.0
  0
LINE
  5
47395
330
1E
100
AcDbEntity
  8
BASIS
  6
DASHDOT
100
AcDbLine
 10
-300.0
 20
20.0
 30
0.0
 11
-300.0
 21
-20.0
 31
0.0
  0
LINE
  5
47397
330
1E
100
AcDbEntity
  8
BASIS
  6
DASHDOT
100
AcDbLine
 10
-320.0
 20
0.0
 30
0.0
 11
-280.0
 21
0.0
 31
0.0
  0
LINE
  5
47398
330
1E
100
AcDbEntity
  8
0
  6
CONTINOUS
100
AcDbLine
 10
-316.0
 20
0.0
 30
0.0
 11
-284.0
 21
0.0
 31
0.0
  0
LINE
  5
47399
330
1E
100
AcDbEntity
  8
0
  6
CONTINOUS
100
AcDbLine
 10
316.0
 20
23.0
 30
0.0
 11
316.0
 21
0.0
 31
0.0
  0
LINE
  5
4739A
330
1E
100
AcDbEntity
  8
0
  6
CONTINOUS
100
AcDbLine
 10
284.0
 20
23.0
 30
0.0
 11
284.0
 21
0.0
 31
0.0
  0
LINE
  5
4739C
330
1E
100
AcDbEntity
  8
BASIS
  6
DASHDOT
100
AcDbLine
 10
280.0
 20
0.0
 30
0.0
 11
320.0
 21
0.0
 31
0.0
  0
LINE
  5
4739D
330
1E
100
AcDbEntity
  8
0
  6
CONTINOUS
100
AcDbLine
 10
284.0
 20
0.0
 30
0.0
 11
316.0
 21
0.0
 31
0.0
  0
LINE
  5
4739E
330
1E
100
AcDbEntity
  8
BASIS
  6
DASHDOT
100
AcDbLine
 10
300.0
 20
20.0
 30
0.0
 11
300.0
 21
-20.0
 31
0.0
  0
ARC
  5
4739F
330
1E
100
AcDbEntity
  8
0
100
AcDbCircle
 10
126.5000000001528
 20
193.5
 30
0.0
 40
9.500000110184636
100
AcDbArc
 50
270.0087264246669
 51
359.9912735753591
  0
LINE
  5
473D0
330
1E
100
AcDbEntity
  8
0
100
AcDbLine
 10
-404.2916724103633
 20
815.8838760574798
 30
0.0
 11
-313.2395638736052
 21
815.8838760574798
 31
0.0
  0
LINE
  5
473D1
330
1E
100
AcDbEntity
  8
0
100
AcDbLine
 10
-404.2916724103633
 20
775.3611475708749
 30
0.0
 11
-313.2395638736052
 21
775.3611475708749
 31
0.0
  0
LINE
  5
473D2
330
1E
100
AcDbEntity
  8
BASIS
  6
DASHDOT
100
AcDbLine
 10
-466.7978452498482
 20
472.999999999538
 30
0.0
 11
160.797845250152
 21
472.999999999538
 31
0.0
  0
LINE
  5
473D3
330
1E
100
AcDbEntity
  8
0
100
AcDbLine
 10
-432.5014468906156
 20
762.0
 30
0.0
 11
126.5014468961671
 21
762.0
 31
0.0
  0
LINE
  5
473DC
330
1E
100
AcDbEntity
  8
0
100
AcDbLine
 10
-410.2916724103634
 20
781.3611475708748
 30
0.0
 11
-410.2916724103634
 21
809.88387605748
 31
0.0
  0
ARC
  5
473DD
330
1E
100
AcDbEntity
  8
0
100
AcDbCircle
 10
-404.2916724103633
 20
781.3611475708748
 30
0.0
 40
6.0
100
AcDbArc
 50
180.0
 51
270.0
  0
ARC
  5
473DE
330
1E
100
AcDbEntity
  8
0
100
AcDbCircle
 10
-432.4999999998472
 20
752.5
 30
0.0
 40
9.500000110184862
100
AcDbArc
 50
90.00872642466694
 51
179.9912735753591
  0
ARC
  5
473DF
330
1E
100
AcDbEntity
  8
0
100
AcDbCircle
 10
-404.2916724103633
 20
809.88387605748
 30
0.0
 40
6.0
100
AcDbArc
 50
90.0
 51
180.0
  0
LINE
  5
473E4
330
1E
100
AcDbEntity
  8
0
100
AcDbLine
 10
350.5144920862294
 20
557.5504410205176
 30
0.0
 11
441.5666006229876
 21
557.5504410205176
 31
0.0
  0
LINE
  5
473E5
330
1E
100
AcDbEntity
  8
0
100
AcDbLine
 10
350.5144920862294
 20
598.0731695071226
 30
0.0
 11
441.5666006229876
 21
598.0731695071226
 31
0.0
  0
LINE
  5
473E8
330
1E
100
AcDbEntity
  8
0
100
AcDbLine
 10
-307.2395638736052
 20
781.3611475708748
 30
0.0
 11
-307.2395638736052
 21
809.88387605748
 31
0.0
  0
ARC
  5
473E9
330
1E
100
AcDbEntity
  8
0
100
AcDbCircle
 10
-313.2395638736052
 20
781.3611475708748
 30
0.0
 40
6.0
100
AcDbArc
 50
270.0
 51
0.0
  0
ARC
  5
473ED
330
1E
100
AcDbEntity
  8
0
100
AcDbCircle
 10
126.5014468961671
 20
752.5014468960144
 30
0.0
 40
9.498553103985779
100
AcDbArc
 50
0.0
 51
90.0
  0
ARC
  5
473F1
330
1E
100
AcDbEntity
  8
0
100
AcDbCircle
 10
350.5144920862294
 20
592.0731695071226
 30
0.0
 40
6.0
100
AcDbArc
 50
90.0
 51
180.0
  0
ARC
  5
473F2
330
1E
100
AcDbEntity
  8
0
100
AcDbCircle
 10
350.5144920862294
 20
563.5504410205176
 30
0.0
 40
6.0
100
AcDbArc
 50
180.0
 51
270.0
  0
LINE
  5
473F3
330
1E
100
AcDbEntity
  8
0
100
AcDbLine
 10
344.5144920862294
 20
563.5504410205176
 30
0.0
 11
344.5144920862294
 21
592.0731695071226
 31
0.0
  0
ARC
  5
473F4
330
1E
100
AcDbEntity
  8
0
100
AcDbCircle
 10
-313.2395638736052
 20
809.88387605748
 30
0.0
 40
6.0
100
AcDbArc
 50
0.0
 51
90.0
  0
ARC
  5
473FB
330
1E
100
AcDbEntity
  8
0
100
AcDbCircle
 10
441.5666006229876
 20
592.0731695071226
 30
0.0
 40
6.0
100
AcDbArc
 50
0.0
 51
90.0
  0
ARC
  5
473FC
330
1E
100
AcDbEntity
  8
0
100
AcDbCircle
 10
441.5666006229876
 20
563.5504410205176
 30
0.0
 40
6.0
100
AcDbArc
 50
270.0
 51
0.0
  0
LINE
  5
473FD
330
1E
100
AcDbEntity
  8
0
100
AcDbLine
 10
447.5666006229876
 20
563.5504410205176
 30
0.0
 11
447.5666006229876
 21
592.0731695071226
 31
0.0
  0
TEXT
  5
474B1
330
1E
100
AcDbEntity
  8
ETC
  6
CONTINUOUS
100
AcDbText
 10
714.7518168305223
 20
1720.46527598447
 30
0.0
 40
64.0
  1
SPAC5322
 41
0.9
100
AcDbText
  0
TEXT
  5
474C1
330
1E
100
AcDbEntity
  8
ETC
  6
CONTINUOUS
100
AcDbText
 10
726.5745608305232
 20
1841.490314266886
 30
0.0
 40
64.0
  1
PAC別売
 41
0.9
100
AcDbText
  0
LINE
  5
58ABF
330
1E
100
AcDbEntity
  8
DETAIL
  6
CONTINUOUS
100
AcDbLine
 10
-302.0
 20
945.0
 30
0.0
 11
-4.200000000000727
 21
945.0
 31
0.0
  0
LINE
  5
58AC0
330
1E
100
AcDbEntity
  8
DETAIL
  6
CONTINUOUS
100
AcDbLine
 10
-302.0
 20
945.0
 30
0.0
 11
-4.200000000000727
 21
945.0
 31
0.0
  0
LINE
  5
58AC1
330
1E
100
AcDbEntity
  8
DETAIL
  6
CONTINUOUS
100
AcDbLine
 10
-304.6000000000058
 20
946.0
 30
0.0
 11
-1.60000000000582
 21
946.0
 31
0.0
  0
LINE
  5
58AC2
330
1E
100
AcDbEntity
  8
DETAIL
  6
CONTINUOUS
100
AcDbLine
 10
-13.12395816449497
 20
1036.0
 30
0.0
 11
-293.0760418355057
 21
1036.0
 31
0.0
  0
LINE
  5
58AC5
330
1E
100
AcDbEntity
  8
DETAIL
  6
CONTINUOUS
100
AcDbLine
 10
-301.2369686927923
 20
967.0
 30
0.0
 11
-5.140913106490188
 21
967.0
 31
0.0
  0
LINE
  5
58ACC
330
1E
100
AcDbEntity
  8
DETAIL
  6
CONTINUOUS
100
AcDbLine
 10
-295.0723114323482
 20
1034.122097079069
 30
0.0
 11
-299.062817296668
 21
968.8779029209291
 31
0.0
  0
LINE
  5
58ACE
330
1E
100
AcDbEntity
  8
DETAIL
  6
CONTINUOUS
100
AcDbLine
 10
-302.2351034912135
 20
966.0610485395336
 30
0.0
 11
-304.6000000000058
 21
946.0
 31
0.0
  0
LINE
  5
58AD5
330
1E
100
AcDbEntity
  8
BASIS
  6
DASHDOT
100
AcDbLine
 10
-292.0
 20
937.0
 30
0.0
 11
-292.0
 21
950.6002587492949
 31
0.0
  0
LINE
  5
58AD6
330
1E
100
AcDbEntity
  8
DETAIL
  6
CONTINUOUS
100
AcDbLine
 10
-294.0
 20
945.0
 30
0.0
 11
-294.0
 21
946.0
 31
0.0
  0
LINE
  5
58AD7
330
1E
100
AcDbEntity
  8
DETAIL
  6
CONTINUOUS
100
AcDbLine
 10
-294.7071067811884
 20
945.0
 30
0.0
 11
-294.7071067811884
 21
946.0
 31
0.0
  0
LINE
  5
58ADC
330
1E
100
AcDbEntity
  8
DETAIL
  6
CONTINUOUS
100
AcDbLine
 10
-302.0
 20
945.0
 30
0.0
 11
-302.0
 21
946.0
 31
0.0
  0
LINE
  5
58ADD
330
1E
100
AcDbEntity
  8
DETAIL
  6
CONTINUOUS
100
AcDbLine
 10
-294.0
 20
945.0
 30
0.0
 11
-294.0
 21
946.0
 31
0.0
  0
LINE
  5
58ADE
330
1E
100
AcDbEntity
  8
DETAIL
  6
CONTINUOUS
100
AcDbLine
 10
-294.7071067811884
 20
945.0
 30
0.0
 11
-294.7071067811884
 21
946.0
 31
0.0
  0
LINE
  5
58AE3
330
1E
100
AcDbEntity
  8
DETAIL
  6
CONTINUOUS
100
AcDbLine
 10
-302.0
 20
945.0
 30
0.0
 11
-302.0
 21
946.0
 31
0.0
  0
ARC
  5
58AE4
330
1E
100
AcDbEntity
  8
DETAIL
  6
CONTINUOUS
100
AcDbCircle
 10
-301.2369686927923
 20
966.0
 30
0.0
 40
1.0
100
AcDbArc
 50
90.0
 51
176.4999999999623
  0
ARC
  5
58AE5
330
1E
100
AcDbEntity
  8
DETAIL
  6
CONTINUOUS
100
AcDbCircle
 10
-301.0590868935105
 20
969.0
 30
0.0
 40
2.0
100
AcDbArc
 50
270.0
 51
356.4999999999623
  0
LINE
  5
58AE8
330
1E
100
AcDbEntity
  8
DETAIL
  6
CONTINUOUS
100
AcDbLine
 10
-301.0590868935105
 20
967.0
 30
0.0
 11
-301.2369686927923
 21
967.0
 31
0.0
  0
LINE
  5
58AEF
330
1E
100
AcDbEntity
  8
BASIS
  6
DASHDOT
100
AcDbLine
 10
-265.1000000000022
 20
937.0
 30
0.0
 11
-265.0999999999985
 21
949.1691587492951
 31
0.0
  0
ARC
  5
58BC5
330
1E
100
AcDbEntity
  8
DETAIL
  6
CONTINUOUS
100
AcDbCircle
 10
-293.0760418355057
 20
1034.0
 30
0.0
 40
2.0
100
AcDbArc
 50
90.0
 51
176.4999999999623
  0
LINE
  5
58BC6
330
1E
100
AcDbEntity
  8
DETAIL
  6
CONTINUOUS
100
AcDbLine
 10
-7.137182703332655
 20
968.8779029209291
 30
0.0
 11
-11.12768856765251
 21
1034.122097079069
 31
0.0
  0
LINE
  5
58BC7
330
1E
100
AcDbEntity
  8
DETAIL
  6
CONTINUOUS
100
AcDbLine
 10
-3.964896508783567
 20
966.0610485395336
 30
0.0
 11
-1.60000000000582
 21
946.0
 31
0.0
  0
LINE
  5
58BD1
330
1E
100
AcDbEntity
  8
BASIS
  6
DASHDOT
100
AcDbLine
 10
-41.09999999999854
 20
937.0
 30
0.0
 11
-41.09999999999854
 21
954.1403587492951
 31
0.0
  0
LINE
  5
58BD8
330
1E
100
AcDbEntity
  8
BASIS
  6
DASHDOT
100
AcDbLine
 10
-14.20000000000072
 20
937.0
 30
0.0
 11
-14.20000000000072
 21
953.8132587492945
 31
0.0
  0
LINE
  5
58BE0
330
1E
100
AcDbEntity
  8
DETAIL
  6
CONTINUOUS
100
AcDbLine
 10
-4.200000000000727
 20
945.0
 30
0.0
 11
-4.200000000000727
 21
946.0
 31
0.0
  0
LINE
  5
58BE1
330
1E
100
AcDbEntity
  8
DETAIL
  6
CONTINUOUS
100
AcDbLine
 10
-12.20000000000072
 20
945.0
 30
0.0
 11
-11.49289321881224
 21
945.0
 31
0.0
  0
LINE
  5
58BE2
330
1E
100
AcDbEntity
  8
DETAIL
  6
CONTINUOUS
100
AcDbLine
 10
-12.20000000000072
 20
945.0
 30
0.0
 11
-12.20000000000072
 21
946.0
 31
0.0
  0
LINE
  5
58BE3
330
1E
100
AcDbEntity
  8
DETAIL
  6
CONTINUOUS
100
AcDbLine
 10
-11.49289321881224
 20
945.0
 30
0.0
 11
-11.49289321881224
 21
946.0
 31
0.0
  0
LINE
  5
58BEB
330
1E
100
AcDbEntity
  8
DETAIL
  6
CONTINUOUS
100
AcDbLine
 10
-4.200000000000727
 20
945.0
 30
0.0
 11
-4.200000000000727
 21
946.0
 31
0.0
  0
LINE
  5
58BEC
330
1E
100
AcDbEntity
  8
DETAIL
  6
CONTINUOUS
100
AcDbLine
 10
-12.20000000000072
 20
945.0
 30
0.0
 11
-11.49289321881224
 21
945.0
 31
0.0
  0
LINE
  5
58BED
330
1E
100
AcDbEntity
  8
DETAIL
  6
CONTINUOUS
100
AcDbLine
 10
-12.20000000000072
 20
945.0
 30
0.0
 11
-12.20000000000072
 21
946.0
 31
0.0
  0
LINE
  5
58BEE
330
1E
100
AcDbEntity
  8
DETAIL
  6
CONTINUOUS
100
AcDbLine
 10
-11.49289321881224
 20
945.0
 30
0.0
 11
-11.49289321881224
 21
946.0
 31
0.0
  0
ARC
  5
58BEF
330
1E
100
AcDbEntity
  8
DETAIL
  6
CONTINUOUS
100
AcDbCircle
 10
-4.963031307204801
 20
966.0
 30
0.0
 40
1.000000000000051
100
AcDbArc
 50
3.50000000003769
 51
90.0
  0
ARC
  5
58BF0
330
1E
100
AcDbEntity
  8
DETAIL
  6
CONTINUOUS
100
AcDbCircle
 10
-5.140913106490188
 20
969.0
 30
0.0
 40
2.000000000000316
100
AcDbArc
 50
183.5000000000376
 51
270.0
  0
LINE
  5
58BF3
330
1E
100
AcDbEntity
  8
DETAIL
  6
CONTINUOUS
100
AcDbLine
 10
-4.963031307204801
 20
967.0
 30
0.0
 11
-5.140913106490188
 21
967.0
 31
0.0
  0
ARC
  5
58C8B
330
1E
100
AcDbEntity
  8
DETAIL
  6
CONTINUOUS
100
AcDbCircle
 10
-13.12395816449497
 20
1034.0
 30
0.0
 40
1.999999999999195
100
AcDbArc
 50
3.50000000003769
 51
90.0
  0
LINE
  5
58F56
330
1E
100
AcDbEntity
  8
BASIS
  6
DOT_CENTER
100
AcDbLine
 10
-253.5999999997584
 20
994.9280750789002
 30
0.0
 11
-253.5999999997584
 21
967.3280750790981
 31
0.0
  0
LINE
  5
590EE
330
1E
100
AcDbEntity
  8
BASIS
  6
DOT_CENTER
100
AcDbLine
 10
-267.3999999996595
 20
981.1280750789991
 30
0.0
 11
-239.7999999998574
 21
981.1280750789991
 31
0.0
  0
LINE
  5
59184
330
1E
100
AcDbEntity
  8
NOTE
100
AcDbLine
 10
-444.0386271991783
 20
1475.054374920999
 30
0.0
 11
-1925.207376803538
 21
1475.054374920999
 31
0.0
  0
TEXT
  5
59185
330
1E
100
AcDbEntity
  8
NOTE
100
AcDbText
 10
-1811.298237847721
 20
1379.458380327742
 30
0.0
 40
64.0
  1
軟質ホースまたは硬質塩ビ管VP-13接続
 41
0.9
100
AcDbText
  0
TEXT
  5
59186
330
1E
100
AcDbEntity
  8
NOTE
100
AcDbText
 10
-1313.045158217374
 20
1498.125940444224
 30
0.0
 40
64.0
  1
CW(給水口)
 41
0.9
100
AcDbText
  0
LINE
  5
59187
330
1E
100
AcDbEntity
  8
NOTE
100
AcDbLine
 10
-253.6383655520785
 20
981.1352325691441
 30
0.0
 11
-444.0386271991783
 21
1475.054374920999
 31
0.0
  0
LINE
  5
59188
330
1E
100
AcDbEntity
  8
NOTE
100
AcDbLine
 10
-253.6383655520785
 20
981.1352325691441
 30
0.0
 11
-258.0529446546888
 21
1020.8908780791
 31
0.0
  0
LINE
  5
59189
330
1E
100
AcDbEntity
  8
NOTE
100
AcDbLine
 10
-277.3393277858249
 20
1013.357341863384
 30
0.0
 11
-253.6383655520785
 21
981.1352325691441
 31
0.0
  0
TEXT
  5
591E5
330
1E
100
AcDbEntity
  8
NOTE
100
AcDbText
 10
-1367.044527508333
 20
1038.151299839295
 30
0.0
 40
50.0
  1
(天面パネル穴あけ)
 41
0.9
100
AcDbText
  0
TEXT
  5
591E6
330
1E
100
AcDbEntity
  8
NOTE
100
AcDbText
 10
-1575.354847301688
 20
1147.279816026583
 30
0.0
 40
64.0
  1
AH 4-%%C3.6±0.05ヌキ穴
 41
0.9
100
AcDbText
  0
LINE
  5
591E7
330
1E
100
AcDbEntity
  8
NOTE
100
AcDbLine
 10
-576.8818710203513
 20
1113.930686494577
 30
0.0
 11
-1596.109436937989
 21
1113.930686494577
 31
0.0
  0
LINE
  5
591EC
330
1E
100
AcDbEntity
  8
NOTE
100
AcDbLine
 10
-292.0
 20
945.0
 30
0.0
 11
-320.0155545506258
 21
973.5504564199546
 31
0.0
  0
LINE
  5
591ED
330
1E
100
AcDbEntity
  8
NOTE
100
AcDbLine
 10
-292.0
 20
945.0
 30
0.0
 11
-576.8818710203513
 21
1113.930686494577
 31
0.0
  0
LINE
  5
591EE
330
1E
100
AcDbEntity
  8
NOTE
100
AcDbLine
 10
-330.5374115228532
 20
955.7176420584928
 30
0.0
 11
-292.0
 21
945.0
 31
0.0
  0
CIRCLE
  5
591EF
330
1E
100
AcDbEntity
  8
FIX
100
AcDbCircle
 10
-292.0
 20
945.1000000014428
 30
0.0
 40
5.0
  0
CIRCLE
  5
591F0
330
1E
100
AcDbEntity
  8
FIX
100
AcDbCircle
 10
-265.0999999999994
 20
945.1000000014428
 30
0.0
 40
5.0
  0
CIRCLE
  5
591F1
330
1E
100
AcDbEntity
  8
FIX
100
AcDbCircle
 10
-41.09999999999854
 20
945.1000000014428
 30
0.0
 40
5.0
  0
CIRCLE
  5
591F2
330
1E
100
AcDbEntity
  8
FIX
100
AcDbCircle
 10
-14.20000000000072
 20
945.0
 30
0.0
 40
5.0
  0
LINE
  5
591F6
330
1E
100
AcDbEntity
  8
NOTE
100
AcDbLine
 10
-292.0
 20
925.1000000000002
 30
0.0
 11
-292.0
 21
965.1000000000003
 31
0.0
  0
LINE
  5
591F7
330
1E
100
AcDbEntity
  8
NOTE
100
AcDbLine
 10
-312.0
 20
945.0
 30
0.0
 11
-272.0
 21
945.0
 31
0.0
  0
LINE
  5
591F8
330
1E
100
AcDbEntity
  8
NOTE
100
AcDbLine
 10
-265.0999999999994
 20
925.1000000000002
 30
0.0
 11
-265.0999999999994
 21
965.1000000000003
 31
0.0
  0
LINE
  5
591F9
330
1E
100
AcDbEntity
  8
NOTE
100
AcDbLine
 10
-285.0999999999994
 20
945.0
 30
0.0
 11
-245.0999999999994
 21
945.0
 31
0.0
  0
LINE
  5
591FA
330
1E
100
AcDbEntity
  8
NOTE
100
AcDbLine
 10
-41.09999999999854
 20
925.1000000000002
 30
0.0
 11
-41.09999999999854
 21
965.1000000000003
 31
0.0
  0
LINE
  5
591FB
330
1E
100
AcDbEntity
  8
NOTE
100
AcDbLine
 10
-61.09999999999854
 20
945.0
 30
0.0
 11
-21.09999999999854
 21
945.0
 31
0.0
  0
LINE
  5
591FC
330
1E
100
AcDbEntity
  8
NOTE
100
AcDbLine
 10
-14.20000000000072
 20
925.1000000000002
 30
0.0
 11
-14.20000000000072
 21
965.1000000000003
 31
0.0
  0
LINE
  5
591FD
330
1E
100
AcDbEntity
  8
NOTE
100
AcDbLine
 10
-34.20000000000072
 20
945.0
 30
0.0
 11
5.799999999999272
 21
945.0
 31
0.0
  0
LINE
  5
591FF
330
1E
100
AcDbEntity
  8
NOTE
100
AcDbLine
 10
-225.1870809377351
 20
942.3620405414949
 30
0.0
 11
-265.0999999999985
 21
945.0
 31
0.0
  0
LINE
  5
59200
330
1E
100
AcDbEntity
  8
NOTE
100
AcDbLine
 10
-265.0999999999985
 20
945.0
 30
0.0
 11
91.7040103219324
 21
821.887641413552
 31
0.0
  0
LINE
  5
59201
330
1E
100
AcDbEntity
  8
NOTE
100
AcDbLine
 10
-265.0999999999985
 20
945.0
 30
0.0
 11
-231.8533795646299
 21
922.7589998382899
 31
0.0
  0
LINE
  5
59202
330
1E
100
AcDbEntity
  8
NOTE
100
AcDbLine
 10
-5.677584487655622
 20
926.4190307721436
 30
0.0
 11
-41.10000000000036
 21
945.0
 31
0.0
  0
LINE
  5
59203
330
1E
100
AcDbEntity
  8
NOTE
100
AcDbLine
 10
-41.10000000000036
 20
945.0
 30
0.0
 11
91.7040103219324
 21
821.887641413552
 31
0.0
  0
LINE
  5
59204
330
1E
100
AcDbEntity
  8
NOTE
100
AcDbLine
 10
-41.10000000000036
 20
945.0
 30
0.0
 11
-19.7137747489287
 21
911.1972008839929
 31
0.0
  0
LINE
  5
59205
330
1E
100
AcDbEntity
  8
NOTE
100
AcDbLine
 10
19.06426055850351
 20
922.7853897699842
 30
0.0
 11
-14.20000000000072
 21
945.0
 31
0.0
  0
LINE
  5
59206
330
1E
100
AcDbEntity
  8
NOTE
100
AcDbLine
 10
-14.20000000000072
 20
945.0
 30
0.0
 11
91.7040103219324
 21
821.887641413552
 31
0.0
  0
LINE
  5
59207
330
1E
100
AcDbEntity
  8
NOTE
100
AcDbLine
 10
-14.20000000000072
 20
945.0
 30
0.0
 11
3.50038774683162
 21
909.129453138008
 31
0.0
  0
LINE
  5
59208
330
1E
100
AcDbEntity
  8
NOTE
100
AcDbLine
 10
218.5095000519613
 20
821.887641413552
 30
0.0
 11
91.7040103219324
 21
821.887641413552
 31
0.0
  0
TEXT
  5
59209
330
1E
100
AcDbEntity
  8
NOTE
100
AcDbText
 10
107.5915086708791
 20
841.3875599172733
 30
0.0
 40
64.0
  1
AH
 41
0.9
100
AcDbText
  0
LINE
  5
5B7A2
330
1E
100
AcDbEntity
  8
NOTE
100
AcDbLine
 10
-253.5999999997575
 20
961.1280750789992
 30
0.0
 11
-253.5999999997575
 21
1001.128075078999
 31
0.0
  0
LINE
  5
5B7A3
330
1E
100
AcDbEntity
  8
NOTE
100
AcDbLine
 10
-233.5999999997575
 20
981.1280750789991
 30
0.0
 11
-273.5999999997593
 21
981.1280750789991
 31
0.0
  0
TEXT
  5
5F8FA
330
1E
100
AcDbEntity
  8
NOTE
100
AcDbText
 10
309.2200435505446
 20
1649.083463057428
 30
0.0
 40
50.0
  1
(取付寸法)
 41
0.9
100
AcDbText
  0
TEXT
  5
5F8FB
330
1E
100
AcDbEntity
  8
NOTE
100
AcDbText
 10
236.3352435505439
 20
1412.95746305743
 30
0.0
 40
50.0
  1
(取付寸法)
 41
0.9
100
AcDbText
  0
LINE
  5
6438E
330
1E
100
AcDbEntity
  8
0
  6
CONTINUOUS
100
AcDbLine
 10
-475.0
 20
945.0
 30
0.0
 11
475.0
 21
945.0
 31
0.0
  0
LINE
  5
6477D
330
1E
100
AcDbEntity
  8
NOTE
100
AcDbLine
 10
-213.5999999996438
 20
965.0
 30
0.0
 11
-253.5999999996456
 21
965.0
 31
0.0
  0
LINE
  5
6477F
330
1E
100
AcDbEntity
  8
NOTE
100
AcDbLine
 10
-233.5999999996438
 20
945.0
 30
0.0
 11
-233.5999999996438
 21
985.0
 31
0.0
  0
LINE
  5
64782
330
1E
100
AcDbEntity
  8
NOTE
100
AcDbLine
 10
585.3587458114161
 20
1217.581127609726
 30
0.0
 11
130.9479899231355
 21
1217.581127609726
 31
0.0
  0
TEXT
  5
64783
330
1E
100
AcDbEntity
  8
NOTE
100
AcDbText
 10
148.3553746045272
 20
1241.458424446074
 30
0.0
 40
64.0
  1
GE(アース端子)
 41
0.9
100
AcDbText
  0
LINE
  5
64786
330
1E
100
AcDbEntity
  8
NOTE
100
AcDbLine
 10
-233.5999999996438
 20
965.0
 30
0.0
 11
130.9479899231355
 21
1217.581127609726
 31
0.0
  0
LINE
  5
64787
330
1E
100
AcDbEntity
  8
NOTE
100
AcDbLine
 10
-207.873430374665
 20
995.6291291666385
 30
0.0
 11
-233.5999999996438
 21
965.0
 31
0.0
  0
LINE
  5
64788
330
1E
100
AcDbEntity
  8
NOTE
100
AcDbLine
 10
-233.5999999996438
 20
965.0
 30
0.0
 11
-196.0055729786763
 21
978.6623173558437
 31
0.0
  0
LINE
  5
64821
330
1E
100
AcDbEntity
  8
BASIS
  6
DOT_CENTER
100
AcDbLine
 10
-233.5999999996438
 20
978.799999999901
 30
0.0
 11
-233.5999999996438
 21
951.2000000000989
 31
0.0
  0
LINE
  5
64822
330
1E
100
AcDbEntity
  8
BASIS
  6
DOT_CENTER
100
AcDbLine
 10
-247.3999999995448
 20
965.0
 30
0.0
 11
-219.7999999997427
 21
965.0
 31
0.0
  0
TEXT
  5
64B34
330
1E
100
AcDbEntity
  8
NOTE
100
AcDbText
 10
-655.1854564494569
 20
1559.389270627302
 30
0.0
 40
50.0
  1
(149～230の範囲で変化)
 41
0.9
100
AcDbText
  0
LINE
  5
64CB0
330
1E
100
AcDbEntity
  8
SIZE
  6
CONTINUOUS
100
AcDbLine
 10
-265.0999999999976
 20
969.1691587492988
 30
0.0
 11
-265.0999999999975
 21
1431.355897534204
 31
0.0
  0
LINE
  5
64CB1
330
1E
100
AcDbEntity
  8
SIZE
  6
CONTINUOUS
100
AcDbLine
 10
-41.09999999999764
 20
974.1403587492987
 30
0.0
 11
-41.0999999999976
 21
1431.355897534204
 31
0.0
  0
LINE
  5
64CB2
330
1E
100
AcDbEntity
  8
SIZE
  6
CONTINUOUS
100
AcDbLine
 10
-255.0999999999976
 20
1401.355897534203
 30
0.0
 11
-51.09999999999761
 21
1401.355897534203
 31
0.0
  0
LINE
  5
64CB3
330
1E
100
AcDbEntity
  8
SIZE
  6
CONTINUOUS
100
AcDbLine
 10
-41.0999999999976
 20
1401.355897534203
 30
0.0
 11
224.4989977117464
 21
1401.355897534203
 31
0.0
  0
LINE
  5
64CB7
330
1E
100
AcDbEntity
  8
SIZE
  6
CONTINUOUS
100
AcDbLine
 10
35.79999999999927
 20
945.0
 30
0.0
 11
267.8369258341291
 21
944.9999999999999
 31
0.0
  0
LINE
  5
64CB8
330
1E
100
AcDbEntity
  8
SIZE
  6
CONTINUOUS
100
AcDbLine
 10
-193.5999999996438
 20
965.0
 30
0.0
 11
267.8369258341291
 21
964.9999999999998
 31
0.0
  0
LINE
  5
64CB9
330
1E
100
AcDbEntity
  8
SIZE
  6
CONTINUOUS
100
AcDbLine
 10
237.8369258341291
 20
935.0
 30
0.0
 11
237.8369258341291
 21
925.0
 31
0.0
  0
LINE
  5
64CBA
330
1E
100
AcDbEntity
  8
SIZE
  6
CONTINUOUS
100
AcDbLine
 10
237.8369258341292
 20
975.0
 30
0.0
 11
237.8369258341292
 21
1150.58574634957
 31
0.0
  0
LINE
  5
64CBB
330
1E
100
AcDbEntity
  8
SIZE
  6
CONTINUOUS
100
AcDbLine
 10
237.8369258341291
 20
945.0
 30
0.0
 11
237.8369258341292
 21
965.0
 31
0.0
  0
LINE
  5
64CBF
330
1E
100
AcDbEntity
  8
SIZE
  6
CONTINUOUS
100
AcDbLine
 10
-291.9999999999991
 20
970.6002587492967
 30
0.0
 11
-291.999999999999
 21
1665.587374921
 31
0.0
  0
LINE
  5
64CC0
330
1E
100
AcDbEntity
  8
SIZE
  6
CONTINUOUS
100
AcDbLine
 10
-14.19999999999981
 20
973.8132587492964
 30
0.0
 11
-14.19999999999977
 21
1665.587374921
 31
0.0
  0
LINE
  5
64CC1
330
1E
100
AcDbEntity
  8
SIZE
  6
CONTINUOUS
100
AcDbLine
 10
-281.999999999999
 20
1635.587374921
 30
0.0
 11
-24.19999999999977
 21
1635.587374921
 31
0.0
  0
LINE
  5
64CC2
330
1E
100
AcDbEntity
  8
SIZE
  6
CONTINUOUS
100
AcDbLine
 10
-14.19999999999977
 20
1635.587374921
 30
0.0
 11
294.7758262831732
 21
1635.587374921
 31
0.0
  0
LINE
  5
64CC6
330
1E
100
AcDbEntity
  8
SIZE
  6
CONTINUOUS
100
AcDbLine
 10
-304.6000000000049
 20
966.0000000000017
 30
0.0
 11
-304.6000000000048
 21
1804.745474920999
 31
0.0
  0
LINE
  5
64CC7
330
1E
100
AcDbEntity
  8
SIZE
  6
CONTINUOUS
100
AcDbLine
 10
-1.600000000004909
 20
966.0000000000017
 30
0.0
 11
-1.600000000004858
 21
1804.745474920999
 31
0.0
  0
LINE
  5
64CC8
330
1E
100
AcDbEntity
  8
SIZE
  6
CONTINUOUS
100
AcDbLine
 10
-294.6000000000048
 20
1774.745474920999
 30
0.0
 11
-11.60000000000485
 21
1774.745474920999
 31
0.0
  0
LINE
  5
64CCC
330
1E
100
AcDbEntity
  8
SIZE
  6
CONTINUOUS
100
AcDbLine
 10
475.0
 20
3.0
 30
0.0
 11
474.9999999999999
 21
-521.1671690452495
 31
0.0
  0
LINE
  5
64CCD
330
1E
100
AcDbEntity
  8
SIZE
  6
CONTINUOUS
100
AcDbLine
 10
-475.0
 20
3.0
 30
0.0
 11
-475.0
 21
-521.1671690452495
 31
0.0
  0
LINE
  5
64CCE
330
1E
100
AcDbEntity
  8
SIZE
  6
CONTINUOUS
100
AcDbLine
 10
464.9999999999999
 20
-491.1671690452494
 30
0.0
 11
-465.0
 21
-491.1671690452494
 31
0.0
  0
LINE
  5
64CD2
330
1E
100
AcDbEntity
  8
SIZE
  6
CONTINUOUS
100
AcDbLine
 10
-300.0
 20
-40.0
 30
0.0
 11
-300.0
 21
-386.1396645981221
 31
0.0
  0
LINE
  5
64CD3
330
1E
100
AcDbEntity
  8
SIZE
  6
CONTINUOUS
100
AcDbLine
 10
300.0
 20
-40.0
 30
0.0
 11
300.0
 21
-386.1396645981221
 31
0.0
  0
LINE
  5
64CD4
330
1E
100
AcDbEntity
  8
SIZE
  6
CONTINUOUS
100
AcDbLine
 10
-290.0
 20
-356.1396645981222
 30
0.0
 11
290.0
 21
-356.1396645981222
 31
0.0
  0
LINE
  5
64CD8
330
1E
100
AcDbEntity
  8
SIZE
  6
CONTINUOUS
100
AcDbLine
 10
-300.0
 20
-40.0
 30
0.0
 11
-300.0
 21
-389.3546031281512
 31
0.0
  0
LINE
  5
64CD9
330
1E
100
AcDbEntity
  8
SIZE
  6
CONTINUOUS
100
AcDbLine
 10
-475.0
 20
3.0
 30
0.0
 11
-475.0
 21
-389.3546031281512
 31
0.0
  0
LINE
  5
64CDA
330
1E
100
AcDbEntity
  8
SIZE
  6
CONTINUOUS
100
AcDbLine
 10
-290.0
 20
-359.3546031281512
 30
0.0
 11
-280.0
 21
-359.3546031281512
 31
0.0
  0
LINE
  5
64CDB
330
1E
100
AcDbEntity
  8
SIZE
  6
CONTINUOUS
100
AcDbLine
 10
-485.0
 20
-359.3546031281512
 30
0.0
 11
-495.0
 21
-359.3546031281512
 31
0.0
  0
LINE
  5
64CDC
330
1E
100
AcDbEntity
  8
SIZE
  6
CONTINUOUS
100
AcDbLine
 10
-300.0
 20
-359.3546031281512
 30
0.0
 11
-475.0
 21
-359.3546031281512
 31
0.0
  0
LINE
  5
64CE0
330
1E
100
AcDbEntity
  8
SIZE
  6
CONTINUOUS
100
AcDbLine
 10
-152.9999999998472
 20
139.2021547495387
 30
0.0
 11
-152.9999999998472
 21
-209.9833250789997
 31
0.0
  0
LINE
  5
64CE1
330
1E
100
AcDbEntity
  8
SIZE
  6
CONTINUOUS
100
AcDbLine
 10
-475.0
 20
3.0
 30
0.0
 11
-475.0
 21
-209.9833250789997
 31
0.0
  0
LINE
  5
64CE2
330
1E
100
AcDbEntity
  8
SIZE
  6
CONTINUOUS
100
AcDbLine
 10
-162.9999999998472
 20
-179.9833250789997
 30
0.0
 11
-465.0
 21
-179.9833250789997
 31
0.0
  0
LINE
  5
64CE6
330
1E
100
AcDbEntity
  8
SIZE
  6
CONTINUOUS
100
AcDbLine
 10
-322.0
 20
945.1280750789992
 30
0.0
 11
-621.5792689490806
 21
945.1280750789992
 31
0.0
  0
LINE
  5
64CE7
330
1E
100
AcDbEntity
  8
SIZE
  6
CONTINUOUS
100
AcDbLine
 10
-287.3999999996594
 20
981.1280750789991
 30
0.0
 11
-621.5792689490806
 21
981.1280750789991
 31
0.0
  0
LINE
  5
64CE8
330
1E
100
AcDbEntity
  8
SIZE
  6
CONTINUOUS
100
AcDbLine
 10
-591.5792689490806
 20
991.1280750789993
 30
0.0
 11
-591.5792689490806
 21
1001.128075078999
 31
0.0
  0
LINE
  5
64CE9
330
1E
100
AcDbEntity
  8
SIZE
  6
CONTINUOUS
100
AcDbLine
 10
-591.5792689490806
 20
935.1280750789992
 30
0.0
 11
-591.5792689490806
 21
806.3325071428572
 31
0.0
  0
LINE
  5
64CEA
330
1E
100
AcDbEntity
  8
SIZE
  6
CONTINUOUS
100
AcDbLine
 10
-591.5792689490806
 20
981.1280750789991
 30
0.0
 11
-591.5792689490806
 21
945.1280750789992
 31
0.0
  0
LINE
  5
64CEE
330
1E
100
AcDbEntity
  8
SIZE
  6
CONTINUOUS
100
AcDbLine
 10
-304.5999999999912
 20
966.1280750789993
 30
0.0
 11
-304.5999999999912
 21
1183.099374920999
 31
0.0
  0
LINE
  5
64CEF
330
1E
100
AcDbEntity
  8
SIZE
  6
CONTINUOUS
100
AcDbLine
 10
-253.5999999997584
 20
1014.9280750789
 30
0.0
 11
-253.5999999997584
 21
1183.099374920999
 31
0.0
  0
LINE
  5
64CF0
330
1E
100
AcDbEntity
  8
SIZE
  6
CONTINUOUS
100
AcDbLine
 10
-294.5999999999912
 20
1153.099374920999
 30
0.0
 11
-263.5999999997584
 21
1153.099374920999
 31
0.0
  0
LINE
  5
64CF1
330
1E
100
AcDbEntity
  8
SIZE
  6
CONTINUOUS
100
AcDbLine
 10
-253.5999999997584
 20
1153.099374920999
 30
0.0
 11
-137.8857142854735
 21
1153.099374920999
 31
0.0
  0
LINE
  5
64CF5
330
1E
100
AcDbEntity
  8
SIZE
  6
CONTINUOUS
100
AcDbLine
 10
-233.5999999996438
 20
1005.0
 30
0.0
 11
-233.5999999996438
 21
1278.878674920999
 31
0.0
  0
LINE
  5
64CF6
330
1E
100
AcDbEntity
  8
SIZE
  6
CONTINUOUS
100
AcDbLine
 10
-304.6000000000058
 20
966.0
 30
0.0
 11
-304.6000000000058
 21
1278.878674920999
 31
0.0
  0
LINE
  5
64CF7
330
1E
100
AcDbEntity
  8
SIZE
  6
CONTINUOUS
100
AcDbLine
 10
-294.6000000000058
 20
1248.878674920999
 30
0.0
 11
-243.5999999996438
 21
1248.878674920999
 31
0.0
  0
LINE
  5
64CF8
330
1E
100
AcDbEntity
  8
SIZE
  6
CONTINUOUS
100
AcDbLine
 10
-233.5999999996438
 20
1248.878674920999
 30
0.0
 11
-135.0285714282148
 21
1248.878674920999
 31
0.0
  0
LINE
  5
64CFC
330
1E
100
AcDbEntity
  8
SIZE
  6
CONTINUOUS
100
AcDbLine
 10
-292.0
 20
970.6002587492948
 30
0.0
 11
-291.9999999999999
 21
1665.587374921
 31
0.0
  0
LINE
  5
64CFD
330
1E
100
AcDbEntity
  8
SIZE
  6
CONTINUOUS
100
AcDbLine
 10
-475.0
 20
965.0
 30
0.0
 11
-474.9999999999999
 21
1665.587374921
 31
0.0
  0
LINE
  5
64CFE
330
1E
100
AcDbEntity
  8
SIZE
  6
CONTINUOUS
100
AcDbLine
 10
-301.9999999999999
 20
1635.587374921
 30
0.0
 11
-464.9999999999999
 21
1635.587374921
 31
0.0
  0
LINE
  5
64D02
330
1E
100
AcDbEntity
  8
SIZE
  6
CONTINUOUS
100
AcDbLine
 10
-340.0
 20
0.0000000000000057
 30
0.0
 11
-757.2319682952731
 21
0.0000000000001239
 31
0.0
  0
LINE
  5
64D03
330
1E
100
AcDbEntity
  8
SIZE
  6
CONTINUOUS
100
AcDbLine
 10
-486.7978452498483
 20
472.999999999538
 30
0.0
 11
-757.231968295273
 21
472.999999999538
 31
0.0
  0
LINE
  5
64D04
330
1E
100
AcDbEntity
  8
SIZE
  6
CONTINUOUS
100
AcDbLine
 10
-727.2319682952731
 20
10.00000000000011
 30
0.0
 11
-727.2319682952729
 21
462.999999999538
 31
0.0
  0
LINE
  5
64D08
330
1E
100
AcDbEntity
  8
SIZE
  6
CONTINUOUS
100
AcDbLine
 10
-340.0
 20
0.0000000000000057
 30
0.0
 11
-898.7427135126747
 21
0.0000000000001639
 31
0.0
  0
LINE
  5
64D09
330
1E
100
AcDbEntity
  8
SIZE
  6
CONTINUOUS
100
AcDbLine
 10
-495.0
 20
945.0
 30
0.0
 11
-898.7427135126745
 21
945.0000000000001
 31
0.0
  0
LINE
  5
64D0A
330
1E
100
AcDbEntity
  8
SIZE
  6
CONTINUOUS
100
AcDbLine
 10
-868.7427135126748
 20
10.00000000000015
 30
0.0
 11
-868.7427135126744
 21
935.0000000000001
 31
0.0
  0
LINE
  5
64D0E
330
1E
100
AcDbEntity
  8
SIZE
  6
CONTINUOUS
100
AcDbLine
 10
-495.0
 20
23.0
 30
0.0
 11
-626.1243741658727
 21
23.00000000000004
 31
0.0
  0
LINE
  5
64D0F
330
1E
100
AcDbEntity
  8
SIZE
  6
CONTINUOUS
100
AcDbLine
 10
-340.0
 20
0.0000000000000057
 30
0.0
 11
-626.1243741658727
 21
0.0000000000000867
 31
0.0
  0
LINE
  5
64D10
330
1E
100
AcDbEntity
  8
SIZE
  6
CONTINUOUS
100
AcDbLine
 10
-596.1243741658726
 20
33.00000000000003
 30
0.0
 11
-596.1243741658726
 21
43.00000000000003
 31
0.0
  0
LINE
  5
64D11
330
1E
100
AcDbEntity
  8
SIZE
  6
CONTINUOUS
100
AcDbLine
 10
-596.1243741658726
 20
-9.99999999999992
 30
0.0
 11
-596.1243741658726
 21
-133.2571428571427
 31
0.0
  0
LINE
  5
64D12
330
1E
100
AcDbEntity
  8
SIZE
  6
CONTINUOUS
100
AcDbLine
 10
-596.1243741658726
 20
23.00000000000003
 30
0.0
 11
-596.1243741658726
 21
0.0000000000000782
 31
0.0
  0
LINE
  5
64D16
330
1E
100
AcDbEntity
  8
SIZE
  6
CONTINUOUS
100
AcDbLine
 10
300.0
 20
-40.0
 30
0.0
 11
300.0
 21
-386.1396645981221
 31
0.0
  0
LINE
  5
64D17
330
1E
100
AcDbEntity
  8
SIZE
  6
CONTINUOUS
100
AcDbLine
 10
475.0
 20
3.0
 30
0.0
 11
475.0
 21
-386.1396645981221
 31
0.0
  0
LINE
  5
64D18
330
1E
100
AcDbEntity
  8
SIZE
  6
CONTINUOUS
100
AcDbLine
 10
290.0
 20
-356.1396645981222
 30
0.0
 11
280.0
 21
-356.1396645981222
 31
0.0
  0
LINE
  5
64D19
330
1E
100
AcDbEntity
  8
SIZE
  6
CONTINUOUS
100
AcDbLine
 10
485.0
 20
-356.1396645981222
 30
0.0
 11
495.0
 21
-356.1396645981222
 31
0.0
  0
LINE
  5
64D1A
330
1E
100
AcDbEntity
  8
SIZE
  6
CONTINUOUS
100
AcDbLine
 10
300.0
 20
-356.1396645981222
 30
0.0
 11
475.0
 21
-356.1396645981222
 31
0.0
  0
LINE
  5
64D1E
330
1E
100
AcDbEntity
  8
SIZE
  6
CONTINUOUS
100
AcDbLine
 10
6.876041835505019
 20
1036.0
 30
0.0
 11
438.9398258341272
 21
1036.0
 31
0.0
  0
LINE
  5
64D1F
330
1E
100
AcDbEntity
  8
SIZE
  6
CONTINUOUS
100
AcDbLine
 10
15.79999999999927
 20
945.0
 30
0.0
 11
438.9398258341272
 21
944.9999999999999
 31
0.0
  0
LINE
  5
64D20
330
1E
100
AcDbEntity
  8
SIZE
  6
CONTINUOUS
100
AcDbLine
 10
408.9398258341272
 20
954.9999999999998
 30
0.0
 11
408.9398258341272
 21
1026.0
 31
0.0
  0
LINE
  5
64D21
330
1E
100
AcDbEntity
  8
SIZE
  6
CONTINUOUS
100
AcDbLine
 10
408.9398258341272
 20
1036.0
 30
0.0
 11
408.9398258341272
 21
1140.497589206714
 31
0.0
  0
TEXT
  5
64D25
330
1E
100
AcDbEntity
  8
SIZE
  6
DASHDOT
100
AcDbText
 10
-76.66397909202615
 20
-346.1396645981221
 30
0.0
 40
64.0
  1
600
 41
0.9
100
AcDbText
  0
TEXT
  5
64D26
330
1E
100
AcDbEntity
  8
SIZE
  6
DASHDOT
100
AcDbText
 10
-70.23247189385521
 20
-481.1671690452494
 30
0.0
 40
64.0
  1
950
 41
0.9
100
AcDbText
  0
CIRCLE
  5
64D27
330
1E
100
AcDbEntity
  8
SIZE
  6
BYBLOCK
100
AcDbCircle
 10
-14.19999999999977
 20
1635.587374921
 30
0.0
 40
5.0
  0
LINE
  5
64D28
330
1E
100
AcDbEntity
  8
SIZE
  6
BYBLOCK
100
AcDbLine
 10
-19.19999999999977
 20
1635.587374921
 30
0.0
 11
-24.19999999999977
 21
1635.587374921
 31
0.0
  0
TEXT
  5
64D29
330
1E
100
AcDbEntity
  8
SIZE
  6
DASHDOT
100
AcDbText
 10
-388.0571428570664
 20
-169.9833250789997
 30
0.0
 40
64.0
  1
322
 41
0.9
100
AcDbText
  0
CIRCLE
  5
64D2A
330
1E
100
AcDbEntity
  8
SIZE
  6
BYBLOCK
100
AcDbCircle
 10
-475.0
 20
-491.1671690452494
 30
0.0
 40
5.0
  0
LINE
  5
64D2B
330
1E
100
AcDbEntity
  8
SIZE
  6
BYBLOCK
100
AcDbLine
 10
-470.0000000000001
 20
-491.1671690452494
 30
0.0
 11
-465.0
 21
-491.1671690452494
 31
0.0
  0
TEXT
  5
64D2C
330
1E
100
AcDbEntity
  8
SIZE
  6
DASHDOT
100
AcDbText
 10
-447.4214711423257
 20
-349.3546031281512
 30
0.0
 40
64.0
  1
175
 41
0.9
100
AcDbText
  0
CIRCLE
  5
64D2D
330
1E
100
AcDbEntity
  8
SIZE
  6
BYBLOCK
100
AcDbCircle
 10
-475.0
 20
-359.3546031281512
 30
0.0
 40
5.0
  0
LINE
  5
64D2E
330
1E
100
AcDbEntity
  8
SIZE
  6
BYBLOCK
100
AcDbLine
 10
-480.0
 20
-359.3546031281512
 30
0.0
 11
-485.0
 21
-359.3546031281512
 31
0.0
  0
CIRCLE
  5
64D2F
330
1E
100
AcDbEntity
  8
SIZE
  6
BYBLOCK
100
AcDbCircle
 10
-475.0
 20
-179.9833250789997
 30
0.0
 40
5.0
  0
LINE
  5
64D30
330
1E
100
AcDbEntity
  8
SIZE
  6
BYBLOCK
100
AcDbLine
 10
-470.0
 20
-179.9833250789997
 30
0.0
 11
-465.0
 21
-179.9833250789997
 31
0.0
  0
CIRCLE
  5
64D31
330
1E
100
AcDbEntity
  8
SIZE
  6
BYBLOCK
100
AcDbCircle
 10
-300.0
 20
-359.3546031281512
 30
0.0
 40
5.0
  0
LINE
  5
64D32
330
1E
100
AcDbEntity
  8
SIZE
  6
BYBLOCK
100
AcDbLine
 10
-295.0
 20
-359.3546031281512
 30
0.0
 11
-290.0
 21
-359.3546031281512
 31
0.0
  0
CIRCLE
  5
64D33
330
1E
100
AcDbEntity
  8
SIZE
  6
BYBLOCK
100
AcDbCircle
 10
-300.0
 20
-356.1396645981222
 30
0.0
 40
5.0
  0
LINE
  5
64D34
330
1E
100
AcDbEntity
  8
SIZE
  6
BYBLOCK
100
AcDbLine
 10
-295.0
 20
-356.1396645981222
 30
0.0
 11
-290.0
 21
-356.1396645981222
 31
0.0
  0
CIRCLE
  5
64D35
330
1E
100
AcDbEntity
  8
SIZE
  6
BYBLOCK
100
AcDbCircle
 10
-152.9999999998472
 20
-179.9833250789997
 30
0.0
 40
5.0
  0
LINE
  5
64D36
330
1E
100
AcDbEntity
  8
SIZE
  6
BYBLOCK
100
AcDbLine
 10
-157.9999999998472
 20
-179.9833250789997
 30
0.0
 11
-162.9999999998472
 21
-179.9833250789997
 31
0.0
  0
TEXT
  5
64D37
330
1E
100
AcDbEntity
  8
SIZE
  6
DASHDOT
100
AcDbText
 10
-878.7427135126748
 20
398.4428571428571
 30
0.0
 40
64.0
  1
945
 50
90.0
 41
0.9
100
AcDbText
  0
TEXT
  5
64D38
330
1E
100
AcDbEntity
  8
SIZE
  6
DASHDOT
100
AcDbText
 10
-606.1243741658727
 20
-123.2571428571428
 30
0.0
 40
64.0
  1
23
 50
90.0
 41
0.9
100
AcDbText
  0
CIRCLE
  5
64D39
330
1E
100
AcDbEntity
  8
SIZE
  6
BYBLOCK
100
AcDbCircle
 10
-868.7427135126748
 20
0.0000000000001554
 30
0.0
 40
5.0
  0
LINE
  5
64D3A
330
1E
100
AcDbEntity
  8
SIZE
  6
BYBLOCK
100
AcDbLine
 10
-868.7427135126748
 20
5.000000000000155
 30
0.0
 11
-868.7427135126748
 21
10.00000000000015
 31
0.0
  0
CIRCLE
  5
64D3B
330
1E
100
AcDbEntity
  8
SIZE
  6
BYBLOCK
100
AcDbCircle
 10
-727.2319682952731
 20
0.0000000000001154
 30
0.0
 40
5.0
  0
LINE
  5
64D3C
330
1E
100
AcDbEntity
  8
SIZE
  6
BYBLOCK
100
AcDbLine
 10
-727.2319682952731
 20
5.000000000000115
 30
0.0
 11
-727.2319682952731
 21
10.00000000000011
 31
0.0
  0
TEXT
  5
64D3D
330
1E
100
AcDbEntity
  8
SIZE
  6
DASHDOT
100
AcDbText
 10
-737.231968295273
 20
162.4428571426261
 30
0.0
 40
64.0
  1
473
 50
90.0
 41
0.9
100
AcDbText
  0
CIRCLE
  5
64D3E
330
1E
100
AcDbEntity
  8
SIZE
  6
BYBLOCK
100
AcDbCircle
 10
-596.1243741658726
 20
0.0000000000000782
 30
0.0
 40
5.0
  0
LINE
  5
64D3F
330
1E
100
AcDbEntity
  8
SIZE
  6
BYBLOCK
100
AcDbLine
 10
-596.1243741658726
 20
-4.999999999999921
 30
0.0
 11
-596.1243741658726
 21
-9.999999999999921
 31
0.0
  0
CIRCLE
  5
64D40
330
1E
100
AcDbEntity
  8
SIZE
  6
BYBLOCK
100
AcDbCircle
 10
-596.1243741658726
 20
23.00000000000003
 30
0.0
 40
5.0
  0
LINE
  5
64D41
330
1E
100
AcDbEntity
  8
SIZE
  6
BYBLOCK
100
AcDbLine
 10
-596.1243741658726
 20
28.00000000000003
 30
0.0
 11
-596.1243741658726
 21
33.00000000000002
 31
0.0
  0
TEXT
  5
64D42
330
1E
100
AcDbEntity
  8
SIZE
  6
DASHDOT
100
AcDbText
 10
-601.5792689490808
 20
816.332507142857
 30
0.0
 40
64.0
  1
36
 50
90.0
 41
0.9
100
AcDbText
  0
CIRCLE
  5
64D43
330
1E
100
AcDbEntity
  8
SIZE
  6
BYBLOCK
100
AcDbCircle
 10
-727.2319682952729
 20
472.999999999538
 30
0.0
 40
5.0
  0
LINE
  5
64D44
330
1E
100
AcDbEntity
  8
SIZE
  6
BYBLOCK
100
AcDbLine
 10
-727.2319682952729
 20
467.999999999538
 30
0.0
 11
-727.2319682952729
 21
462.999999999538
 31
0.0
  0
CIRCLE
  5
64D45
330
1E
100
AcDbEntity
  8
SIZE
  6
BYBLOCK
100
AcDbCircle
 10
-868.7427135126744
 20
945.0000000000001
 30
0.0
 40
5.0
  0
LINE
  5
64D46
330
1E
100
AcDbEntity
  8
SIZE
  6
BYBLOCK
100
AcDbLine
 10
-868.7427135126744
 20
940.0000000000002
 30
0.0
 11
-868.7427135126744
 21
935.0000000000001
 31
0.0
  0
CIRCLE
  5
64D47
330
1E
100
AcDbEntity
  8
SIZE
  6
BYBLOCK
100
AcDbCircle
 10
-591.5792689490806
 20
945.1280750789992
 30
0.0
 40
5.0
  0
LINE
  5
64D48
330
1E
100
AcDbEntity
  8
SIZE
  6
BYBLOCK
100
AcDbLine
 10
-591.5792689490806
 20
940.1280750789991
 30
0.0
 11
-591.5792689490806
 21
935.1280750789992
 31
0.0
  0
CIRCLE
  5
64D49
330
1E
100
AcDbEntity
  8
SIZE
  6
BYBLOCK
100
AcDbCircle
 10
-591.5792689490806
 20
981.1280750789991
 30
0.0
 40
5.0
  0
LINE
  5
64D4A
330
1E
100
AcDbEntity
  8
SIZE
  6
BYBLOCK
100
AcDbLine
 10
-591.5792689490806
 20
986.1280750789992
 30
0.0
 11
-591.5792689490806
 21
991.1280750789993
 31
0.0
  0
TEXT
  5
64D4B
330
1E
100
AcDbEntity
  8
SIZE
  6
DASHDOT
100
AcDbText
 10
-216.457142856902
 20
1163.099374920999
 30
0.0
 40
64.0
  1
51
 41
0.9
100
AcDbText
  0
CIRCLE
  5
64D4C
330
1E
100
AcDbEntity
  8
SIZE
  6
BYBLOCK
100
AcDbCircle
 10
-233.5999999996438
 20
1248.878674920999
 30
0.0
 40
5.0
  0
LINE
  5
64D4D
330
1E
100
AcDbEntity
  8
SIZE
  6
BYBLOCK
100
AcDbLine
 10
-238.5999999996438
 20
1248.878674920999
 30
0.0
 11
-243.5999999996438
 21
1248.878674920999
 31
0.0
  0
CIRCLE
  5
64D4E
330
1E
100
AcDbEntity
  8
SIZE
  6
BYBLOCK
100
AcDbCircle
 10
-304.6000000000058
 20
1248.878674920999
 30
0.0
 40
5.0
  0
LINE
  5
64D4F
330
1E
100
AcDbEntity
  8
SIZE
  6
BYBLOCK
100
AcDbLine
 10
-299.6000000000058
 20
1248.878674920999
 30
0.0
 11
-294.6000000000058
 21
1248.878674920999
 31
0.0
  0
CIRCLE
  5
64D50
330
1E
100
AcDbEntity
  8
SIZE
  6
BYBLOCK
100
AcDbCircle
 10
-253.5999999997584
 20
1153.099374920999
 30
0.0
 40
5.0
  0
LINE
  5
64D51
330
1E
100
AcDbEntity
  8
SIZE
  6
BYBLOCK
100
AcDbLine
 10
-258.5999999997584
 20
1153.099374920999
 30
0.0
 11
-263.5999999997584
 21
1153.099374920999
 31
0.0
  0
CIRCLE
  5
64D52
330
1E
100
AcDbEntity
  8
SIZE
  6
BYBLOCK
100
AcDbCircle
 10
-304.5999999999912
 20
1153.099374920999
 30
0.0
 40
5.0
  0
LINE
  5
64D53
330
1E
100
AcDbEntity
  8
SIZE
  6
BYBLOCK
100
AcDbLine
 10
-299.5999999999913
 20
1153.099374920999
 30
0.0
 11
-294.5999999999912
 21
1153.099374920999
 31
0.0
  0
TEXT
  5
64D54
330
1E
100
AcDbEntity
  8
SIZE
  6
DASHDOT
100
AcDbText
 10
-213.5999999996434
 20
1258.878674920999
 30
0.0
 40
64.0
  1
71
 41
0.9
100
AcDbText
  0
CIRCLE
  5
64D55
330
1E
100
AcDbEntity
  8
SIZE
  6
BYBLOCK
100
AcDbCircle
 10
-265.0999999999976
 20
1401.355897534203
 30
0.0
 40
5.0
  0
LINE
  5
64D56
330
1E
100
AcDbEntity
  8
SIZE
  6
BYBLOCK
100
AcDbLine
 10
-260.0999999999976
 20
1401.355897534203
 30
0.0
 11
-255.0999999999976
 21
1401.355897534203
 31
0.0
  0
CIRCLE
  5
64D57
330
1E
100
AcDbEntity
  8
SIZE
  6
BYBLOCK
100
AcDbCircle
 10
-41.0999999999976
 20
1401.355897534203
 30
0.0
 40
5.0
  0
LINE
  5
64D58
330
1E
100
AcDbEntity
  8
SIZE
  6
BYBLOCK
100
AcDbLine
 10
-46.0999999999976
 20
1401.355897534203
 30
0.0
 11
-51.09999999999761
 21
1401.355897534203
 31
0.0
  0
TEXT
  5
64D59
330
1E
100
AcDbEntity
  8
SIZE
  6
DASHDOT
100
AcDbText
 10
-217.6169170230158
 20
1784.745474920999
 30
0.0
 40
64.0
  1
303
 41
0.9
100
AcDbText
  0
TEXT
  5
64D5A
330
1E
100
AcDbEntity
  8
SIZE
  6
DASHDOT
100
AcDbText
 10
-452.4479027373009
 20
1645.587374921
 30
0.0
 40
64.0
  1
183
 41
0.9
100
AcDbText
  0
CIRCLE
  5
64D5B
330
1E
100
AcDbEntity
  8
SIZE
  6
BYBLOCK
100
AcDbCircle
 10
-474.9999999999999
 20
1635.587374921
 30
0.0
 40
5.0
  0
LINE
  5
64D5C
330
1E
100
AcDbEntity
  8
SIZE
  6
BYBLOCK
100
AcDbLine
 10
-469.9999999999999
 20
1635.587374921
 30
0.0
 11
-464.9999999999999
 21
1635.587374921
 31
0.0
  0
CIRCLE
  5
64D5D
330
1E
100
AcDbEntity
  8
SIZE
  6
BYBLOCK
100
AcDbCircle
 10
-291.9999999999999
 20
1635.587374921
 30
0.0
 40
5.0
  0
LINE
  5
64D5E
330
1E
100
AcDbEntity
  8
SIZE
  6
BYBLOCK
100
AcDbLine
 10
-296.9999999999999
 20
1635.587374921
 30
0.0
 11
-301.9999999999999
 21
1635.587374921
 31
0.0
  0
CIRCLE
  5
64D5F
330
1E
100
AcDbEntity
  8
SIZE
  6
BYBLOCK
100
AcDbCircle
 10
-291.999999999999
 20
1635.587374921
 30
0.0
 40
5.0
  0
LINE
  5
64D60
330
1E
100
AcDbEntity
  8
SIZE
  6
BYBLOCK
100
AcDbLine
 10
-286.999999999999
 20
1635.587374921
 30
0.0
 11
-281.999999999999
 21
1635.587374921
 31
0.0
  0
CIRCLE
  5
64D61
330
1E
100
AcDbEntity
  8
SIZE
  6
BYBLOCK
100
AcDbCircle
 10
-304.6000000000048
 20
1774.745474920999
 30
0.0
 40
5.0
  0
LINE
  5
64D62
330
1E
100
AcDbEntity
  8
SIZE
  6
BYBLOCK
100
AcDbLine
 10
-299.6000000000048
 20
1774.745474920999
 30
0.0
 11
-294.6000000000048
 21
1774.745474920999
 31
0.0
  0
CIRCLE
  5
64D63
330
1E
100
AcDbEntity
  8
SIZE
  6
BYBLOCK
100
AcDbCircle
 10
474.9999999999999
 20
-491.1671690452494
 30
0.0
 40
5.0
  0
LINE
  5
64D64
330
1E
100
AcDbEntity
  8
SIZE
  6
BYBLOCK
100
AcDbLine
 10
469.9999999999999
 20
-491.1671690452494
 30
0.0
 11
464.9999999999999
 21
-491.1671690452494
 31
0.0
  0
CIRCLE
  5
64D65
330
1E
100
AcDbEntity
  8
SIZE
  6
BYBLOCK
100
AcDbCircle
 10
300.0
 20
-356.1396645981222
 30
0.0
 40
5.0
  0
LINE
  5
64D66
330
1E
100
AcDbEntity
  8
SIZE
  6
BYBLOCK
100
AcDbLine
 10
295.0
 20
-356.1396645981222
 30
0.0
 11
290.0
 21
-356.1396645981222
 31
0.0
  0
CIRCLE
  5
64D67
330
1E
100
AcDbEntity
  8
SIZE
  6
BYBLOCK
100
AcDbCircle
 10
300.0
 20
-356.1396645981222
 30
0.0
 40
5.0
  0
LINE
  5
64D68
330
1E
100
AcDbEntity
  8
SIZE
  6
BYBLOCK
100
AcDbLine
 10
295.0
 20
-356.1396645981222
 30
0.0
 11
290.0
 21
-356.1396645981222
 31
0.0
  0
TEXT
  5
64D69
330
1E
100
AcDbEntity
  8
SIZE
  6
DASHDOT
100
AcDbText
 10
316.143713441016
 20
-346.1396645981221
 30
0.0
 40
64.0
  1
175
 41
0.9
100
AcDbText
  0
CIRCLE
  5
64D6A
330
1E
100
AcDbEntity
  8
SIZE
  6
BYBLOCK
100
AcDbCircle
 10
475.0
 20
-356.1396645981222
 30
0.0
 40
5.0
  0
LINE
  5
64D6B
330
1E
100
AcDbEntity
  8
SIZE
  6
BYBLOCK
100
AcDbLine
 10
480.0
 20
-356.1396645981222
 30
0.0
 11
485.0
 21
-356.1396645981222
 31
0.0
  0
CIRCLE
  5
64D6C
330
1E
100
AcDbEntity
  8
SIZE
  6
BYBLOCK
100
AcDbCircle
 10
237.8369258341292
 20
965.0
 30
0.0
 40
5.0
  0
LINE
  5
64D6D
330
1E
100
AcDbEntity
  8
SIZE
  6
BYBLOCK
100
AcDbLine
 10
237.8369258341292
 20
970.0
 30
0.0
 11
237.8369258341292
 21
975.0
 31
0.0
  0
CIRCLE
  5
64D6E
330
1E
100
AcDbEntity
  8
SIZE
  6
BYBLOCK
100
AcDbCircle
 10
237.8369258341291
 20
945.0
 30
0.0
 40
5.0
  0
LINE
  5
64D6F
330
1E
100
AcDbEntity
  8
SIZE
  6
BYBLOCK
100
AcDbLine
 10
237.8369258341291
 20
940.0
 30
0.0
 11
237.8369258341291
 21
935.0
 31
0.0
  0
CIRCLE
  5
64D70
330
1E
100
AcDbEntity
  8
SIZE
  6
BYBLOCK
100
AcDbCircle
 10
408.9398258341272
 20
944.9999999999999
 30
0.0
 40
5.0
  0
LINE
  5
64D71
330
1E
100
AcDbEntity
  8
SIZE
  6
BYBLOCK
100
AcDbLine
 10
408.9398258341272
 20
949.9999999999998
 30
0.0
 11
408.9398258341272
 21
954.9999999999998
 31
0.0
  0
TEXT
  5
64D72
330
1E
100
AcDbEntity
  8
SIZE
  6
DASHDOT
100
AcDbText
 10
227.836925834129
 20
1047.328603492427
 30
0.0
 40
64.0
  1
20
 50
90.0
 41
0.9
100
AcDbText
  0
TEXT
  5
64D73
330
1E
100
AcDbEntity
  8
SIZE
  6
DASHDOT
100
AcDbText
 10
398.9398258341271
 20
1061.926160635286
 30
0.0
 40
64.0
  1
91
 50
90.0
 41
0.9
100
AcDbText
  0
CIRCLE
  5
64D74
330
1E
100
AcDbEntity
  8
SIZE
  6
BYBLOCK
100
AcDbCircle
 10
408.9398258341272
 20
1036.0
 30
0.0
 40
5.0
  0
LINE
  5
64D75
330
1E
100
AcDbEntity
  8
SIZE
  6
BYBLOCK
100
AcDbLine
 10
408.9398258341272
 20
1031.0
 30
0.0
 11
408.9398258341272
 21
1026.0
 31
0.0
  0
TEXT
  5
64D76
330
1E
100
AcDbEntity
  8
SIZE
  6
DASHDOT
100
AcDbText
 10
63.64185485460362
 20
1411.355897534203
 30
0.0
 40
64.0
  1
224
 41
0.9
100
AcDbText
  0
TEXT
  5
64D77
330
1E
100
AcDbEntity
  8
SIZE
  6
DASHDOT
100
AcDbText
 10
54.37582628317321
 20
1645.587374921
 30
0.0
 40
64.0
  1
277.8
 41
0.9
100
AcDbText
  0
CIRCLE
  5
64D78
330
1E
100
AcDbEntity
  8
SIZE
  6
BYBLOCK
100
AcDbCircle
 10
-1.60000000000486
 20
1774.745474920999
 30
0.0
 40
5.0
  0
LINE
  5
64D79
330
1E
100
AcDbEntity
  8
SIZE
  6
BYBLOCK
100
AcDbLine
 10
-6.60000000000486
 20
1774.745474920999
 30
0.0
 11
-11.60000000000485
 21
1774.745474920999
 31
0.0
  0
LINE
  5
64D7A
330
1E
100
AcDbEntity
  8
OUTLINE
  6
CONTINUOUS
100
AcDbLine
 10
-302.0
 20
945.0
 30
0.0
 11
-4.200000000000727
 21
945.0
 31
0.0
  0
LINE
  5
64D7B
330
1E
100
AcDbEntity
  8
OUTLINE
  6
CONTINUOUS
100
AcDbLine
 10
-302.0
 20
945.0
 30
0.0
 11
-4.200000000000727
 21
945.0
 31
0.0
  0
LINE
  5
64D7C
330
1E
100
AcDbEntity
  8
OUTLINE
  6
CONTINUOUS
100
AcDbLine
 10
-304.6000000000058
 20
946.0
 30
0.0
 11
-1.60000000000582
 21
946.0
 31
0.0
  0
LINE
  5
64D7D
330
1E
100
AcDbEntity
  8
OUTLINE
  6
CONTINUOUS
100
AcDbLine
 10
-13.12395816449497
 20
1036.0
 30
0.0
 11
-293.0760418355057
 21
1036.0
 31
0.0
  0
LINE
  5
64D7E
330
1E
100
AcDbEntity
  8
OUTLINE
  6
CONTINUOUS
100
AcDbLine
 10
-301.2369686927923
 20
967.0
 30
0.0
 11
-5.140913106490188
 21
967.0
 31
0.0
  0
LINE
  5
64D7F
330
1E
100
AcDbEntity
  8
OUTLINE
  6
CONTINUOUS
100
AcDbLine
 10
-295.0723114323482
 20
1034.122097079069
 30
0.0
 11
-299.062817296668
 21
968.8779029209291
 31
0.0
  0
ARC
  5
64D80
330
1E
100
AcDbEntity
  8
OUTLINE
  6
CONTINUOUS
100
AcDbCircle
 10
-301.2369686927923
 20
966.0
 30
0.0
 40
1.0
100
AcDbArc
 50
90.0
 51
176.4999999999623
  0
ARC
  5
64D81
330
1E
100
AcDbEntity
  8
OUTLINE
  6
CONTINUOUS
100
AcDbCircle
 10
-301.0590868935105
 20
969.0
 30
0.0
 40
2.0
100
AcDbArc
 50
270.0
 51
356.4999999999623
  0
LINE
  5
64D82
330
1E
100
AcDbEntity
  8
OUTLINE
  6
CONTINUOUS
100
AcDbLine
 10
-301.0590868935105
 20
967.0
 30
0.0
 11
-301.2369686927923
 21
967.0
 31
0.0
  0
LINE
  5
64D83
330
1E
100
AcDbEntity
  8
OUTLINE
  6
CONTINUOUS
100
AcDbLine
 10
-294.0
 20
945.0
 30
0.0
 11
-294.0
 21
946.0
 31
0.0
  0
LINE
  5
64D84
330
1E
100
AcDbEntity
  8
OUTLINE
  6
CONTINUOUS
100
AcDbLine
 10
-294.7071067811884
 20
945.0
 30
0.0
 11
-294.7071067811884
 21
946.0
 31
0.0
  0
LINE
  5
64D85
330
1E
100
AcDbEntity
  8
OUTLINE
  6
CONTINUOUS
100
AcDbLine
 10
-302.0
 20
945.0
 30
0.0
 11
-302.0
 21
946.0
 31
0.0
  0
LINE
  5
64D86
330
1E
100
AcDbEntity
  8
OUTLINE
  6
CONTINUOUS
100
AcDbLine
 10
-294.0
 20
945.0
 30
0.0
 11
-294.0
 21
946.0
 31
0.0
  0
LINE
  5
64D87
330
1E
100
AcDbEntity
  8
OUTLINE
  6
CONTINUOUS
100
AcDbLine
 10
-294.7071067811884
 20
945.0
 30
0.0
 11
-294.7071067811884
 21
946.0
 31
0.0
  0
LINE
  5
64D88
330
1E
100
AcDbEntity
  8
OUTLINE
  6
CONTINUOUS
100
AcDbLine
 10
-302.0
 20
945.0
 30
0.0
 11
-302.0
 21
946.0
 31
0.0
  0
LINE
  5
64D89
330
1E
100
AcDbEntity
  8
OUTLINE
  6
CONTINUOUS
100
AcDbLine
 10
-302.2351034912135
 20
966.0610485395336
 30
0.0
 11
-304.6000000000058
 21
946.0
 31
0.0
  0
ARC
  5
64D8A
330
1E
100
AcDbEntity
  8
OUTLINE
  6
CONTINUOUS
100
AcDbCircle
 10
-293.0760418355057
 20
1034.0
 30
0.0
 40
2.0
100
AcDbArc
 50
90.0
 51
176.4999999999623
  0
LINE
  5
64D8B
330
1E
100
AcDbEntity
  8
OUTLINE
  6
CONTINUOUS
100
AcDbLine
 10
-7.137182703332655
 20
968.8779029209291
 30
0.0
 11
-11.12768856765251
 21
1034.122097079069
 31
0.0
  0
ARC
  5
64D8C
330
1E
100
AcDbEntity
  8
OUTLINE
  6
CONTINUOUS
100
AcDbCircle
 10
-4.963031307204801
 20
966.0
 30
0.0
 40
1.000000000000051
100
AcDbArc
 50
3.50000000003769
 51
90.0
  0
ARC
  5
64D8D
330
1E
100
AcDbEntity
  8
OUTLINE
  6
CONTINUOUS
100
AcDbCircle
 10
-5.140913106490188
 20
969.0
 30
0.0
 40
2.000000000000316
100
AcDbArc
 50
183.5000000000376
 51
270.0
  0
LINE
  5
64D8E
330
1E
100
AcDbEntity
  8
OUTLINE
  6
CONTINUOUS
100
AcDbLine
 10
-4.963031307204801
 20
967.0
 30
0.0
 11
-5.140913106490188
 21
967.0
 31
0.0
  0
LINE
  5
64D8F
330
1E
100
AcDbEntity
  8
OUTLINE
  6
CONTINUOUS
100
AcDbLine
 10
-4.200000000000727
 20
945.0
 30
0.0
 11
-4.200000000000727
 21
946.0
 31
0.0
  0
LINE
  5
64D90
330
1E
100
AcDbEntity
  8
OUTLINE
  6
CONTINUOUS
100
AcDbLine
 10
-12.20000000000072
 20
945.0
 30
0.0
 11
-11.49289321881224
 21
945.0
 31
0.0
  0
LINE
  5
64D91
330
1E
100
AcDbEntity
  8
OUTLINE
  6
CONTINUOUS
100
AcDbLine
 10
-12.20000000000072
 20
945.0
 30
0.0
 11
-12.20000000000072
 21
946.0
 31
0.0
  0
LINE
  5
64D92
330
1E
100
AcDbEntity
  8
OUTLINE
  6
CONTINUOUS
100
AcDbLine
 10
-11.49289321881224
 20
945.0
 30
0.0
 11
-11.49289321881224
 21
946.0
 31
0.0
  0
LINE
  5
64D93
330
1E
100
AcDbEntity
  8
OUTLINE
  6
CONTINUOUS
100
AcDbLine
 10
-4.200000000000727
 20
945.0
 30
0.0
 11
-4.200000000000727
 21
946.0
 31
0.0
  0
LINE
  5
64D94
330
1E
100
AcDbEntity
  8
OUTLINE
  6
CONTINUOUS
100
AcDbLine
 10
-12.20000000000072
 20
945.0
 30
0.0
 11
-11.49289321881224
 21
945.0
 31
0.0
  0
LINE
  5
64D95
330
1E
100
AcDbEntity
  8
OUTLINE
  6
CONTINUOUS
100
AcDbLine
 10
-12.20000000000072
 20
945.0
 30
0.0
 11
-12.20000000000072
 21
946.0
 31
0.0
  0
LINE
  5
64D96
330
1E
100
AcDbEntity
  8
OUTLINE
  6
CONTINUOUS
100
AcDbLine
 10
-11.49289321881224
 20
945.0
 30
0.0
 11
-11.49289321881224
 21
946.0
 31
0.0
  0
LINE
  5
64D97
330
1E
100
AcDbEntity
  8
OUTLINE
  6
CONTINUOUS
100
AcDbLine
 10
-3.964896508783567
 20
966.0610485395336
 30
0.0
 11
-1.60000000000582
 21
946.0
 31
0.0
  0
ARC
  5
64D98
330
1E
100
AcDbEntity
  8
OUTLINE
  6
CONTINUOUS
100
AcDbCircle
 10
-13.12395816449497
 20
1034.0
 30
0.0
 40
1.999999999999195
100
AcDbArc
 50
3.50000000003769
 51
90.0
  0
ENDSEC
  0
SECTION
  2
OBJECTS
  0
DICTIONARY
  5
C
330
0
100
AcDbDictionary
  3
ACAD_GROUP
350
D
  3
ACAD_LAYOUT
350
19
  3
ACAD_MLINESTYLE
350
16
  3
ACAD_PLOTSETTINGS
350
18
  3
ACAD_PLOTSTYLENAME
350
E
  3
ACDBHEADERROUNDTRIPXREC
350
64DC3
  3
ACDBVARIABLEDICTIONARY
350
56B49
  0
DICTIONARY
  5
64DE6
330
1E
100
AcDbDictionary
280
     1
  3
ACAD_LAYOUTSELFREF
360
64DE7
  0
DICTIONARY
  5
64DE4
330
1A
100
AcDbDictionary
280
     1
  3
ACAD_LAYOUTSELFREF
360
64DE5
  0
DICTIONARY
  5
D
102
{ACAD_REACTORS
330
C
102
}
330
C
100
AcDbDictionary
  0
DICTIONARY
  5
19
102
{ACAD_REACTORS
330
C
102
}
330
C
100
AcDbDictionary
  0
DICTIONARY
  5
16
102
{ACAD_REACTORS
330
C
102
}
330
C
100
AcDbDictionary
  3
STANDARD
350
17
  0
DICTIONARY
  5
18
102
{ACAD_REACTORS
330
C
102
}
330
C
100
AcDbDictionary
  0
ACDBDICTIONARYWDFLT
  5
E
102
{ACAD_REACTORS
330
C
102
}
330
C
100
AcDbDictionary
281
     1
  3
Normal
350
F
100
AcDbDictionaryWithDefault
340
F
  0
DICTIONARY
  5
64DC3
102
{ACAD_REACTORS
330
C
102
}
330
C
100
AcDbDictionary
  3
CEPSNTYPE
350
64DCD
  3
DIMSTYLEDATA
350
64DD1
  3
FINGERPRINTGUID
350
64DCE
  3
HYPERLINKBASE
350
64DC6
  3
INSUNITS
350
64DCC
  3
LAYOUTDICT
350
64DC8
  3
LWETCUNION
350
64DCB
  3
PLOTSETDICT
350
64DC9
  3
PLOTSTYLNAMDICT
350
64DCA
  3
PSVPSCALE
350
64DD0
  3
PUCSBASE
350
64DD4
  3
PUCSORGBACK
350
64DDA
  3
PUCSORGBOTTOM
350
64DD6
  3
PUCSORGFRONT
350
64DD9
  3
PUCSORGLEFT
350
64DD7
  3
PUCSORGRIGHT
350
64DD8
  3
PUCSORGTOP
350
64DD5
  3
PUCSORTHOREF
350
64DD2
  3
PUCSORTHOVIEW
350
64DD3
  3
STYLESHEET
350
64DC7
  3
TSTACKALIGN
350
64DC4
  3
TSTACKSIZE
350
64DC5
  3
UCSBASE
350
64DDD
  3
UCSORGBACK
350
64DE3
  3
UCSORGBOTTOM
350
64DDF
  3
UCSORGFRONT
350
64DE2
  3
UCSORGLEFT
350
64DE0
  3
UCSORGRIGHT
350
64DE1
  3
UCSORGTOP
350
64DDE
  3
UCSORTHOREF
350
64DDB
  3
UCSORTHOVIEW
350
64DDC
  3
VERSIONGUID
350
64DCF
  0
DICTIONARY
  5
56B49
102
{ACAD_REACTORS
330
C
102
}
330
C
100
AcDbDictionary
  3
SORTENTS
350
56B4A
  0
XRECORD
  5
64DE7
102
{ACAD_REACTORS
330
64DE6
102
}
330
64DE6
100
AcDbXrecord
340
1E
  0
XRECORD
  5
64DE5
102
{ACAD_REACTORS
330
64DE4
102
}
330
64DE4
100
AcDbXrecord
340
1A
  0
MLINESTYLE
  5
17
102
{ACAD_REACTORS
330
16
102
}
330
16
100
AcDbMlineStyle
  2
STANDARD
 70
     0
  3

 62
   256
 51
90.0
 52
90.0
 71
     2
 49
0.5
 62
   256
  6
BYLAYER
 49
-0.5
 62
   256
  6
BYLAYER
  0
ACDBPLACEHOLDER
  5
F
102
{ACAD_REACTORS
330
E
102
}
330
E
100
AcDbPlaceHolder
280
     0
  0
XRECORD
  5
64DCD
102
{ACAD_REACTORS
330
64DC3
102
}
330
64DC3
100
AcDbXrecord
 90
        0
  0
XRECORD
  5
64DD1
102
{ACAD_REACTORS
330
64DC3
102
}
330
64DC3
100
AcDbXrecord
1000
DSTYLE
1002
{
1070
   341
340
989D
1070
   342
340
989D
1002
}
  0
XRECORD
  5
64DCE
102
{ACAD_REACTORS
330
64DC3
102
}
330
64DC3
100
AcDbXrecord
  1
{B080D177-E69E-4E21-B2C6-E176D61109FE}
  0
XRECORD
  5
64DC6
102
{ACAD_REACTORS
330
64DC3
102
}
330
64DC3
100
AcDbXrecord
  1

  0
XRECORD
  5
64DCC
102
{ACAD_REACTORS
330
64DC3
102
}
330
64DC3
100
AcDbXrecord
 90
        0
  0
XRECORD
  5
64DC8
102
{ACAD_REACTORS
330
64DC3
102
}
330
64DC3
100
AcDbXrecord
340
19
  0
XRECORD
  5
64DCB
102
{ACAD_REACTORS
330
64DC3
102
}
330
64DC3
100
AcDbXrecord
 90
    10781
  0
XRECORD
  5
64DC9
102
{ACAD_REACTORS
330
64DC3
102
}
330
64DC3
100
AcDbXrecord
340
18
  0
XRECORD
  5
64DCA
102
{ACAD_REACTORS
330
64DC3
102
}
330
64DC3
100
AcDbXrecord
340
E
  0
XRECORD
  5
64DD0
102
{ACAD_REACTORS
330
64DC3
102
}
330
64DC3
100
AcDbXrecord
 40
0.0
  0
XRECORD
  5
64DD4
102
{ACAD_REACTORS
330
64DC3
102
}
330
64DC3
100
AcDbXrecord
340
0
  0
XRECORD
  5
64DDA
102
{ACAD_REACTORS
330
64DC3
102
}
330
64DC3
100
AcDbXrecord
 10
0.0
 20
0.0
 30
0.0
  0
XRECORD
  5
64DD6
102
{ACAD_REACTORS
330
64DC3
102
}
330
64DC3
100
AcDbXrecord
 10
0.0
 20
0.0
 30
0.0
  0
XRECORD
  5
64DD9
102
{ACAD_REACTORS
330
64DC3
102
}
330
64DC3
100
AcDbXrecord
 10
0.0
 20
0.0
 30
0.0
  0
XRECORD
  5
64DD7
102
{ACAD_REACTORS
330
64DC3
102
}
330
64DC3
100
AcDbXrecord
 10
0.0
 20
0.0
 30
0.0
  0
XRECORD
  5
64DD8
102
{ACAD_REACTORS
330
64DC3
102
}
330
64DC3
100
AcDbXrecord
 10
0.0
 20
0.0
 30
0.0
  0
XRECORD
  5
64DD5
102
{ACAD_REACTORS
330
64DC3
102
}
330
64DC3
100
AcDbXrecord
 10
0.0
 20
0.0
 30
0.0
  0
XRECORD
  5
64DD2
102
{ACAD_REACTORS
330
64DC3
102
}
330
64DC3
100
AcDbXrecord
340
0
  0
XRECORD
  5
64DD3
102
{ACAD_REACTORS
330
64DC3
102
}
330
64DC3
100
AcDbXrecord
 70
     0
  0
XRECORD
  5
64DC7
102
{ACAD_REACTORS
330
64DC3
102
}
330
64DC3
100
AcDbXrecord
  1

  0
XRECORD
  5
64DC4
102
{ACAD_REACTORS
330
64DC3
102
}
330
64DC3
100
AcDbXrecord
 90
        1
  0
XRECORD
  5
64DC5
102
{ACAD_REACTORS
330
64DC3
102
}
330
64DC3
100
AcDbXrecord
 90
       70
  0
XRECORD
  5
64DDD
102
{ACAD_REACTORS
330
64DC3
102
}
330
64DC3
100
AcDbXrecord
340
0
  0
XRECORD
  5
64DE3
102
{ACAD_REACTORS
330
64DC3
102
}
330
64DC3
100
AcDbXrecord
 10
0.0
 20
0.0
 30
0.0
  0
XRECORD
  5
64DDF
102
{ACAD_REACTORS
330
64DC3
102
}
330
64DC3
100
AcDbXrecord
 10
0.0
 20
0.0
 30
0.0
  0
XRECORD
  5
64DE2
102
{ACAD_REACTORS
330
64DC3
102
}
330
64DC3
100
AcDbXrecord
 10
0.0
 20
0.0
 30
0.0
  0
XRECORD
  5
64DE0
102
{ACAD_REACTORS
330
64DC3
102
}
330
64DC3
100
AcDbXrecord
 10
0.0
 20
0.0
 30
0.0
  0
XRECORD
  5
64DE1
102
{ACAD_REACTORS
330
64DC3
102
}
330
64DC3
100
AcDbXrecord
 10
0.0
 20
0.0
 30
0.0
  0
XRECORD
  5
64DDE
102
{ACAD_REACTORS
330
64DC3
102
}
330
64DC3
100
AcDbXrecord
 10
0.0
 20
0.0
 30
0.0
  0
XRECORD
  5
64DDB
102
{ACAD_REACTORS
330
64DC3
102
}
330
64DC3
100
AcDbXrecord
340
0
  0
XRECORD
  5
64DDC
102
{ACAD_REACTORS
330
64DC3
102
}
330
64DC3
100
AcDbXrecord
 70
     0
  0
XRECORD
  5
64DCF
102
{ACAD_REACTORS
330
64DC3
102
}
330
64DC3
100
AcDbXrecord
  1
{206B2E05-220E-47F0-9566-28666BE18922}
  0
DICTIONARYVAR
  5
56B4A
102
{ACAD_REACTORS
330
56B49
102
}
330
56B49
100
DictionaryVariables
280
     0
  1
96
  0
ENDSEC
  0
EOF
