  0
SECTION
  2
HEADER
  9
$ACADVER
  1
AC1014
  9
$ACADMAINTVER
 70
     9
  9
$DWGCODEPAGE
  3
ANSI_932
  9
$INSBASE
 10
0.0
 20
0.0
 30
0.0
  9
$EXTMIN
 10
-6861.085141442855
 20
-12478.28541783003
 30
-0.0015258207003583
  9
$EXTMAX
 10
-3811.594887336417
 20
-9902.294697365917
 30
0.0000000349246037
  9
$LIMMIN
 10
-7220.252400000001
 20
-12914.887
  9
$LIMMAX
 10
-3401.8013
 20
-9785.991799999999
  9
$ORTHOMODE
 70
     0
  9
$REGENMODE
 70
     1
  9
$FILLMODE
 70
     1
  9
$QTEXTMODE
 70
     0
  9
$MIRRTEXT
 70
     0
  9
$DRAGMODE
 70
     2
  9
$LTSCALE
 40
20.0
  9
$OSMODE
 70
    39
  9
$ATTMODE
 70
     1
  9
$TEXTSIZE
 40
64.0
  9
$TRACEWID
 40
0.05
  9
$TEXTSTYLE
  7
STANDARD
  9
$CLAYER
  8
SIZE
  9
$CELTYPE
  6
CONTINUOUS
  9
$CECOLOR
 62
   256
  9
$CELTSCALE
 40
1.0
  9
$DELOBJ
 70
     1
  9
$DISPSILH
 70
     0
  9
$DIMSCALE
 40
1.0
  9
$DIMASZ
 40
10.0
  9
$DIMEXO
 40
20.0
  9
$DIMDLI
 40
20.0
  9
$DIMRND
 40
0.0
  9
$DIMDLE
 40
0.0
  9
$DIMEXE
 40
30.0
  9
$DIMTP
 40
0.0
  9
$DIMTM
 40
0.0
  9
$DIMTXT
 40
64.0
  9
$DIMCEN
 40
0.0
  9
$DIMTSZ
 40
0.0
  9
$DIMTOL
 70
     0
  9
$DIMLIM
 70
     0
  9
$DIMTIH
 70
     0
  9
$DIMTOH
 70
     0
  9
$DIMSE1
 70
     0
  9
$DIMSE2
 70
     0
  9
$DIMTAD
 70
     3
  9
$DIMZIN
 70
     8
  9
$DIMBLK
  1
DOTBLANK
  9
$DIMASO
 70
     1
  9
$DIMSHO
 70
     0
  9
$DIMPOST
  1

  9
$DIMAPOST
  1

  9
$DIMALT
 70
     0
  9
$DIMALTD
 70
     2
  9
$DIMALTF
 40
25.4
  9
$DIMLFAC
 40
1.0
  9
$DIMTOFL
 70
     1
  9
$DIMTVP
 40
0.0
  9
$DIMTIX
 70
     1
  9
$DIMSOXD
 70
     0
  9
$DIMSAH
 70
     0
  9
$DIMBLK1
  1

  9
$DIMBLK2
  1

  9
$DIMSTYLE
  2
STANDARD
  9
$DIMCLRD
 70
     0
  9
$DIMCLRE
 70
     0
  9
$DIMCLRT
 70
     0
  9
$DIMTFAC
 40
1.0
  9
$DIMGAP
 40
10.0
  9
$DIMJUST
 70
     0
  9
$DIMSD1
 70
     0
  9
$DIMSD2
 70
     0
  9
$DIMTOLJ
 70
     1
  9
$DIMTZIN
 70
     0
  9
$DIMALTZ
 70
     0
  9
$DIMALTTZ
 70
     0
  9
$DIMFIT
 70
     3
  9
$DIMUPT
 70
     0
  9
$DIMUNIT
 70
     2
  9
$DIMDEC
 70
     0
  9
$DIMTDEC
 70
     0
  9
$DIMALTU
 70
     2
  9
$DIMALTTD
 70
     2
  9
$DIMTXSTY
  7
STANDARD
  9
$DIMAUNIT
 70
     0
  9
$LUNITS
 70
     2
  9
$LUPREC
 70
     4
  9
$SKETCHINC
 40
0.1
  9
$FILLETRAD
 40
10.0
  9
$AUNITS
 70
     1
  9
$AUPREC
 70
     3
  9
$MENU
  1
ACAD
  9
$ELEVATION
 40
0.0
  9
$PELEVATION
 40
0.0
  9
$THICKNESS
 40
0.0
  9
$LIMCHECK
 70
     0
  9
$BLIPMODE
 70
     0
  9
$CHAMFERA
 40
0.0
  9
$CHAMFERB
 40
0.0
  9
$CHAMFERC
 40
0.0
  9
$CHAMFERD
 40
0.0
  9
$SKPOLY
 70
     0
  9
$TDCREATE
 40
2449761.516515995
  9
$TDUPDATE
 40
2455376.531911296
  9
$TDINDWG
 40
3.3764589236
  9
$TDUSRTIMER
 40
3.3764572917
  9
$USRTIMER
 70
     1
  9
$ANGBASE
 50
0.0
  9
$ANGDIR
 70
     0
  9
$PDMODE
 70
     3
  9
$PDSIZE
 40
-2.0
  9
$PLINEWID
 40
0.0
  9
$COORDS
 70
     2
  9
$SPLFRAME
 70
     0
  9
$SPLINETYPE
 70
     6
  9
$SPLINESEGS
 70
     8
  9
$ATTDIA
 70
     0
  9
$ATTREQ
 70
     1
  9
$HANDLING
 70
-16383
  9
$HANDSEED
  5
8626C
  9
$SURFTAB1
 70
     6
  9
$SURFTAB2
 70
     6
  9
$SURFTYPE
 70
     6
  9
$SURFU
 70
     6
  9
$SURFV
 70
     6
  9
$UCSNAME
  2

  9
$UCSORG
 10
0.0
 20
0.0
 30
0.0
  9
$UCSXDIR
 10
1.0
 20
0.0
 30
0.0
  9
$UCSYDIR
 10
0.0
 20
1.0
 30
0.0
  9
$PUCSNAME
  2

  9
$PUCSORG
 10
0.0
 20
0.0
 30
0.0
  9
$PUCSXDIR
 10
1.0
 20
0.0
 30
0.0
  9
$PUCSYDIR
 10
0.0
 20
1.0
 30
0.0
  9
$USERI1
 70
     0
  9
$USERI2
 70
     0
  9
$USERI3
 70
     0
  9
$USERI4
 70
     0
  9
$USERI5
 70
     0
  9
$USERR1
 40
20.0
  9
$USERR2
 40
0.0
  9
$USERR3
 40
0.0
  9
$USERR4
 40
0.0
  9
$USERR5
 40
0.0
  9
$WORLDVIEW
 70
     1
  9
$SHADEDGE
 70
     3
  9
$SHADEDIF
 70
    70
  9
$TILEMODE
 70
     1
  9
$MAXACTVP
 70
    64
  9
$PINSBASE
 10
0.0
 20
0.0
 30
0.0
  9
$PLIMCHECK
 70
     0
  9
$PEXTMIN
 10
1.000000000000000E+20
 20
1.000000000000000E+20
 30
1.000000000000000E+20
  9
$PEXTMAX
 10
-1.000000000000000E+20
 20
-1.000000000000000E+20
 30
-1.000000000000000E+20
  9
$PLIMMIN
 10
0.0
 20
0.0
  9
$PLIMMAX
 10
12.0
 20
9.0
  9
$UNITMODE
 70
     0
  9
$VISRETAIN
 70
     1
  9
$PLINEGEN
 70
     0
  9
$PSLTSCALE
 70
     1
  9
$TREEDEPTH
 70
  3020
  9
$PICKSTYLE
 70
     1
  9
$CMLSTYLE
  2
STANDARD
  9
$CMLJUST
 70
     0
  9
$CMLSCALE
 40
1.0
  9
$PROXYGRAPHICS
 70
     1
  9
$MEASUREMENT
 70
     0
  0
ENDSEC
  0
SECTION
  2
CLASSES
  0
CLASS
  1
ACDBDICTIONARYWDFLT
  2
AcDbDictionaryWithDefault
  3
AutoCAD 2000
 90
        0
280
     0
281
     0
  0
CLASS
  1
ACDBPLACEHOLDER
  2
AcDbPlaceHolder
  3
AutoCAD 2000
 90
        0
280
     0
281
     0
  0
CLASS
  1
LAYOUT
  2
AcDbLayout
  3
AutoCAD 2000
 90
        0
280
     0
281
     0
  0
CLASS
  1
LONG_TRANSACTION
  2
AcDbLongTransaction
  3
AutoCAD 2000
 90
        0
280
     0
281
     0
  0
CLASS
  1
LWPOLYLINE
  2
AcDbPolyline
  3
AutoCAD 2000
 90
        0
280
     0
281
     1
  0
CLASS
  1
HATCH
  2
AcDbHatch
  3
AutoCAD 2000
 90
        0
280
     0
281
     1
  0
CLASS
  1
XRECORD
  2
AcDbXrecord
  3
AutoCAD 2000
 90
        0
280
     0
281
     0
  0
ENDSEC
  0
SECTION
  2
TABLES
  0
TABLE
  2
VPORT
  5
8
330
0
100
AcDbSymbolTable
 70
     5
  0
VPORT
  5
86246
330
8
100
AcDbSymbolTableRecord
100
AcDbViewportTableRecord
  2
*ACTIVE
 70
     0
 10
0.0
 20
0.0
 11
1.0
 21
1.0
 12
-4250.345975556848
 22
-11093.174644178
 13
0.0
 23
0.0
 14
0.0001
 24
0.0001
 15
1.0
 25
1.0
 16
0.0
 26
0.0
 36
1.0
 17
0.0
 27
0.0
 37
0.0
 40
5207.872200693123
 41
1.307486631016042
 42
50.0
 43
0.0
 44
0.0
 50
0.0
 51
0.0
 71
     0
 72
  1000
 73
     1
 74
     0
 75
     1
 76
     0
 77
     0
 78
     0
  0
ENDTAB
  0
TABLE
  2
LTYPE
  5
5
330
0
100
AcDbSymbolTable
 70
     6
  0
LTYPE
  5
13
330
5
100
AcDbSymbolTableRecord
100
AcDbLinetypeTableRecord
  2
BYBLOCK
 70
     0
  3

 72
    65
 73
     0
 40
0.0
  0
LTYPE
  5
14
330
5
100
AcDbSymbolTableRecord
100
AcDbLinetypeTableRecord
  2
BYLAYER
 70
     0
  3

 72
    65
 73
     0
 40
0.0
  0
LTYPE
  5
15
330
5
100
AcDbSymbolTableRecord
100
AcDbLinetypeTableRecord
  2
CONTINUOUS
 70
     0
  3
実線
 72
    65
 73
     0
 40
0.0
  0
LTYPE
  5
23
330
5
100
AcDbSymbolTableRecord
100
AcDbLinetypeTableRecord
  2
DASHDOT
 70
     0
  3
____ _ ____ _ ____ _ ____ _ ____ _ ____ _ ____
 72
    65
 73
     4
 40
5.5
 49
4.0
 74
     0
 49
-0.6
 74
     0
 49
0.3
 74
     0
 49
-0.6
 74
     0
  0
LTYPE
  5
737
330
5
100
AcDbSymbolTableRecord
100
AcDbLinetypeTableRecord
  2
DOT_CENTER
 70
     0
  3
Dot_Center
 72
    65
 73
     4
 40
14.0
 49
12.0
 74
     0
 49
-1.0
 74
     0
 49
0.0
 74
     0
 49
-1.0
 74
     0
  0
LTYPE
  5
F832
330
5
100
AcDbSymbolTableRecord
100
AcDbLinetypeTableRecord
  2
PHANTOM
 70
     0
  3
Phantom
 72
    65
 73
     6
 40
13.0
 49
10.0
 74
     0
 49
-1.0
 74
     0
 49
0.0
 74
     0
 49
-1.0
 74
     0
 49
0.0
 74
     0
 49
-1.0
 74
     0
  0
ENDTAB
  0
TABLE
  2
LAYER
  5
2
330
0
100
AcDbSymbolTable
 70
    11
  0
LAYER
  5
10
330
2
100
AcDbSymbolTableRecord
100
AcDbLayerTableRecord
  2
0
 70
     0
 62
     7
  6
CONTINUOUS
  0
LAYER
  5
22
330
2
100
AcDbSymbolTableRecord
100
AcDbLayerTableRecord
  2
OUTLINE
 70
     0
 62
     3
  6
CONTINUOUS
  0
LAYER
  5
24
330
2
100
AcDbSymbolTableRecord
100
AcDbLayerTableRecord
  2
DETAIL
 70
     0
 62
     5
  6
CONTINUOUS
  0
LAYER
  5
25
330
2
100
AcDbSymbolTableRecord
100
AcDbLayerTableRecord
  2
BASIS
 70
     0
 62
     6
  6
CONTINUOUS
  0
LAYER
  5
26
330
2
100
AcDbSymbolTableRecord
100
AcDbLayerTableRecord
  2
NOTE
 70
     0
 62
     4
  6
CONTINUOUS
  0
LAYER
  5
27
330
2
100
AcDbSymbolTableRecord
100
AcDbLayerTableRecord
  2
SIZE
 70
     0
 62
    32
  6
CONTINUOUS
  0
LAYER
  5
28
330
2
100
AcDbSymbolTableRecord
100
AcDbLayerTableRecord
  2
ARRANGE
 70
     0
 62
     1
  6
CONTINUOUS
  0
LAYER
  5
29
330
2
100
AcDbSymbolTableRecord
100
AcDbLayerTableRecord
  2
FIX
 70
     0
 62
   241
  6
CONTINUOUS
  0
LAYER
  5
2A
330
2
100
AcDbSymbolTableRecord
100
AcDbLayerTableRecord
  2
ETC
 70
     0
 62
    83
  6
CONTINUOUS
  0
LAYER
  5
2D
330
2
100
AcDbSymbolTableRecord
100
AcDbLayerTableRecord
  2
DEFPOINTS
 70
     0
 62
     7
  6
CONTINUOUS
  0
ENDTAB
  0
TABLE
  2
STYLE
  5
3
330
0
100
AcDbSymbolTable
 70
     1
  0
STYLE
  5
11
330
3
100
AcDbSymbolTableRecord
100
AcDbTextStyleTableRecord
  2
STANDARD
 70
     0
 40
0.0
 41
0.9
 50
0.0
 71
     0
 42
64.0
  3
SIMPLEX
  4
BIGFONT
  0
ENDTAB
  0
TABLE
  2
VIEW
  5
6
330
0
100
AcDbSymbolTable
 70
     1
  0
VIEW
  5
2F
330
6
100
AcDbSymbolTableRecord
100
AcDbViewTableRecord
  2
ALL
 70
     0
 40
4282.62
 10
0.0
 20
41.30990399999999
 41
5940.0
 11
0.0
 21
0.0
 31
1.0
 12
0.0
 22
0.0
 32
0.0
 42
50.0
 43
0.0
 44
0.0
 50
0.0
 71
     0
  0
ENDTAB
  0
TABLE
  2
UCS
  5
7
330
0
100
AcDbSymbolTable
 70
     0
  0
ENDTAB
  0
TABLE
  2
APPID
  5
9
330
0
100
AcDbSymbolTable
 70
     1
  0
APPID
  5
12
330
9
100
AcDbSymbolTableRecord
100
AcDbRegAppTableRecord
  2
ACAD
 70
     0
  0
ENDTAB
  0
TABLE
  2
DIMSTYLE
  5
A
330
0
100
AcDbSymbolTable
 70
     1
  0
DIMSTYLE
105
134
330
A
100
AcDbSymbolTableRecord
100
AcDbDimStyleTableRecord
  2
STANDARD
 70
     0
  3

  4

  5

  6

  7

 40
1.0
 41
0.18
 42
0.0625
 43
0.38
 44
0.18
 45
0.0
 46
0.0
 47
0.0
 48
0.0
140
0.18
141
0.09
142
0.0
143
25.4
144
1.0
145
0.0
146
1.0
147
0.09
 71
     0
 72
     0
 73
     1
 74
     1
 75
     0
 76
     0
 77
     0
 78
     0
170
     0
171
     2
172
     0
173
     0
174
     0
175
     0
176
     0
177
     0
178
     0
270
     2
271
     4
272
     4
273
     2
274
     2
340
11
275
     0
280
     0
281
     0
282
     0
283
     1
284
     0
285
     0
286
     0
287
     3
288
     0
  0
ENDTAB
  0
TABLE
  2
BLOCK_RECORD
  5
1
330
0
100
AcDbSymbolTable
 70
   164
  0
BLOCK_RECORD
  5
1E
102
{ACAD_XDICTIONARY
360
8626A
102
}
330
1
100
AcDbSymbolTableRecord
100
AcDbBlockTableRecord
  2
*MODEL_SPACE
  0
BLOCK_RECORD
  5
1A
102
{ACAD_XDICTIONARY
360
86268
102
}
330
1
100
AcDbSymbolTableRecord
100
AcDbBlockTableRecord
  2
*PAPER_SPACE
  0
BLOCK_RECORD
  5
989D
330
1
100
AcDbSymbolTableRecord
100
AcDbBlockTableRecord
  2
_DOTBLANK
  0
ENDTAB
  0
ENDSEC
  0
SECTION
  2
BLOCKS
  0
BLOCK
  5
1F
330
1E
100
AcDbEntity
  8
0
100
AcDbBlockBegin
  2
*MODEL_SPACE
 70
     0
 10
0.0
 20
0.0
 30
0.0
  3
*MODEL_SPACE
  1

  0
ENDBLK
  5
20
330
1E
100
AcDbEntity
  8
0
100
AcDbBlockEnd
  0
BLOCK
  5
1B
330
1A
100
AcDbEntity
 67
     1
  8
0
100
AcDbBlockBegin
  2
*PAPER_SPACE
 70
     0
 10
0.0
 20
0.0
 30
0.0
  3
*PAPER_SPACE
  1

  0
ENDBLK
  5
1C
330
1A
100
AcDbEntity
 67
     1
  8
0
100
AcDbBlockEnd
  0
BLOCK
  5
98A0
330
989D
100
AcDbEntity
  8
0
100
AcDbBlockBegin
  2
_DOTBLANK
 70
     0
 10
0.0
 20
0.0
 30
0.0
  3
_DOTBLANK
  1

  0
CIRCLE
  5
989E
330
989D
100
AcDbEntity
  8
0
  6
BYBLOCK
 62
     0
100
AcDbCircle
 10
0.0
 20
0.0
 30
0.0
 40
0.5
  0
LINE
  5
989F
330
989D
100
AcDbEntity
  8
0
  6
BYBLOCK
 62
     0
100
AcDbLine
 10
-0.5
 20
0.0
 30
0.0
 11
-1.0
 21
0.0
 31
0.0
  0
ENDBLK
  5
98A1
330
989D
100
AcDbEntity
  8
0
100
AcDbBlockEnd
  0
ENDSEC
  0
SECTION
  2
ENTITIES
  0
TEXT
  5
42A90
330
1E
100
AcDbEntity
  8
ETC
  6
CONTINUOUS
100
AcDbText
 10
-4245.139978926535
 20
-10343.81912941728
 30
0.0
 40
64.0
  1
SPAC5342
 41
0.9
100
AcDbText
  0
LINE
  5
42AA8
330
1E
100
AcDbEntity
  8
0
  6
CONTINUOUS
100
AcDbLine
 10
-5343.583983226399
 20
-11480.84691050814
 30
0.0
 11
-5343.583976967911
 21
-11435.84690424965
 31
0.0
  0
LINE
  5
42AD7
330
1E
100
AcDbEntity
  8
0
100
AcDbLine
 10
-4727.583973428151
 20
-11386.74546189518
 30
0.0
 11
-4727.583973428151
 21
-11945.74835568766
 31
0.0
  0
LINE
  5
42AD8
330
1E
100
AcDbEntity
  8
0
100
AcDbLine
 10
-5305.58397342815
 20
-11945.7483556886
 30
0.0
 11
-5305.58397342815
 21
-11386.74546189518
 31
0.0
  0
LINE
  5
42AE4
330
1E
100
AcDbEntity
  8
0
  6
CONTINUOUS
100
AcDbLine
 10
-5350.383983617812
 20
-11435.84690643316
 30
0.0
 11
-5350.383983617812
 21
-11480.84690643317
 31
0.0
  0
LINE
  5
42AE5
330
1E
100
AcDbEntity
  8
0
  6
CONTINUOUS
100
AcDbLine
 10
-5381.583995824858
 20
-11480.84690643317
 30
0.0
 11
-5381.583995824858
 21
-11435.84690643316
 31
0.0
  0
LINE
  5
42AE6
330
1E
100
AcDbEntity
  8
0
  6
CONTINUOUS
100
AcDbLine
 10
-4688.583972936667
 20
-12008.24693084723
 30
0.0
 11
-4688.583972936667
 21
-10717.64689422613
 31
0.0
  0
LINE
  5
42AED
330
1E
100
AcDbEntity
  8
0
  6
CONTINUOUS
100
AcDbLine
 10
-4398.783977514305
 20
-11480.84690643317
 30
0.0
 11
-4398.783977514304
 21
-11435.84690643316
 31
0.0
  0
LINE
  5
42AEE
330
1E
100
AcDbEntity
  8
0
  6
CONTINUOUS
100
AcDbLine
 10
-4405.583965307265
 20
-11480.84690643317
 30
0.0
 11
-4405.583965307268
 21
-11435.84690643316
 31
0.0
  0
LINE
  5
42AEF
330
1E
100
AcDbEntity
  8
0
  6
CONTINUOUS
100
AcDbLine
 10
-4325.583965307269
 20
-11435.84690643316
 30
0.0
 11
-4325.583965307269
 21
-11480.84690643317
 31
0.0
  0
LINE
  5
42AF0
330
1E
100
AcDbEntity
  8
BASIS
  6
DOT_CENTER
100
AcDbLine
 10
-5016.583973428151
 20
-11344.48430918814
 30
0.0
 11
-5016.583973428151
 21
-11988.80950839516
 31
0.0
  0
LINE
  5
42AF5
330
1E
100
AcDbEntity
  8
BASIS
  6
DASHDOT
100
AcDbLine
 10
-4853.583965307262
 20
-10650.40943683535
 30
0.0
 11
-4853.583965307262
 21
-12035.24693084723
 31
0.0
  0
LINE
  5
42D22
330
1E
100
AcDbEntity
  8
0
  6
CONTINUOUS
100
AcDbLine
 10
-5243.236125951789
 20
-12016.26365448004
 30
0.0
 11
-5203.290081029918
 21
-12016.26365448004
 31
0.0
  0
LINE
  5
42D23
330
1E
100
AcDbEntity
  8
0
100
AcDbLine
 10
-4737.082526532137
 20
-11955.24690879119
 30
0.0
 11
-5296.08542032462
 21
-11955.24690879119
 31
0.0
  0
LINE
  5
42D24
330
1E
100
AcDbEntity
  8
0
  6
CONTINUOUS
100
AcDbLine
 10
-5377.583995824843
 20
-12009.24693084723
 30
0.0
 11
-4689.58397293667
 21
-12009.24693084723
 31
0.0
  0
LINE
  5
42D25
330
1E
100
AcDbEntity
  8
0
  6
CONTINUOUS
100
AcDbLine
 10
-5349.965160375631
 20
-12013.24693084722
 30
0.0
 11
-5183.583965307262
 21
-12013.24693084722
 31
0.0
  0
LINE
  5
42D26
330
1E
100
AcDbEntity
  8
BASIS
  6
DOT_CENTER
100
AcDbLine
 10
-4695.980604223159
 20
-11666.24690879165
 30
0.0
 11
-5337.187342633143
 21
-11666.24690879165
 31
0.0
  0
LINE
  5
42D36
330
1E
100
AcDbEntity
  8
0
  6
CONTINUOUS
100
AcDbLine
 10
-5378.583995824847
 20
-12008.24693084723
 30
0.0
 11
-5378.583995824847
 21
-11492.84692169195
 31
0.0
  0
LINE
  5
42D39
330
1E
100
AcDbEntity
  8
0
  6
CONTINUOUS
100
AcDbLine
 10
-5353.398265844371
 20
-12016.24693084723
 30
0.0
 11
-5313.452220922499
 21
-12016.24693084723
 31
0.0
  0
ARC
  5
42D3A
330
1E
100
AcDbEntity
  8
0
100
AcDbCircle
 10
-5352.300467456605
 20
-12009.04757559309
 30
0.0
 40
7.282573540683195
100
AcDbArc
 50
239.3024964160512
 51
261.330001882903
  0
ARC
  5
42D3B
330
1E
100
AcDbEntity
  8
0
100
AcDbCircle
 10
-5381.050524892888
 20
-11994.21101165777
 30
0.0
 40
2.044762441566532
100
AcDbArc
 50
145.6179868101711
 51
214.3820131898288
  0
ARC
  5
42D3C
330
1E
100
AcDbEntity
  8
0
100
AcDbCircle
 10
-5375.4518985459
 20
-11990.74690032965
 30
0.0
 40
7.643388793156777
100
AcDbArc
 50
162.4134702354155
 51
197.5865297644851
  0
ARC
  5
42D3D
330
1E
100
AcDbEntity
  8
0
100
AcDbCircle
 10
-5381.050524924177
 20
-11987.28278900152
 30
0.0
 40
2.044762415743188
100
AcDbArc
 50
145.617986315184
 51
214.3820136848159
  0
ARC
  5
42D3E
330
1E
100
AcDbEntity
  8
0
  6
CONTINUOUS
100
AcDbCircle
 10
-5377.583973226101
 20
-12008.24690824847
 30
0.0
 40
1.000022599007257
100
AcDbArc
 50
180.0012947837949
 51
269.9987052162051
  0
LINE
  5
42D3F
330
1E
100
AcDbEntity
  8
0
  6
CONTINUOUS
100
AcDbLine
 10
-5379.083995824839
 20
-11984.74693084722
 30
0.0
 11
-5378.583995824847
 21
-11984.74693084722
 31
0.0
  0
LINE
  5
42D40
330
1E
100
AcDbEntity
  8
0
  6
CONTINUOUS
100
AcDbLine
 10
-5379.083995824839
 20
-11996.74693084723
 30
0.0
 11
-5378.583995824847
 21
-11996.74693084723
 31
0.0
  0
LINE
  5
42D41
330
1E
100
AcDbEntity
  8
0
  6
CONTINUOUS
100
AcDbLine
 10
-5379.783946996722
 20
-11985.74693084723
 30
0.0
 11
-5379.083995824839
 21
-11985.74693084723
 31
0.0
  0
LINE
  5
42D42
330
1E
100
AcDbEntity
  8
0
  6
CONTINUOUS
100
AcDbLine
 10
-5379.783946996722
 20
-11995.74693084723
 30
0.0
 11
-5379.083995824839
 21
-11995.74693084723
 31
0.0
  0
LINE
  5
42D43
330
1E
100
AcDbEntity
  8
0
  6
CONTINUOUS
100
AcDbLine
 10
-5382.738048559222
 20
-11995.36570526129
 30
0.0
 11
-5383.383983617823
 21
-11994.24693084723
 31
0.0
  0
LINE
  5
42D44
330
1E
100
AcDbEntity
  8
0
  6
CONTINUOUS
100
AcDbLine
 10
-5382.738048559222
 20
-11986.12809539801
 30
0.0
 11
-5383.383983617823
 21
-11987.24693084723
 31
0.0
  0
LINE
  5
42D45
330
1E
100
AcDbEntity
  8
0
  6
CONTINUOUS
100
AcDbLine
 10
-5379.833995824847
 20
-11985.77537323004
 30
0.0
 11
-5379.783946996722
 21
-11985.74693084723
 31
0.0
  0
LINE
  5
42D46
330
1E
100
AcDbEntity
  8
0
  6
CONTINUOUS
100
AcDbLine
 10
-5379.833995824847
 20
-11995.71842742926
 30
0.0
 11
-5379.783946996722
 21
-11995.74693084723
 31
0.0
  0
LINE
  5
42D47
330
1E
100
AcDbEntity
  8
0
  6
CONTINUOUS
100
AcDbLine
 10
-5379.870555883445
 20
-11995.68192840582
 30
0.0
 11
-5379.833995824847
 21
-11995.71842742926
 31
0.0
  0
LINE
  5
42D48
330
1E
100
AcDbEntity
  8
0
  6
CONTINUOUS
100
AcDbLine
 10
-5379.883983617819
 20
-11995.64195037848
 30
0.0
 11
-5379.870555883445
 21
-11995.68192840582
 31
0.0
  0
LINE
  5
42D49
330
1E
100
AcDbEntity
  8
0
  6
CONTINUOUS
100
AcDbLine
 10
-5379.847423559223
 20
-11985.79331756598
 30
0.0
 11
-5379.833995824847
 21
-11985.77537323004
 31
0.0
  0
LINE
  5
42D4A
330
1E
100
AcDbEntity
  8
0
  6
CONTINUOUS
100
AcDbLine
 10
-5379.870555883445
 20
-11985.81187225348
 30
0.0
 11
-5379.847423559223
 21
-11985.79331756598
 31
0.0
  0
LINE
  5
42D4B
330
1E
100
AcDbEntity
  8
0
  6
CONTINUOUS
100
AcDbLine
 10
-5379.883983617819
 20
-11985.89127899176
 30
0.0
 11
-5379.870555883445
 21
-11985.81187225348
 31
0.0
  0
LINE
  5
42D4C
330
1E
100
AcDbEntity
  8
0
  6
CONTINUOUS
100
AcDbLine
 10
-5382.738048559222
 20
-11988.43748260504
 30
0.0
 11
-5379.883983617819
 21
-11988.43748260504
 31
0.0
  0
LINE
  5
42D4D
330
1E
100
AcDbEntity
  8
0
  6
CONTINUOUS
100
AcDbLine
 10
-5382.738048559222
 20
-11986.12809539801
 30
0.0
 11
-5379.883983617819
 21
-11986.12809539801
 31
0.0
  0
LINE
  5
42D4E
330
1E
100
AcDbEntity
  8
0
  6
CONTINUOUS
100
AcDbLine
 10
-5382.738048559222
 20
-11993.05631805426
 30
0.0
 11
-5379.883983617819
 21
-11993.05631805426
 31
0.0
  0
LINE
  5
42D4F
330
1E
100
AcDbEntity
  8
0
  6
CONTINUOUS
100
AcDbLine
 10
-5383.383983617823
 20
-11987.24693084723
 30
0.0
 11
-5383.383983617823
 21
-11994.24693084723
 31
0.0
  0
LINE
  5
42D50
330
1E
100
AcDbEntity
  8
0
  6
CONTINUOUS
100
AcDbLine
 10
-5382.738048559222
 20
-11995.36570526129
 30
0.0
 11
-5379.883983617819
 21
-11995.36570526129
 31
0.0
  0
LINE
  5
42D51
330
1E
100
AcDbEntity
  8
0
  6
CONTINUOUS
100
AcDbLine
 10
-5379.883983617819
 20
-11985.89127899176
 30
0.0
 11
-5379.883983617819
 21
-11995.64195037848
 31
0.0
  0
LINE
  5
42D52
330
1E
100
AcDbEntity
  8
0
  6
CONTINUOUS
100
AcDbLine
 10
-5379.083995824839
 20
-11984.74693084722
 30
0.0
 11
-5379.083995824839
 21
-11996.74693084723
 31
0.0
  0
LINE
  5
42D53
330
1E
100
AcDbEntity
  8
0
  6
CONTINUOUS
100
AcDbLine
 10
-5356.018260961572
 20
-12015.30967498785
 30
0.0
 11
-5362.080944067038
 21
-12009.24693084723
 31
0.0
  0
LINE
  5
42D54
330
1E
100
AcDbEntity
  8
0
  6
CONTINUOUS
100
AcDbLine
 10
-5352.736400610011
 20
-12011.64689422613
 30
0.0
 11
-5354.122020727191
 21
-12009.24693084723
 31
0.0
  0
ARC
  5
42D55
330
1E
100
AcDbEntity
  8
0
  6
CONTINUOUS
100
AcDbCircle
 10
-5349.965106946056
 20
-12010.04694603974
 30
0.0
 40
3.199984807935843
100
AcDbArc
 50
209.9990858089194
 51
269.9990433425647
  0
ARC
  5
42D56
330
1E
100
AcDbEntity
  8
0
100
AcDbCircle
 10
-5243.323809872318
 20
-12011.98554622884
 30
0.0
 40
4.279006739753893
100
AcDbArc
 50
230.9726875116013
 51
271.1741674052969
  0
ARC
  5
42D57
330
1E
100
AcDbEntity
  8
0
100
AcDbCircle
 10
-5313.84594990681
 20
-12011.98269864204
 30
0.0
 40
4.28237070007441
100
AcDbArc
 50
275.2753288258373
 51
309.0223337237342
  0
LINE
  5
42D58
330
1E
100
AcDbEntity
  8
0
  6
CONTINUOUS
100
AcDbLine
 10
-5293.38396835903
 20
-11984.68748260504
 30
0.0
 11
-5289.383968359034
 21
-11982.378095398
 31
0.0
  0
LINE
  5
42D59
330
1E
100
AcDbEntity
  8
0
  6
CONTINUOUS
100
AcDbLine
 10
-5289.383968359034
 20
-11982.378095398
 30
0.0
 11
-5285.38396835902
 21
-11984.68748260504
 31
0.0
  0
LINE
  5
42D5A
330
1E
100
AcDbEntity
  8
0
  6
CONTINUOUS
100
AcDbLine
 10
-5248.073223119773
 20
-12013.24693084722
 30
0.0
 11
-5246.018260961573
 21
-12015.30967498785
 31
0.0
  0
LINE
  5
42D5B
330
1E
100
AcDbEntity
  8
0
  6
CONTINUOUS
100
AcDbLine
 10
-5288.383983617823
 20
-11986.49693084723
 30
0.0
 11
-5286.933971410781
 21
-11986.49693084723
 31
0.0
  0
LINE
  5
42D5C
330
1E
100
AcDbEntity
  8
0
  6
CONTINUOUS
100
AcDbLine
 10
-5288.883983617815
 20
-11985.99693084723
 30
0.0
 11
-5288.883983617815
 21
-11984.5469186402
 31
0.0
  0
LINE
  5
42D5D
330
1E
100
AcDbEntity
  8
0
  6
CONTINUOUS
100
AcDbLine
 10
-5289.883983617819
 20
-11984.5469186402
 30
0.0
 11
-5288.883983617815
 21
-11984.5469186402
 31
0.0
  0
LINE
  5
42D5E
330
1E
100
AcDbEntity
  8
0
  6
CONTINUOUS
100
AcDbLine
 10
-5289.883983617819
 20
-11984.5469186402
 30
0.0
 11
-5289.883983617819
 21
-11985.99693084723
 31
0.0
  0
LINE
  5
42D5F
330
1E
100
AcDbEntity
  8
0
  6
CONTINUOUS
100
AcDbLine
 10
-5288.796825414683
 20
-11986.27897430426
 30
0.0
 11
-5289.971111303366
 21
-11986.27897430426
 31
0.0
  0
LINE
  5
42D60
330
1E
100
AcDbEntity
  8
0
  6
CONTINUOUS
100
AcDbLine
 10
-5290.383983617812
 20
-11986.49693084723
 30
0.0
 11
-5291.833965307269
 21
-11986.49693084723
 31
0.0
  0
LINE
  5
42D61
330
1E
100
AcDbEntity
  8
0
  6
CONTINUOUS
100
AcDbLine
 10
-5286.933971410781
 20
-11986.49693084723
 30
0.0
 11
-5286.933971410781
 21
-11987.49693084723
 31
0.0
  0
LINE
  5
42D62
330
1E
100
AcDbEntity
  8
0
  6
CONTINUOUS
100
AcDbLine
 10
-5288.383983617823
 20
-11987.49693084723
 30
0.0
 11
-5286.933971410781
 21
-11987.49693084723
 31
0.0
  0
LINE
  5
42D63
330
1E
100
AcDbEntity
  8
0
  6
CONTINUOUS
100
AcDbLine
 10
-5288.66602707485
 20
-11986.4097726441
 30
0.0
 11
-5288.66602707485
 21
-11987.5840280152
 31
0.0
  0
LINE
  5
42D64
330
1E
100
AcDbEntity
  8
0
  6
CONTINUOUS
100
AcDbLine
 10
-5288.883983617815
 20
-11989.4468820191
 30
0.0
 11
-5288.883983617815
 21
-11987.99693084723
 31
0.0
  0
LINE
  5
42D65
330
1E
100
AcDbEntity
  8
0
  6
CONTINUOUS
100
AcDbLine
 10
-5285.383983617812
 20
-11984.68748260504
 30
0.0
 11
-5285.383983617812
 21
-11989.30631805426
 31
0.0
  0
LINE
  5
42D66
330
1E
100
AcDbEntity
  8
0
  6
CONTINUOUS
100
AcDbLine
 10
-5285.383983617812
 20
-11989.30631805426
 30
0.0
 11
-5289.383983617809
 21
-11991.61570526129
 31
0.0
  0
LINE
  5
42D67
330
1E
100
AcDbEntity
  8
0
  6
CONTINUOUS
100
AcDbLine
 10
-5288.796825414683
 20
-11987.7148873902
 30
0.0
 11
-5289.971111303366
 21
-11987.7148873902
 31
0.0
  0
LINE
  5
42D68
330
1E
100
AcDbEntity
  8
0
  6
CONTINUOUS
100
AcDbLine
 10
-5290.101909643199
 20
-11986.4097726441
 30
0.0
 11
-5290.101909643199
 21
-11987.5840280152
 31
0.0
  0
LINE
  5
42D69
330
1E
100
AcDbEntity
  8
0
  6
CONTINUOUS
100
AcDbLine
 10
-5291.833965307269
 20
-11987.49693084723
 30
0.0
 11
-5291.833965307269
 21
-11986.49693084723
 31
0.0
  0
LINE
  5
42D6A
330
1E
100
AcDbEntity
  8
0
  6
CONTINUOUS
100
AcDbLine
 10
-5288.883983617815
 20
-11989.4468820191
 30
0.0
 11
-5289.883983617819
 21
-11989.4468820191
 31
0.0
  0
LINE
  5
42D6B
330
1E
100
AcDbEntity
  8
0
  6
CONTINUOUS
100
AcDbLine
 10
-5291.833965307269
 20
-11987.49693084723
 30
0.0
 11
-5290.383983617812
 21
-11987.49693084723
 31
0.0
  0
LINE
  5
42D6C
330
1E
100
AcDbEntity
  8
0
  6
CONTINUOUS
100
AcDbLine
 10
-5289.883983617819
 20
-11987.99693084723
 30
0.0
 11
-5289.883983617819
 21
-11989.4468820191
 31
0.0
  0
LINE
  5
42D6D
330
1E
100
AcDbEntity
  8
0
  6
CONTINUOUS
100
AcDbLine
 10
-5293.383983617823
 20
-11989.30631805426
 30
0.0
 11
-5293.383983617823
 21
-11984.68748260504
 31
0.0
  0
LINE
  5
42D6E
330
1E
100
AcDbEntity
  8
0
  6
CONTINUOUS
100
AcDbLine
 10
-5289.383983617809
 20
-11991.61570526129
 30
0.0
 11
-5293.383983617823
 21
-11989.30631805426
 31
0.0
  0
ARC
  5
42D6F
330
1E
100
AcDbEntity
  8
0
  6
CONTINUOUS
100
AcDbCircle
 10
-5288.383967122572
 20
-11985.99691435197
 30
0.0
 40
0.5000164955251058
100
AcDbArc
 50
180.0018901543846
 51
269.9981098456153
  0
ARC
  5
42D70
330
1E
100
AcDbEntity
  8
0
  6
CONTINUOUS
100
AcDbCircle
 10
-5290.38398790628
 20
-11985.99692655876
 30
0.0
 40
0.5000042884859985
100
AcDbArc
 50
270.0004914179159
 51
359.9995085819798
  0
ARC
  5
42D71
330
1E
100
AcDbEntity
  8
0
  6
CONTINUOUS
100
AcDbCircle
 10
-5288.383987905746
 20
-11987.9969265593
 30
0.0
 40
0.4999957120951113
100
AcDbArc
 50
89.999508635966
 51
180.000491364034
  0
ARC
  5
42D72
330
1E
100
AcDbEntity
  8
0
  6
CONTINUOUS
100
AcDbCircle
 10
-5290.383967122598
 20
-11987.99691435201
 30
0.0
 40
0.499983505055687
100
AcDbArc
 50
359.9981097250323
 51
90.00189027496769
  0
LINE
  5
42D73
330
1E
100
AcDbEntity
  8
0
  6
CONTINUOUS
100
AcDbLine
 10
-5309.086925512347
 20
-12013.24693084722
 30
0.0
 11
-5311.149669652968
 21
-12015.30967498785
 31
0.0
  0
ARC
  5
42D74
330
1E
100
AcDbEntity
  8
0
100
AcDbCircle
 10
-5296.08397342815
 20
-11945.74690879119
 30
0.0
 40
9.500000110184636
100
AcDbArc
 50
180.0087264246409
 51
269.9912735753591
  0
ARC
  5
42D75
330
1E
100
AcDbEntity
  8
0
  6
CONTINUOUS
100
AcDbCircle
 10
-5355.583983167726
 20
-11480.84691056681
 30
0.0
 40
11.9999999413291
100
AcDbArc
 50
269.9999815059829
 51
0.0000002801444777
  0
LINE
  5
42D76
330
1E
100
AcDbEntity
  8
0
  6
CONTINUOUS
100
AcDbLine
 10
-5381.575450902965
 20
-11487.86237884527
 30
0.0
 11
-5381.583995824858
 21
-11487.80157257086
 31
0.0
  0
LINE
  5
42D77
330
1E
100
AcDbEntity
  8
0
  6
CONTINUOUS
100
AcDbLine
 10
-5380.131298070938
 20
-11486.12325836187
 30
0.0
 11
-5379.515697485004
 21
-11486.04690338141
 31
0.0
  0
LINE
  5
42D78
330
1E
100
AcDbEntity
  8
0
  6
CONTINUOUS
100
AcDbLine
 10
-5355.583995824854
 20
-11486.04690338141
 30
0.0
 11
-5363.583995824847
 21
-11486.04690338141
 31
0.0
  0
LINE
  5
42D79
330
1E
100
AcDbEntity
  8
0
  6
CONTINUOUS
100
AcDbLine
 10
-5355.583995824854
 20
-11492.84690643316
 30
0.0
 11
-5363.583995824847
 21
-11492.84690643316
 31
0.0
  0
LINE
  5
42D7A
330
1E
100
AcDbEntity
  8
0
  6
CONTINUOUS
100
AcDbLine
 10
-5379.230419164687
 20
-11492.70046783453
 30
0.0
 11
-5381.29108811001
 21
-11490.63979888922
 31
0.0
  0
LINE
  5
42D7B
330
1E
100
AcDbEntity
  8
0
  6
CONTINUOUS
100
AcDbLine
 10
-5378.876842504542
 20
-11492.84690643316
 30
0.0
 11
-5363.583995824847
 21
-11492.84690643316
 31
0.0
  0
LINE
  5
42D7C
330
1E
100
AcDbEntity
  8
0
  6
CONTINUOUS
100
AcDbLine
 10
-5379.515697485004
 20
-11486.04690338141
 30
0.0
 11
-5363.583995824847
 21
-11486.04690338141
 31
0.0
  0
LINE
  5
42D7D
330
1E
100
AcDbEntity
  8
0
  6
CONTINUOUS
100
AcDbLine
 10
-5381.583995824858
 20
-11487.80157257086
 30
0.0
 11
-5381.583995824858
 21
-11480.84690643317
 31
0.0
  0
LINE
  5
42D7E
330
1E
100
AcDbEntity
  8
0
  6
CONTINUOUS
100
AcDbLine
 10
-5381.583995824858
 20
-11488.04690338141
 30
0.0
 11
-5381.583995824858
 21
-11489.93269134527
 31
0.0
  0
ARC
  5
42D7F
330
1E
100
AcDbEntity
  8
0
  6
CONTINUOUS
100
AcDbCircle
 10
-5355.583974173097
 20
-11480.84691282617
 30
0.0
 40
5.199990555284379
100
AcDbArc
 50
269.9997614315474
 51
0.000070440911514
  0
ARC
  5
42D80
330
1E
100
AcDbEntity
  8
0
  6
CONTINUOUS
100
AcDbCircle
 10
-5378.876873726803
 20
-11492.34690629584
 30
0.0
 40
0.500000138304109
100
AcDbArc
 50
225.00130462281
 51
270.0035778063144
  0
ARC
  5
42D81
330
1E
100
AcDbEntity
  8
0
  6
CONTINUOUS
100
AcDbCircle
 10
-5380.583981664585
 20
-11489.9326717465
 30
0.0
 40
1.000014160462492
100
AcDbArc
 50
180.0011229107805
 51
225.0008385228788
  0
ARC
  5
42D82
330
1E
100
AcDbEntity
  8
0
  6
CONTINUOUS
100
AcDbCircle
 10
-5379.583983324992
 20
-11488.04692584067
 30
0.0
 40
2.000012499984956
100
AcDbArc
 50
105.881916447215
 51
179.9993565935954
  0
LINE
  5
42DD5
330
1E
100
AcDbEntity
  8
0
100
AcDbLine
 10
-4687.583972936663
 20
-12009.24693084723
 30
0.0
 11
-4329.628591104709
 21
-12009.24693084723
 31
0.0
  0
LINE
  5
42DD6
330
1E
100
AcDbEntity
  8
0
  6
CONTINUOUS
100
AcDbLine
 10
-4687.583995824843
 20
-11829.24690032965
 30
0.0
 11
-4329.58399582485
 21
-11829.24690032965
 31
0.0
  0
LINE
  5
42DD7
330
1E
100
AcDbEntity
  8
0
  6
CONTINUOUS
100
AcDbLine
 10
-4338.470592504527
 20
-12010.24693084723
 30
0.0
 11
-4526.583957967341
 21
-12010.24693084723
 31
0.0
  0
LINE
  5
42DD8
330
1E
100
AcDbEntity
  8
0
  6
CONTINUOUS
100
AcDbLine
 10
-4352.20277023891
 20
-12013.24693084722
 30
0.0
 11
-4523.583965307262
 21
-12013.24693084722
 31
0.0
  0
LINE
  5
42DD9
330
1E
100
AcDbEntity
  8
0
  6
CONTINUOUS
100
AcDbLine
 10
-4687.583972936663
 20
-11850.24690032965
 30
0.0
 11
-4329.583965307272
 21
-11850.24690032965
 31
0.0
  0
POINT
  5
42DDE
330
1E
100
AcDbEntity
  8
ARRANGE
  6
CONTINUOUS
100
AcDbPoint
 10
-4853.583965307262
 20
-12035.24693084723
 30
0.0
  0
LINE
  5
42DDF
330
1E
100
AcDbEntity
  8
0
  6
CONTINUOUS
100
AcDbLine
 10
-5123.583965307273
 20
-12013.24693084722
 30
0.0
 11
-4583.583965307261
 21
-12013.24693084722
 31
0.0
  0
CIRCLE
  5
42DE0
330
1E
100
AcDbEntity
  8
ARRANGE
  6
CONTINUOUS
100
AcDbCircle
 10
-4853.583965307262
 20
-12035.24693084723
 30
0.0
 40
40.0
  0
LINE
  5
42DE2
330
1E
100
AcDbEntity
  8
0
  6
CONTINUOUS
100
AcDbLine
 10
-5083.39827156642
 20
-12016.24693084723
 30
0.0
 11
-5043.452230459243
 21
-12016.24693084723
 31
0.0
  0
LINE
  5
42DE3
330
1E
100
AcDbEntity
  8
0
  6
CONTINUOUS
100
AcDbLine
 10
-5143.083965307269
 20
-12010.24693084723
 30
0.0
 11
-5126.583965307272
 21
-12010.24693084723
 31
0.0
  0
LINE
  5
42DE4
330
1E
100
AcDbEntity
  8
0
  6
CONTINUOUS
100
AcDbLine
 10
-5128.583965307262
 20
-12033.24693084722
 30
0.0
 11
-5178.583965307262
 21
-12033.24693084722
 31
0.0
  0
LINE
  5
42DE5
330
1E
100
AcDbEntity
  8
0
  6
CONTINUOUS
100
AcDbLine
 10
-5128.583965307262
 20
-12027.24693084723
 30
0.0
 11
-5178.583965307262
 21
-12027.24693084723
 31
0.0
  0
LINE
  5
42DE8
330
1E
100
AcDbEntity
  8
BASIS
  6
PHANTOM
100
AcDbLine
 10
-5153.583965307262
 20
-12008.57659119458
 30
0.0
 11
-5153.583965307262
 21
-12045.91727049987
 31
0.0
  0
ARC
  5
42DE9
330
1E
100
AcDbEntity
  8
0
100
AcDbCircle
 10
-5203.683810014229
 20
-12011.99942227485
 30
0.0
 40
4.28237070007441
100
AcDbArc
 50
275.2753288258373
 51
309.0223337237342
  0
LINE
  5
42DEA
330
1E
100
AcDbEntity
  8
0
  6
CONTINUOUS
100
AcDbLine
 10
-5198.924785619766
 20
-12013.26365448004
 30
0.0
 11
-5200.987529760387
 21
-12015.32639862066
 31
0.0
  0
LINE
  5
42DEB
330
1E
100
AcDbEntity
  8
0
  6
CONTINUOUS
100
AcDbLine
 10
-5183.583965307262
 20
-12013.24693084722
 30
0.0
 11
-5183.583965307262
 21
-12030.24693084723
 31
0.0
  0
LINE
  5
42DEC
330
1E
100
AcDbEntity
  8
0
  6
CONTINUOUS
100
AcDbLine
 10
-5146.083965307262
 20
-12010.24693084723
 30
0.0
 11
-5143.083965307269
 21
-12010.24693084723
 31
0.0
  0
LINE
  5
42DED
330
1E
100
AcDbEntity
  8
0
  6
CONTINUOUS
100
AcDbLine
 10
-5164.083965307272
 20
-12010.24693084723
 30
0.0
 11
-5161.083965307262
 21
-12010.24693084723
 31
0.0
  0
LINE
  5
42DEE
330
1E
100
AcDbEntity
  8
0
  6
CONTINUOUS
100
AcDbLine
 10
-5180.583965307269
 20
-12010.24693084723
 30
0.0
 11
-5164.083965307272
 21
-12010.24693084723
 31
0.0
  0
ARC
  5
42DEF
330
1E
100
AcDbEntity
  8
0
  6
CONTINUOUS
100
AcDbCircle
 10
-5180.583978750728
 20
-12013.24691740377
 30
0.0
 40
2.999986556570656
100
AcDbArc
 50
89.99974324769043
 51
180.0002567523095
  0
ARC
  5
42DF0
330
1E
100
AcDbEntity
  8
0
100
AcDbCircle
 10
-5144.583965307271
 20
-12020.44860607005
 30
0.0
 40
1.515548930765032
100
AcDbArc
 50
188.2143825009612
 51
351.785617501677
  0
ARC
  5
42DF1
330
1E
100
AcDbEntity
  8
0
100
AcDbCircle
 10
-5162.583965307265
 20
-12020.44860607003
 30
0.0
 40
1.515548930785328
100
AcDbArc
 50
188.2143825020076
 51
351.7856174979923
  0
LINE
  5
42DF2
330
1E
100
AcDbEntity
  8
0
  6
CONTINUOUS
100
AcDbLine
 10
-5161.083965307262
 20
-12020.66514373785
 30
0.0
 11
-5146.083965307262
 21
-12020.66514373785
 31
0.0
  0
LINE
  5
42DF3
330
1E
100
AcDbEntity
  8
0
  6
CONTINUOUS
100
AcDbLine
 10
-5161.083965307262
 20
-12009.24693084723
 30
0.0
 11
-5161.083965307262
 21
-12020.66514373785
 31
0.0
  0
LINE
  5
42DF4
330
1E
100
AcDbEntity
  8
0
  6
CONTINUOUS
100
AcDbLine
 10
-5146.083965307262
 20
-12020.66514373785
 30
0.0
 11
-5146.083965307262
 21
-12009.24693084723
 31
0.0
  0
LINE
  5
42DF5
330
1E
100
AcDbEntity
  8
0
  6
CONTINUOUS
100
AcDbLine
 10
-5143.083965307269
 20
-12020.66514373785
 30
0.0
 11
-5143.083965307269
 21
-12010.24693084723
 31
0.0
  0
LINE
  5
42DF6
330
1E
100
AcDbEntity
  8
0
  6
CONTINUOUS
100
AcDbLine
 10
-5164.083965307272
 20
-12020.66514373785
 30
0.0
 11
-5164.083965307272
 21
-12010.24693084723
 31
0.0
  0
LINE
  5
42DF7
330
1E
100
AcDbEntity
  8
0
  6
CONTINUOUS
100
AcDbLine
 10
-5178.583965307262
 20
-12027.24693084723
 30
0.0
 11
-5180.431728368785
 21
-12027.24693084723
 31
0.0
  0
LINE
  5
42DF8
330
1E
100
AcDbEntity
  8
0
  6
CONTINUOUS
100
AcDbLine
 10
-5178.583965307262
 20
-12033.24693084722
 30
0.0
 11
-5183.583965307262
 21
-12033.24693084722
 31
0.0
  0
ARC
  5
42DF9
330
1E
100
AcDbEntity
  8
0
  6
CONTINUOUS
100
AcDbCircle
 10
-5180.583965172991
 20
-12030.24690198136
 30
0.0
 40
3.000000134410163
100
AcDbArc
 50
104.6798645523989
 51
180.0005512973389
  0
ARC
  5
42DFA
330
1E
100
AcDbEntity
  8
0
  6
CONTINUOUS
100
AcDbCircle
 10
-5183.983983328417
 20
-12033.24692198136
 30
0.0
 40
2.000008865886779
100
AcDbArc
 50
270.0002539872377
 51
359.999746012658
  0
ARC
  5
42DFB
330
1E
100
AcDbEntity
  8
0
  6
CONTINUOUS
100
AcDbCircle
 10
-5183.9839604392
 20
-12033.24689909318
 30
0.0
 40
0.3999951331973375
100
AcDbArc
 50
269.9979912805098
 51
359.9954515126614
  0
LINE
  5
42DFC
330
1E
100
AcDbEntity
  8
0
  6
CONTINUOUS
100
AcDbLine
 10
-5183.583965307262
 20
-12030.24693084723
 30
0.0
 11
-5183.583965307262
 21
-12033.24693084722
 31
0.0
  0
LINE
  5
42DFD
330
1E
100
AcDbEntity
  8
0
  6
CONTINUOUS
100
AcDbLine
 10
-5188.583965307262
 20
-12035.24693084723
 30
0.0
 11
-5188.583965307262
 21
-12033.64689422613
 31
0.0
  0
LINE
  5
42DFE
330
1E
100
AcDbEntity
  8
0
  6
CONTINUOUS
100
AcDbLine
 10
-5183.983974462535
 20
-12033.64689422613
 30
0.0
 11
-5185.583965307269
 21
-12033.64689422613
 31
0.0
  0
LINE
  5
42DFF
330
1E
100
AcDbEntity
  8
0
  6
CONTINUOUS
100
AcDbLine
 10
-5185.583965307269
 20
-12035.24693084723
 30
0.0
 11
-5183.983974462535
 21
-12035.24693084723
 31
0.0
  0
LINE
  5
42E00
330
1E
100
AcDbEntity
  8
0
  6
CONTINUOUS
100
AcDbLine
 10
-5188.583965307262
 20
-12033.64689422613
 30
0.0
 11
-5185.583965307269
 21
-12033.64689422613
 31
0.0
  0
LINE
  5
42E01
330
1E
100
AcDbEntity
  8
0
  6
CONTINUOUS
100
AcDbLine
 10
-5188.583965307262
 20
-12035.24693084723
 30
0.0
 11
-5185.583965307269
 21
-12035.24693084723
 31
0.0
  0
LINE
  5
42E02
330
1E
100
AcDbEntity
  8
0
  6
CONTINUOUS
100
AcDbLine
 10
-5180.431728368785
 20
-12027.24693084723
 30
0.0
 11
-5181.344219213515
 21
-12027.34483123785
 31
0.0
  0
ARC
  5
42E05
330
1E
100
AcDbEntity
  8
0
100
AcDbCircle
 10
-5083.386245415597
 20
-12012.08264612093
 30
0.0
 40
4.164302091584343
100
AcDbArc
 50
230.7983871831742
 51
269.8345344241417
  0
LINE
  5
42E06
330
1E
100
AcDbEntity
  8
0
  6
CONTINUOUS
100
AcDbLine
 10
-5088.086559119076
 20
-12013.24693084722
 30
0.0
 11
-5086.01829720119
 21
-12015.30967498785
 31
0.0
  0
LINE
  5
42E07
330
1E
100
AcDbEntity
  8
0
  6
CONTINUOUS
100
AcDbLine
 10
-5123.583965307261
 20
-12013.24693084722
 30
0.0
 11
-5123.583965307273
 21
-12030.24693084723
 31
0.0
  0
ARC
  5
42E08
330
1E
100
AcDbEntity
  8
0
  6
CONTINUOUS
100
AcDbCircle
 10
-5126.583957967341
 20
-12013.24692350729
 30
0.0
 40
2.999992660077961
100
AcDbArc
 50
359.9998598172875
 51
90.00014018271249
  0
LINE
  5
42E09
330
1E
100
AcDbEntity
  8
0
  6
CONTINUOUS
100
AcDbLine
 10
-5121.583965307273
 20
-12035.24693084723
 30
0.0
 11
-5118.583965307262
 21
-12035.24693084723
 31
0.0
  0
LINE
  5
42E0A
330
1E
100
AcDbEntity
  8
0
  6
CONTINUOUS
100
AcDbLine
 10
-5121.583965307273
 20
-12033.64689422613
 30
0.0
 11
-5118.583965307262
 21
-12033.64689422613
 31
0.0
  0
ARC
  5
42E0B
330
1E
100
AcDbEntity
  8
0
  6
CONTINUOUS
100
AcDbCircle
 10
-5126.583957967341
 20
-12030.2469235073
 30
0.0
 40
2.999992660077961
100
AcDbArc
 50
359.9998598172875
 51
90.00014018271249
  0
ARC
  5
42E0C
330
1E
100
AcDbEntity
  8
0
  6
CONTINUOUS
100
AcDbCircle
 10
-5123.18396101904
 20
-12033.24692045548
 30
0.0
 40
2.000010391774079
100
AcDbArc
 50
180.0002976999898
 51
269.9997022999059
  0
ARC
  5
42E0D
330
1E
100
AcDbEntity
  8
0
  6
CONTINUOUS
100
AcDbCircle
 10
-5123.183976278415
 20
-12033.24690519648
 30
0.0
 40
0.3999890296843836
100
AcDbArc
 50
180.0036742998288
 51
270.000697254592
  0
LINE
  5
42E0E
330
1E
100
AcDbEntity
  8
0
  6
CONTINUOUS
100
AcDbLine
 10
-5123.583965307261
 20
-12030.24693084723
 30
0.0
 11
-5123.583965307261
 21
-12033.24693084722
 31
0.0
  0
LINE
  5
42E0F
330
1E
100
AcDbEntity
  8
0
  6
CONTINUOUS
100
AcDbLine
 10
-5126.583965307272
 20
-12027.24693084723
 30
0.0
 11
-5128.583965307262
 21
-12027.24693084723
 31
0.0
  0
LINE
  5
42E10
330
1E
100
AcDbEntity
  8
0
  6
CONTINUOUS
100
AcDbLine
 10
-5123.183971410782
 20
-12035.24693084723
 30
0.0
 11
-5121.583965307273
 21
-12035.24693084723
 31
0.0
  0
LINE
  5
42E11
330
1E
100
AcDbEntity
  8
0
  6
CONTINUOUS
100
AcDbLine
 10
-5121.583965307273
 20
-12033.64689422613
 30
0.0
 11
-5123.183971410782
 21
-12033.64689422613
 31
0.0
  0
LINE
  5
42E12
330
1E
100
AcDbEntity
  8
0
  6
CONTINUOUS
100
AcDbLine
 10
-5123.583965307261
 20
-12033.24693084722
 30
0.0
 11
-5128.583965307262
 21
-12033.24693084722
 31
0.0
  0
LINE
  5
42E13
330
1E
100
AcDbEntity
  8
0
  6
CONTINUOUS
100
AcDbLine
 10
-5118.583965307262
 20
-12035.24693084723
 30
0.0
 11
-5118.583965307262
 21
-12033.64689422613
 31
0.0
  0
ARC
  5
42E14
330
1E
100
AcDbEntity
  8
0
100
AcDbCircle
 10
-5043.846086454767
 20
-12011.98238661429
 30
0.0
 40
4.282693084950641
100
AcDbArc
 50
275.2766370350024
 51
309.0210255144288
  0
LINE
  5
42E15
330
1E
100
AcDbEntity
  8
0
  6
CONTINUOUS
100
AcDbLine
 10
-5039.086975523625
 20
-12013.24693084722
 30
0.0
 11
-5041.149679189711
 21
-12015.30967498785
 31
0.0
  0
LINE
  5
42E16
330
1E
100
AcDbEntity
  8
0
  6
CONTINUOUS
100
AcDbLine
 10
-5020.583965307269
 20
-11984.68748260504
 30
0.0
 11
-5016.583965307273
 21
-11982.378095398
 31
0.0
  0
LINE
  5
42E17
330
1E
100
AcDbEntity
  8
0
  6
CONTINUOUS
100
AcDbLine
 10
-5016.583965307273
 20
-11982.378095398
 30
0.0
 11
-5012.583965307258
 21
-11984.68748260504
 31
0.0
  0
LINE
  5
42E18
330
1E
100
AcDbEntity
  8
0
  6
CONTINUOUS
100
AcDbLine
 10
-5016.083965307262
 20
-11985.99693084723
 30
0.0
 11
-5016.083965307262
 21
-11984.5469186402
 31
0.0
  0
LINE
  5
42E19
330
1E
100
AcDbEntity
  8
0
  6
CONTINUOUS
100
AcDbLine
 10
-5015.583965307269
 20
-11986.49693084723
 30
0.0
 11
-5014.133968359019
 21
-11986.49693084723
 31
0.0
  0
LINE
  5
42E1A
330
1E
100
AcDbEntity
  8
0
  6
CONTINUOUS
100
AcDbLine
 10
-5017.083965307265
 20
-11984.5469186402
 30
0.0
 11
-5016.083965307262
 21
-11984.5469186402
 31
0.0
  0
LINE
  5
42E1B
330
1E
100
AcDbEntity
  8
0
  6
CONTINUOUS
100
AcDbLine
 10
-5017.083965307265
 20
-11984.5469186402
 30
0.0
 11
-5017.083965307265
 21
-11985.99693084723
 31
0.0
  0
LINE
  5
42E1C
330
1E
100
AcDbEntity
  8
0
  6
CONTINUOUS
100
AcDbLine
 10
-5015.99682236294
 20
-11986.27897430426
 30
0.0
 11
-5017.171123510397
 21
-11986.27897430426
 31
0.0
  0
LINE
  5
42E1D
330
1E
100
AcDbEntity
  8
0
  6
CONTINUOUS
100
AcDbLine
 10
-5017.583965307276
 20
-11986.49693084723
 30
0.0
 11
-5019.0339775143
 21
-11986.49693084723
 31
0.0
  0
LINE
  5
42E1E
330
1E
100
AcDbEntity
  8
0
  6
CONTINUOUS
100
AcDbLine
 10
-5014.133968359019
 20
-11986.49693084723
 30
0.0
 11
-5014.133968359019
 21
-11987.49693084723
 31
0.0
  0
LINE
  5
42E1F
330
1E
100
AcDbEntity
  8
0
  6
CONTINUOUS
100
AcDbLine
 10
-5015.583965307269
 20
-11987.49693084723
 30
0.0
 11
-5014.133968359019
 21
-11987.49693084723
 31
0.0
  0
LINE
  5
42E20
330
1E
100
AcDbEntity
  8
0
  6
CONTINUOUS
100
AcDbLine
 10
-5015.86602402309
 20
-11986.4097726441
 30
0.0
 11
-5015.86602402309
 21
-11987.5840280152
 31
0.0
  0
LINE
  5
42E21
330
1E
100
AcDbEntity
  8
0
  6
CONTINUOUS
100
AcDbLine
 10
-5016.083965307262
 20
-11989.4468820191
 30
0.0
 11
-5016.083965307262
 21
-11987.99693084723
 31
0.0
  0
LINE
  5
42E22
330
1E
100
AcDbEntity
  8
0
  6
CONTINUOUS
100
AcDbLine
 10
-5012.583965307277
 20
-11984.68748260504
 30
0.0
 11
-5012.583965307277
 21
-11989.30631805426
 31
0.0
  0
LINE
  5
42E23
330
1E
100
AcDbEntity
  8
0
  6
CONTINUOUS
100
AcDbLine
 10
-5012.583965307277
 20
-11989.30631805426
 30
0.0
 11
-5016.583965307273
 21
-11991.61570526129
 31
0.0
  0
LINE
  5
42E24
330
1E
100
AcDbEntity
  8
0
  6
CONTINUOUS
100
AcDbLine
 10
-5015.99682236294
 20
-11987.7148873902
 30
0.0
 11
-5017.171123510397
 21
-11987.7148873902
 31
0.0
  0
LINE
  5
42E25
330
1E
100
AcDbEntity
  8
0
  6
CONTINUOUS
100
AcDbLine
 10
-5017.30192185023
 20
-11986.4097726441
 30
0.0
 11
-5017.30192185023
 21
-11987.5840280152
 31
0.0
  0
LINE
  5
42E26
330
1E
100
AcDbEntity
  8
0
  6
CONTINUOUS
100
AcDbLine
 10
-5019.0339775143
 20
-11987.49693084723
 30
0.0
 11
-5019.0339775143
 21
-11986.49693084723
 31
0.0
  0
LINE
  5
42E27
330
1E
100
AcDbEntity
  8
0
  6
CONTINUOUS
100
AcDbLine
 10
-5016.083965307262
 20
-11989.4468820191
 30
0.0
 11
-5017.083965307265
 21
-11989.4468820191
 31
0.0
  0
LINE
  5
42E28
330
1E
100
AcDbEntity
  8
0
  6
CONTINUOUS
100
AcDbLine
 10
-5019.0339775143
 20
-11987.49693084723
 30
0.0
 11
-5017.583965307276
 21
-11987.49693084723
 31
0.0
  0
LINE
  5
42E29
330
1E
100
AcDbEntity
  8
0
  6
CONTINUOUS
100
AcDbLine
 10
-5017.083965307265
 20
-11987.99693084723
 30
0.0
 11
-5017.083965307265
 21
-11989.4468820191
 31
0.0
  0
LINE
  5
42E2A
330
1E
100
AcDbEntity
  8
0
  6
CONTINUOUS
100
AcDbLine
 10
-5020.583965307269
 20
-11989.30631805426
 30
0.0
 11
-5020.583965307269
 21
-11984.68748260504
 31
0.0
  0
LINE
  5
42E2B
330
1E
100
AcDbEntity
  8
0
  6
CONTINUOUS
100
AcDbLine
 10
-5016.583965307273
 20
-11991.61570526129
 30
0.0
 11
-5020.583965307269
 21
-11989.30631805426
 31
0.0
  0
ARC
  5
42E2C
330
1E
100
AcDbEntity
  8
0
  6
CONTINUOUS
100
AcDbCircle
 10
-5015.58395796712
 20
-11985.99692350708
 30
0.0
 40
0.5000073402048778
100
AcDbArc
 50
180.0008411070096
 51
269.9991588929904
  0
ARC
  5
42E2D
330
1E
100
AcDbEntity
  8
0
  6
CONTINUOUS
100
AcDbCircle
 10
-5017.58397875079
 20
-11985.99691740371
 30
0.0
 40
0.500013443693849
100
AcDbArc
 50
270.0015404716483
 51
359.9984595282474
  0
ARC
  5
42E2E
330
1E
100
AcDbEntity
  8
0
  6
CONTINUOUS
100
AcDbCircle
 10
-5015.583978750674
 20
-11987.99691740382
 30
0.0
 40
0.4999865567753793
100
AcDbArc
 50
89.99845945769022
 51
180.0015405422055
  0
ARC
  5
42E2F
330
1E
100
AcDbEntity
  8
0
  6
CONTINUOUS
100
AcDbCircle
 10
-5017.583957967472
 20
-11987.99692350744
 30
0.0
 40
0.4999926602638283
100
AcDbArc
 50
359.9991589096656
 51
90.00084109033434
  0
ARC
  5
42E30
330
1E
100
AcDbEntity
  8
0
100
AcDbCircle
 10
-4923.386253044993
 20
-12012.08264612093
 30
0.0
 40
4.164302091584343
100
AcDbArc
 50
230.7983871831742
 51
269.8345344241417
  0
LINE
  5
42E31
330
1E
100
AcDbEntity
  8
0
  6
CONTINUOUS
100
AcDbLine
 10
-4928.086566748472
 20
-12013.24693084722
 30
0.0
 11
-4926.018304830586
 21
-12015.30967498785
 31
0.0
  0
LINE
  5
42E32
330
1E
100
AcDbEntity
  8
0
  6
CONTINUOUS
100
AcDbLine
 10
-4923.398279195817
 20
-12016.24693084723
 30
0.0
 11
-4883.452238088639
 21
-12016.24693084723
 31
0.0
  0
ARC
  5
42E33
330
1E
100
AcDbEntity
  8
0
100
AcDbCircle
 10
-4883.846094084163
 20
-12011.98238661429
 30
0.0
 40
4.282693084950641
100
AcDbArc
 50
275.2766370350024
 51
309.0210255144288
  0
LINE
  5
42E34
330
1E
100
AcDbEntity
  8
0
  6
CONTINUOUS
100
AcDbLine
 10
-4879.086983153022
 20
-12013.24693084722
 30
0.0
 11
-4881.149686819107
 21
-12015.30967498785
 31
0.0
  0
LINE
  5
42E35
330
1E
100
AcDbEntity
  8
0
  6
CONTINUOUS
100
AcDbLine
 10
-4688.583972936667
 20
-12008.24693084723
 30
0.0
 11
-4689.58397293667
 21
-12008.24693084723
 31
0.0
  0
ARC
  5
42E36
330
1E
100
AcDbEntity
  8
0
  6
CONTINUOUS
100
AcDbCircle
 10
-4687.468903462104
 20
-12005.04693442971
 30
0.0
 40
5.199996418843369
100
AcDbArc
 50
245.7411371686721
 51
269.9987065782617
  0
ARC
  5
42E37
330
1E
100
AcDbEntity
  8
0
100
AcDbCircle
 10
-4763.386220620061
 20
-12012.08264612093
 30
0.0
 40
4.164302091584343
100
AcDbArc
 50
230.7983871831742
 51
269.8345344241417
  0
ARC
  5
42E38
330
1E
100
AcDbEntity
  8
0
100
AcDbCircle
 10
-4723.846061659231
 20
-12011.98238661429
 30
0.0
 40
4.282693084950641
100
AcDbArc
 50
275.2766370350024
 51
309.0210255144288
  0
LINE
  5
42E39
330
1E
100
AcDbEntity
  8
0
  6
CONTINUOUS
100
AcDbLine
 10
-4747.783969884912
 20
-11984.68748260504
 30
0.0
 11
-4743.783969884916
 21
-11982.378095398
 31
0.0
  0
LINE
  5
42E3A
330
1E
100
AcDbEntity
  8
0
  6
CONTINUOUS
100
AcDbLine
 10
-4743.783969884916
 20
-11982.378095398
 30
0.0
 11
-4739.783969884902
 21
-11984.68748260504
 31
0.0
  0
LINE
  5
42E3B
330
1E
100
AcDbEntity
  8
0
  6
CONTINUOUS
100
AcDbLine
 10
-4689.58397293667
 20
-12009.24693084723
 30
0.0
 11
-4689.58397293667
 21
-12008.24693084723
 31
0.0
  0
LINE
  5
42E3C
330
1E
100
AcDbEntity
  8
0
  6
CONTINUOUS
100
AcDbLine
 10
-4689.605373388331
 20
-12009.78776336675
 30
0.0
 11
-4690.511531835581
 21
-12009.24693084723
 31
0.0
  0
LINE
  5
42E3D
330
1E
100
AcDbEntity
  8
0
  6
CONTINUOUS
100
AcDbLine
 10
-4743.283969884905
 20
-11985.99693084723
 30
0.0
 11
-4743.283969884905
 21
-11984.5469186402
 31
0.0
  0
LINE
  5
42E3E
330
1E
100
AcDbEntity
  8
0
  6
CONTINUOUS
100
AcDbLine
 10
-4742.783969884913
 20
-11986.49693084723
 30
0.0
 11
-4741.333972936663
 21
-11986.49693084723
 31
0.0
  0
LINE
  5
42E3F
330
1E
100
AcDbEntity
  8
0
  6
CONTINUOUS
100
AcDbLine
 10
-4744.283969884909
 20
-11984.5469186402
 30
0.0
 11
-4743.283969884905
 21
-11984.5469186402
 31
0.0
  0
LINE
  5
42E40
330
1E
100
AcDbEntity
  8
0
  6
CONTINUOUS
100
AcDbLine
 10
-4743.196823125873
 20
-11986.27897430426
 30
0.0
 11
-4744.371120458636
 21
-11986.27897430426
 31
0.0
  0
LINE
  5
42E41
330
1E
100
AcDbEntity
  8
0
  6
CONTINUOUS
100
AcDbLine
 10
-4744.283969884909
 20
-11984.5469186402
 30
0.0
 11
-4744.283969884909
 21
-11985.99693084723
 31
0.0
  0
LINE
  5
42E42
330
1E
100
AcDbEntity
  8
0
  6
CONTINUOUS
100
AcDbLine
 10
-4744.783969884902
 20
-11986.49693084723
 30
0.0
 11
-4746.233970647845
 21
-11986.49693084723
 31
0.0
  0
LINE
  5
42E43
330
1E
100
AcDbEntity
  8
0
  6
CONTINUOUS
100
AcDbLine
 10
-4741.333972936663
 20
-11986.49693084723
 30
0.0
 11
-4741.333972936663
 21
-11987.49693084723
 31
0.0
  0
LINE
  5
42E44
330
1E
100
AcDbEntity
  8
0
  6
CONTINUOUS
100
AcDbLine
 10
-4743.066020971328
 20
-11986.4097726441
 30
0.0
 11
-4743.066020971328
 21
-11987.5840280152
 31
0.0
  0
LINE
  5
42E45
330
1E
100
AcDbEntity
  8
0
  6
CONTINUOUS
100
AcDbLine
 10
-4743.283969884905
 20
-11989.4468820191
 30
0.0
 11
-4743.283969884905
 21
-11987.99693084723
 31
0.0
  0
LINE
  5
42E46
330
1E
100
AcDbEntity
  8
0
  6
CONTINUOUS
100
AcDbLine
 10
-4742.783969884913
 20
-11987.49693084723
 30
0.0
 11
-4741.333972936663
 21
-11987.49693084723
 31
0.0
  0
LINE
  5
42E47
330
1E
100
AcDbEntity
  8
0
  6
CONTINUOUS
100
AcDbLine
 10
-4739.783969884902
 20
-11984.68748260504
 30
0.0
 11
-4739.783969884902
 21
-11989.30631805426
 31
0.0
  0
LINE
  5
42E48
330
1E
100
AcDbEntity
  8
0
  6
CONTINUOUS
100
AcDbLine
 10
-4739.783969884902
 20
-11989.30631805426
 30
0.0
 11
-4743.783969884898
 21
-11991.61570526129
 31
0.0
  0
LINE
  5
42E49
330
1E
100
AcDbEntity
  8
0
  6
CONTINUOUS
100
AcDbLine
 10
-4743.196823125873
 20
-11987.7148873902
 30
0.0
 11
-4744.371120458636
 21
-11987.7148873902
 31
0.0
  0
LINE
  5
42E4A
330
1E
100
AcDbEntity
  8
0
  6
CONTINUOUS
100
AcDbLine
 10
-4746.233970647845
 20
-11987.49693084723
 30
0.0
 11
-4746.233970647845
 21
-11986.49693084723
 31
0.0
  0
LINE
  5
42E4B
330
1E
100
AcDbEntity
  8
0
  6
CONTINUOUS
100
AcDbLine
 10
-4743.283969884905
 20
-11989.4468820191
 30
0.0
 11
-4744.283969884909
 21
-11989.4468820191
 31
0.0
  0
LINE
  5
42E4C
330
1E
100
AcDbEntity
  8
0
  6
CONTINUOUS
100
AcDbLine
 10
-4744.501918798487
 20
-11986.4097726441
 30
0.0
 11
-4744.501918798487
 21
-11987.5840280152
 31
0.0
  0
LINE
  5
42E4D
330
1E
100
AcDbEntity
  8
0
  6
CONTINUOUS
100
AcDbLine
 10
-4746.233970647845
 20
-11987.49693084723
 30
0.0
 11
-4744.783969884902
 21
-11987.49693084723
 31
0.0
  0
LINE
  5
42E4E
330
1E
100
AcDbEntity
  8
0
  6
CONTINUOUS
100
AcDbLine
 10
-4744.283969884909
 20
-11987.99693084723
 30
0.0
 11
-4744.283969884909
 21
-11989.4468820191
 31
0.0
  0
LINE
  5
42E4F
330
1E
100
AcDbEntity
  8
0
  6
CONTINUOUS
100
AcDbLine
 10
-4747.783969884912
 20
-11989.30631805426
 30
0.0
 11
-4747.783969884912
 21
-11984.68748260504
 31
0.0
  0
LINE
  5
42E50
330
1E
100
AcDbEntity
  8
0
  6
CONTINUOUS
100
AcDbLine
 10
-4743.783969884898
 20
-11991.61570526129
 30
0.0
 11
-4747.783969884912
 21
-11989.30631805426
 31
0.0
  0
ARC
  5
42E51
330
1E
100
AcDbEntity
  8
0
  6
CONTINUOUS
100
AcDbCircle
 10
-4742.783960255983
 20
-11985.99692121831
 30
0.0
 40
0.5000096290067999
100
AcDbArc
 50
180.0011033710159
 51
269.998896628984
  0
ARC
  5
42E52
330
1E
100
AcDbEntity
  8
0
  6
CONTINUOUS
100
AcDbCircle
 10
-4744.783981039637
 20
-11985.99691969249
 30
0.0
 40
0.5000111548582092
100
AcDbArc
 50
270.0012782098306
 51
359.9987217901694
  0
ARC
  5
42E53
330
1E
100
AcDbEntity
  8
0
  6
CONTINUOUS
100
AcDbCircle
 10
-4742.783981039447
 20
-11987.99691969268
 30
0.0
 40
0.4999888455761798
100
AcDbArc
 50
89.99872175442177
 51
180.0012782455782
  0
ARC
  5
42E54
330
1E
100
AcDbEntity
  8
0
  6
CONTINUOUS
100
AcDbCircle
 10
-4744.783960256245
 20
-11987.99692121856
 30
0.0
 40
0.4999903714276016
100
AcDbArc
 50
359.9988966151228
 51
90.00110338498144
  0
LINE
  5
42E55
330
1E
100
AcDbEntity
  8
0
  6
CONTINUOUS
100
AcDbLine
 10
-4719.086950728089
 20
-12013.24693084722
 30
0.0
 11
-4721.149654394175
 21
-12015.30967498785
 31
0.0
  0
LINE
  5
42E56
330
1E
100
AcDbEntity
  8
0
  6
CONTINUOUS
100
AcDbLine
 10
-4768.08653432354
 20
-12013.24693084722
 30
0.0
 11
-4766.018272405654
 21
-12015.30967498785
 31
0.0
  0
LINE
  5
42E57
330
1E
100
AcDbEntity
  8
0
  6
CONTINUOUS
100
AcDbLine
 10
-4763.398246770885
 20
-12016.24693084723
 30
0.0
 11
-4723.452205663707
 21
-12016.24693084723
 31
0.0
  0
LINE
  5
42E58
330
1E
100
AcDbEntity
  8
0
  6
CONTINUOUS
100
AcDbLine
 10
-4687.469020849257
 20
-12010.24693084723
 30
0.0
 11
-4564.083965307272
 21
-12010.24693084723
 31
0.0
  0
LINE
  5
42E59
330
1E
100
AcDbEntity
  8
0
  6
CONTINUOUS
100
AcDbLine
 10
-4688.583972936667
 20
-12008.24693084723
 30
0.0
 11
-4687.583972936663
 21
-12008.24693084723
 31
0.0
  0
LINE
  5
42E5A
330
1E
100
AcDbEntity
  8
0
  6
CONTINUOUS
100
AcDbLine
 10
-4687.583972936663
 20
-12009.24693084723
 30
0.0
 11
-4687.583972936663
 21
-12008.24693084723
 31
0.0
  0
LINE
  5
42E5B
330
1E
100
AcDbEntity
  8
0
  6
CONTINUOUS
100
AcDbLine
 10
-4651.383968359023
 20
-11985.99693084723
 30
0.0
 11
-4651.383968359023
 21
-11984.5469186402
 31
0.0
  0
LINE
  5
42E5C
330
1E
100
AcDbEntity
  8
0
  6
CONTINUOUS
100
AcDbLine
 10
-4650.88396835903
 20
-11986.49693084723
 30
0.0
 11
-4649.433971410781
 21
-11986.49693084723
 31
0.0
  0
LINE
  5
42E5D
330
1E
100
AcDbEntity
  8
0
  6
CONTINUOUS
100
AcDbLine
 10
-4651.883968359034
 20
-11982.378095398
 30
0.0
 11
-4647.883968359019
 21
-11984.68748260504
 31
0.0
  0
LINE
  5
42E5E
330
1E
100
AcDbEntity
  8
0
  6
CONTINUOUS
100
AcDbLine
 10
-4652.383968359027
 20
-11984.5469186402
 30
0.0
 11
-4651.383968359023
 21
-11984.5469186402
 31
0.0
  0
LINE
  5
42E5F
330
1E
100
AcDbEntity
  8
0
  6
CONTINUOUS
100
AcDbLine
 10
-4652.383968359027
 20
-11984.5469186402
 30
0.0
 11
-4652.383968359027
 21
-11985.99693084723
 31
0.0
  0
LINE
  5
42E60
330
1E
100
AcDbEntity
  8
0
  6
CONTINUOUS
100
AcDbLine
 10
-4651.296825414683
 20
-11986.27897430426
 30
0.0
 11
-4652.471111303366
 21
-11986.27897430426
 31
0.0
  0
LINE
  5
42E61
330
1E
100
AcDbEntity
  8
0
  6
CONTINUOUS
100
AcDbLine
 10
-4652.883968359019
 20
-11986.49693084723
 30
0.0
 11
-4654.333965307269
 21
-11986.49693084723
 31
0.0
  0
LINE
  5
42E62
330
1E
100
AcDbEntity
  8
0
  6
CONTINUOUS
100
AcDbLine
 10
-4655.88396835903
 20
-11984.68748260504
 30
0.0
 11
-4651.883968359034
 21
-11982.378095398
 31
0.0
  0
LINE
  5
42E63
330
1E
100
AcDbEntity
  8
0
  6
CONTINUOUS
100
AcDbLine
 10
-4650.88396835903
 20
-11987.49693084723
 30
0.0
 11
-4649.433971410781
 21
-11987.49693084723
 31
0.0
  0
LINE
  5
42E64
330
1E
100
AcDbEntity
  8
0
  6
CONTINUOUS
100
AcDbLine
 10
-4649.433971410781
 20
-11986.49693084723
 30
0.0
 11
-4649.433971410781
 21
-11987.49693084723
 31
0.0
  0
LINE
  5
42E65
330
1E
100
AcDbEntity
  8
0
  6
CONTINUOUS
100
AcDbLine
 10
-4651.16602707485
 20
-11986.4097726441
 30
0.0
 11
-4651.16602707485
 21
-11987.5840280152
 31
0.0
  0
LINE
  5
42E66
330
1E
100
AcDbEntity
  8
0
  6
CONTINUOUS
100
AcDbLine
 10
-4651.383968359023
 20
-11989.4468820191
 30
0.0
 11
-4651.383968359023
 21
-11987.99693084723
 31
0.0
  0
LINE
  5
42E67
330
1E
100
AcDbEntity
  8
0
  6
CONTINUOUS
100
AcDbLine
 10
-4647.883968359019
 20
-11984.68748260504
 30
0.0
 11
-4647.883968359019
 21
-11989.30631805426
 31
0.0
  0
LINE
  5
42E68
330
1E
100
AcDbEntity
  8
0
  6
CONTINUOUS
100
AcDbLine
 10
-4647.883968359019
 20
-11989.30631805426
 30
0.0
 11
-4651.883968359034
 21
-11991.61570526129
 31
0.0
  0
LINE
  5
42E69
330
1E
100
AcDbEntity
  8
0
  6
CONTINUOUS
100
AcDbLine
 10
-4654.333965307269
 20
-11987.49693084723
 30
0.0
 11
-4654.333965307269
 21
-11986.49693084723
 31
0.0
  0
LINE
  5
42E6A
330
1E
100
AcDbEntity
  8
0
  6
CONTINUOUS
100
AcDbLine
 10
-4651.383968359023
 20
-11989.4468820191
 30
0.0
 11
-4652.383968359027
 21
-11989.4468820191
 31
0.0
  0
LINE
  5
42E6B
330
1E
100
AcDbEntity
  8
0
  6
CONTINUOUS
100
AcDbLine
 10
-4651.296825414683
 20
-11987.7148873902
 30
0.0
 11
-4652.471111303366
 21
-11987.7148873902
 31
0.0
  0
LINE
  5
42E6C
330
1E
100
AcDbEntity
  8
0
  6
CONTINUOUS
100
AcDbLine
 10
-4652.601924901992
 20
-11986.4097726441
 30
0.0
 11
-4652.601924901992
 21
-11987.5840280152
 31
0.0
  0
LINE
  5
42E6D
330
1E
100
AcDbEntity
  8
0
  6
CONTINUOUS
100
AcDbLine
 10
-4654.333965307269
 20
-11987.49693084723
 30
0.0
 11
-4652.883968359019
 21
-11987.49693084723
 31
0.0
  0
LINE
  5
42E6E
330
1E
100
AcDbEntity
  8
0
  6
CONTINUOUS
100
AcDbLine
 10
-4652.383968359027
 20
-11987.99693084723
 30
0.0
 11
-4652.383968359027
 21
-11989.4468820191
 31
0.0
  0
LINE
  5
42E6F
330
1E
100
AcDbEntity
  8
0
  6
CONTINUOUS
100
AcDbLine
 10
-4655.88396835903
 20
-11989.30631805426
 30
0.0
 11
-4655.88396835903
 21
-11984.68748260504
 31
0.0
  0
LINE
  5
42E70
330
1E
100
AcDbEntity
  8
0
  6
CONTINUOUS
100
AcDbLine
 10
-4651.883968359034
 20
-11991.61570526129
 30
0.0
 11
-4655.88396835903
 21
-11989.30631805426
 31
0.0
  0
ARC
  5
42E71
330
1E
100
AcDbEntity
  8
0
  6
CONTINUOUS
100
AcDbCircle
 10
-4650.88395949304
 20
-11985.99692198124
 30
0.0
 40
0.5000088660605582
100
AcDbArc
 50
180.0010159487424
 51
269.9989840513617
  0
ARC
  5
42E72
330
1E
100
AcDbEntity
  8
0
  6
CONTINUOUS
100
AcDbCircle
 10
-4652.883980276692
 20
-11985.99691892956
 30
0.0
 40
0.5000119178104443
100
AcDbArc
 50
270.0013656315829
 51
359.9986343683128
  0
ARC
  5
42E73
330
1E
100
AcDbEntity
  8
0
  6
CONTINUOUS
100
AcDbCircle
 10
-4650.88398027654
 20
-11987.99691892971
 30
0.0
 40
0.4999880826309566
100
AcDbArc
 50
89.99863432130942
 51
180.0013656786905
  0
ARC
  5
42E74
330
1E
100
AcDbEntity
  8
0
  6
CONTINUOUS
100
AcDbCircle
 10
-4652.883959493319
 20
-11987.99692198153
 30
0.0
 40
0.4999911343806379
100
AcDbArc
 50
359.998984047714
 51
90.00101595218175
  0
LINE
  5
42E75
330
1E
100
AcDbEntity
  8
BASIS
  6
PHANTOM
100
AcDbLine
 10
-4553.583965307262
 20
-12008.57659119458
 30
0.0
 11
-4553.583965307262
 21
-12045.91727049987
 31
0.0
  0
ARC
  5
42E76
330
1E
100
AcDbEntity
  8
0
100
AcDbCircle
 10
-4562.583965307265
 20
-12020.44860607003
 30
0.0
 40
1.515548930785328
100
AcDbArc
 50
188.2143825020076
 51
351.7856174979923
  0
ARC
  5
42E77
330
1E
100
AcDbEntity
  8
0
100
AcDbCircle
 10
-4544.58396530727
 20
-12020.44860607005
 30
0.0
 40
1.515548930765032
100
AcDbArc
 50
188.2143825009612
 51
351.785617501677
  0
LINE
  5
42E78
330
1E
100
AcDbEntity
  8
0
  6
CONTINUOUS
100
AcDbLine
 10
-4518.583965307262
 20
-12035.24693084723
 30
0.0
 11
-4518.583965307262
 21
-12033.64689422613
 31
0.0
  0
LINE
  5
42E79
330
1E
100
AcDbEntity
  8
0
  6
CONTINUOUS
100
AcDbLine
 10
-4546.083965307261
 20
-12010.24693084723
 30
0.0
 11
-4543.083965307268
 21
-12010.24693084723
 31
0.0
  0
LINE
  5
42E7A
330
1E
100
AcDbEntity
  8
0
  6
CONTINUOUS
100
AcDbLine
 10
-4564.083965307272
 20
-12010.24693084723
 30
0.0
 11
-4561.083965307261
 21
-12010.24693084723
 31
0.0
  0
LINE
  5
42E7B
330
1E
100
AcDbEntity
  8
0
  6
CONTINUOUS
100
AcDbLine
 10
-4575.226116186168
 20
-12010.24693084723
 30
0.0
 11
-4573.731822973277
 21
-12010.24693084723
 31
0.0
  0
LINE
  5
42E7C
330
1E
100
AcDbEntity
  8
0
  6
CONTINUOUS
100
AcDbLine
 10
-4543.083965307268
 20
-12010.24693084723
 30
0.0
 11
-4526.583965307272
 21
-12010.24693084723
 31
0.0
  0
LINE
  5
42E7D
330
1E
100
AcDbEntity
  8
0
  6
CONTINUOUS
100
AcDbLine
 10
-4546.083965307261
 20
-12020.66514373785
 30
0.0
 11
-4546.083965307261
 21
-12009.24693084723
 31
0.0
  0
LINE
  5
42E7E
330
1E
100
AcDbEntity
  8
0
  6
CONTINUOUS
100
AcDbLine
 10
-4561.083965307261
 20
-12009.24693084723
 30
0.0
 11
-4561.083965307261
 21
-12020.66514373785
 31
0.0
  0
LINE
  5
42E7F
330
1E
100
AcDbEntity
  8
0
  6
CONTINUOUS
100
AcDbLine
 10
-4543.083965307268
 20
-12020.66514373785
 30
0.0
 11
-4543.083965307268
 21
-12010.24693084723
 31
0.0
  0
LINE
  5
42E80
330
1E
100
AcDbEntity
  8
0
  6
CONTINUOUS
100
AcDbLine
 10
-4561.083965307261
 20
-12020.66514373785
 30
0.0
 11
-4546.083965307261
 21
-12020.66514373785
 31
0.0
  0
LINE
  5
42E81
330
1E
100
AcDbEntity
  8
0
  6
CONTINUOUS
100
AcDbLine
 10
-4564.083965307272
 20
-12020.66514373785
 30
0.0
 11
-4564.083965307272
 21
-12010.24693084723
 31
0.0
  0
LINE
  5
42E82
330
1E
100
AcDbEntity
  8
0
  6
CONTINUOUS
100
AcDbLine
 10
-4561.083965307261
 20
-12010.24693084723
 30
0.0
 11
-4564.083965307272
 21
-12010.24693084723
 31
0.0
  0
LINE
  5
42E83
330
1E
100
AcDbEntity
  8
0
  6
CONTINUOUS
100
AcDbLine
 10
-4543.083965307268
 20
-12010.24693084723
 30
0.0
 11
-4546.083965307261
 21
-12010.24693084723
 31
0.0
  0
ARC
  5
42E84
330
1E
100
AcDbEntity
  8
0
  6
CONTINUOUS
100
AcDbCircle
 10
-4526.583957967341
 20
-12013.24692350729
 30
0.0
 40
2.999992660077961
100
AcDbArc
 50
359.9998598172875
 51
90.00014018271249
  0
ARC
  5
42E85
330
1E
100
AcDbEntity
  8
0
  6
CONTINUOUS
100
AcDbCircle
 10
-4580.583978750729
 20
-12013.24691740377
 30
0.0
 40
2.999986556570656
100
AcDbArc
 50
89.99974324769043
 51
180.0002567523095
  0
LINE
  5
42E86
330
1E
100
AcDbEntity
  8
0
  6
CONTINUOUS
100
AcDbLine
 10
-4523.583965307262
 20
-12033.24693084722
 30
0.0
 11
-4528.583965307261
 21
-12033.24693084722
 31
0.0
  0
LINE
  5
42E87
330
1E
100
AcDbEntity
  8
0
  6
CONTINUOUS
100
AcDbLine
 10
-4521.583965307272
 20
-12033.64689422613
 30
0.0
 11
-4523.183971410781
 21
-12033.64689422613
 31
0.0
  0
LINE
  5
42E88
330
1E
100
AcDbEntity
  8
0
  6
CONTINUOUS
100
AcDbLine
 10
-4523.183971410781
 20
-12035.24693084723
 30
0.0
 11
-4521.583965307272
 21
-12035.24693084723
 31
0.0
  0
LINE
  5
42E89
330
1E
100
AcDbEntity
  8
0
  6
CONTINUOUS
100
AcDbLine
 10
-4526.583965307272
 20
-12027.24693084723
 30
0.0
 11
-4528.583965307261
 21
-12027.24693084723
 31
0.0
  0
LINE
  5
42E8A
330
1E
100
AcDbEntity
  8
0
  6
CONTINUOUS
100
AcDbLine
 10
-4523.583965307262
 20
-12030.24693084723
 30
0.0
 11
-4523.583965307262
 21
-12033.24693084722
 31
0.0
  0
LINE
  5
42E8B
330
1E
100
AcDbEntity
  8
0
  6
CONTINUOUS
100
AcDbLine
 10
-4528.583965307261
 20
-12027.24693084723
 30
0.0
 11
-4578.583965307262
 21
-12027.24693084723
 31
0.0
  0
LINE
  5
42E8C
330
1E
100
AcDbEntity
  8
0
  6
CONTINUOUS
100
AcDbLine
 10
-4528.583965307261
 20
-12033.24693084722
 30
0.0
 11
-4578.583965307262
 21
-12033.24693084722
 31
0.0
  0
ARC
  5
42E8D
330
1E
100
AcDbEntity
  8
0
  6
CONTINUOUS
100
AcDbCircle
 10
-4523.183976278414
 20
-12033.24690519648
 30
0.0
 40
0.3999890296843836
100
AcDbArc
 50
180.0036742998288
 51
270.000697254592
  0
ARC
  5
42E8E
330
1E
100
AcDbEntity
  8
0
  6
CONTINUOUS
100
AcDbCircle
 10
-4523.183961019039
 20
-12033.24692045548
 30
0.0
 40
2.000010391774079
100
AcDbArc
 50
180.0002976999898
 51
269.9997022999059
  0
ARC
  5
42E8F
330
1E
100
AcDbEntity
  8
0
  6
CONTINUOUS
100
AcDbCircle
 10
-4526.583957967341
 20
-12030.2469235073
 30
0.0
 40
2.999992660077961
100
AcDbArc
 50
359.9998598172875
 51
90.00014018271249
  0
LINE
  5
42E90
330
1E
100
AcDbEntity
  8
0
  6
CONTINUOUS
100
AcDbLine
 10
-4580.431728368785
 20
-12027.24693084723
 30
0.0
 11
-4581.344219213515
 21
-12027.34483123785
 31
0.0
  0
LINE
  5
42E91
330
1E
100
AcDbEntity
  8
0
  6
CONTINUOUS
100
AcDbLine
 10
-4588.583965307261
 20
-12035.24693084723
 30
0.0
 11
-4585.583965307269
 21
-12035.24693084723
 31
0.0
  0
LINE
  5
42E92
330
1E
100
AcDbEntity
  8
0
  6
CONTINUOUS
100
AcDbLine
 10
-4588.583965307261
 20
-12033.64689422613
 30
0.0
 11
-4585.583965307269
 21
-12033.64689422613
 31
0.0
  0
LINE
  5
42E93
330
1E
100
AcDbEntity
  8
0
  6
CONTINUOUS
100
AcDbLine
 10
-4585.583965307269
 20
-12035.24693084723
 30
0.0
 11
-4583.983974462535
 21
-12035.24693084723
 31
0.0
  0
LINE
  5
42E94
330
1E
100
AcDbEntity
  8
0
  6
CONTINUOUS
100
AcDbLine
 10
-4583.983974462535
 20
-12033.64689422613
 30
0.0
 11
-4585.583965307269
 21
-12033.64689422613
 31
0.0
  0
LINE
  5
42E95
330
1E
100
AcDbEntity
  8
0
  6
CONTINUOUS
100
AcDbLine
 10
-4588.583965307261
 20
-12035.24693084723
 30
0.0
 11
-4588.583965307261
 21
-12033.64689422613
 31
0.0
  0
LINE
  5
42E96
330
1E
100
AcDbEntity
  8
0
  6
CONTINUOUS
100
AcDbLine
 10
-4583.583965307261
 20
-12030.24693084723
 30
0.0
 11
-4583.583965307261
 21
-12033.24693084722
 31
0.0
  0
ARC
  5
42E97
330
1E
100
AcDbEntity
  8
0
  6
CONTINUOUS
100
AcDbCircle
 10
-4583.9839604392
 20
-12033.24689909318
 30
0.0
 40
0.3999951331973375
100
AcDbArc
 50
269.9979912805098
 51
359.9954515126614
  0
ARC
  5
42E98
330
1E
100
AcDbEntity
  8
0
  6
CONTINUOUS
100
AcDbCircle
 10
-4583.983983328416
 20
-12033.24692198136
 30
0.0
 40
2.000008865886779
100
AcDbArc
 50
270.0002539872377
 51
359.999746012658
  0
ARC
  5
42E99
330
1E
100
AcDbEntity
  8
0
  6
CONTINUOUS
100
AcDbCircle
 10
-4580.583965172991
 20
-12030.24690198136
 30
0.0
 40
3.000000134410163
100
AcDbArc
 50
104.6798645523989
 51
180.0005512973389
  0
LINE
  5
42E9A
330
1E
100
AcDbEntity
  8
0
  6
CONTINUOUS
100
AcDbLine
 10
-4578.583965307262
 20
-12033.24693084722
 30
0.0
 11
-4583.583965307261
 21
-12033.24693084722
 31
0.0
  0
LINE
  5
42E9B
330
1E
100
AcDbEntity
  8
0
  6
CONTINUOUS
100
AcDbLine
 10
-4578.583965307262
 20
-12027.24693084723
 30
0.0
 11
-4580.431728368785
 21
-12027.24693084723
 31
0.0
  0
LINE
  5
42E9C
330
1E
100
AcDbEntity
  8
0
  6
CONTINUOUS
100
AcDbLine
 10
-4523.583965307262
 20
-12013.24693084722
 30
0.0
 11
-4523.583965307272
 21
-12030.24693084723
 31
0.0
  0
LINE
  5
42E9D
330
1E
100
AcDbEntity
  8
0
  6
CONTINUOUS
100
AcDbLine
 10
-4583.583965307261
 20
-12013.24693084722
 30
0.0
 11
-4583.583965307261
 21
-12030.24693084723
 31
0.0
  0
LINE
  5
42E9E
330
1E
100
AcDbEntity
  8
0
  6
CONTINUOUS
100
AcDbLine
 10
-4521.583965307272
 20
-12033.64689422613
 30
0.0
 11
-4518.583965307262
 21
-12033.64689422613
 31
0.0
  0
LINE
  5
42E9F
330
1E
100
AcDbEntity
  8
0
  6
CONTINUOUS
100
AcDbLine
 10
-4521.583965307272
 20
-12035.24693084723
 30
0.0
 11
-4518.583965307262
 21
-12035.24693084723
 31
0.0
  0
ARC
  5
42EA3
330
1E
100
AcDbEntity
  8
0
100
AcDbCircle
 10
-4737.083973428151
 20
-11945.74690879119
 30
0.0
 40
9.500000110184636
100
AcDbArc
 50
270.0087264246409
 51
359.9912735752548
  0
LINE
  5
42EA4
330
1E
100
AcDbEntity
  8
0
  6
CONTINUOUS
100
AcDbLine
 10
-4687.583972936663
 20
-11850.0469186402
 30
0.0
 11
-4687.583972936663
 21
-11829.24690032965
 31
0.0
  0
LINE
  5
42EA5
330
1E
100
AcDbEntity
  8
0
  6
CONTINUOUS
100
AcDbLine
 10
-4688.563770299952
 20
-11851.24690032965
 30
0.0
 11
-4687.583972936663
 21
-11851.24690032965
 31
0.0
  0
LINE
  5
42EA6
330
1E
100
AcDbEntity
  8
0
  6
CONTINUOUS
100
AcDbLine
 10
-4687.583972936663
 20
-11851.24690032965
 30
0.0
 11
-4687.583972936663
 21
-11850.24690032965
 31
0.0
  0
LINE
  5
42EA7
330
1E
100
AcDbEntity
  8
0
  6
CONTINUOUS
100
AcDbLine
 10
-4649.433971410781
 20
-11818.74690032965
 30
0.0
 11
-4649.433971410781
 21
-11819.74690032965
 31
0.0
  0
LINE
  5
42EA8
330
1E
100
AcDbEntity
  8
0
  6
CONTINUOUS
100
AcDbLine
 10
-4651.383968359023
 20
-11818.24690032965
 30
0.0
 11
-4651.383968359023
 21
-11816.7969186402
 31
0.0
  0
LINE
  5
42EA9
330
1E
100
AcDbEntity
  8
0
  6
CONTINUOUS
100
AcDbLine
 10
-4650.88396835903
 20
-11818.74690032965
 30
0.0
 11
-4649.433971410781
 21
-11818.74690032965
 31
0.0
  0
LINE
  5
42EAA
330
1E
100
AcDbEntity
  8
0
  6
CONTINUOUS
100
AcDbLine
 10
-4651.883968359034
 20
-11814.62809539801
 30
0.0
 11
-4647.883968359019
 21
-11816.93751312262
 31
0.0
  0
LINE
  5
42EAB
330
1E
100
AcDbEntity
  8
0
  6
CONTINUOUS
100
AcDbLine
 10
-4652.383968359027
 20
-11816.7969186402
 30
0.0
 11
-4651.383968359023
 21
-11816.7969186402
 31
0.0
  0
LINE
  5
42EAC
330
1E
100
AcDbEntity
  8
0
  6
CONTINUOUS
100
AcDbLine
 10
-4654.333965307269
 20
-11819.74690032965
 30
0.0
 11
-4654.333965307269
 21
-11818.74690032965
 31
0.0
  0
LINE
  5
42EAD
330
1E
100
AcDbEntity
  8
0
  6
CONTINUOUS
100
AcDbLine
 10
-4651.296825414683
 20
-11818.52897430426
 30
0.0
 11
-4652.471111303366
 21
-11818.52897430426
 31
0.0
  0
LINE
  5
42EAE
330
1E
100
AcDbEntity
  8
0
  6
CONTINUOUS
100
AcDbLine
 10
-4652.383968359027
 20
-11816.7969186402
 30
0.0
 11
-4652.383968359027
 21
-11818.24690032965
 31
0.0
  0
LINE
  5
42EAF
330
1E
100
AcDbEntity
  8
0
  6
CONTINUOUS
100
AcDbLine
 10
-4652.883968359019
 20
-11818.74690032965
 30
0.0
 11
-4654.333965307269
 21
-11818.74690032965
 31
0.0
  0
LINE
  5
42EB0
330
1E
100
AcDbEntity
  8
0
  6
CONTINUOUS
100
AcDbLine
 10
-4655.88396835903
 20
-11816.93751312262
 30
0.0
 11
-4651.883968359034
 21
-11814.62809539801
 31
0.0
  0
LINE
  5
42EB1
330
1E
100
AcDbEntity
  8
0
  6
CONTINUOUS
100
AcDbLine
 10
-4651.16602707485
 20
-11818.6597726441
 30
0.0
 11
-4651.16602707485
 21
-11819.83405853277
 31
0.0
  0
LINE
  5
42EB2
330
1E
100
AcDbEntity
  8
0
  6
CONTINUOUS
100
AcDbLine
 10
-4651.383968359023
 20
-11821.69691253668
 30
0.0
 11
-4651.383968359023
 21
-11820.24690032965
 31
0.0
  0
LINE
  5
42EB3
330
1E
100
AcDbEntity
  8
0
  6
CONTINUOUS
100
AcDbLine
 10
-4650.88396835903
 20
-11819.74690032965
 30
0.0
 11
-4649.433971410781
 21
-11819.74690032965
 31
0.0
  0
LINE
  5
42EB4
330
1E
100
AcDbEntity
  8
0
  6
CONTINUOUS
100
AcDbLine
 10
-4647.883968359019
 20
-11816.93751312262
 30
0.0
 11
-4647.883968359019
 21
-11821.55631805426
 31
0.0
  0
LINE
  5
42EB5
330
1E
100
AcDbEntity
  8
0
  6
CONTINUOUS
100
AcDbLine
 10
-4647.883968359019
 20
-11821.55631805426
 30
0.0
 11
-4651.883968359034
 21
-11823.86570526129
 31
0.0
  0
LINE
  5
42EB6
330
1E
100
AcDbEntity
  8
0
  6
CONTINUOUS
100
AcDbLine
 10
-4651.383968359023
 20
-11821.69691253668
 30
0.0
 11
-4652.383968359027
 21
-11821.69691253668
 31
0.0
  0
LINE
  5
42EB7
330
1E
100
AcDbEntity
  8
0
  6
CONTINUOUS
100
AcDbLine
 10
-4651.296825414683
 20
-11819.96485687262
 30
0.0
 11
-4652.471111303366
 21
-11819.96485687262
 31
0.0
  0
LINE
  5
42EB8
330
1E
100
AcDbEntity
  8
0
  6
CONTINUOUS
100
AcDbLine
 10
-4652.601924901992
 20
-11818.6597726441
 30
0.0
 11
-4652.601924901992
 21
-11819.83405853277
 31
0.0
  0
LINE
  5
42EB9
330
1E
100
AcDbEntity
  8
0
  6
CONTINUOUS
100
AcDbLine
 10
-4654.333965307269
 20
-11819.74690032965
 30
0.0
 11
-4652.883968359019
 21
-11819.74690032965
 31
0.0
  0
LINE
  5
42EBA
330
1E
100
AcDbEntity
  8
0
  6
CONTINUOUS
100
AcDbLine
 10
-4652.383968359027
 20
-11820.24690032965
 30
0.0
 11
-4652.383968359027
 21
-11821.69691253668
 31
0.0
  0
LINE
  5
42EBB
330
1E
100
AcDbEntity
  8
0
  6
CONTINUOUS
100
AcDbLine
 10
-4655.88396835903
 20
-11821.55631805426
 30
0.0
 11
-4655.88396835903
 21
-11816.93751312262
 31
0.0
  0
LINE
  5
42EBC
330
1E
100
AcDbEntity
  8
0
  6
CONTINUOUS
100
AcDbLine
 10
-4651.883968359034
 20
-11823.86570526129
 30
0.0
 11
-4655.88396835903
 21
-11821.55631805426
 31
0.0
  0
ARC
  5
42EBD
330
1E
100
AcDbEntity
  8
0
  6
CONTINUOUS
100
AcDbCircle
 10
-4650.883974875905
 20
-11818.24690684653
 30
0.0
 40
0.4999934831675514
100
AcDbArc
 50
179.9992532114245
 51
270.0007467885754
  0
ARC
  5
42EBE
330
1E
100
AcDbEntity
  8
0
  6
CONTINUOUS
100
AcDbCircle
 10
-4652.883964893936
 20
-11818.24690379474
 30
0.0
 40
0.4999965349264375
100
AcDbArc
 50
269.9996029276154
 51
0.0003970722803395
  0
ARC
  5
42EBF
330
1E
100
AcDbEntity
  8
0
  6
CONTINUOUS
100
AcDbCircle
 10
-4650.883964893855
 20
-11820.24690379482
 30
0.0
 40
0.5000034651826715
100
AcDbArc
 50
90.00039707655338
 51
179.9996029234466
  0
ARC
  5
42EC0
330
1E
100
AcDbEntity
  8
0
  6
CONTINUOUS
100
AcDbCircle
 10
-4652.883974875931
 20
-11820.24690684655
 30
0.0
 40
0.50000651694149
100
AcDbArc
 50
0.0007467719002344
 51
89.99925322809977
  0
LINE
  5
42EC1
330
1E
100
AcDbEntity
  8
0
  6
CONTINUOUS
100
AcDbLine
 10
-4688.583995824847
 20
-11828.24690032965
 30
0.0
 11
-4687.583995824843
 21
-11828.24690032965
 31
0.0
  0
LINE
  5
42EC2
330
1E
100
AcDbEntity
  8
0
  6
CONTINUOUS
100
AcDbLine
 10
-4687.583995824843
 20
-11829.24690032965
 30
0.0
 11
-4687.583995824843
 21
-11828.24690032965
 31
0.0
  0
LINE
  5
42EC3
330
1E
100
AcDbEntity
  8
0
  6
CONTINUOUS
100
AcDbLine
 10
-4328.583965307262
 20
-12008.24693084723
 30
0.0
 11
-4328.583965307262
 21
-11851.24690032965
 31
0.0
  0
LINE
  5
42EC4
330
1E
100
AcDbEntity
  8
0
  6
CONTINUOUS
100
AcDbLine
 10
-4357.533977514304
 20
-11936.24693084723
 30
0.0
 11
-4357.533977514304
 21
-12009.24693084723
 31
0.0
  0
LINE
  5
42EC5
330
1E
100
AcDbEntity
  8
0
  6
CONTINUOUS
100
AcDbLine
 10
-4449.633983617823
 20
-12009.24693084723
 30
0.0
 11
-4449.633983617823
 21
-11936.24693084723
 31
0.0
  0
ARC
  5
42EC6
330
1E
100
AcDbEntity
  8
0
  6
CONTINUOUS
100
AcDbCircle
 10
-4403.583980566064
 20
-11936.24690517735
 30
0.0
 40
46.05000305176679
100
AcDbArc
 50
359.9999680613409
 51
180.000031938659
  0
ARC
  5
42EC8
330
1E
100
AcDbEntity
  8
0
100
AcDbCircle
 10
-4338.612527434793
 20
-12006.74397928804
 30
0.0
 40
3.505825887065663
100
AcDbArc
 50
272.3202794247415
 51
314.4435525201783
  0
ARC
  5
42EC9
330
1E
100
AcDbEntity
  8
0
  6
CONTINUOUS
100
AcDbCircle
 10
-4329.585362674054
 20
-12008.24646685273
 30
0.0
 40
1.00139747427947
100
AcDbArc
 50
267.5258809916401
 51
359.9734521729692
  0
LINE
  5
42ECA
330
1E
100
AcDbEntity
  8
0
  6
CONTINUOUS
100
AcDbLine
 10
-4349.431499486963
 20
-12011.64689422613
 30
0.0
 11
-4349.142803197901
 21
-12011.14689422613
 31
0.0
  0
ARC
  5
42ECB
330
1E
100
AcDbEntity
  8
0
  6
CONTINUOUS
100
AcDbCircle
 10
-4347.58398581318
 20
-12012.04691837881
 30
0.0
 40
1.799987531703598
100
AcDbArc
 50
89.99934727201729
 51
149.9988831102556
  0
ARC
  5
42ECC
330
1E
100
AcDbEntity
  8
0
  6
CONTINUOUS
100
AcDbCircle
 10
-4352.202803832079
 20
-12010.04692753919
 30
0.0
 40
3.200003308216651
100
AcDbArc
 50
270.0006014825958
 51
330.0007229369382
  0
ARC
  5
42ECD
330
1E
100
AcDbEntity
  8
0
  6
CONTINUOUS
100
AcDbCircle
 10
-4327.383969298043
 20
-11708.34224683235
 30
0.0
 40
2.80000399078749
100
AcDbArc
 50
0.0001962098362674
 51
44.99990436965789
  0
LINE
  5
42ECE
330
1E
100
AcDbEntity
  8
0
  6
CONTINUOUS
100
AcDbLine
 10
-4328.583995824847
 20
-11492.84690643316
 30
0.0
 11
-4328.583995824847
 21
-11828.24690032965
 31
0.0
  0
LINE
  5
42ECF
330
1E
100
AcDbEntity
  8
0
  6
CONTINUOUS
100
AcDbLine
 10
-4326.583995824839
 20
-11491.34695220953
 30
0.0
 11
-4326.583995824839
 21
-11788.40430999762
 31
0.0
  0
ARC
  5
42ED0
330
1E
100
AcDbEntity
  8
0
  6
CONTINUOUS
100
AcDbCircle
 10
-4329.583980176376
 20
-11788.40429053839
 30
0.0
 40
2.999984351586834
100
AcDbArc
 50
315.0003501454762
 51
359.999628354166
  0
ARC
  5
42ED1
330
1E
100
AcDbEntity
  8
0
100
AcDbCircle
 10
-4336.715311108868
 20
-11836.54690338141
 30
0.0
 40
7.642667831145474
100
AcDbArc
 50
342.4118770835024
 51
17.58812291649752
  0
LINE
  5
42ED2
330
1E
100
AcDbEntity
  8
0
  6
CONTINUOUS
100
AcDbLine
 10
-4333.083965307269
 20
-11842.54691864019
 30
0.0
 11
-4333.083965307269
 21
-11830.5469186402
 31
0.0
  0
LINE
  5
42ED3
330
1E
100
AcDbEntity
  8
0
  6
CONTINUOUS
100
AcDbLine
 10
-4328.783977514304
 20
-11840.04691864019
 30
0.0
 11
-4328.783977514304
 21
-11833.0469186402
 31
0.0
  0
LINE
  5
42ED4
330
1E
100
AcDbEntity
  8
0
  6
CONTINUOUS
100
AcDbLine
 10
-4332.283977514307
 20
-11841.44196868903
 30
0.0
 11
-4332.283977514307
 21
-11831.69126678473
 31
0.0
  0
LINE
  5
42ED5
330
1E
100
AcDbEntity
  8
0
  6
CONTINUOUS
100
AcDbLine
 10
-4333.583965307261
 20
-11829.24690032965
 30
0.0
 11
-4333.583965307261
 21
-11850.24690032965
 31
0.0
  0
LINE
  5
42ED6
330
1E
100
AcDbEntity
  8
0
  6
CONTINUOUS
100
AcDbLine
 10
-4348.083965307269
 20
-11844.74690032965
 30
0.0
 11
-4348.083965307269
 21
-11829.24690032965
 31
0.0
  0
LINE
  5
42ED7
330
1E
100
AcDbEntity
  8
0
  6
CONTINUOUS
100
AcDbLine
 10
-4349.083965307272
 20
-11829.24690032965
 30
0.0
 11
-4349.083965307272
 21
-11844.74690032965
 31
0.0
  0
CIRCLE
  5
42ED8
330
1E
100
AcDbEntity
  8
0
100
AcDbCircle
 10
-4443.583971410771
 20
-11876.24693084723
 30
0.0
 40
20.0500084095543
  0
CIRCLE
  5
42ED9
330
1E
100
AcDbEntity
  8
0
100
AcDbCircle
 10
-4383.583971410771
 20
-11873.24693084723
 30
0.0
 40
13.5499822573054
  0
ARC
  5
42EDA
330
1E
100
AcDbEntity
  8
0
100
AcDbCircle
 10
-4331.117310870668
 20
-11840.01101470953
 30
0.0
 40
2.04466759450896
100
AcDbArc
 50
325.6156500638804
 51
34.38434993611947
  0
ARC
  5
42EDB
330
1E
100
AcDbEntity
  8
0
  6
CONTINUOUS
100
AcDbCircle
 10
-4329.583973477002
 20
-11851.24690849938
 30
0.0
 40
1.000008169762343
100
AcDbArc
 50
0.0004680871336852
 51
89.99953191286632
  0
LINE
  5
42EDC
330
1E
100
AcDbEntity
  8
0
  6
CONTINUOUS
100
AcDbLine
 10
-4333.083965307269
 20
-11842.54691864019
 30
0.0
 11
-4333.583965307261
 21
-11842.54691864019
 31
0.0
  0
LINE
  5
42EDD
330
1E
100
AcDbEntity
  8
0
  6
CONTINUOUS
100
AcDbLine
 10
-4332.383983617819
 20
-11841.5469186402
 30
0.0
 11
-4333.083965307269
 21
-11841.5469186402
 31
0.0
  0
LINE
  5
42EDE
330
1E
100
AcDbEntity
  8
0
  6
CONTINUOUS
100
AcDbLine
 10
-4329.429912572886
 20
-11841.16572357183
 30
0.0
 11
-4328.783977514304
 21
-11840.04691864019
 31
0.0
  0
LINE
  5
42EDF
330
1E
100
AcDbEntity
  8
0
  6
CONTINUOUS
100
AcDbLine
 10
-4332.303295141247
 20
-11841.49134613043
 30
0.0
 11
-4332.283977514307
 21
-11841.44196868903
 31
0.0
  0
LINE
  5
42EE0
330
1E
100
AcDbEntity
  8
0
  6
CONTINUOUS
100
AcDbLine
 10
-4332.333965307261
 20
-11841.51844573981
 30
0.0
 11
-4332.303295141247
 21
-11841.49134613043
 31
0.0
  0
LINE
  5
42EE1
330
1E
100
AcDbEntity
  8
0
  6
CONTINUOUS
100
AcDbLine
 10
-4332.383983617819
 20
-11841.5469186402
 30
0.0
 11
-4332.333965307261
 21
-11841.51844573981
 31
0.0
  0
LINE
  5
42EE2
330
1E
100
AcDbEntity
  8
0
  6
CONTINUOUS
100
AcDbLine
 10
-4329.429912572886
 20
-11838.85630584723
 30
0.0
 11
-4332.283977514306
 21
-11838.85630584723
 31
0.0
  0
LINE
  5
42EE3
330
1E
100
AcDbEntity
  8
0
  6
CONTINUOUS
100
AcDbLine
 10
-4329.429912572886
 20
-11841.16572357183
 30
0.0
 11
-4332.283977514306
 21
-11841.16572357183
 31
0.0
  0
ARC
  5
42EE4
330
1E
100
AcDbEntity
  8
0
  6
CONTINUOUS
100
AcDbCircle
 10
-4348.583965307262
 20
-11844.74690032965
 30
0.0
 40
0.5
100
AcDbArc
 50
180.0
 51
0.0
  0
ARC
  5
42EE5
330
1E
100
AcDbEntity
  8
0
100
AcDbCircle
 10
-4331.117261562122
 20
-11833.08280731207
 30
0.0
 40
2.044618284539546
100
AcDbArc
 50
325.6152226050931
 51
34.38477739490684
  0
LINE
  5
42EE6
330
1E
100
AcDbEntity
  8
0
  6
CONTINUOUS
100
AcDbLine
 10
-4333.083965307269
 20
-11830.5469186402
 30
0.0
 11
-4333.583965307261
 21
-11830.5469186402
 31
0.0
  0
LINE
  5
42EE7
330
1E
100
AcDbEntity
  8
0
  6
CONTINUOUS
100
AcDbLine
 10
-4332.383983617819
 20
-11831.5469186402
 30
0.0
 11
-4333.083965307269
 21
-11831.5469186402
 31
0.0
  0
LINE
  5
42EE8
330
1E
100
AcDbEntity
  8
0
  6
CONTINUOUS
100
AcDbLine
 10
-4329.429912572886
 20
-11831.92811370855
 30
0.0
 11
-4328.783977514304
 21
-11833.0469186402
 31
0.0
  0
LINE
  5
42EE9
330
1E
100
AcDbEntity
  8
0
  6
CONTINUOUS
100
AcDbLine
 10
-4332.333965307261
 20
-11831.57536102301
 30
0.0
 11
-4332.383983617819
 21
-11831.5469186402
 31
0.0
  0
LINE
  5
42EEA
330
1E
100
AcDbEntity
  8
0
  6
CONTINUOUS
100
AcDbLine
 10
-4332.320537572886
 20
-11831.59333587653
 30
0.0
 11
-4332.333965307261
 21
-11831.57536102301
 31
0.0
  0
LINE
  5
42EEB
330
1E
100
AcDbEntity
  8
0
  6
CONTINUOUS
100
AcDbLine
 10
-4332.297374731097
 20
-11831.61186004644
 30
0.0
 11
-4332.320537572886
 21
-11831.59333587653
 31
0.0
  0
LINE
  5
42EEC
330
1E
100
AcDbEntity
  8
0
  6
CONTINUOUS
100
AcDbLine
 10
-4332.283977514307
 20
-11831.69126678473
 30
0.0
 11
-4332.297374731097
 21
-11831.61186004644
 31
0.0
  0
LINE
  5
42EED
330
1E
100
AcDbEntity
  8
0
  6
CONTINUOUS
100
AcDbLine
 10
-4329.429912572886
 20
-11834.23750091559
 30
0.0
 11
-4332.283977514306
 21
-11834.23750091559
 31
0.0
  0
LINE
  5
42EEE
330
1E
100
AcDbEntity
  8
0
  6
CONTINUOUS
100
AcDbLine
 10
-4329.429912572886
 20
-11831.92811370855
 30
0.0
 11
-4332.283977514306
 21
-11831.92811370855
 31
0.0
  0
ARC
  5
42EEF
330
1E
100
AcDbEntity
  8
0
  6
CONTINUOUS
100
AcDbCircle
 10
-4329.58397875076
 20
-11828.24691740373
 30
0.0
 40
0.9999829260630871
100
AcDbArc
 50
269.9990217103667
 51
0.0009782896332132
  0
ARC
  5
42EF0
330
1E
100
AcDbEntity
  8
0
  6
CONTINUOUS
100
AcDbCircle
 10
-4325.584001756651
 20
-11792.88962400967
 30
0.0
 40
2.999994069378717
100
AcDbArc
 50
134.9987784708398
 51
179.9983857863626
  0
LINE
  5
42EF1
330
1E
100
AcDbEntity
  8
0
  6
CONTINUOUS
100
AcDbLine
 10
-4327.705272680323
 20
-11790.76826263434
 30
0.0
 11
-4327.462657934229
 21
-11790.52558685308
 31
0.0
  0
LINE
  5
42EF2
330
1E
100
AcDbEntity
  8
0
  6
CONTINUOUS
100
AcDbLine
 10
-4349.083965307272
 20
-11834.24690032965
 30
0.0
 11
-4348.083965307269
 21
-11834.24690032965
 31
0.0
  0
ARC
  5
42EF3
330
1E
100
AcDbEntity
  8
0
  6
CONTINUOUS
100
AcDbCircle
 10
-4327.383969298043
 20
-11768.34224683235
 30
0.0
 40
2.80000399078749
100
AcDbArc
 50
0.0001962098362674
 51
44.99990436965789
  0
LINE
  5
42EF4
330
1E
100
AcDbEntity
  8
0
  6
CONTINUOUS
100
AcDbLine
 10
-4325.404064184222
 20
-11766.3623483277
 30
0.0
 11
-4326.583995824839
 21
-11765.18241668707
 31
0.0
  0
LINE
  5
42EF5
330
1E
100
AcDbEntity
  8
0
  6
CONTINUOUS
100
AcDbLine
 10
-4324.583965307265
 20
-11778.89692474372
 30
0.0
 11
-4324.583965307265
 21
-11768.34223724371
 31
0.0
  0
LINE
  5
42EF6
330
1E
100
AcDbEntity
  8
0
100
AcDbLine
 10
-4324.583965307265
 20
-11778.89692474372
 30
0.0
 11
-4326.583995824839
 21
-11779.07191253668
 31
0.0
  0
ARC
  5
42EF7
330
1E
100
AcDbEntity
  8
0
  6
CONTINUOUS
100
AcDbCircle
 10
-4327.383969298043
 20
-11748.34224683235
 30
0.0
 40
2.80000399078749
100
AcDbArc
 50
0.0001962098362674
 51
44.99990436965789
  0
LINE
  5
42EF8
330
1E
100
AcDbEntity
  8
0
  6
CONTINUOUS
100
AcDbLine
 10
-4325.404064184222
 20
-11746.3623483277
 30
0.0
 11
-4326.583995824839
 21
-11745.18241668707
 31
0.0
  0
LINE
  5
42EF9
330
1E
100
AcDbEntity
  8
0
  6
CONTINUOUS
100
AcDbLine
 10
-4324.583965307265
 20
-11758.89692474372
 30
0.0
 11
-4324.583965307265
 21
-11748.34223724371
 31
0.0
  0
LINE
  5
42EFA
330
1E
100
AcDbEntity
  8
0
100
AcDbLine
 10
-4324.583965307265
 20
-11758.89692474372
 30
0.0
 11
-4326.583995824839
 21
-11759.07191253668
 31
0.0
  0
ARC
  5
42EFB
330
1E
100
AcDbEntity
  8
0
  6
CONTINUOUS
100
AcDbCircle
 10
-4327.383969298043
 20
-11728.34224683235
 30
0.0
 40
2.80000399078749
100
AcDbArc
 50
0.0001962098362674
 51
44.99990436965789
  0
LINE
  5
42EFC
330
1E
100
AcDbEntity
  8
0
  6
CONTINUOUS
100
AcDbLine
 10
-4325.404064184222
 20
-11726.3623483277
 30
0.0
 11
-4326.583995824839
 21
-11725.18241668707
 31
0.0
  0
LINE
  5
42EFD
330
1E
100
AcDbEntity
  8
0
  6
CONTINUOUS
100
AcDbLine
 10
-4324.583965307265
 20
-11738.89692474372
 30
0.0
 11
-4324.583965307265
 21
-11728.34223724371
 31
0.0
  0
LINE
  5
42EFE
330
1E
100
AcDbEntity
  8
0
100
AcDbLine
 10
-4324.583965307265
 20
-11738.89692474372
 30
0.0
 11
-4326.583995824839
 21
-11739.07191253668
 31
0.0
  0
LINE
  5
42EFF
330
1E
100
AcDbEntity
  8
0
  6
CONTINUOUS
100
AcDbLine
 10
-4324.583965307265
 20
-11718.89692474372
 30
0.0
 11
-4324.583965307265
 21
-11708.34223724371
 31
0.0
  0
LINE
  5
42F00
330
1E
100
AcDbEntity
  8
0
100
AcDbLine
 10
-4324.583965307265
 20
-11718.89692474372
 30
0.0
 11
-4326.583995824839
 21
-11719.07191253668
 31
0.0
  0
LINE
  5
42F01
330
1E
100
AcDbEntity
  8
0
  6
CONTINUOUS
100
AcDbLine
 10
-4327.937511449854
 20
-11492.70046783453
 30
0.0
 11
-4325.876873022116
 21
-11490.63979888922
 31
0.0
  0
ARC
  5
42F02
330
1E
100
AcDbEntity
  8
0
  6
CONTINUOUS
100
AcDbCircle
 10
-4327.583971700224
 20
-11488.04690977435
 30
0.0
 40
2.000006392957388
100
AcDbArc
 50
0.0001831438269588
 51
89.99981685617305
  0
ARC
  5
42F0D
330
1E
100
AcDbEntity
  8
0
  6
CONTINUOUS
100
AcDbCircle
 10
-4393.583974173089
 20
-11480.8469000402
 30
0.0
 40
5.200003341220797
100
AcDbArc
 50
180.0000704403904
 51
270.0000976872548
  0
ARC
  5
42F0E
330
1E
100
AcDbEntity
  8
0
  6
CONTINUOUS
100
AcDbCircle
 10
-4393.583966543683
 20
-11480.84690766958
 30
0.0
 40
11.99999876358248
100
AcDbArc
 50
179.9999940965387
 51
270.0000059034612
  0
LINE
  5
42F0F
330
1E
100
AcDbEntity
  8
0
  6
CONTINUOUS
100
AcDbLine
 10
-4393.583965307265
 20
-11492.84690643316
 30
0.0
 11
-4328.29108811
 21
-11492.84690643316
 31
0.0
  0
LINE
  5
42F10
330
1E
100
AcDbEntity
  8
0
  6
CONTINUOUS
100
AcDbLine
 10
-4393.583965307269
 20
-11486.04690338141
 30
0.0
 11
-4327.583965307276
 21
-11486.04690338141
 31
0.0
  0
LINE
  5
42F11
330
1E
100
AcDbEntity
  8
0
  6
CONTINUOUS
100
AcDbLine
 10
-4331.93546677212
 20
-11486.04690338141
 30
0.0
 11
-4332.346508031878
 21
-11486.02030731207
 31
0.0
  0
ARC
  5
42F12
330
1E
100
AcDbEntity
  8
0
  6
CONTINUOUS
100
AcDbCircle
 10
-4328.291058675131
 20
-11492.3469019802
 30
0.0
 40
0.5000044538265884
100
AcDbArc
 50
269.9966270411018
 51
314.9984905298075
  0
LINE
  5
42F13
330
1E
100
AcDbEntity
  8
0
  6
CONTINUOUS
100
AcDbLine
 10
-4325.404064184222
 20
-11706.3623483277
 30
0.0
 11
-4326.583995824839
 21
-11705.18241668707
 31
0.0
  0
ARC
  5
42F14
330
1E
100
AcDbEntity
  8
0
  6
CONTINUOUS
100
AcDbCircle
 10
-4327.383969298043
 20
-11688.34224683235
 30
0.0
 40
2.80000399078749
100
AcDbArc
 50
0.0001962098362674
 51
44.99990436965789
  0
LINE
  5
42F15
330
1E
100
AcDbEntity
  8
0
  6
CONTINUOUS
100
AcDbLine
 10
-4325.404064184222
 20
-11686.3623483277
 30
0.0
 11
-4326.583995824839
 21
-11685.18241668707
 31
0.0
  0
LINE
  5
42F16
330
1E
100
AcDbEntity
  8
0
  6
CONTINUOUS
100
AcDbLine
 10
-4324.583965307265
 20
-11698.89692474372
 30
0.0
 11
-4324.583965307265
 21
-11688.34223724371
 31
0.0
  0
LINE
  5
42F17
330
1E
100
AcDbEntity
  8
0
100
AcDbLine
 10
-4324.583965307265
 20
-11698.89692474372
 30
0.0
 11
-4326.583995824839
 21
-11699.07191253668
 31
0.0
  0
ARC
  5
42F18
330
1E
100
AcDbEntity
  8
0
  6
CONTINUOUS
100
AcDbCircle
 10
-4327.383969298043
 20
-11668.34227734992
 30
0.0
 40
2.80000399078749
100
AcDbArc
 50
0.0001962098362674
 51
44.99990436965789
  0
LINE
  5
42F19
330
1E
100
AcDbEntity
  8
0
  6
CONTINUOUS
100
AcDbLine
 10
-4325.404064184222
 20
-11666.36237884528
 30
0.0
 11
-4326.583995824839
 21
-11665.18244720465
 31
0.0
  0
LINE
  5
42F1A
330
1E
100
AcDbEntity
  8
0
  6
CONTINUOUS
100
AcDbLine
 10
-4324.583965307265
 20
-11678.89695526129
 30
0.0
 11
-4324.583965307265
 21
-11668.34226776129
 31
0.0
  0
LINE
  5
42F1B
330
1E
100
AcDbEntity
  8
0
100
AcDbLine
 10
-4324.583965307265
 20
-11678.89695526129
 30
0.0
 11
-4326.583995824839
 21
-11679.07194305426
 31
0.0
  0
ARC
  5
42F1C
330
1E
100
AcDbEntity
  8
0
  6
CONTINUOUS
100
AcDbCircle
 10
-4327.383969298043
 20
-11648.34227734992
 30
0.0
 40
2.80000399078749
100
AcDbArc
 50
0.0001962098362674
 51
44.99990436965789
  0
LINE
  5
42F1D
330
1E
100
AcDbEntity
  8
0
  6
CONTINUOUS
100
AcDbLine
 10
-4325.404064184222
 20
-11646.36237884528
 30
0.0
 11
-4326.583995824839
 21
-11645.18244720465
 31
0.0
  0
LINE
  5
42F1E
330
1E
100
AcDbEntity
  8
0
  6
CONTINUOUS
100
AcDbLine
 10
-4324.583965307265
 20
-11658.89695526129
 30
0.0
 11
-4324.583965307265
 21
-11648.34226776129
 31
0.0
  0
LINE
  5
42F1F
330
1E
100
AcDbEntity
  8
0
100
AcDbLine
 10
-4324.583965307265
 20
-11658.89695526129
 30
0.0
 11
-4326.583995824839
 21
-11659.07194305426
 31
0.0
  0
ARC
  5
42F20
330
1E
100
AcDbEntity
  8
0
  6
CONTINUOUS
100
AcDbCircle
 10
-4327.383969298043
 20
-11628.34227734992
 30
0.0
 40
2.80000399078749
100
AcDbArc
 50
0.0001962098362674
 51
44.99990436965789
  0
LINE
  5
42F21
330
1E
100
AcDbEntity
  8
0
  6
CONTINUOUS
100
AcDbLine
 10
-4325.404064184222
 20
-11626.36237884528
 30
0.0
 11
-4326.583995824839
 21
-11625.18244720465
 31
0.0
  0
LINE
  5
42F22
330
1E
100
AcDbEntity
  8
0
  6
CONTINUOUS
100
AcDbLine
 10
-4324.583965307265
 20
-11638.89695526129
 30
0.0
 11
-4324.583965307265
 21
-11628.34226776129
 31
0.0
  0
LINE
  5
42F23
330
1E
100
AcDbEntity
  8
0
100
AcDbLine
 10
-4324.583965307265
 20
-11638.89695526129
 30
0.0
 11
-4326.583995824839
 21
-11639.07194305426
 31
0.0
  0
ARC
  5
42F24
330
1E
100
AcDbEntity
  8
0
  6
CONTINUOUS
100
AcDbCircle
 10
-4327.383969298043
 20
-11608.34227734992
 30
0.0
 40
2.80000399078749
100
AcDbArc
 50
0.0001962098362674
 51
44.99990436965789
  0
LINE
  5
42F25
330
1E
100
AcDbEntity
  8
0
  6
CONTINUOUS
100
AcDbLine
 10
-4325.404064184222
 20
-11606.36237884528
 30
0.0
 11
-4326.583995824839
 21
-11605.18244720465
 31
0.0
  0
LINE
  5
42F26
330
1E
100
AcDbEntity
  8
0
  6
CONTINUOUS
100
AcDbLine
 10
-4324.583965307265
 20
-11618.89695526129
 30
0.0
 11
-4324.583965307265
 21
-11608.34226776129
 31
0.0
  0
LINE
  5
42F27
330
1E
100
AcDbEntity
  8
0
100
AcDbLine
 10
-4324.583965307265
 20
-11618.89695526129
 30
0.0
 11
-4326.583995824839
 21
-11619.07194305426
 31
0.0
  0
LINE
  5
42F28
330
1E
100
AcDbEntity
  8
0
100
AcDbLine
 10
-4324.583965307265
 20
-11598.89695526129
 30
0.0
 11
-4326.583995824839
 21
-11599.07194305426
 31
0.0
  0
LINE
  5
42F29
330
1E
100
AcDbEntity
  8
0
  6
CONTINUOUS
100
AcDbLine
 10
-4324.583965307265
 20
-11598.89695526129
 30
0.0
 11
-4324.583965307265
 21
-11588.34226776129
 31
0.0
  0
LINE
  5
42F2A
330
1E
100
AcDbEntity
  8
0
  6
CONTINUOUS
100
AcDbLine
 10
-4325.404064184222
 20
-11586.36237884528
 30
0.0
 11
-4326.583995824839
 21
-11585.18244720465
 31
0.0
  0
ARC
  5
42F2B
330
1E
100
AcDbEntity
  8
0
  6
CONTINUOUS
100
AcDbCircle
 10
-4327.383969298043
 20
-11588.34227734992
 30
0.0
 40
2.80000399078749
100
AcDbArc
 50
0.0001962098362674
 51
44.99990436965789
  0
LINE
  5
42F2C
330
1E
100
AcDbEntity
  8
0
  6
CONTINUOUS
100
AcDbLine
 10
-4325.583965307269
 20
-11488.04690338141
 30
0.0
 11
-4325.583965307269
 21
-11480.84690643317
 31
0.0
  0
LINE
  5
42F2D
330
1E
100
AcDbEntity
  8
0
  6
CONTINUOUS
100
AcDbLine
 10
-4325.583965307269
 20
-11488.04690338141
 30
0.0
 11
-4325.583965307269
 21
-11489.93269134527
 31
0.0
  0
ARC
  5
42F2E
330
1E
100
AcDbEntity
  8
0
  6
CONTINUOUS
100
AcDbCircle
 10
-4326.583963838402
 20
-11489.93267822062
 30
0.0
 40
0.9999985312257644
100
AcDbArc
 50
314.9987905548976
 51
359.9992480115553
  0
LINE
  5
42F2F
330
1E
100
AcDbEntity
  8
0
  6
CONTINUOUS
100
AcDbLine
 10
-4326.583965307272
 20
-11531.74691558844
 30
0.0
 11
-4326.583965307272
 21
-11491.34690643317
 31
0.0
  0
LINE
  5
4304C
330
1E
100
AcDbEntity
  8
0
100
AcDbLine
 10
-5296.085421108779
 20
-10745.24691043293
 30
0.0
 11
-4737.082527321996
 21
-10745.24691043293
 31
0.0
  0
LINE
  5
4304D
330
1E
100
AcDbEntity
  8
0
100
AcDbLine
 10
-4737.082527321996
 20
-11323.24691043294
 30
0.0
 11
-5296.085421114479
 21
-11323.24691043294
 31
0.0
  0
LINE
  5
4304E
330
1E
100
AcDbEntity
  8
0
100
AcDbLine
 10
-5296.085420318919
 20
-11377.24690879119
 30
0.0
 11
-4737.082526532137
 21
-11377.24690879119
 31
0.0
  0
LINE
  5
4304F
330
1E
100
AcDbEntity
  8
0
  6
CONTINUOUS
100
AcDbLine
 10
-5377.583995824843
 20
-10717.64689422613
 30
0.0
 11
-4329.58399582485
 21
-10717.64689422613
 31
0.0
  0
LINE
  5
43050
330
1E
100
AcDbEntity
  8
BASIS
  6
DOT_CENTER
100
AcDbLine
 10
-4696.676393217567
 20
-11034.24691043339
 30
0.0
 11
-5336.491555218454
 21
-11034.2469104334
 31
0.0
  0
LINE
  5
43059
330
1E
100
AcDbEntity
  8
0
100
AcDbLine
 10
-5305.58397421801
 20
-11313.74835733034
 30
0.0
 11
-5305.58397421801
 21
-10754.74546353692
 31
0.0
  0
LINE
  5
4305A
330
1E
100
AcDbEntity
  8
0
  6
CONTINUOUS
100
AcDbLine
 10
-5378.583995824847
 20
-11423.84690643316
 30
0.0
 11
-5378.583995824847
 21
-10718.64689422613
 31
0.0
  0
ARC
  5
4305B
330
1E
100
AcDbEntity
  8
0
100
AcDbCircle
 10
-5296.08397421801
 20
-11313.74691043294
 30
0.0
 40
9.500000110184636
100
AcDbArc
 50
180.0087264246409
 51
269.9912735753591
  0
ARC
  5
4305C
330
1E
100
AcDbEntity
  8
0
  6
CONTINUOUS
100
AcDbCircle
 10
-5355.583980539723
 20
-11435.84690448361
 30
0.0
 40
12.00000357181216
100
AcDbArc
 50
0.0000011170344166
 51
89.99998522258724
  0
LINE
  5
4305D
330
1E
100
AcDbEntity
  8
0
  6
CONTINUOUS
100
AcDbLine
 10
-5355.583995824854
 20
-11423.84690643316
 30
0.0
 11
-5363.583995824847
 21
-11423.84690643316
 31
0.0
  0
LINE
  5
4305E
330
1E
100
AcDbEntity
  8
0
  6
CONTINUOUS
100
AcDbLine
 10
-5363.583995824847
 20
-11430.64690948492
 30
0.0
 11
-5355.583995824854
 21
-11430.64690948492
 31
0.0
  0
LINE
  5
4305F
330
1E
100
AcDbEntity
  8
0
  6
CONTINUOUS
100
AcDbLine
 10
-5379.230419164687
 20
-11423.99336029059
 30
0.0
 11
-5381.29108811001
 21
-11426.05401397711
 31
0.0
  0
LINE
  5
43060
330
1E
100
AcDbEntity
  8
0
  6
CONTINUOUS
100
AcDbLine
 10
-5378.876842504542
 20
-11423.84690643316
 30
0.0
 11
-5363.583995824847
 21
-11423.84690643316
 31
0.0
  0
LINE
  5
43061
330
1E
100
AcDbEntity
  8
0
  6
CONTINUOUS
100
AcDbLine
 10
-5379.583995824851
 20
-11430.64690948492
 30
0.0
 11
-5363.583995824847
 21
-11430.64690948492
 31
0.0
  0
LINE
  5
43062
330
1E
100
AcDbEntity
  8
0
  6
CONTINUOUS
100
AcDbLine
 10
-5381.583995824858
 20
-11428.64690948492
 30
0.0
 11
-5381.583995824858
 21
-11435.84690643316
 31
0.0
  0
LINE
  5
43063
330
1E
100
AcDbEntity
  8
0
  6
CONTINUOUS
100
AcDbLine
 10
-5381.583995824858
 20
-11426.76112152106
 30
0.0
 11
-5381.583995824858
 21
-11428.64690948492
 31
0.0
  0
ARC
  5
43064
330
1E
100
AcDbEntity
  8
0
  6
CONTINUOUS
100
AcDbCircle
 10
-5355.583977803672
 20
-11435.84690367074
 30
0.0
 40
5.199994185845804
100
AcDbArc
 50
359.9999695623233
 51
90.00019856521765
  0
ARC
  5
43065
330
1E
100
AcDbEntity
  8
0
  6
CONTINUOUS
100
AcDbCircle
 10
-5378.8768581361
 20
-11424.34690737417
 30
0.0
 40
0.5000009412475746
100
AcDbArc
 50
89.99820875818963
 51
135.0011299407657
  0
ARC
  5
43066
330
1E
100
AcDbEntity
  8
0
  6
CONTINUOUS
100
AcDbCircle
 10
-5380.583979097446
 20
-11426.76114218322
 30
0.0
 40
1.000016727622623
100
AcDbArc
 50
134.9992224012627
 51
179.9988161650909
  0
ARC
  5
43067
330
1E
100
AcDbEntity
  8
0
  6
CONTINUOUS
100
AcDbCircle
 10
-5379.583983907105
 20
-11428.64689756718
 30
0.0
 40
2.000011917775545
100
AcDbArc
 50
180.0003414159728
 51
269.999658583923
  0
ARC
  5
43068
330
1E
100
AcDbEntity
  8
0
100
AcDbCircle
 10
-5296.08397342815
 20
-11386.74690879119
 30
0.0
 40
9.500000110184862
100
AcDbArc
 50
90.00872642464086
 51
179.9912735752549
  0
ARC
  5
43069
330
1E
100
AcDbEntity
  8
0
  6
CONTINUOUS
100
AcDbCircle
 10
-5373.583975698994
 20
-10700.24695097309
 30
0.0
 40
5.000020125909973
100
AcDbArc
 50
90.00023062456397
 51
179.999769375436
  0
LINE
  5
4306A
330
1E
100
AcDbEntity
  8
0
  6
CONTINUOUS
100
AcDbLine
 10
-5377.583995824839
 20
-10717.64689422613
 30
0.0
 11
-5377.833995824843
 21
-10717.44596649176
 31
0.0
  0
ARC
  5
4306B
330
1E
100
AcDbEntity
  8
0
  6
CONTINUOUS
100
AcDbCircle
 10
-5377.083969580563
 20
-10716.14691323389
 30
0.0
 40
1.500026244401544
100
AcDbArc
 50
179.9992739699426
 51
239.9994212419086
  0
ARC
  5
4306C
330
1E
100
AcDbEntity
  8
0
  6
CONTINUOUS
100
AcDbCircle
 10
-5377.583975698962
 20
-10718.64691435201
 30
0.0
 40
1.000020126079264
100
AcDbArc
 50
90.00115310458147
 51
179.9988468954185
  0
LINE
  5
4306D
330
1E
100
AcDbEntity
  8
0
  6
CONTINUOUS
100
AcDbLine
 10
-5378.583995824847
 20
-10716.14689422613
 30
0.0
 11
-5378.583995824864
 21
-10700.24693084722
 31
0.0
  0
ARC
  5
4306E
330
1E
100
AcDbEntity
  8
0
100
AcDbCircle
 10
-5296.08397421801
 20
-10754.74691043293
 30
0.0
 40
9.500000110184862
100
AcDbArc
 50
90.00872642464086
 51
179.9912735752549
  0
LINE
  5
4306F
330
1E
100
AcDbEntity
  8
0
  6
CONTINUOUS
100
AcDbLine
 10
-5288.383983617823
 20
-10706.14689422613
 30
0.0
 11
-5286.933971410781
 21
-10706.14689422613
 31
0.0
  0
LINE
  5
43070
330
1E
100
AcDbEntity
  8
0
  6
CONTINUOUS
100
AcDbLine
 10
-5288.883983617815
 20
-10705.64689422613
 30
0.0
 11
-5288.883983617815
 21
-10704.1968820191
 31
0.0
  0
LINE
  5
43071
330
1E
100
AcDbEntity
  8
0
  6
CONTINUOUS
100
AcDbLine
 10
-5289.383983617809
 20
-10702.02811981207
 30
0.0
 11
-5285.383983617812
 21
-10704.3375070191
 31
0.0
  0
LINE
  5
43072
330
1E
100
AcDbEntity
  8
0
  6
CONTINUOUS
100
AcDbLine
 10
-5289.883983617819
 20
-10704.1968820191
 30
0.0
 11
-5288.883983617815
 21
-10704.1968820191
 31
0.0
  0
LINE
  5
43073
330
1E
100
AcDbEntity
  8
0
  6
CONTINUOUS
100
AcDbLine
 10
-5289.883983617819
 20
-10704.1968820191
 30
0.0
 11
-5289.883983617819
 21
-10705.64689422613
 31
0.0
  0
LINE
  5
43074
330
1E
100
AcDbEntity
  8
0
  6
CONTINUOUS
100
AcDbLine
 10
-5288.796825414683
 20
-10705.92893768316
 30
0.0
 11
-5289.971111303366
 21
-10705.92893768316
 31
0.0
  0
LINE
  5
43075
330
1E
100
AcDbEntity
  8
0
  6
CONTINUOUS
100
AcDbLine
 10
-5290.383983617812
 20
-10706.14689422613
 30
0.0
 11
-5291.833965307269
 21
-10706.14689422613
 31
0.0
  0
LINE
  5
43076
330
1E
100
AcDbEntity
  8
0
  6
CONTINUOUS
100
AcDbLine
 10
-5293.383983617823
 20
-10704.3375070191
 30
0.0
 11
-5289.383983617809
 21
-10702.02811981207
 31
0.0
  0
LINE
  5
43077
330
1E
100
AcDbEntity
  8
0
  6
CONTINUOUS
100
AcDbLine
 10
-5288.383983617823
 20
-10707.14689422613
 30
0.0
 11
-5286.933971410781
 21
-10707.14689422613
 31
0.0
  0
LINE
  5
43078
330
1E
100
AcDbEntity
  8
0
  6
CONTINUOUS
100
AcDbLine
 10
-5286.933971410781
 20
-10706.14689422613
 30
0.0
 11
-5286.933971410781
 21
-10707.14689422613
 31
0.0
  0
LINE
  5
43079
330
1E
100
AcDbEntity
  8
0
  6
CONTINUOUS
100
AcDbLine
 10
-5288.66602707485
 20
-10706.05973602301
 30
0.0
 11
-5288.66602707485
 21
-10707.23405242925
 31
0.0
  0
LINE
  5
4307A
330
1E
100
AcDbEntity
  8
0
  6
CONTINUOUS
100
AcDbLine
 10
-5288.883983617815
 20
-10709.09690643316
 30
0.0
 11
-5288.883983617815
 21
-10707.64689422613
 31
0.0
  0
LINE
  5
4307B
330
1E
100
AcDbEntity
  8
0
  6
CONTINUOUS
100
AcDbLine
 10
-5285.383983617812
 20
-10704.3375070191
 30
0.0
 11
-5285.383983617812
 21
-10708.95628143317
 31
0.0
  0
LINE
  5
4307C
330
1E
100
AcDbEntity
  8
0
  6
CONTINUOUS
100
AcDbLine
 10
-5288.796825414683
 20
-10707.3648507691
 30
0.0
 11
-5289.971111303366
 21
-10707.3648507691
 31
0.0
  0
LINE
  5
4307D
330
1E
100
AcDbEntity
  8
0
  6
CONTINUOUS
100
AcDbLine
 10
-5290.101909643199
 20
-10706.05973602301
 30
0.0
 11
-5290.101909643199
 21
-10707.23405242925
 31
0.0
  0
LINE
  5
4307E
330
1E
100
AcDbEntity
  8
0
  6
CONTINUOUS
100
AcDbLine
 10
-5291.833965307269
 20
-10707.14689422613
 30
0.0
 11
-5291.833965307269
 21
-10706.14689422613
 31
0.0
  0
LINE
  5
4307F
330
1E
100
AcDbEntity
  8
0
  6
CONTINUOUS
100
AcDbLine
 10
-5288.883983617815
 20
-10709.09690643316
 30
0.0
 11
-5289.883983617819
 21
-10709.09690643316
 31
0.0
  0
LINE
  5
43080
330
1E
100
AcDbEntity
  8
0
  6
CONTINUOUS
100
AcDbLine
 10
-5291.833965307269
 20
-10707.14689422613
 30
0.0
 11
-5290.383983617812
 21
-10707.14689422613
 31
0.0
  0
LINE
  5
43081
330
1E
100
AcDbEntity
  8
0
  6
CONTINUOUS
100
AcDbLine
 10
-5289.883983617819
 20
-10707.64689422613
 30
0.0
 11
-5289.883983617819
 21
-10709.09690643316
 31
0.0
  0
LINE
  5
43082
330
1E
100
AcDbEntity
  8
0
  6
CONTINUOUS
100
AcDbLine
 10
-5293.383983617823
 20
-10708.95628143317
 30
0.0
 11
-5293.383983617823
 21
-10704.3375070191
 31
0.0
  0
ARC
  5
43083
330
1E
100
AcDbEntity
  8
0
  6
CONTINUOUS
100
AcDbCircle
 10
-5288.383985432938
 20
-10705.64689604125
 30
0.0
 40
0.4999981848881113
100
AcDbArc
 50
179.9997920023136
 51
270.0002079975821
  0
ARC
  5
43084
330
1E
100
AcDbEntity
  8
0
  6
CONTINUOUS
100
AcDbCircle
 10
-5290.383969595477
 20
-10705.64690824848
 30
0.0
 40
0.4999859778478813
100
AcDbArc
 50
269.9983931121199
 51
0.0016068878800782
  0
ARC
  5
43085
330
1E
100
AcDbEntity
  8
0
  6
CONTINUOUS
100
AcDbCircle
 10
-5288.383969595471
 20
-10707.64690824849
 30
0.0
 40
0.500014022551738
100
AcDbArc
 50
90.00160679845894
 51
179.998393201541
  0
ARC
  5
43086
330
1E
100
AcDbEntity
  8
0
  6
CONTINUOUS
100
AcDbCircle
 10
-5290.383985433328
 20
-10707.64689604164
 30
0.0
 40
0.5000018155118361
100
AcDbArc
 50
0.0002080412505308
 51
89.99979195874947
  0
LINE
  5
43087
330
1E
100
AcDbEntity
  8
0
  6
CONTINUOUS
100
AcDbLine
 10
-5285.383983617812
 20
-10708.95628143317
 30
0.0
 11
-5289.383983617809
 21
-10711.26572967535
 31
0.0
  0
LINE
  5
43088
330
1E
100
AcDbEntity
  8
0
  6
CONTINUOUS
100
AcDbLine
 10
-5289.383983617809
 20
-10711.26572967535
 30
0.0
 11
-5293.383983617823
 21
-10708.95628143317
 31
0.0
  0
LINE
  5
430B9
330
1E
100
AcDbEntity
  8
0
100
AcDbLine
 10
-4727.58397421801
 20
-10754.74546353692
 30
0.0
 11
-4727.58397421801
 21
-11313.7483573294
 31
0.0
  0
LINE
  5
430C5
330
1E
100
AcDbEntity
  8
BASIS
  6
DOT_CENTER
100
AcDbLine
 10
-5016.58397421801
 20
-10714.98888797305
 30
0.0
 11
-5016.58397421801
 21
-11353.50493289374
 31
0.0
  0
ARC
  5
430C6
330
1E
100
AcDbEntity
  8
0
100
AcDbCircle
 10
-4737.083974218011
 20
-11313.74691043294
 30
0.0
 40
9.500000110184636
100
AcDbArc
 50
270.0087264246409
 51
359.9912735752548
  0
ARC
  5
430C7
330
1E
100
AcDbEntity
  8
0
100
AcDbCircle
 10
-4737.082526532137
 20
-11386.74546189518
 30
0.0
 40
9.498553103985779
100
AcDbArc
 50
0.0
 51
90.0
  0
LINE
  5
430C8
330
1E
100
AcDbEntity
  8
0
  6
CONTINUOUS
100
AcDbLine
 10
-4674.283977514297
 20
-11227.24690795904
 30
0.0
 11
-4674.283977514297
 21
-11225.7969110108
 31
0.0
  0
LINE
  5
430C9
330
1E
100
AcDbEntity
  8
0
  6
CONTINUOUS
100
AcDbLine
 10
-4673.783977514303
 20
-11227.74690795904
 30
0.0
 11
-4672.333965307262
 21
-11227.74690795904
 31
0.0
  0
LINE
  5
430CA
330
1E
100
AcDbEntity
  8
0
  6
CONTINUOUS
100
AcDbLine
 10
-4674.196819311182
 20
-11227.52895904547
 30
0.0
 11
-4675.37112045864
 21
-11227.52895904547
 31
0.0
  0
LINE
  5
430CB
330
1E
100
AcDbEntity
  8
0
  6
CONTINUOUS
100
AcDbLine
 10
-4674.783969884901
 20
-11223.6281106568
 30
0.0
 11
-4670.783977514292
 21
-11225.93750549322
 31
0.0
  0
LINE
  5
430CC
330
1E
100
AcDbEntity
  8
0
  6
CONTINUOUS
100
AcDbLine
 10
-4675.283969884913
 20
-11225.7969110108
 30
0.0
 11
-4674.283977514297
 21
-11225.7969110108
 31
0.0
  0
LINE
  5
430CD
330
1E
100
AcDbEntity
  8
0
  6
CONTINUOUS
100
AcDbLine
 10
-4675.283969884913
 20
-11225.7969110108
 30
0.0
 11
-4675.283969884913
 21
-11227.24690795904
 31
0.0
  0
LINE
  5
430CE
330
1E
100
AcDbEntity
  8
0
  6
CONTINUOUS
100
AcDbLine
 10
-4675.783969884906
 20
-11227.74690795904
 30
0.0
 11
-4677.233974462542
 21
-11227.74690795904
 31
0.0
  0
LINE
  5
430CF
330
1E
100
AcDbEntity
  8
0
  6
CONTINUOUS
100
AcDbLine
 10
-4678.783969884898
 20
-11225.93750549322
 30
0.0
 11
-4674.783969884901
 21
-11223.6281106568
 31
0.0
  0
LINE
  5
430D0
330
1E
100
AcDbEntity
  8
0
  6
CONTINUOUS
100
AcDbLine
 10
-4672.333965307262
 20
-11227.74690795904
 30
0.0
 11
-4672.333965307262
 21
-11228.74690795904
 31
0.0
  0
LINE
  5
430D1
330
1E
100
AcDbEntity
  8
0
  6
CONTINUOUS
100
AcDbLine
 10
-4673.783977514303
 20
-11228.74690795904
 30
0.0
 11
-4672.333965307262
 21
-11228.74690795904
 31
0.0
  0
LINE
  5
430D2
330
1E
100
AcDbEntity
  8
0
  6
CONTINUOUS
100
AcDbLine
 10
-4674.066020971332
 20
-11227.65976501471
 30
0.0
 11
-4674.066020971332
 21
-11228.83405853277
 31
0.0
  0
LINE
  5
430D3
330
1E
100
AcDbEntity
  8
0
  6
CONTINUOUS
100
AcDbLine
 10
-4674.283977514297
 20
-11230.69691253668
 30
0.0
 11
-4674.283977514297
 21
-11229.24690795904
 31
0.0
  0
LINE
  5
430D4
330
1E
100
AcDbEntity
  8
0
  6
CONTINUOUS
100
AcDbLine
 10
-4674.196819311182
 20
-11228.96485687262
 30
0.0
 11
-4675.37112045864
 21
-11228.96485687262
 31
0.0
  0
LINE
  5
430D5
330
1E
100
AcDbEntity
  8
0
  6
CONTINUOUS
100
AcDbLine
 10
-4670.783977514292
 20
-11230.55631042487
 30
0.0
 11
-4674.783969884901
 21
-11232.86571289068
 31
0.0
  0
LINE
  5
430D6
330
1E
100
AcDbEntity
  8
0
  6
CONTINUOUS
100
AcDbLine
 10
-4670.783977514292
 20
-11225.93750549322
 30
0.0
 11
-4670.783977514292
 21
-11230.55631042487
 31
0.0
  0
LINE
  5
430D7
330
1E
100
AcDbEntity
  8
0
  6
CONTINUOUS
100
AcDbLine
 10
-4675.501918798473
 20
-11227.65976501471
 30
0.0
 11
-4675.501918798473
 21
-11228.83405853277
 31
0.0
  0
LINE
  5
430D8
330
1E
100
AcDbEntity
  8
0
  6
CONTINUOUS
100
AcDbLine
 10
-4677.233974462542
 20
-11228.74690795904
 30
0.0
 11
-4677.233974462542
 21
-11227.74690795904
 31
0.0
  0
LINE
  5
430D9
330
1E
100
AcDbEntity
  8
0
  6
CONTINUOUS
100
AcDbLine
 10
-4674.283977514297
 20
-11230.69691253668
 30
0.0
 11
-4675.283969884913
 21
-11230.69691253668
 31
0.0
  0
LINE
  5
430DA
330
1E
100
AcDbEntity
  8
0
  6
CONTINUOUS
100
AcDbLine
 10
-4677.233974462542
 20
-11228.74690795904
 30
0.0
 11
-4675.783969884906
 21
-11228.74690795904
 31
0.0
  0
LINE
  5
430DB
330
1E
100
AcDbEntity
  8
0
  6
CONTINUOUS
100
AcDbLine
 10
-4675.283969884913
 20
-11229.24690795904
 30
0.0
 11
-4675.283969884913
 21
-11230.69691253668
 31
0.0
  0
LINE
  5
430DC
330
1E
100
AcDbEntity
  8
0
  6
CONTINUOUS
100
AcDbLine
 10
-4678.783969884898
 20
-11230.55631042487
 30
0.0
 11
-4678.783969884898
 21
-11225.93750549322
 31
0.0
  0
LINE
  5
430DD
330
1E
100
AcDbEntity
  8
0
  6
CONTINUOUS
100
AcDbLine
 10
-4674.783969884901
 20
-11232.86571289068
 30
0.0
 11
-4678.783969884898
 21
-11230.55631042487
 31
0.0
  0
ARC
  5
430DE
330
1E
100
AcDbEntity
  8
0
  6
CONTINUOUS
100
AcDbCircle
 10
-4673.783975514889
 20
-11227.24690595964
 30
0.0
 40
0.5000019994098653
100
AcDbArc
 50
180.0002291142017
 51
269.9997708859025
  0
ARC
  5
430DF
330
1E
100
AcDbEntity
  8
0
  6
CONTINUOUS
100
AcDbCircle
 10
-4675.783969595467
 20
-11227.24690824849
 30
0.0
 40
0.4999997105565785
100
AcDbArc
 50
269.9999668322695
 51
0.0000331677304474
  0
ARC
  5
430E0
330
1E
100
AcDbEntity
  8
0
  6
CONTINUOUS
100
AcDbCircle
 10
-4673.783973410155
 20
-11229.24691206319
 30
0.0
 40
0.5000041041648342
100
AcDbArc
 50
90.00047029671071
 51
179.9995297030808
  0
ARC
  5
430E1
330
1E
100
AcDbEntity
  8
0
  6
CONTINUOUS
100
AcDbCircle
 10
-4675.78397170022
 20
-11229.24690977435
 30
0.0
 40
0.5000018153101549
100
AcDbArc
 50
0.0002080181135985
 51
89.9997919818864
  0
LINE
  5
430E5
330
1E
100
AcDbEntity
  8
0
  6
CONTINUOUS
100
AcDbLine
 10
-4743.903306955959
 20
-10711.26572967535
 30
0.0
 11
-4747.903306955955
 21
-10708.95628143317
 31
0.0
  0
LINE
  5
430E6
330
1E
100
AcDbEntity
  8
0
  6
CONTINUOUS
100
AcDbLine
 10
-4739.903306955962
 20
-10708.95628143317
 30
0.0
 11
-4743.903306955959
 21
-10711.26572967535
 31
0.0
  0
ARC
  5
430E7
330
1E
100
AcDbEntity
  8
0
  6
CONTINUOUS
100
AcDbCircle
 10
-4744.903311823142
 20
-10707.64689909332
 30
0.0
 40
0.5000048672148267
100
AcDbArc
 50
0.0005577334707659
 51
89.99944226642503
  0
ARC
  5
430E8
330
1E
100
AcDbEntity
  8
0
  6
CONTINUOUS
100
AcDbCircle
 10
-4742.903295985339
 20
-10707.64690519675
 30
0.0
 40
0.5000109707378473
100
AcDbArc
 50
90.00125711249184
 51
179.9987428874039
  0
ARC
  5
430E9
330
1E
100
AcDbEntity
  8
0
  6
CONTINUOUS
100
AcDbCircle
 10
-4744.903295985383
 20
-10705.6469051967
 30
0.0
 40
0.4999890295501546
100
AcDbArc
 50
269.9987428376907
 51
0.0012571623092082
  0
ARC
  5
430EA
330
1E
100
AcDbEntity
  8
0
  6
CONTINUOUS
100
AcDbCircle
 10
-4742.903311822916
 20
-10705.64689909308
 30
0.0
 40
0.4999951330735664
100
AcDbArc
 50
179.9994422832044
 51
270.0005577167954
  0
LINE
  5
430EB
330
1E
100
AcDbEntity
  8
0
  6
CONTINUOUS
100
AcDbLine
 10
-4747.903306955955
 20
-10708.95628143317
 30
0.0
 11
-4747.903306955955
 21
-10704.3375070191
 31
0.0
  0
LINE
  5
430EC
330
1E
100
AcDbEntity
  8
0
  6
CONTINUOUS
100
AcDbLine
 10
-4744.403306955951
 20
-10707.64689422613
 30
0.0
 11
-4744.403306955951
 21
-10709.09690643316
 31
0.0
  0
LINE
  5
430ED
330
1E
100
AcDbEntity
  8
0
  6
CONTINUOUS
100
AcDbLine
 10
-4746.353288645419
 20
-10707.14689422613
 30
0.0
 11
-4744.903306955962
 21
-10707.14689422613
 31
0.0
  0
LINE
  5
430EE
330
1E
100
AcDbEntity
  8
0
  6
CONTINUOUS
100
AcDbLine
 10
-4743.403306955967
 20
-10709.09690643316
 30
0.0
 11
-4744.403306955951
 21
-10709.09690643316
 31
0.0
  0
LINE
  5
430EF
330
1E
100
AcDbEntity
  8
0
  6
CONTINUOUS
100
AcDbLine
 10
-4746.353288645419
 20
-10707.14689422613
 30
0.0
 11
-4746.353288645419
 21
-10706.14689422613
 31
0.0
  0
LINE
  5
430F0
330
1E
100
AcDbEntity
  8
0
  6
CONTINUOUS
100
AcDbLine
 10
-4744.621263498935
 20
-10706.05973602301
 30
0.0
 11
-4744.621263498935
 21
-10707.23405242925
 31
0.0
  0
LINE
  5
430F1
330
1E
100
AcDbEntity
  8
0
  6
CONTINUOUS
100
AcDbLine
 10
-4739.903306955962
 20
-10704.3375070191
 30
0.0
 11
-4739.903306955962
 21
-10708.95628143317
 31
0.0
  0
LINE
  5
430F2
330
1E
100
AcDbEntity
  8
0
  6
CONTINUOUS
100
AcDbLine
 10
-4743.316148752835
 20
-10707.3648507691
 30
0.0
 11
-4744.490434641498
 21
-10707.3648507691
 31
0.0
  0
LINE
  5
430F3
330
1E
100
AcDbEntity
  8
0
  6
CONTINUOUS
100
AcDbLine
 10
-4743.403306955967
 20
-10709.09690643316
 30
0.0
 11
-4743.403306955967
 21
-10707.64689422613
 31
0.0
  0
LINE
  5
430F4
330
1E
100
AcDbEntity
  8
0
  6
CONTINUOUS
100
AcDbLine
 10
-4743.185350412983
 20
-10706.05973602301
 30
0.0
 11
-4743.185350412983
 21
-10707.23405242925
 31
0.0
  0
LINE
  5
430F5
330
1E
100
AcDbEntity
  8
0
  6
CONTINUOUS
100
AcDbLine
 10
-4742.903306955955
 20
-10707.14689422613
 30
0.0
 11
-4741.453294748931
 21
-10707.14689422613
 31
0.0
  0
LINE
  5
430F6
330
1E
100
AcDbEntity
  8
0
  6
CONTINUOUS
100
AcDbLine
 10
-4741.453294748931
 20
-10706.14689422613
 30
0.0
 11
-4741.453294748931
 21
-10707.14689422613
 31
0.0
  0
LINE
  5
430F7
330
1E
100
AcDbEntity
  8
0
  6
CONTINUOUS
100
AcDbLine
 10
-4747.903306955955
 20
-10704.3375070191
 30
0.0
 11
-4743.903306955959
 21
-10702.02811981207
 31
0.0
  0
LINE
  5
430F8
330
1E
100
AcDbEntity
  8
0
  6
CONTINUOUS
100
AcDbLine
 10
-4744.903306955962
 20
-10706.14689422613
 30
0.0
 11
-4746.353288645419
 21
-10706.14689422613
 31
0.0
  0
LINE
  5
430F9
330
1E
100
AcDbEntity
  8
0
  6
CONTINUOUS
100
AcDbLine
 10
-4744.403306955951
 20
-10704.1968820191
 30
0.0
 11
-4744.403306955951
 21
-10705.64689422613
 31
0.0
  0
LINE
  5
430FA
330
1E
100
AcDbEntity
  8
0
  6
CONTINUOUS
100
AcDbLine
 10
-4744.403306955951
 20
-10704.1968820191
 30
0.0
 11
-4743.403306955967
 21
-10704.1968820191
 31
0.0
  0
LINE
  5
430FB
330
1E
100
AcDbEntity
  8
0
  6
CONTINUOUS
100
AcDbLine
 10
-4743.903306955959
 20
-10702.02811981207
 30
0.0
 11
-4739.903306955962
 21
-10704.3375070191
 31
0.0
  0
LINE
  5
430FC
330
1E
100
AcDbEntity
  8
0
  6
CONTINUOUS
100
AcDbLine
 10
-4743.316148752835
 20
-10705.92893768316
 30
0.0
 11
-4744.490434641498
 21
-10705.92893768316
 31
0.0
  0
LINE
  5
430FD
330
1E
100
AcDbEntity
  8
0
  6
CONTINUOUS
100
AcDbLine
 10
-4742.903306955955
 20
-10706.14689422613
 30
0.0
 11
-4741.453294748931
 21
-10706.14689422613
 31
0.0
  0
LINE
  5
430FE
330
1E
100
AcDbEntity
  8
0
  6
CONTINUOUS
100
AcDbLine
 10
-4743.403306955967
 20
-10705.64689422613
 30
0.0
 11
-4743.403306955967
 21
-10704.1968820191
 31
0.0
  0
ARC
  5
430FF
330
1E
100
AcDbEntity
  8
0
100
AcDbCircle
 10
-4737.082527321996
 20
-10754.74546353692
 30
0.0
 40
9.498553103985779
100
AcDbArc
 50
0.0
 51
90.0
  0
LINE
  5
43100
330
1E
100
AcDbEntity
  8
0
  6
CONTINUOUS
100
AcDbLine
 10
-4326.583965307272
 20
-11425.34692169196
 30
0.0
 11
-4326.583995824839
 21
-10732.4039132691
 31
0.0
  0
LINE
  5
43101
330
1E
100
AcDbEntity
  8
0
  6
CONTINUOUS
100
AcDbLine
 10
-4326.583995824839
 20
-10738.64689422613
 30
0.0
 11
-4326.583995824839
 21
-11425.3468606568
 31
0.0
  0
LINE
  5
43102
330
1E
100
AcDbEntity
  8
0
  6
CONTINUOUS
100
AcDbLine
 10
-4328.583995824847
 20
-11423.84690643316
 30
0.0
 11
-4328.583995824847
 21
-10718.64689422613
 31
0.0
  0
LINE
  5
43103
330
1E
100
AcDbEntity
  8
0
  6
CONTINUOUS
100
AcDbLine
 10
-4327.937511449854
 20
-11423.99336029059
 30
0.0
 11
-4325.876873022116
 21
-11426.05401397711
 31
0.0
  0
ARC
  5
43104
330
1E
100
AcDbEntity
  8
0
  6
CONTINUOUS
100
AcDbCircle
 10
-4327.583968069575
 20
-11428.64690672261
 30
0.0
 40
2.000002762308755
100
AcDbArc
 50
270.0000791341448
 51
359.9999208658552
  0
ARC
  5
43105
330
1E
100
AcDbEntity
  8
0
  6
CONTINUOUS
100
AcDbCircle
 10
-4328.291074266071
 20
-11424.34691168995
 30
0.0
 40
0.5000052569787875
100
AcDbArc
 50
44.9990749194396
 51
90.00158638157527
  0
ARC
  5
43106
330
1E
100
AcDbEntity
  8
0
  6
CONTINUOUS
100
AcDbCircle
 10
-4393.583974173089
 20
-11435.84691282613
 30
0.0
 40
5.200003341220797
100
AcDbArc
 50
89.99990231274518
 51
179.9999295596095
  0
LINE
  5
43107
330
1E
100
AcDbEntity
  8
0
  6
CONTINUOUS
100
AcDbLine
 10
-4393.583965307262
 20
-11423.84690643316
 30
0.0
 11
-4328.291088110009
 21
-11423.84690643317
 31
0.0
  0
LINE
  5
43108
330
1E
100
AcDbEntity
  8
0
  6
CONTINUOUS
100
AcDbLine
 10
-4393.583965307262
 20
-11430.64690948492
 30
0.0
 11
-4327.583965307268
 21
-11430.64690948492
 31
0.0
  0
ARC
  5
43109
330
1E
100
AcDbEntity
  8
0
  6
CONTINUOUS
100
AcDbCircle
 10
-4393.583966543683
 20
-11435.84690519675
 30
0.0
 40
11.99999876358248
100
AcDbArc
 50
89.99999409653877
 51
180.0000059034612
  0
LINE
  5
4310A
330
1E
100
AcDbEntity
  8
0
  6
CONTINUOUS
100
AcDbLine
 10
-4325.592510229144
 20
-11428.83144927985
 30
0.0
 11
-4325.583965307269
 21
-11428.89224792486
 31
0.0
  0
LINE
  5
4310B
330
1E
100
AcDbEntity
  8
0
  6
CONTINUOUS
100
AcDbLine
 10
-4325.583965307269
 20
-11428.89224792486
 30
0.0
 11
-4325.583965307269
 21
-11435.84690643316
 31
0.0
  0
LINE
  5
4310C
330
1E
100
AcDbEntity
  8
0
  6
CONTINUOUS
100
AcDbLine
 10
-4325.583965307269
 20
-11426.76112152106
 30
0.0
 11
-4325.583965307269
 21
-11428.64690948492
 31
0.0
  0
ARC
  5
4310D
330
1E
100
AcDbEntity
  8
0
  6
CONTINUOUS
100
AcDbCircle
 10
-4326.583966405669
 20
-11426.76113570916
 30
0.0
 40
1.000001098503769
100
AcDbArc
 50
0.0008129175757573
 51
45.00114851609692
  0
ARC
  5
43111
330
1E
100
AcDbEntity
  8
0
  6
CONTINUOUS
100
AcDbCircle
 10
-4329.583973849658
 20
-10731.88954587861
 30
0.0
 40
2.999992214870752
100
AcDbArc
 50
8.181304592972576
 51
44.99997091643034
  0
LINE
  5
43112
330
1E
100
AcDbEntity
  8
0
  6
CONTINUOUS
100
AcDbLine
 10
-4417.196819311175
 20
-10705.92893768316
 30
0.0
 11
-4418.37110519984
 21
-10705.92893768316
 31
0.0
  0
LINE
  5
43113
330
1E
100
AcDbEntity
  8
0
  6
CONTINUOUS
100
AcDbLine
 10
-4417.7839775143
 20
-10702.02811981207
 30
0.0
 11
-4413.783977514304
 21
-10704.3375070191
 31
0.0
  0
LINE
  5
43114
330
1E
100
AcDbEntity
  8
0
  6
CONTINUOUS
100
AcDbLine
 10
-4418.283977514293
 20
-10704.1968820191
 30
0.0
 11
-4417.283977514308
 21
-10704.1968820191
 31
0.0
  0
LINE
  5
43115
330
1E
100
AcDbEntity
  8
0
  6
CONTINUOUS
100
AcDbLine
 10
-4417.196819311175
 20
-10707.3648507691
 30
0.0
 11
-4418.37110519984
 21
-10707.3648507691
 31
0.0
  0
LINE
  5
43116
330
1E
100
AcDbEntity
  8
0
  6
CONTINUOUS
100
AcDbLine
 10
-4417.283977514308
 20
-10709.09690643316
 30
0.0
 11
-4418.283977514293
 21
-10709.09690643316
 31
0.0
  0
LINE
  5
43117
330
1E
100
AcDbEntity
  8
0
  6
CONTINUOUS
100
AcDbLine
 10
-4413.783977514304
 20
-10708.95628143317
 30
0.0
 11
-4417.7839775143
 21
-10711.26572967535
 31
0.0
  0
LINE
  5
43118
330
1E
100
AcDbEntity
  8
0
  6
CONTINUOUS
100
AcDbLine
 10
-4418.283977514293
 20
-10704.1968820191
 30
0.0
 11
-4418.283977514293
 21
-10705.64689422613
 31
0.0
  0
LINE
  5
43119
330
1E
100
AcDbEntity
  8
0
  6
CONTINUOUS
100
AcDbLine
 10
-4418.783977514304
 20
-10706.14689422613
 30
0.0
 11
-4420.233959203761
 21
-10706.14689422613
 31
0.0
  0
LINE
  5
4311A
330
1E
100
AcDbEntity
  8
0
  6
CONTINUOUS
100
AcDbLine
 10
-4421.783977514297
 20
-10704.3375070191
 30
0.0
 11
-4417.7839775143
 21
-10702.02811981207
 31
0.0
  0
LINE
  5
4311B
330
1E
100
AcDbEntity
  8
0
  6
CONTINUOUS
100
AcDbLine
 10
-4418.501934057276
 20
-10706.05973602301
 30
0.0
 11
-4418.501934057276
 21
-10707.23405242925
 31
0.0
  0
LINE
  5
4311C
330
1E
100
AcDbEntity
  8
0
  6
CONTINUOUS
100
AcDbLine
 10
-4420.233959203761
 20
-10707.14689422613
 30
0.0
 11
-4420.233959203761
 21
-10706.14689422613
 31
0.0
  0
LINE
  5
4311D
330
1E
100
AcDbEntity
  8
0
  6
CONTINUOUS
100
AcDbLine
 10
-4420.233959203761
 20
-10707.14689422613
 30
0.0
 11
-4418.783977514304
 21
-10707.14689422613
 31
0.0
  0
LINE
  5
4311E
330
1E
100
AcDbEntity
  8
0
  6
CONTINUOUS
100
AcDbLine
 10
-4418.283977514293
 20
-10707.64689422613
 30
0.0
 11
-4418.283977514293
 21
-10709.09690643316
 31
0.0
  0
LINE
  5
4311F
330
1E
100
AcDbEntity
  8
0
  6
CONTINUOUS
100
AcDbLine
 10
-4421.783977514297
 20
-10708.95628143317
 30
0.0
 11
-4421.783977514297
 21
-10704.3375070191
 31
0.0
  0
ARC
  5
43120
330
1E
100
AcDbEntity
  8
0
  6
CONTINUOUS
100
AcDbCircle
 10
-4418.783966543724
 20
-10705.6469051967
 30
0.0
 40
0.4999890295501546
100
AcDbArc
 50
269.9987428376907
 51
0.0012571623092082
  0
ARC
  5
43121
330
1E
100
AcDbEntity
  8
0
  6
CONTINUOUS
100
AcDbCircle
 10
-4418.783982381483
 20
-10707.64689909332
 30
0.0
 40
0.5000048672148267
100
AcDbArc
 50
0.0005577334707659
 51
89.99944226642503
  0
LINE
  5
43122
330
1E
100
AcDbEntity
  8
0
  6
CONTINUOUS
100
AcDbLine
 10
-4417.7839775143
 20
-10711.26572967535
 30
0.0
 11
-4421.783977514297
 21
-10708.95628143317
 31
0.0
  0
ARC
  5
43123
330
1E
100
AcDbEntity
  8
0
  6
CONTINUOUS
100
AcDbCircle
 10
-4333.58397627786
 20
-10700.24694181781
 30
0.0
 40
5.0000109706002
100
AcDbArc
 50
0.0001257133752714
 51
89.99987428662473
  0
LINE
  5
43124
330
1E
100
AcDbEntity
  8
0
  6
CONTINUOUS
100
AcDbLine
 10
-4329.333965307269
 20
-10717.44596649176
 30
0.0
 11
-4329.583995824857
 21
-10717.64689422613
 31
0.0
  0
ARC
  5
43125
330
1E
100
AcDbEntity
  8
0
  6
CONTINUOUS
100
AcDbCircle
 10
-4330.083977818485
 20
-10716.14692116247
 30
0.0
 40
1.500012511456857
100
AcDbArc
 50
300.000275904525
 51
0.0010288837467343
  0
ARC
  5
43126
330
1E
100
AcDbEntity
  8
0
  6
CONTINUOUS
100
AcDbCircle
 10
-4329.583991536856
 20
-10718.64688993813
 30
0.0
 40
0.9999957120081566
100
AcDbArc
 50
359.9997543145437
 51
90.00024568545628
  0
ARC
  5
43127
330
1E
100
AcDbEntity
  8
0
  6
CONTINUOUS
100
AcDbCircle
 10
-4325.583980585689
 20
-10727.40424722722
 30
0.0
 40
3.000015239334403
100
AcDbArc
 50
180.0006159802809
 51
225.0010540239734
  0
LINE
  5
43128
330
1E
100
AcDbEntity
  8
0
  6
CONTINUOUS
100
AcDbLine
 10
-4327.705272680323
 20
-10729.52561737066
 30
0.0
 11
-4327.462657934229
 21
-10729.76823211676
 31
0.0
  0
LINE
  5
43129
330
1E
100
AcDbEntity
  8
0
  6
CONTINUOUS
100
AcDbLine
 10
-4328.58396530728
 20
-10716.14689422613
 30
0.0
 11
-4328.583965307272
 21
-10700.24693084723
 31
0.0
  0
LINE
  5
4312A
330
1E
100
AcDbEntity
  8
0
  6
CONTINUOUS
100
AcDbLine
 10
-4417.283977514308
 20
-10705.64689422613
 30
0.0
 11
-4417.283977514308
 21
-10704.1968820191
 31
0.0
  0
LINE
  5
4312B
330
1E
100
AcDbEntity
  8
0
  6
CONTINUOUS
100
AcDbLine
 10
-4416.783977514296
 20
-10706.14689422613
 30
0.0
 11
-4415.333965307272
 21
-10706.14689422613
 31
0.0
  0
LINE
  5
4312C
330
1E
100
AcDbEntity
  8
0
  6
CONTINUOUS
100
AcDbLine
 10
-4415.333965307272
 20
-10706.14689422613
 30
0.0
 11
-4415.333965307272
 21
-10707.14689422613
 31
0.0
  0
LINE
  5
4312D
330
1E
100
AcDbEntity
  8
0
  6
CONTINUOUS
100
AcDbLine
 10
-4416.783977514296
 20
-10707.14689422613
 30
0.0
 11
-4415.333965307272
 21
-10707.14689422613
 31
0.0
  0
LINE
  5
4312E
330
1E
100
AcDbEntity
  8
0
  6
CONTINUOUS
100
AcDbLine
 10
-4417.066020971324
 20
-10706.05973602301
 30
0.0
 11
-4417.066020971324
 21
-10707.23405242925
 31
0.0
  0
LINE
  5
4312F
330
1E
100
AcDbEntity
  8
0
  6
CONTINUOUS
100
AcDbLine
 10
-4417.283977514308
 20
-10709.09690643316
 30
0.0
 11
-4417.283977514308
 21
-10707.64689422613
 31
0.0
  0
LINE
  5
43130
330
1E
100
AcDbEntity
  8
0
  6
CONTINUOUS
100
AcDbLine
 10
-4413.783977514304
 20
-10704.3375070191
 30
0.0
 11
-4413.783977514304
 21
-10708.95628143317
 31
0.0
  0
ARC
  5
43131
330
1E
100
AcDbEntity
  8
0
  6
CONTINUOUS
100
AcDbCircle
 10
-4416.783982381257
 20
-10705.64689909308
 30
0.0
 40
0.4999951330735664
100
AcDbArc
 50
179.9994422832044
 51
270.0005577167954
  0
ARC
  5
43132
330
1E
100
AcDbEntity
  8
0
  6
CONTINUOUS
100
AcDbCircle
 10
-4416.783966543681
 20
-10707.64690519675
 30
0.0
 40
0.5000109707378473
100
AcDbArc
 50
90.00125711249184
 51
179.9987428874039
  0
LINE
  5
43133
330
1E
100
AcDbEntity
  8
0
  6
CONTINUOUS
100
AcDbLine
 10
-4326.583995824839
 20
-10732.4039132691
 30
0.0
 11
-4326.614513402964
 21
-10731.46262908941
 31
0.0
  0
TEXT
  5
43156
330
1E
100
AcDbEntity
  8
ETC
  6
CONTINUOUS
100
AcDbText
 10
-4233.317234926533
 20
-10222.79409113486
 30
0.0
 40
64.0
  1
PAC別売
 41
0.9
100
AcDbText
  0
LINE
  5
5E80F
330
1E
100
AcDbEntity
  8
NOTE
100
AcDbLine
 10
-4990.857426199887
 20
-10664.61780168059
 30
0.0
 11
-5016.583995824869
 21
-10695.24693084723
 31
0.0
  0
LINE
  5
5E810
330
1E
100
AcDbEntity
  8
NOTE
100
AcDbLine
 10
-5016.583995824869
 20
-10695.24693084723
 30
0.0
 11
-4978.989568803903
 21
-10681.58461349138
 31
0.0
  0
LINE
  5
5E816
330
1E
100
AcDbEntity
  8
NOTE
100
AcDbLine
 10
-5016.583995824869
 20
-10695.24693084723
 30
0.0
 11
-4819.524416192017
 21
-10558.71201032686
 31
0.0
  0
LINE
  5
65627
330
1E
100
AcDbEntity
  8
0
100
AcDbLine
 10
-5141.58397421801
 20
-10745.24691043293
 30
0.0
 11
-5141.58397421801
 21
-11323.24691043294
 31
0.0
  0
LINE
  5
65628
330
1E
100
AcDbEntity
  8
0
100
AcDbLine
 10
-5151.58397421801
 20
-10745.24691043293
 30
0.0
 11
-5151.58397421801
 21
-11323.24691043294
 31
0.0
  0
LINE
  5
65629
330
1E
100
AcDbEntity
  8
0
100
AcDbLine
 10
-5161.583974218011
 20
-10745.24691043293
 30
0.0
 11
-5161.583974218011
 21
-11323.24691043294
 31
0.0
  0
LINE
  5
6562A
330
1E
100
AcDbEntity
  8
0
100
AcDbLine
 10
-5171.583974218011
 20
-10745.24691043293
 30
0.0
 11
-5171.583974218011
 21
-11323.24691043294
 31
0.0
  0
LINE
  5
6562B
330
1E
100
AcDbEntity
  8
0
100
AcDbLine
 10
-5181.58397421801
 20
-10745.24691043293
 30
0.0
 11
-5181.58397421801
 21
-11323.24691043294
 31
0.0
  0
LINE
  5
6562C
330
1E
100
AcDbEntity
  8
0
100
AcDbLine
 10
-5201.58397421801
 20
-10745.24691043293
 30
0.0
 11
-5201.58397421801
 21
-11323.24691043294
 31
0.0
  0
LINE
  5
6562D
330
1E
100
AcDbEntity
  8
0
100
AcDbLine
 10
-5211.583974218011
 20
-10745.24691043293
 30
0.0
 11
-5211.583974218011
 21
-11323.24691043294
 31
0.0
  0
LINE
  5
6562E
330
1E
100
AcDbEntity
  8
0
100
AcDbLine
 10
-5221.583974218011
 20
-10745.24691043293
 30
0.0
 11
-5221.583974218011
 21
-11323.24691043294
 31
0.0
  0
LINE
  5
6562F
330
1E
100
AcDbEntity
  8
0
100
AcDbLine
 10
-5231.583974218011
 20
-10745.24691043293
 30
0.0
 11
-5231.583974218011
 21
-11323.24691043294
 31
0.0
  0
LINE
  5
65630
330
1E
100
AcDbEntity
  8
0
100
AcDbLine
 10
-5191.58397421801
 20
-10745.24691043293
 30
0.0
 11
-5191.58397421801
 21
-11323.24691043294
 31
0.0
  0
LINE
  5
65631
330
1E
100
AcDbEntity
  8
0
100
AcDbLine
 10
-5281.583974218011
 20
-10745.24691043293
 30
0.0
 11
-5281.583974218011
 21
-11323.24691043294
 31
0.0
  0
LINE
  5
65632
330
1E
100
AcDbEntity
  8
0
100
AcDbLine
 10
-5291.58397421801
 20
-10745.24691043293
 30
0.0
 11
-5291.58397421801
 21
-11323.24691043294
 31
0.0
  0
LINE
  5
65633
330
1E
100
AcDbEntity
  8
0
100
AcDbLine
 10
-5241.58397421801
 20
-10745.24691043293
 30
0.0
 11
-5241.58397421801
 21
-11323.24691043294
 31
0.0
  0
LINE
  5
65634
330
1E
100
AcDbEntity
  8
0
100
AcDbLine
 10
-5251.583974218011
 20
-10745.24691043293
 30
0.0
 11
-5251.583974218011
 21
-11323.24691043294
 31
0.0
  0
LINE
  5
65635
330
1E
100
AcDbEntity
  8
0
100
AcDbLine
 10
-5261.583974218011
 20
-10745.24691043293
 30
0.0
 11
-5261.583974218011
 21
-11323.24691043294
 31
0.0
  0
LINE
  5
65636
330
1E
100
AcDbEntity
  8
0
100
AcDbLine
 10
-5271.58397421801
 20
-10745.24691043293
 30
0.0
 11
-5271.58397421801
 21
-11323.24691043294
 31
0.0
  0
LINE
  5
65637
330
1E
100
AcDbEntity
  8
0
100
AcDbLine
 10
-4921.583974218011
 20
-10745.24691043293
 30
0.0
 11
-4921.583974218011
 21
-11323.24691043294
 31
0.0
  0
LINE
  5
65638
330
1E
100
AcDbEntity
  8
0
100
AcDbLine
 10
-4931.58397421801
 20
-10745.24691043293
 30
0.0
 11
-4931.58397421801
 21
-11323.24691043294
 31
0.0
  0
LINE
  5
65639
330
1E
100
AcDbEntity
  8
0
100
AcDbLine
 10
-4941.58397421801
 20
-10745.24691043293
 30
0.0
 11
-4941.58397421801
 21
-11323.24691043294
 31
0.0
  0
LINE
  5
6563A
330
1E
100
AcDbEntity
  8
0
100
AcDbLine
 10
-4951.58397421801
 20
-10745.24691043293
 30
0.0
 11
-4951.58397421801
 21
-11323.24691043294
 31
0.0
  0
LINE
  5
6563B
330
1E
100
AcDbEntity
  8
0
100
AcDbLine
 10
-4961.583974218011
 20
-10745.24691043293
 30
0.0
 11
-4961.583974218011
 21
-11323.24691043294
 31
0.0
  0
LINE
  5
6563C
330
1E
100
AcDbEntity
  8
0
100
AcDbLine
 10
-4971.583974218011
 20
-10745.24691043293
 30
0.0
 11
-4971.583974218011
 21
-11323.24691043294
 31
0.0
  0
LINE
  5
6563D
330
1E
100
AcDbEntity
  8
0
100
AcDbLine
 10
-4981.583974218011
 20
-10745.24691043293
 30
0.0
 11
-4981.583974218011
 21
-11323.24691043294
 31
0.0
  0
LINE
  5
6563E
330
1E
100
AcDbEntity
  8
0
100
AcDbLine
 10
-4991.58397421801
 20
-10745.24691043293
 30
0.0
 11
-4991.58397421801
 21
-11323.24691043294
 31
0.0
  0
LINE
  5
6563F
330
1E
100
AcDbEntity
  8
0
100
AcDbLine
 10
-5001.583974218011
 20
-10745.24691043293
 30
0.0
 11
-5001.583974218011
 21
-11323.24691043294
 31
0.0
  0
LINE
  5
65640
330
1E
100
AcDbEntity
  8
0
100
AcDbLine
 10
-5011.583974218011
 20
-10745.24691043293
 30
0.0
 11
-5011.583974218011
 21
-11323.24691043294
 31
0.0
  0
LINE
  5
65641
330
1E
100
AcDbEntity
  8
0
100
AcDbLine
 10
-5021.58397421801
 20
-10745.24691043293
 30
0.0
 11
-5021.58397421801
 21
-11323.24691043294
 31
0.0
  0
LINE
  5
65642
330
1E
100
AcDbEntity
  8
0
100
AcDbLine
 10
-5021.58397421801
 20
-10745.24691043293
 30
0.0
 11
-5021.58397421801
 21
-11323.24691043294
 31
0.0
  0
LINE
  5
65643
330
1E
100
AcDbEntity
  8
0
100
AcDbLine
 10
-5111.58397421801
 20
-10745.24691043293
 30
0.0
 11
-5111.58397421801
 21
-11323.24691043294
 31
0.0
  0
LINE
  5
65644
330
1E
100
AcDbEntity
  8
0
100
AcDbLine
 10
-5121.583974218011
 20
-10745.24691043293
 30
0.0
 11
-5121.583974218011
 21
-11323.24691043294
 31
0.0
  0
LINE
  5
65645
330
1E
100
AcDbEntity
  8
0
100
AcDbLine
 10
-5131.583974218011
 20
-10745.24691043293
 30
0.0
 11
-5131.583974218011
 21
-11323.24691043294
 31
0.0
  0
LINE
  5
65646
330
1E
100
AcDbEntity
  8
0
100
AcDbLine
 10
-5031.583974218011
 20
-10745.24691043293
 30
0.0
 11
-5031.583974218011
 21
-11323.24691043294
 31
0.0
  0
LINE
  5
65647
330
1E
100
AcDbEntity
  8
0
100
AcDbLine
 10
-5041.58397421801
 20
-10745.24691043293
 30
0.0
 11
-5041.58397421801
 21
-11323.24691043294
 31
0.0
  0
LINE
  5
65648
330
1E
100
AcDbEntity
  8
0
100
AcDbLine
 10
-5051.583974218011
 20
-10745.24691043293
 30
0.0
 11
-5051.583974218011
 21
-11323.24691043294
 31
0.0
  0
LINE
  5
65649
330
1E
100
AcDbEntity
  8
0
100
AcDbLine
 10
-5061.58397421801
 20
-10745.24691043293
 30
0.0
 11
-5061.58397421801
 21
-11323.24691043294
 31
0.0
  0
LINE
  5
6564A
330
1E
100
AcDbEntity
  8
0
100
AcDbLine
 10
-5071.583974218011
 20
-10745.24691043293
 30
0.0
 11
-5071.583974218011
 21
-11323.24691043294
 31
0.0
  0
LINE
  5
6564B
330
1E
100
AcDbEntity
  8
0
100
AcDbLine
 10
-5081.583974218011
 20
-10745.24691043293
 30
0.0
 11
-5081.583974218011
 21
-11323.24691043294
 31
0.0
  0
LINE
  5
6564C
330
1E
100
AcDbEntity
  8
0
100
AcDbLine
 10
-5091.583974218011
 20
-10745.24691043293
 30
0.0
 11
-5091.583974218011
 21
-11323.24691043294
 31
0.0
  0
LINE
  5
6564D
330
1E
100
AcDbEntity
  8
0
100
AcDbLine
 10
-5101.58397421801
 20
-10745.24691043293
 30
0.0
 11
-5101.58397421801
 21
-11323.24691043294
 31
0.0
  0
LINE
  5
6564E
330
1E
100
AcDbEntity
  8
0
100
AcDbLine
 10
-4771.58397421801
 20
-10745.24691043293
 30
0.0
 11
-4771.58397421801
 21
-11323.24691043294
 31
0.0
  0
LINE
  5
6564F
330
1E
100
AcDbEntity
  8
0
100
AcDbLine
 10
-4781.583974218011
 20
-10745.24691043293
 30
0.0
 11
-4781.583974218011
 21
-11323.24691043294
 31
0.0
  0
LINE
  5
65650
330
1E
100
AcDbEntity
  8
0
100
AcDbLine
 10
-4791.58397421801
 20
-10745.24691043293
 30
0.0
 11
-4791.58397421801
 21
-11323.24691043294
 31
0.0
  0
LINE
  5
65651
330
1E
100
AcDbEntity
  8
0
100
AcDbLine
 10
-4801.583974218011
 20
-10745.24691043293
 30
0.0
 11
-4801.583974218011
 21
-11323.24691043294
 31
0.0
  0
LINE
  5
65652
330
1E
100
AcDbEntity
  8
0
100
AcDbLine
 10
-4811.58397421801
 20
-10745.24691043293
 30
0.0
 11
-4811.58397421801
 21
-11323.24691043294
 31
0.0
  0
LINE
  5
65653
330
1E
100
AcDbEntity
  8
0
100
AcDbLine
 10
-4821.583974218011
 20
-10745.24691043293
 30
0.0
 11
-4821.583974218011
 21
-11323.24691043294
 31
0.0
  0
LINE
  5
65654
330
1E
100
AcDbEntity
  8
0
100
AcDbLine
 10
-4831.583974218011
 20
-10745.24691043293
 30
0.0
 11
-4831.583974218011
 21
-11323.24691043294
 31
0.0
  0
LINE
  5
65655
330
1E
100
AcDbEntity
  8
0
100
AcDbLine
 10
-4841.583974218011
 20
-10745.24691043293
 30
0.0
 11
-4841.583974218011
 21
-11323.24691043294
 31
0.0
  0
LINE
  5
65656
330
1E
100
AcDbEntity
  8
0
100
AcDbLine
 10
-4851.58397421801
 20
-10745.24691043293
 30
0.0
 11
-4851.58397421801
 21
-11323.24691043294
 31
0.0
  0
LINE
  5
65657
330
1E
100
AcDbEntity
  8
0
100
AcDbLine
 10
-4861.58397421801
 20
-10745.24691043293
 30
0.0
 11
-4861.58397421801
 21
-11323.24691043294
 31
0.0
  0
LINE
  5
65658
330
1E
100
AcDbEntity
  8
0
100
AcDbLine
 10
-4871.583974218011
 20
-10745.24691043293
 30
0.0
 11
-4871.583974218011
 21
-11323.24691043294
 31
0.0
  0
LINE
  5
65659
330
1E
100
AcDbEntity
  8
0
100
AcDbLine
 10
-4881.583974218011
 20
-10745.24691043293
 30
0.0
 11
-4881.583974218011
 21
-11323.24691043294
 31
0.0
  0
LINE
  5
6565A
330
1E
100
AcDbEntity
  8
0
100
AcDbLine
 10
-4891.58397421801
 20
-10745.24691043293
 30
0.0
 11
-4891.58397421801
 21
-11323.24691043294
 31
0.0
  0
LINE
  5
6565B
330
1E
100
AcDbEntity
  8
0
100
AcDbLine
 10
-4901.58397421801
 20
-10745.24691043293
 30
0.0
 11
-4901.58397421801
 21
-11323.24691043294
 31
0.0
  0
LINE
  5
6565C
330
1E
100
AcDbEntity
  8
0
100
AcDbLine
 10
-4911.583974218011
 20
-10745.24691043293
 30
0.0
 11
-4911.583974218011
 21
-11323.24691043294
 31
0.0
  0
LINE
  5
6565D
330
1E
100
AcDbEntity
  8
0
100
AcDbLine
 10
-5281.583973428151
 20
-11377.24690879119
 30
0.0
 11
-5281.583973428151
 21
-11955.24690879119
 31
0.0
  0
LINE
  5
6565E
330
1E
100
AcDbEntity
  8
0
100
AcDbLine
 10
-5291.583973428151
 20
-11377.24690879119
 30
0.0
 11
-5291.583973428151
 21
-11955.24690879119
 31
0.0
  0
LINE
  5
6565F
330
1E
100
AcDbEntity
  8
0
100
AcDbLine
 10
-5141.583973428151
 20
-11377.24690879119
 30
0.0
 11
-5141.583973428151
 21
-11955.24690879119
 31
0.0
  0
LINE
  5
65660
330
1E
100
AcDbEntity
  8
0
100
AcDbLine
 10
-5151.58397342815
 20
-11377.24690879119
 30
0.0
 11
-5151.58397342815
 21
-11955.24690879119
 31
0.0
  0
LINE
  5
65661
330
1E
100
AcDbEntity
  8
0
100
AcDbLine
 10
-5161.58397342815
 20
-11377.24690879119
 30
0.0
 11
-5161.58397342815
 21
-11955.24690879119
 31
0.0
  0
LINE
  5
65662
330
1E
100
AcDbEntity
  8
0
100
AcDbLine
 10
-5171.583973428151
 20
-11377.24690879119
 30
0.0
 11
-5171.583973428151
 21
-11955.24690879119
 31
0.0
  0
LINE
  5
65663
330
1E
100
AcDbEntity
  8
0
100
AcDbLine
 10
-5181.583973428151
 20
-11377.24690879119
 30
0.0
 11
-5181.583973428151
 21
-11955.24690879119
 31
0.0
  0
LINE
  5
65664
330
1E
100
AcDbEntity
  8
0
100
AcDbLine
 10
-5201.58397342815
 20
-11377.24690879119
 30
0.0
 11
-5201.58397342815
 21
-11955.24690879119
 31
0.0
  0
LINE
  5
65665
330
1E
100
AcDbEntity
  8
0
100
AcDbLine
 10
-5211.583973428151
 20
-11377.24690879119
 30
0.0
 11
-5211.583973428151
 21
-11955.24690879119
 31
0.0
  0
LINE
  5
65666
330
1E
100
AcDbEntity
  8
0
100
AcDbLine
 10
-5221.583973428151
 20
-11377.24690879119
 30
0.0
 11
-5221.583973428151
 21
-11955.24690879119
 31
0.0
  0
LINE
  5
65667
330
1E
100
AcDbEntity
  8
0
100
AcDbLine
 10
-5231.583973428151
 20
-11377.24690879119
 30
0.0
 11
-5231.583973428151
 21
-11955.24690879119
 31
0.0
  0
LINE
  5
65668
330
1E
100
AcDbEntity
  8
0
100
AcDbLine
 10
-5241.583973428151
 20
-11377.24690879119
 30
0.0
 11
-5241.583973428151
 21
-11955.24690879119
 31
0.0
  0
LINE
  5
65669
330
1E
100
AcDbEntity
  8
0
100
AcDbLine
 10
-5251.58397342815
 20
-11377.24690879119
 30
0.0
 11
-5251.58397342815
 21
-11955.24690879119
 31
0.0
  0
LINE
  5
6566A
330
1E
100
AcDbEntity
  8
0
100
AcDbLine
 10
-5261.583973428151
 20
-11377.24690879119
 30
0.0
 11
-5261.583973428151
 21
-11955.24690879119
 31
0.0
  0
LINE
  5
6566B
330
1E
100
AcDbEntity
  8
0
100
AcDbLine
 10
-5271.583973428151
 20
-11377.24690879119
 30
0.0
 11
-5271.583973428151
 21
-11955.24690879119
 31
0.0
  0
LINE
  5
6566C
330
1E
100
AcDbEntity
  8
0
100
AcDbLine
 10
-5191.583973428151
 20
-11377.24690879119
 30
0.0
 11
-5191.583973428151
 21
-11955.24690879119
 31
0.0
  0
LINE
  5
6566D
330
1E
100
AcDbEntity
  8
0
100
AcDbLine
 10
-4921.583973428151
 20
-11377.24690879119
 30
0.0
 11
-4921.583973428151
 21
-11955.24690879119
 31
0.0
  0
LINE
  5
6566E
330
1E
100
AcDbEntity
  8
0
100
AcDbLine
 10
-4931.583973428151
 20
-11377.24690879119
 30
0.0
 11
-4931.583973428151
 21
-11955.24690879119
 31
0.0
  0
LINE
  5
6566F
330
1E
100
AcDbEntity
  8
0
100
AcDbLine
 10
-4941.583973428151
 20
-11377.24690879119
 30
0.0
 11
-4941.583973428151
 21
-11955.24690879119
 31
0.0
  0
LINE
  5
65670
330
1E
100
AcDbEntity
  8
0
100
AcDbLine
 10
-4951.58397342815
 20
-11377.24690879119
 30
0.0
 11
-4951.58397342815
 21
-11955.24690879119
 31
0.0
  0
LINE
  5
65671
330
1E
100
AcDbEntity
  8
0
100
AcDbLine
 10
-4961.583973428151
 20
-11377.24690879119
 30
0.0
 11
-4961.583973428151
 21
-11955.24690879119
 31
0.0
  0
LINE
  5
65672
330
1E
100
AcDbEntity
  8
0
100
AcDbLine
 10
-4971.583973428151
 20
-11377.24690879119
 30
0.0
 11
-4971.583973428151
 21
-11955.24690879119
 31
0.0
  0
LINE
  5
65673
330
1E
100
AcDbEntity
  8
0
100
AcDbLine
 10
-4981.583973428151
 20
-11377.24690879119
 30
0.0
 11
-4981.583973428151
 21
-11955.24690879119
 31
0.0
  0
LINE
  5
65674
330
1E
100
AcDbEntity
  8
0
100
AcDbLine
 10
-4991.583973428151
 20
-11377.24690879119
 30
0.0
 11
-4991.583973428151
 21
-11955.24690879119
 31
0.0
  0
LINE
  5
65675
330
1E
100
AcDbEntity
  8
0
100
AcDbLine
 10
-5001.58397342815
 20
-11377.24690879119
 30
0.0
 11
-5001.58397342815
 21
-11955.24690879119
 31
0.0
  0
LINE
  5
65676
330
1E
100
AcDbEntity
  8
0
100
AcDbLine
 10
-5011.583973428151
 20
-11377.24690879119
 30
0.0
 11
-5011.583973428151
 21
-11955.24690879119
 31
0.0
  0
LINE
  5
65677
330
1E
100
AcDbEntity
  8
0
100
AcDbLine
 10
-5021.583973428151
 20
-11377.24690879119
 30
0.0
 11
-5021.583973428151
 21
-11955.24690879119
 31
0.0
  0
LINE
  5
65678
330
1E
100
AcDbEntity
  8
0
100
AcDbLine
 10
-4741.583973428151
 20
-11377.24690879119
 30
0.0
 11
-4741.583973428151
 21
-11955.24690879119
 31
0.0
  0
LINE
  5
65679
330
1E
100
AcDbEntity
  8
0
100
AcDbLine
 10
-4751.58397342815
 20
-11377.24690879119
 30
0.0
 11
-4751.58397342815
 21
-11955.24690879119
 31
0.0
  0
LINE
  5
6567A
330
1E
100
AcDbEntity
  8
0
100
AcDbLine
 10
-5021.583973428151
 20
-11377.24690879119
 30
0.0
 11
-5021.583973428151
 21
-11955.24690879119
 31
0.0
  0
LINE
  5
6567B
330
1E
100
AcDbEntity
  8
0
100
AcDbLine
 10
-5111.58397342815
 20
-11377.24690879119
 30
0.0
 11
-5111.58397342815
 21
-11955.24690879119
 31
0.0
  0
LINE
  5
6567C
330
1E
100
AcDbEntity
  8
0
100
AcDbLine
 10
-5121.583973428151
 20
-11377.24690879119
 30
0.0
 11
-5121.583973428151
 21
-11955.24690879119
 31
0.0
  0
LINE
  5
6567D
330
1E
100
AcDbEntity
  8
0
100
AcDbLine
 10
-5131.583973428151
 20
-11377.24690879119
 30
0.0
 11
-5131.583973428151
 21
-11955.24690879119
 31
0.0
  0
LINE
  5
6567E
330
1E
100
AcDbEntity
  8
0
100
AcDbLine
 10
-5031.583973428151
 20
-11377.24690879119
 30
0.0
 11
-5031.583973428151
 21
-11955.24690879119
 31
0.0
  0
LINE
  5
6567F
330
1E
100
AcDbEntity
  8
0
100
AcDbLine
 10
-5041.583973428151
 20
-11377.24690879119
 30
0.0
 11
-5041.583973428151
 21
-11955.24690879119
 31
0.0
  0
LINE
  5
65680
330
1E
100
AcDbEntity
  8
0
100
AcDbLine
 10
-5051.583973428151
 20
-11377.24690879119
 30
0.0
 11
-5051.583973428151
 21
-11955.24690879119
 31
0.0
  0
LINE
  5
65681
330
1E
100
AcDbEntity
  8
0
100
AcDbLine
 10
-5061.583973428151
 20
-11377.24690879119
 30
0.0
 11
-5061.583973428151
 21
-11955.24690879119
 31
0.0
  0
LINE
  5
65682
330
1E
100
AcDbEntity
  8
0
100
AcDbLine
 10
-5071.58397342815
 20
-11377.24690879119
 30
0.0
 11
-5071.58397342815
 21
-11955.24690879119
 31
0.0
  0
LINE
  5
65683
330
1E
100
AcDbEntity
  8
0
100
AcDbLine
 10
-5081.583973428151
 20
-11377.24690879119
 30
0.0
 11
-5081.583973428151
 21
-11955.24690879119
 31
0.0
  0
LINE
  5
65684
330
1E
100
AcDbEntity
  8
0
100
AcDbLine
 10
-5091.583973428151
 20
-11377.24690879119
 30
0.0
 11
-5091.583973428151
 21
-11955.24690879119
 31
0.0
  0
LINE
  5
65685
330
1E
100
AcDbEntity
  8
0
100
AcDbLine
 10
-5101.583973428151
 20
-11377.24690879119
 30
0.0
 11
-5101.583973428151
 21
-11955.24690879119
 31
0.0
  0
LINE
  5
65686
330
1E
100
AcDbEntity
  8
0
100
AcDbLine
 10
-4761.583973428151
 20
-11377.24690879119
 30
0.0
 11
-4761.583973428151
 21
-11955.24690879119
 31
0.0
  0
LINE
  5
65687
330
1E
100
AcDbEntity
  8
0
100
AcDbLine
 10
-4771.583973428151
 20
-11377.24690879119
 30
0.0
 11
-4771.583973428151
 21
-11955.24690879119
 31
0.0
  0
LINE
  5
65688
330
1E
100
AcDbEntity
  8
0
100
AcDbLine
 10
-4781.58397342815
 20
-11377.24690879119
 30
0.0
 11
-4781.58397342815
 21
-11955.24690879119
 31
0.0
  0
LINE
  5
65689
330
1E
100
AcDbEntity
  8
0
100
AcDbLine
 10
-4791.583973428151
 20
-11377.24690879119
 30
0.0
 11
-4791.583973428151
 21
-11955.24690879119
 31
0.0
  0
LINE
  5
6568A
330
1E
100
AcDbEntity
  8
0
100
AcDbLine
 10
-4801.583973428151
 20
-11377.24690879119
 30
0.0
 11
-4801.583973428151
 21
-11955.24690879119
 31
0.0
  0
LINE
  5
6568B
330
1E
100
AcDbEntity
  8
0
100
AcDbLine
 10
-4811.583973428151
 20
-11377.24690879119
 30
0.0
 11
-4811.583973428151
 21
-11955.24690879119
 31
0.0
  0
LINE
  5
6568C
330
1E
100
AcDbEntity
  8
0
100
AcDbLine
 10
-4821.58397342815
 20
-11377.24690879119
 30
0.0
 11
-4821.58397342815
 21
-11955.24690879119
 31
0.0
  0
LINE
  5
6568D
330
1E
100
AcDbEntity
  8
0
100
AcDbLine
 10
-4831.583973428151
 20
-11377.24690879119
 30
0.0
 11
-4831.583973428151
 21
-11955.24690879119
 31
0.0
  0
LINE
  5
6568E
330
1E
100
AcDbEntity
  8
0
100
AcDbLine
 10
-4841.583973428151
 20
-11377.24690879119
 30
0.0
 11
-4841.583973428151
 21
-11955.24690879119
 31
0.0
  0
LINE
  5
6568F
330
1E
100
AcDbEntity
  8
0
100
AcDbLine
 10
-4851.583973428151
 20
-11377.24690879119
 30
0.0
 11
-4851.583973428151
 21
-11955.24690879119
 31
0.0
  0
LINE
  5
65690
330
1E
100
AcDbEntity
  8
0
100
AcDbLine
 10
-4861.58397342815
 20
-11377.24690879119
 30
0.0
 11
-4861.58397342815
 21
-11955.24690879119
 31
0.0
  0
LINE
  5
65691
330
1E
100
AcDbEntity
  8
0
100
AcDbLine
 10
-4871.583973428151
 20
-11377.24690879119
 30
0.0
 11
-4871.583973428151
 21
-11955.24690879119
 31
0.0
  0
LINE
  5
65692
330
1E
100
AcDbEntity
  8
0
100
AcDbLine
 10
-4881.583973428151
 20
-11377.24690879119
 30
0.0
 11
-4881.583973428151
 21
-11955.24690879119
 31
0.0
  0
LINE
  5
65693
330
1E
100
AcDbEntity
  8
0
100
AcDbLine
 10
-4891.583973428151
 20
-11377.24690879119
 30
0.0
 11
-4891.583973428151
 21
-11955.24690879119
 31
0.0
  0
LINE
  5
65694
330
1E
100
AcDbEntity
  8
0
100
AcDbLine
 10
-4901.58397342815
 20
-11377.24690879119
 30
0.0
 11
-4901.58397342815
 21
-11955.24690879119
 31
0.0
  0
LINE
  5
65695
330
1E
100
AcDbEntity
  8
0
100
AcDbLine
 10
-4911.58397342815
 20
-11377.24690879119
 30
0.0
 11
-4911.58397342815
 21
-11955.24690879119
 31
0.0
  0
LINE
  5
65696
330
1E
100
AcDbEntity
  8
0
100
AcDbLine
 10
-4741.583974218009
 20
-10745.24691043293
 30
0.0
 11
-4741.583974218009
 21
-11323.24691043294
 31
0.0
  0
LINE
  5
65697
330
1E
100
AcDbEntity
  8
0
100
AcDbLine
 10
-4751.58397421801
 20
-10745.24691043293
 30
0.0
 11
-4751.58397421801
 21
-11323.24691043294
 31
0.0
  0
LINE
  5
65698
330
1E
100
AcDbEntity
  8
0
100
AcDbLine
 10
-4761.58397421801
 20
-10745.24691043293
 30
0.0
 11
-4761.58397421801
 21
-11323.24691043294
 31
0.0
  0
LINE
  5
7DAFB
330
1E
100
AcDbEntity
  8
0
100
AcDbLine
 10
-5373.583995824856
 20
-10695.24693084723
 30
0.0
 11
-4333.583965307278
 21
-10695.24693084722
 31
0.0
  0
LINE
  5
7DDEC
330
1E
100
AcDbEntity
  8
DETAIL
  6
CONTINUOUS
100
AcDbLine
 10
-4884.593032376738
 20
-10604.24693084722
 30
0.0
 11
-5148.574959272997
 21
-10604.24693084722
 31
0.0
  0
LINE
  5
7DDED
330
1E
100
AcDbEntity
  8
DETAIL
  6
CONTINUOUS
100
AcDbLine
 10
-4866.221906042007
 20
-10694.24693084723
 30
0.0
 11
-5166.946085607726
 21
-10694.24693084723
 31
0.0
  0
LINE
  5
7DDEE
330
1E
100
AcDbEntity
  8
DETAIL
  6
CONTINUOUS
100
AcDbLine
 10
-5152.565465137314
 20
-10673.24693084723
 30
0.0
 11
-4880.602526512419
 21
-10673.24693084723
 31
0.0
  0
LINE
  5
7DDEF
330
1E
100
AcDbEntity
  8
DETAIL
  6
CONTINUOUS
100
AcDbLine
 10
-5165.483995824867
 20
-10695.24693084723
 30
0.0
 11
-4867.683995824866
 21
-10695.24693084723
 31
0.0
  0
ARC
  5
7DDF0
330
1E
100
AcDbEntity
  8
DETAIL
  6
CONTINUOUS
100
AcDbCircle
 10
-5156.560037660372
 20
-10606.24693084722
 30
0.0
 40
2.0
100
AcDbArc
 50
90.0
 51
176.4999999999639
  0
LINE
  5
7DDF1
330
1E
100
AcDbEntity
  8
DETAIL
  6
CONTINUOUS
100
AcDbLine
 10
-5148.574959272997
 20
-10604.24693084722
 30
0.0
 11
-5156.560037660372
 21
-10604.24693084722
 31
0.0
  0
LINE
  5
7DE57
330
1E
100
AcDbEntity
  8
DETAIL
  6
CONTINUOUS
100
AcDbLine
 10
-5153.741481735019
 20
-10673.24693084723
 30
0.0
 11
-5164.543082718378
 21
-10673.24693084723
 31
0.0
  0
LINE
  5
7DE58
330
1E
100
AcDbEntity
  8
DETAIL
  6
CONTINUOUS
100
AcDbLine
 10
-5165.719099316083
 20
-10674.18588230769
 30
0.0
 11
-5166.946085607726
 21
-10694.24693084723
 31
0.0
  0
LINE
  5
7DE5A
330
1E
100
AcDbEntity
  8
DETAIL
  6
CONTINUOUS
100
AcDbLine
 10
-5164.543082718378
 20
-10673.24693084723
 30
0.0
 11
-5164.72096451766
 21
-10673.24693084723
 31
0.0
  0
LINE
  5
7DE5E
330
1E
100
AcDbEntity
  8
DETAIL
  6
CONTINUOUS
100
AcDbLine
 10
-5153.741481735019
 20
-10673.24693084723
 30
0.0
 11
-5152.565465137314
 21
-10673.24693084723
 31
0.0
  0
ARC
  5
7DE66
330
1E
100
AcDbEntity
  8
DETAIL
  6
CONTINUOUS
100
AcDbCircle
 10
-5164.72096451766
 20
-10674.24693084723
 30
0.0
 40
1.0
100
AcDbArc
 50
90.0
 51
176.5000000000679
  0
ARC
  5
7DE67
330
1E
100
AcDbEntity
  8
DETAIL
  6
CONTINUOUS
100
AcDbCircle
 10
-5164.543082718378
 20
-10671.24693084723
 30
0.0
 40
2.0
100
AcDbArc
 50
270.0
 51
356.4999999999638
  0
LINE
  5
7DE69
330
1E
100
AcDbEntity
  8
DETAIL
  6
CONTINUOUS
100
AcDbLine
 10
-5165.483995824867
 20
-10695.24693084723
 30
0.0
 11
-5165.483995824867
 21
-10694.24693084723
 31
0.0
  0
LINE
  5
7DE6C
330
1E
100
AcDbEntity
  8
DETAIL
  6
CONTINUOUS
100
AcDbLine
 10
-5164.483995824866
 20
-10676.24693084723
 30
0.0
 11
-5157.483995824867
 21
-10676.24693084723
 31
0.0
  0
LINE
  5
7DE6D
330
1E
100
AcDbEntity
  8
DETAIL
  6
CONTINUOUS
100
AcDbLine
 10
-5164.483995824866
 20
-10675.24693084723
 30
0.0
 11
-5160.780258450754
 21
-10675.24693084723
 31
0.0
  0
LINE
  5
7DE6F
330
1E
100
AcDbEntity
  8
DETAIL
  6
CONTINUOUS
100
AcDbLine
 10
-5157.483995824867
 20
-10695.24693084723
 30
0.0
 11
-5157.483995824867
 21
-10694.24693084723
 31
0.0
  0
LINE
  5
7DE70
330
1E
100
AcDbEntity
  8
DETAIL
  6
CONTINUOUS
100
AcDbLine
 10
-5158.191102606053
 20
-10695.24693084723
 30
0.0
 11
-5158.191102606053
 21
-10694.24693084723
 31
0.0
  0
LINE
  5
7DE72
330
1E
100
AcDbEntity
  8
DETAIL
  6
CONTINUOUS
100
AcDbLine
 10
-5157.483995824867
 20
-10676.24693084723
 30
0.0
 11
-5157.483995824867
 21
-10675.24693084723
 31
0.0
  0
LINE
  5
7DE73
330
1E
100
AcDbEntity
  8
DETAIL
  6
CONTINUOUS
100
AcDbLine
 10
-5157.483995824867
 20
-10680.24693084723
 30
0.0
 11
-5157.483995824867
 21
-10676.24693084723
 31
0.0
  0
LINE
  5
7DE7D
330
1E
100
AcDbEntity
  8
DETAIL
  6
CONTINUOUS
100
AcDbLine
 10
-5158.556307257214
 20
-10606.12483376816
 30
0.0
 11
-5162.546813121534
 21
-10671.3690279263
 31
0.0
  0
LINE
  5
7DE7E
330
1E
100
AcDbEntity
  8
DETAIL
  6
CONTINUOUS
100
AcDbLine
 10
-4876.607953989362
 20
-10604.24693084722
 30
0.0
 11
-4884.593032376738
 21
-10604.24693084722
 31
0.0
  0
ARC
  5
7DE7F
330
1E
100
AcDbEntity
  8
DETAIL
  6
CONTINUOUS
100
AcDbCircle
 10
-4876.607953989362
 20
-10606.24693084722
 30
0.0
 40
1.999999999999153
100
AcDbArc
 50
3.5000000000361
 51
90.0
  0
LINE
  5
7DE81
330
1E
100
AcDbEntity
  8
DETAIL
  6
CONTINUOUS
100
AcDbLine
 10
-4867.448892333651
 20
-10674.18588230769
 30
0.0
 11
-4866.221906042007
 21
-10694.24693084723
 31
0.0
  0
LINE
  5
7DE83
330
1E
100
AcDbEntity
  8
DETAIL
  6
CONTINUOUS
100
AcDbLine
 10
-4868.447027132074
 20
-10673.24693084723
 30
0.0
 11
-4868.624908931356
 21
-10673.24693084723
 31
0.0
  0
ARC
  5
7DE85
330
1E
100
AcDbEntity
  8
DETAIL
  6
CONTINUOUS
100
AcDbCircle
 10
-4868.447027132074
 20
-10674.24693084723
 30
0.0
 40
1.000000000000003
100
AcDbArc
 50
3.499999999932073
 51
90.0
  0
ARC
  5
7DE86
330
1E
100
AcDbEntity
  8
DETAIL
  6
CONTINUOUS
100
AcDbCircle
 10
-4868.624908931356
 20
-10671.24693084723
 30
0.0
 40
2.000000000000344
100
AcDbArc
 50
183.500000000036
 51
270.0
  0
LINE
  5
7DE87
330
1E
100
AcDbEntity
  8
DETAIL
  6
CONTINUOUS
100
AcDbLine
 10
-4867.683995824866
 20
-10695.24693084723
 30
0.0
 11
-4867.683995824866
 21
-10694.24693084723
 31
0.0
  0
LINE
  5
7DE88
330
1E
100
AcDbEntity
  8
DETAIL
  6
CONTINUOUS
100
AcDbLine
 10
-4867.683995824866
 20
-10677.24693084723
 30
0.0
 11
-4867.683995824866
 21
-10675.24693084723
 31
0.0
  0
LINE
  5
7DEF4
330
1E
100
AcDbEntity
  8
DETAIL
  6
CONTINUOUS
100
AcDbLine
 10
-4880.602526512419
 20
-10673.24693084723
 30
0.0
 11
-4879.426509914714
 21
-10673.24693084723
 31
0.0
  0
LINE
  5
7DEFA
330
1E
100
AcDbEntity
  8
DETAIL
  6
CONTINUOUS
100
AcDbLine
 10
-4875.683995824867
 20
-10695.24693084723
 30
0.0
 11
-4875.683995824867
 21
-10694.24693084723
 31
0.0
  0
LINE
  5
7DEFB
330
1E
100
AcDbEntity
  8
DETAIL
  6
CONTINUOUS
100
AcDbLine
 10
-4874.976889043679
 20
-10695.24693084723
 30
0.0
 11
-4874.976889043679
 21
-10694.24693084723
 31
0.0
  0
LINE
  5
7DF00
330
1E
100
AcDbEntity
  8
DETAIL
  6
CONTINUOUS
100
AcDbLine
 10
-4875.683995824867
 20
-10676.24693084723
 30
0.0
 11
-4875.683995824867
 21
-10675.24693084723
 31
0.0
  0
LINE
  5
7DF01
330
1E
100
AcDbEntity
  8
DETAIL
  6
CONTINUOUS
100
AcDbLine
 10
-4875.683995824867
 20
-10676.24693084723
 30
0.0
 11
-4875.683995824867
 21
-10680.24693084723
 31
0.0
  0
LINE
  5
7DF03
330
1E
100
AcDbEntity
  8
DETAIL
  6
CONTINUOUS
100
AcDbLine
 10
-4868.624908931356
 20
-10673.24693084723
 30
0.0
 11
-4879.426509914714
 21
-10673.24693084723
 31
0.0
  0
LINE
  5
7DF06
330
1E
100
AcDbEntity
  8
DETAIL
  6
CONTINUOUS
100
AcDbLine
 10
-4872.38773319898
 20
-10675.24693084723
 30
0.0
 11
-4867.683995824866
 21
-10675.24693084723
 31
0.0
  0
LINE
  5
7DF08
330
1E
100
AcDbEntity
  8
DETAIL
  6
CONTINUOUS
100
AcDbLine
 10
-4875.683995824867
 20
-10676.24693084723
 30
0.0
 11
-4868.683995824866
 21
-10676.24693084723
 31
0.0
  0
LINE
  5
7DF7E
330
1E
100
AcDbEntity
  8
DETAIL
  6
CONTINUOUS
100
AcDbLine
 10
-4870.6211785282
 20
-10671.3690279263
 30
0.0
 11
-4874.611684392519
 21
-10606.12483376816
 31
0.0
  0
LINE
  5
7E001
330
1E
100
AcDbEntity
  8
BASIS
  6
DOT_CENTER
100
AcDbLine
 10
-5117.083995824711
 20
-10645.44693084733
 30
0.0
 11
-5117.083995824711
 21
-10673.04693084713
 31
0.0
  0
LINE
  5
7E002
330
1E
100
AcDbEntity
  8
BASIS
  6
DOT_CENTER
100
AcDbLine
 10
-5130.883995824611
 20
-10659.24693084723
 30
0.0
 11
-5103.28399582481
 21
-10659.24693084723
 31
0.0
  0
TEXT
  5
7FED8
330
1E
100
AcDbEntity
  8
NOTE
100
AcDbText
 10
-5144.984614630864
 20
-10108.47354002121
 30
0.0
 40
50.0
  1
(取付寸法)
 41
0.9
100
AcDbText
  0
TEXT
  5
7FF00
330
1E
100
AcDbEntity
  8
NOTE
100
AcDbText
 10
-6416.474235036429
 20
-10136.92314635106
 30
0.0
 40
64.0
  1
CW(給水口)
 41
0.9
100
AcDbText
  0
LINE
  5
7FF05
330
1E
100
AcDbEntity
  8
BASIS
  6
DASHDOT
100
AcDbLine
 10
-5016.58397421801
 20
-10703.24693084723
 30
0.0
 11
-5016.58397421801
 21
-10686.30258100476
 31
0.0
  0
LINE
  5
7FF06
330
1E
100
AcDbEntity
  8
NOTE
100
AcDbLine
 10
-5016.58397421801
 20
-10715.14693084723
 30
0.0
 11
-5016.58397421801
 21
-10675.14693084723
 31
0.0
  0
LINE
  5
7FF07
330
1E
100
AcDbEntity
  8
NOTE
100
AcDbLine
 10
-5036.583974218011
 20
-10695.24693084723
 30
0.0
 11
-4996.583974218011
 21
-10695.24693084723
 31
0.0
  0
CIRCLE
  5
7FF08
330
1E
100
AcDbEntity
  8
FIX
100
AcDbCircle
 10
-5016.58397421801
 20
-10695.24693084723
 30
0.0
 40
5.0
  0
CIRCLE
  5
7FF09
330
1E
100
AcDbEntity
  8
FIX
100
AcDbCircle
 10
-5157.583995824863
 20
-10695.24693084723
 30
0.0
 40
5.0
  0
LINE
  5
7FF0A
330
1E
100
AcDbEntity
  8
NOTE
100
AcDbLine
 10
-5177.583995824862
 20
-10695.24693084723
 30
0.0
 11
-5137.583995824862
 21
-10695.24693084723
 31
0.0
  0
LINE
  5
7FF0B
330
1E
100
AcDbEntity
  8
NOTE
100
AcDbLine
 10
-5157.583995824863
 20
-10715.14693084723
 30
0.0
 11
-5157.583995824863
 21
-10675.14693084723
 31
0.0
  0
LINE
  5
7FF0C
330
1E
100
AcDbEntity
  8
BASIS
  6
DASHDOT
100
AcDbLine
 10
-5157.583995824863
 20
-10703.24693084723
 30
0.0
 11
-5157.583995824863
 21
-10686.30258100476
 31
0.0
  0
CIRCLE
  5
7FF0D
330
1E
100
AcDbEntity
  8
FIX
100
AcDbCircle
 10
-4875.583995824863
 20
-10695.24693084723
 30
0.0
 40
5.0
  0
LINE
  5
7FF0E
330
1E
100
AcDbEntity
  8
NOTE
100
AcDbLine
 10
-4895.583995824862
 20
-10695.24693084723
 30
0.0
 11
-4855.583995824862
 21
-10695.24693084723
 31
0.0
  0
LINE
  5
7FF0F
330
1E
100
AcDbEntity
  8
NOTE
100
AcDbLine
 10
-4875.583995824863
 20
-10715.14693084723
 30
0.0
 11
-4875.583995824863
 21
-10675.14693084723
 31
0.0
  0
LINE
  5
7FF10
330
1E
100
AcDbEntity
  8
BASIS
  6
DASHDOT
100
AcDbLine
 10
-4875.583995824863
 20
-10703.24693084723
 30
0.0
 11
-4875.583995824863
 21
-10686.30258100476
 31
0.0
  0
LINE
  5
7FF57
330
1E
100
AcDbEntity
  8
NOTE
100
AcDbLine
 10
-5117.083995824696
 20
-10659.24693084723
 30
0.0
 11
-5456.963787268351
 21
-10168.15175042967
 31
0.0
  0
TEXT
  5
7FF58
330
1E
100
AcDbEntity
  8
NOTE
100
AcDbText
 10
-6827.436391134098
 20
-10263.74774502293
 30
0.0
 40
64.0
  1
軟質ホースまたは硬質塩ビ管VP-13接続
 41
0.9
100
AcDbText
  0
LINE
  5
7FF59
330
1E
100
AcDbEntity
  8
NOTE
100
AcDbLine
 10
-5456.963787268351
 20
-10168.15175042967
 30
0.0
 11
-6860.867700000001
 21
-10168.15175042967
 31
0.0
  0
LINE
  5
7FF5A
330
1E
100
AcDbEntity
  8
NOTE
100
AcDbLine
 10
-5147.699631789479
 20
-10633.50430524984
 30
0.0
 11
-5117.083995824696
 21
-10659.24693084723
 31
0.0
  0
LINE
  5
7FF5B
330
1E
100
AcDbEntity
  8
NOTE
100
AcDbLine
 10
-5117.083995824696
 20
-10659.24693084723
 30
0.0
 11
-5130.726599738962
 21
-10621.64534554813
 31
0.0
  0
LINE
  5
7FF5C
330
1E
100
AcDbEntity
  8
NOTE
100
AcDbLine
 10
-5157.583995824863
 20
-10695.24693084723
 30
0.0
 11
-5185.59955037549
 21
-10666.69647442727
 31
0.0
  0
LINE
  5
7FF5D
330
1E
100
AcDbEntity
  8
NOTE
100
AcDbLine
 10
-5157.583995824863
 20
-10695.24693084723
 30
0.0
 11
-5442.465866845211
 21
-10526.31624435265
 31
0.0
  0
LINE
  5
7FF5E
330
1E
100
AcDbEntity
  8
NOTE
100
AcDbLine
 10
-5196.121407347717
 20
-10684.52928878873
 30
0.0
 11
-5157.583995824863
 21
-10695.24693084723
 31
0.0
  0
LINE
  5
7FF5F
330
1E
100
AcDbEntity
  8
NOTE
100
AcDbLine
 10
-5442.465866845211
 20
-10526.31624435265
 30
0.0
 11
-6461.693432762849
 21
-10526.31624435265
 31
0.0
  0
TEXT
  5
7FF60
330
1E
100
AcDbEntity
  8
NOTE
100
AcDbText
 10
-6440.938843126549
 20
-10492.96711482064
 30
0.0
 40
64.0
  1
AH 3-%%C3.6±0.05ヌキ穴
 41
0.9
100
AcDbText
  0
TEXT
  5
7FF61
330
1E
100
AcDbEntity
  8
NOTE
100
AcDbText
 10
-6141.784123333194
 20
-10641.01673100793
 30
0.0
 40
50.0
  1
(天面パネル穴あけ)
 41
0.9
100
AcDbText
  0
LINE
  5
8001C
330
1E
100
AcDbEntity
  8
NOTE
100
AcDbLine
 10
-5137.083995824696
 20
-10659.24693084723
 30
0.0
 11
-5097.083995824696
 21
-10659.24693084723
 31
0.0
  0
LINE
  5
8001D
330
1E
100
AcDbEntity
  8
NOTE
100
AcDbLine
 10
-5117.083995824696
 20
-10679.14693084723
 30
0.0
 11
-5117.083995824696
 21
-10639.14693084723
 31
0.0
  0
LINE
  5
80020
330
1E
100
AcDbEntity
  8
NOTE
100
AcDbLine
 10
-4875.529569970177
 20
-10695.23082260373
 30
0.0
 11
-4819.547397014326
 21
-10558.71201032686
 31
0.0
  0
LINE
  5
80021
330
1E
100
AcDbEntity
  8
NOTE
100
AcDbLine
 10
-4875.529569970177
 20
-10695.23082260373
 30
0.0
 11
-4851.433676392688
 21
-10663.30297000965
 31
0.0
  0
LINE
  5
80022
330
1E
100
AcDbEntity
  8
NOTE
100
AcDbLine
 10
-4870.625841707022
 20
-10655.53254320403
 30
0.0
 11
-4875.529569970177
 21
-10695.23082260373
 31
0.0
  0
LINE
  5
80023
330
1E
100
AcDbEntity
  8
NOTE
100
AcDbLine
 10
-4819.524416192017
 20
-10558.71201032686
 30
0.0
 11
-4652.442200000001
 21
-10558.71201032686
 31
0.0
  0
TEXT
  5
80024
330
1E
100
AcDbEntity
  8
NOTE
100
AcDbText
 10
-4793.182992940716
 20
-10537.38689182314
 30
0.0
 40
64.0
  1
AH
 41
0.9
100
AcDbText
  0
LINE
  5
85C92
330
1E
100
AcDbEntity
  8
NOTE
100
AcDbLine
 10
-5117.083995631544
 20
-10675.24693084722
 30
0.0
 11
-5077.083995631544
 21
-10675.24693084722
 31
0.0
  0
LINE
  5
85C93
330
1E
100
AcDbEntity
  8
BASIS
  6
DOT_CENTER
100
AcDbLine
 10
-5110.883995631444
 20
-10675.24693084722
 30
0.0
 11
-5083.283995631643
 21
-10675.24693084722
 31
0.0
  0
LINE
  5
85C94
330
1E
100
AcDbEntity
  8
NOTE
100
AcDbLine
 10
-5097.083995631544
 20
-10695.14693084722
 30
0.0
 11
-5097.083995631544
 21
-10655.14693084722
 31
0.0
  0
LINE
  5
85C95
330
1E
100
AcDbEntity
  8
BASIS
  6
DOT_CENTER
100
AcDbLine
 10
-5097.083995631544
 20
-10661.44693084732
 30
0.0
 11
-5097.083995631544
 21
-10689.04693084713
 31
0.0
  0
TEXT
  5
85CB6
330
1E
100
AcDbEntity
  8
NOTE
100
AcDbText
 10
-4785.528485115801
 20
-10390.5345539434
 30
0.0
 40
64.0
  1
GE(アース端子)
 41
0.9
100
AcDbText
  0
LINE
  5
85CB7
330
1E
100
AcDbEntity
  8
NOTE
100
AcDbLine
 10
-4303.701170086802
 20
-10408.66565077975
 30
0.0
 11
-4814.409340719596
 21
-10408.28624213433
 31
0.0
  0
LINE
  5
85CB8
330
1E
100
AcDbEntity
  8
NOTE
100
AcDbLine
 10
-5097.083995631544
 20
-10675.24693084722
 30
0.0
 11
-4814.409340719596
 21
-10408.28624213433
 31
0.0
  0
LINE
  5
85CB9
330
1E
100
AcDbEntity
  8
NOTE
100
AcDbLine
 10
-5097.083995631544
 20
-10675.24693084722
 30
0.0
 11
-5061.970564584887
 21
-10656.08846486744
 31
0.0
  0
LINE
  5
85CBA
330
1E
100
AcDbEntity
  8
NOTE
100
AcDbLine
 10
-5076.254106116147
 20
-10641.09849543721
 30
0.0
 11
-5097.083995631544
 21
-10675.24693084722
 31
0.0
  0
LINE
  5
8614B
330
1E
100
AcDbEntity
  8
SIZE
  6
CONTINUOUS
100
AcDbLine
 10
-5208.583965307262
 20
-12035.24693084723
 30
0.0
 11
-5672.5431
 21
-12035.24693084723
 31
0.0
  0
LINE
  5
8614C
330
1E
100
AcDbEntity
  8
SIZE
  6
CONTINUOUS
100
AcDbLine
 10
-5393.583995824856
 20
-10695.24693084723
 30
0.0
 11
-5672.5431
 21
-10695.24693084723
 31
0.0
  0
LINE
  5
8614D
330
1E
100
AcDbEntity
  8
SIZE
  6
CONTINUOUS
100
AcDbLine
 10
-5642.543100000001
 20
-12025.24693084723
 30
0.0
 11
-5642.543100000001
 21
-10705.24693084722
 31
0.0
  0
LINE
  5
86151
330
1E
100
AcDbEntity
  8
SIZE
100
AcDbLine
 10
-5356.491555218454
 20
-11034.2469104334
 30
0.0
 11
-5506.5112
 21
-11034.2469104334
 31
0.0
  0
LINE
  5
86152
330
1E
100
AcDbEntity
  8
SIZE
100
AcDbLine
 10
-5357.187342633142
 20
-11666.24690879165
 30
0.0
 11
-5506.5112
 21
-11666.24690879165
 31
0.0
  0
LINE
  5
86153
330
1E
100
AcDbEntity
  8
SIZE
100
AcDbLine
 10
-5476.5112
 20
-11044.2469104334
 30
0.0
 11
-5476.5112
 21
-11656.24690879165
 31
0.0
  0
LINE
  5
86157
330
1E
100
AcDbEntity
  8
SIZE
  6
CONTINUOUS
100
AcDbLine
 10
-5378.583995824852
 20
-12028.24693084723
 30
0.0
 11
-5378.583995824852
 21
-12200.64739999999
 31
0.0
  0
LINE
  5
86158
330
1E
100
AcDbEntity
  8
SIZE
  6
CONTINUOUS
100
AcDbLine
 10
-5016.583973428151
 20
-12008.80950839516
 30
0.0
 11
-5016.583973428151
 21
-12200.64739999999
 31
0.0
  0
LINE
  5
86159
330
1E
100
AcDbEntity
  8
SIZE
  6
CONTINUOUS
100
AcDbLine
 10
-5368.583995824852
 20
-12170.6474
 30
0.0
 11
-5026.58397342815
 21
-12170.6474
 31
0.0
  0
LINE
  5
8615D
330
1E
100
AcDbEntity
  8
SIZE
  6
CONTINUOUS
100
AcDbLine
 10
-4328.583965307263
 20
-12028.24693083269
 30
0.0
 11
-4328.583965307263
 21
-12477.7256
 31
0.0
  0
LINE
  5
8615E
330
1E
100
AcDbEntity
  8
SIZE
  6
CONTINUOUS
100
AcDbLine
 10
-5378.583995824852
 20
-12028.24693084723
 30
0.0
 11
-5378.583995824852
 21
-12477.7256
 31
0.0
  0
LINE
  5
8615F
330
1E
100
AcDbEntity
  8
SIZE
  6
CONTINUOUS
100
AcDbLine
 10
-4338.583965307264
 20
-12447.7256
 30
0.0
 11
-5368.583995824852
 21
-12447.7256
 31
0.0
  0
LINE
  5
86163
330
1E
100
AcDbEntity
  8
SIZE
  6
CONTINUOUS
100
AcDbLine
 10
-5208.583965307262
 20
-12035.24693084723
 30
0.0
 11
-5506.5112
 21
-12035.24693084723
 31
0.0
  0
LINE
  5
86164
330
1E
100
AcDbEntity
  8
SIZE
  6
CONTINUOUS
100
AcDbLine
 10
-5357.187342633142
 20
-11666.24690879165
 30
0.0
 11
-5506.5112
 21
-11666.24690879165
 31
0.0
  0
LINE
  5
86165
330
1E
100
AcDbEntity
  8
SIZE
  6
CONTINUOUS
100
AcDbLine
 10
-5476.5112
 20
-12025.24693084723
 30
0.0
 11
-5476.5112
 21
-11676.24690879165
 31
0.0
  0
LINE
  5
86169
330
1E
100
AcDbEntity
  8
SIZE
  6
CONTINUOUS
100
AcDbLine
 10
-5153.583965307262
 20
-12065.91727049987
 30
0.0
 11
-5153.583965307262
 21
-12344.8291
 31
0.0
  0
LINE
  5
8616A
330
1E
100
AcDbEntity
  8
SIZE
  6
CONTINUOUS
100
AcDbLine
 10
-5378.583995824852
 20
-12028.24693084723
 30
0.0
 11
-5378.583995824852
 21
-12344.8291
 31
0.0
  0
LINE
  5
8616B
330
1E
100
AcDbEntity
  8
SIZE
  6
CONTINUOUS
100
AcDbLine
 10
-5163.583965307261
 20
-12314.8291
 30
0.0
 11
-5368.583995824852
 21
-12314.8291
 31
0.0
  0
LINE
  5
8616F
330
1E
100
AcDbEntity
  8
SIZE
  6
CONTINUOUS
100
AcDbLine
 10
-5397.583995684271
 20
-12009.24693084723
 30
0.0
 11
-5561.5667
 21
-12009.24693084723
 31
0.0
  0
LINE
  5
86170
330
1E
100
AcDbEntity
  8
SIZE
  6
CONTINUOUS
100
AcDbLine
 10
-5208.583965307262
 20
-12035.24693084723
 30
0.0
 11
-5561.5667
 21
-12035.24693084723
 31
0.0
  0
LINE
  5
86171
330
1E
100
AcDbEntity
  8
SIZE
  6
CONTINUOUS
100
AcDbLine
 10
-5531.5667
 20
-11999.24693084723
 30
0.0
 11
-5531.5667
 21
-11989.24693084723
 31
0.0
  0
LINE
  5
86172
330
1E
100
AcDbEntity
  8
SIZE
  6
CONTINUOUS
100
AcDbLine
 10
-5531.5667
 20
-12045.24693084723
 30
0.0
 11
-5531.5667
 21
-12185.76121656151
 31
0.0
  0
LINE
  5
86173
330
1E
100
AcDbEntity
  8
SIZE
  6
CONTINUOUS
100
AcDbLine
 10
-5531.5667
 20
-12009.24693084723
 30
0.0
 11
-5531.5667
 21
-12035.24693084723
 31
0.0
  0
LINE
  5
86177
330
1E
100
AcDbEntity
  8
SIZE
  6
CONTINUOUS
100
AcDbLine
 10
-5153.583965307262
 20
-12065.91727049987
 30
0.0
 11
-5153.583965307262
 21
-12344.8291
 31
0.0
  0
LINE
  5
86178
330
1E
100
AcDbEntity
  8
SIZE
  6
CONTINUOUS
100
AcDbLine
 10
-4553.583965307262
 20
-12065.91727049987
 30
0.0
 11
-4553.583965307262
 21
-12344.8291
 31
0.0
  0
LINE
  5
86179
330
1E
100
AcDbEntity
  8
SIZE
  6
CONTINUOUS
100
AcDbLine
 10
-5143.583965307262
 20
-12314.8291
 30
0.0
 11
-4563.583965307262
 21
-12314.8291
 31
0.0
  0
LINE
  5
8617D
330
1E
100
AcDbEntity
  8
SIZE
  6
CONTINUOUS
100
AcDbLine
 10
-4553.583965307262
 20
-12065.91727049987
 30
0.0
 11
-4553.583965307262
 21
-12344.8291
 31
0.0
  0
LINE
  5
8617E
330
1E
100
AcDbEntity
  8
SIZE
  6
CONTINUOUS
100
AcDbLine
 10
-4328.583965307263
 20
-12028.24693083269
 30
0.0
 11
-4328.583965307263
 21
-12344.8291
 31
0.0
  0
LINE
  5
8617F
330
1E
100
AcDbEntity
  8
SIZE
  6
CONTINUOUS
100
AcDbLine
 10
-4563.583965307262
 20
-12314.8291
 30
0.0
 11
-4573.583965307261
 21
-12314.8291
 31
0.0
  0
LINE
  5
86180
330
1E
100
AcDbEntity
  8
SIZE
  6
CONTINUOUS
100
AcDbLine
 10
-4318.583965307263
 20
-12314.8291
 30
0.0
 11
-4308.583965307263
 21
-12314.8291
 31
0.0
  0
LINE
  5
86181
330
1E
100
AcDbEntity
  8
SIZE
  6
CONTINUOUS
100
AcDbLine
 10
-4553.583965307262
 20
-12314.8291
 30
0.0
 11
-4328.583965307263
 21
-12314.8291
 31
0.0
  0
LINE
  5
86185
330
1E
100
AcDbEntity
  8
SIZE
  6
CONTINUOUS
100
AcDbLine
 10
-5097.083995631544
 20
-10635.14693084722
 30
0.0
 11
-5097.083995631544
 21
-10258.55579999999
 31
0.0
  0
LINE
  5
86186
330
1E
100
AcDbEntity
  8
SIZE
  6
CONTINUOUS
100
AcDbLine
 10
-5166.946085607726
 20
-10674.24693084723
 30
0.0
 11
-5166.946085607726
 21
-10258.55579999999
 31
0.0
  0
LINE
  5
86187
330
1E
100
AcDbEntity
  8
SIZE
  6
CONTINUOUS
100
AcDbLine
 10
-5107.083995631544
 20
-10288.5558
 30
0.0
 11
-5156.946085607727
 21
-10288.5558
 31
0.0
  0
LINE
  5
86188
330
1E
100
AcDbEntity
  8
SIZE
  6
CONTINUOUS
100
AcDbLine
 10
-5166.946085607726
 20
-10288.5558
 30
0.0
 11
-5329.974657036298
 21
-10288.5558
 31
0.0
  0
LINE
  5
8618C
330
1E
100
AcDbEntity
  8
SIZE
  6
CONTINUOUS
100
AcDbLine
 10
-5166.946085607726
 20
-10674.24693084723
 30
0.0
 11
-5166.946085607726
 21
-9946.348
 31
0.0
  0
LINE
  5
8618D
330
1E
100
AcDbEntity
  8
SIZE
  6
CONTINUOUS
100
AcDbLine
 10
-4866.221906042007
 20
-10674.24693084723
 30
0.0
 11
-4866.221906042007
 21
-9946.348
 31
0.0
  0
LINE
  5
8618E
330
1E
100
AcDbEntity
  8
SIZE
  6
CONTINUOUS
100
AcDbLine
 10
-5156.946085607727
 20
-9976.348000000001
 30
0.0
 11
-4876.221906042008
 21
-9976.348000000001
 31
0.0
  0
LINE
  5
86192
330
1E
100
AcDbEntity
  8
SIZE
  6
CONTINUOUS
100
AcDbLine
 10
-5016.583995824863
 20
-10671.54782826916
 30
0.0
 11
-5016.583995824863
 21
-10178.9236
 31
0.0
  0
LINE
  5
86193
330
1E
100
AcDbEntity
  8
SIZE
  6
CONTINUOUS
100
AcDbLine
 10
-4875.683995824867
 20
-10655.24693084723
 30
0.0
 11
-4875.683995824867
 21
-10178.9236
 31
0.0
  0
LINE
  5
86194
330
1E
100
AcDbEntity
  8
SIZE
  6
CONTINUOUS
100
AcDbLine
 10
-5026.583995824863
 20
-10208.9236
 30
0.0
 11
-5036.583995824862
 21
-10208.9236
 31
0.0
  0
LINE
  5
86195
330
1E
100
AcDbEntity
  8
SIZE
  6
CONTINUOUS
100
AcDbLine
 10
-4865.683995824866
 20
-10208.9236
 30
0.0
 11
-4855.683995824866
 21
-10208.9236
 31
0.0
  0
LINE
  5
86196
330
1E
100
AcDbEntity
  8
SIZE
  6
CONTINUOUS
100
AcDbLine
 10
-5016.583995824863
 20
-10208.9236
 30
0.0
 11
-4875.683995824867
 21
-10208.9236
 31
0.0
  0
LINE
  5
8619A
330
1E
100
AcDbEntity
  8
SIZE
  6
CONTINUOUS
100
AcDbLine
 10
-5157.583995824863
 20
-10655.14693084723
 30
0.0
 11
-5157.583995824863
 21
-10178.9236
 31
0.0
  0
LINE
  5
8619B
330
1E
100
AcDbEntity
  8
SIZE
  6
CONTINUOUS
100
AcDbLine
 10
-5016.583995824863
 20
-10671.54782826916
 30
0.0
 11
-5016.583995824863
 21
-10178.9236
 31
0.0
  0
LINE
  5
8619C
330
1E
100
AcDbEntity
  8
SIZE
  6
CONTINUOUS
100
AcDbLine
 10
-5147.583995824863
 20
-10208.9236
 30
0.0
 11
-5026.583995824863
 21
-10208.9236
 31
0.0
  0
LINE
  5
861A0
330
1E
100
AcDbEntity
  8
SIZE
  6
CONTINUOUS
100
AcDbLine
 10
-5157.583995824863
 20
-10655.14693084723
 30
0.0
 11
-5157.583995824863
 21
-10052.9758
 31
0.0
  0
LINE
  5
861A1
330
1E
100
AcDbEntity
  8
SIZE
  6
CONTINUOUS
100
AcDbLine
 10
-5378.583995824864
 20
-10680.24693084722
 30
0.0
 11
-5378.583995824864
 21
-10052.9758
 31
0.0
  0
LINE
  5
861A2
330
1E
100
AcDbEntity
  8
SIZE
  6
CONTINUOUS
100
AcDbLine
 10
-5167.583995824863
 20
-10082.9758
 30
0.0
 11
-5368.583995824863
 21
-10082.9758
 31
0.0
  0
LINE
  5
861A6
330
1E
100
AcDbEntity
  8
SIZE
  6
CONTINUOUS
100
AcDbLine
 10
-5150.883995824612
 20
-10659.24693084723
 30
0.0
 11
-5470.880000000001
 21
-10659.24693084723
 31
0.0
  0
LINE
  5
861A7
330
1E
100
AcDbEntity
  8
SIZE
  6
CONTINUOUS
100
AcDbLine
 10
-5185.483995824867
 20
-10695.24693084723
 30
0.0
 11
-5470.880000000001
 21
-10695.24693084723
 31
0.0
  0
LINE
  5
861A8
330
1E
100
AcDbEntity
  8
SIZE
  6
CONTINUOUS
100
AcDbLine
 10
-5440.880000000002
 20
-10649.24693084723
 30
0.0
 11
-5440.880000000002
 21
-10639.24693084723
 31
0.0
  0
LINE
  5
861A9
330
1E
100
AcDbEntity
  8
SIZE
  6
CONTINUOUS
100
AcDbLine
 10
-5440.880000000002
 20
-10705.24693084722
 30
0.0
 11
-5440.880000000002
 21
-10825.76121656151
 31
0.0
  0
LINE
  5
861AA
330
1E
100
AcDbEntity
  8
SIZE
  6
CONTINUOUS
100
AcDbLine
 10
-5440.880000000002
 20
-10659.24693084723
 30
0.0
 11
-5440.880000000002
 21
-10695.24693084723
 31
0.0
  0
LINE
  5
861AE
330
1E
100
AcDbEntity
  8
SIZE
  6
CONTINUOUS
100
AcDbLine
 10
-5057.083995631543
 20
-10675.24693084722
 30
0.0
 11
-4512.936700000002
 21
-10675.24693084722
 31
0.0
  0
LINE
  5
861AF
330
1E
100
AcDbEntity
  8
SIZE
  6
CONTINUOUS
100
AcDbLine
 10
-4827.683995824866
 20
-10695.24693084723
 30
0.0
 11
-4512.936700000002
 21
-10695.24693084723
 31
0.0
  0
LINE
  5
861B0
330
1E
100
AcDbEntity
  8
SIZE
  6
CONTINUOUS
100
AcDbLine
 10
-4542.936700000002
 20
-10705.24693084722
 30
0.0
 11
-4542.936700000002
 21
-10715.24693084723
 31
0.0
  0
LINE
  5
861B1
330
1E
100
AcDbEntity
  8
SIZE
  6
CONTINUOUS
100
AcDbLine
 10
-4542.936700000002
 20
-10665.24693084722
 30
0.0
 11
-4542.936700000002
 21
-10477.56942857142
 31
0.0
  0
LINE
  5
861B2
330
1E
100
AcDbEntity
  8
SIZE
  6
CONTINUOUS
100
AcDbLine
 10
-4542.936700000002
 20
-10695.24693084723
 30
0.0
 11
-4542.936700000002
 21
-10675.24693084722
 31
0.0
  0
LINE
  5
861B6
330
1E
100
AcDbEntity
  8
SIZE
  6
CONTINUOUS
100
AcDbLine
 10
-4856.607953989363
 20
-10604.24693084722
 30
0.0
 11
-4366.959300000002
 21
-10604.24693084722
 31
0.0
  0
LINE
  5
861B7
330
1E
100
AcDbEntity
  8
SIZE
  6
CONTINUOUS
100
AcDbLine
 10
-4847.683995824866
 20
-10695.24693084723
 30
0.0
 11
-4366.959300000002
 21
-10695.24693084723
 31
0.0
  0
LINE
  5
861B8
330
1E
100
AcDbEntity
  8
SIZE
  6
CONTINUOUS
100
AcDbLine
 10
-4396.959300000002
 20
-10685.24693084722
 30
0.0
 11
-4396.959300000002
 21
-10614.24693084723
 31
0.0
  0
LINE
  5
861B9
330
1E
100
AcDbEntity
  8
SIZE
  6
CONTINUOUS
100
AcDbLine
 10
-4396.959300000002
 20
-10604.24693084722
 30
0.0
 11
-4396.959300000002
 21
-10480.04318571428
 31
0.0
  0
LINE
  5
861BD
330
1E
100
AcDbEntity
  8
SIZE
  6
CONTINUOUS
100
AcDbLine
 10
-5117.083995824711
 20
-10625.44693084733
 30
0.0
 11
-5117.083995824711
 21
-10381.5335
 31
0.0
  0
LINE
  5
861BE
330
1E
100
AcDbEntity
  8
SIZE
  6
CONTINUOUS
100
AcDbLine
 10
-5166.946085607726
 20
-10674.24693084723
 30
0.0
 11
-5166.946085607726
 21
-10381.5335
 31
0.0
  0
LINE
  5
861BF
330
1E
100
AcDbEntity
  8
SIZE
  6
CONTINUOUS
100
AcDbLine
 10
-5127.083995824712
 20
-10411.5335
 30
0.0
 11
-5156.946085607727
 21
-10411.5335
 31
0.0
  0
LINE
  5
861C0
330
1E
100
AcDbEntity
  8
SIZE
  6
CONTINUOUS
100
AcDbLine
 10
-5166.946085607726
 20
-10411.5335
 30
0.0
 11
-5300.061071428571
 21
-10411.5335
 31
0.0
  0
CIRCLE
  5
861C4
330
1E
100
AcDbEntity
  8
SIZE
  6
BYBLOCK
100
AcDbCircle
 10
-5378.583995824852
 20
-12314.8291
 30
0.0
 40
5.0
  0
LINE
  5
861C5
330
1E
100
AcDbEntity
  8
SIZE
  6
BYBLOCK
100
AcDbLine
 10
-5378.583995824852
 20
-12314.8291
 30
0.0
 11
-5368.583995824852
 21
-12314.8291
 31
0.0
  0
CIRCLE
  5
861C6
330
1E
100
AcDbEntity
  8
SIZE
  6
BYBLOCK
100
AcDbCircle
 10
-5378.583995824852
 20
-12447.7256
 30
0.0
 40
5.0
  0
LINE
  5
861C7
330
1E
100
AcDbEntity
  8
SIZE
  6
BYBLOCK
100
AcDbLine
 10
-5378.583995824852
 20
-12447.7256
 30
0.0
 11
-5368.583995824852
 21
-12447.7256
 31
0.0
  0
CIRCLE
  5
861C8
330
1E
100
AcDbEntity
  8
SIZE
  6
BYBLOCK
100
AcDbCircle
 10
-5378.583995824852
 20
-12170.6474
 30
0.0
 40
5.0
  0
LINE
  5
861C9
330
1E
100
AcDbEntity
  8
SIZE
  6
BYBLOCK
100
AcDbLine
 10
-5373.583995824852
 20
-12170.6474
 30
0.0
 11
-5368.583995824852
 21
-12170.6474
 31
0.0
  0
TEXT
  5
861CA
330
1E
100
AcDbEntity
  8
SIZE
  6
CONTINUOUS
100
AcDbText
 10
-5551.566699999998
 20
-12165.76121656151
 30
0.0
 40
64.0
  1
26
 50
90.0
 41
0.9
100
AcDbText
  0
TEXT
  5
861CB
330
1E
100
AcDbEntity
  8
SIZE
  6
CONTINUOUS
100
AcDbText
 10
-5496.511199999998
 20
-11923.43263410515
 30
0.0
 40
64.0
  1
369
 50
90.0
 41
0.9
100
AcDbText
  0
CIRCLE
  5
861CC
330
1E
100
AcDbEntity
  8
SIZE
  6
BYBLOCK
100
AcDbCircle
 10
-5642.543100000001
 20
-12035.24693084723
 30
0.0
 40
5.0
  0
LINE
  5
861CD
330
1E
100
AcDbEntity
  8
SIZE
  6
BYBLOCK
100
AcDbLine
 10
-5642.543100000001
 20
-12035.24693084723
 30
0.0
 11
-5642.543100000001
 21
-12025.24693084723
 31
0.0
  0
CIRCLE
  5
861CE
330
1E
100
AcDbEntity
  8
SIZE
  6
BYBLOCK
100
AcDbCircle
 10
-5531.5667
 20
-12035.24693084723
 30
0.0
 40
5.0
  0
LINE
  5
861CF
330
1E
100
AcDbEntity
  8
SIZE
  6
BYBLOCK
100
AcDbLine
 10
-5531.5667
 20
-12035.24693084723
 30
0.0
 11
-5531.5667
 21
-12045.24693084723
 31
0.0
  0
CIRCLE
  5
861D0
330
1E
100
AcDbEntity
  8
SIZE
  6
BYBLOCK
100
AcDbCircle
 10
-5531.5667
 20
-12009.24693084723
 30
0.0
 40
5.0
  0
LINE
  5
861D1
330
1E
100
AcDbEntity
  8
SIZE
  6
BYBLOCK
100
AcDbLine
 10
-5531.5667
 20
-12009.24693084723
 30
0.0
 11
-5531.5667
 21
-11999.24693084723
 31
0.0
  0
CIRCLE
  5
861D2
330
1E
100
AcDbEntity
  8
SIZE
  6
BYBLOCK
100
AcDbCircle
 10
-5476.5112
 20
-12035.24693084723
 30
0.0
 40
5.0
  0
LINE
  5
861D3
330
1E
100
AcDbEntity
  8
SIZE
  6
BYBLOCK
100
AcDbLine
 10
-5476.5112
 20
-12035.24693084723
 30
0.0
 11
-5476.5112
 21
-12025.24693084723
 31
0.0
  0
CIRCLE
  5
861D4
330
1E
100
AcDbEntity
  8
SIZE
  6
BYBLOCK
100
AcDbCircle
 10
-5476.5112
 20
-11666.24690879165
 30
0.0
 40
5.0
  0
LINE
  5
861D5
330
1E
100
AcDbEntity
  8
SIZE
  6
BYBLOCK
100
AcDbLine
 10
-5476.5112
 20
-11666.24690879165
 30
0.0
 11
-5476.5112
 21
-11656.24690879165
 31
0.0
  0
CIRCLE
  5
861D6
330
1E
100
AcDbEntity
  8
SIZE
  6
BYBLOCK
100
AcDbCircle
 10
-5476.5112
 20
-11666.24690879165
 30
0.0
 40
5.0
  0
LINE
  5
861D7
330
1E
100
AcDbEntity
  8
SIZE
  6
BYBLOCK
100
AcDbLine
 10
-5476.5112
 20
-11666.24690879165
 30
0.0
 11
-5476.5112
 21
-11676.24690879165
 31
0.0
  0
TEXT
  5
861D8
330
1E
100
AcDbEntity
  8
SIZE
  6
CONTINUOUS
100
AcDbText
 10
-5271.641127483644
 20
-12160.64739999999
 30
0.0
 40
64.0
  1
362
 41
0.9
100
AcDbText
  0
TEXT
  5
861D9
330
1E
100
AcDbEntity
  8
SIZE
  6
CONTINUOUS
100
AcDbText
 10
-5335.36723791979
 20
-12294.8291
 30
0.0
 40
64.0
  1
225
 41
0.9
100
AcDbText
  0
CIRCLE
  5
861DA
330
1E
100
AcDbEntity
  8
SIZE
  6
BYBLOCK
100
AcDbCircle
 10
-5153.583965307262
 20
-12314.8291
 30
0.0
 40
5.0
  0
LINE
  5
861DB
330
1E
100
AcDbEntity
  8
SIZE
  6
BYBLOCK
100
AcDbLine
 10
-5153.583965307262
 20
-12314.8291
 30
0.0
 11
-5143.583965307262
 21
-12314.8291
 31
0.0
  0
CIRCLE
  5
861DC
330
1E
100
AcDbEntity
  8
SIZE
  6
BYBLOCK
100
AcDbCircle
 10
-5153.583965307262
 20
-12314.8291
 30
0.0
 40
5.0
  0
LINE
  5
861DD
330
1E
100
AcDbEntity
  8
SIZE
  6
BYBLOCK
100
AcDbLine
 10
-5153.583965307262
 20
-12314.8291
 30
0.0
 11
-5163.583965307261
 21
-12314.8291
 31
0.0
  0
TEXT
  5
861DE
330
1E
100
AcDbEntity
  8
SIZE
  6
CONTINUOUS
100
AcDbText
 10
-4953.861224209887
 20
-12294.8291
 30
0.0
 40
64.0
  1
600
 41
0.9
100
AcDbText
  0
TEXT
  5
861DF
330
1E
100
AcDbEntity
  8
SIZE
  6
CONTINUOUS
100
AcDbText
 10
-4959.507108353871
 20
-12427.7256
 30
0.0
 40
64.0
  1
1050
 41
0.9
100
AcDbText
  0
CIRCLE
  5
861E0
330
1E
100
AcDbEntity
  8
SIZE
  6
BYBLOCK
100
AcDbCircle
 10
-5016.583973428151
 20
-12170.6474
 30
0.0
 40
5.0
  0
LINE
  5
861E1
330
1E
100
AcDbEntity
  8
SIZE
  6
BYBLOCK
100
AcDbLine
 10
-5021.583973428151
 20
-12170.6474
 30
0.0
 11
-5026.58397342815
 21
-12170.6474
 31
0.0
  0
CIRCLE
  5
861E2
330
1E
100
AcDbEntity
  8
SIZE
  6
BYBLOCK
100
AcDbCircle
 10
-4328.583965307263
 20
-12447.7256
 30
0.0
 40
5.0
  0
LINE
  5
861E3
330
1E
100
AcDbEntity
  8
SIZE
  6
BYBLOCK
100
AcDbLine
 10
-4328.583965307263
 20
-12447.7256
 30
0.0
 11
-4338.583965307264
 21
-12447.7256
 31
0.0
  0
TEXT
  5
861E4
330
1E
100
AcDbEntity
  8
SIZE
  6
CONTINUOUS
100
AcDbText
 10
-4541.319561760594
 20
-12294.8291
 30
0.0
 40
64.0
  1
225
 41
0.9
100
AcDbText
  0
CIRCLE
  5
861E5
330
1E
100
AcDbEntity
  8
SIZE
  6
BYBLOCK
100
AcDbCircle
 10
-4553.583965307262
 20
-12314.8291
 30
0.0
 40
5.0
  0
LINE
  5
861E6
330
1E
100
AcDbEntity
  8
SIZE
  6
BYBLOCK
100
AcDbLine
 10
-4553.583965307262
 20
-12314.8291
 30
0.0
 11
-4563.583965307262
 21
-12314.8291
 31
0.0
  0
CIRCLE
  5
861E7
330
1E
100
AcDbEntity
  8
SIZE
  6
BYBLOCK
100
AcDbCircle
 10
-4553.583965307262
 20
-12314.8291
 30
0.0
 40
5.0
  0
LINE
  5
861E8
330
1E
100
AcDbEntity
  8
SIZE
  6
BYBLOCK
100
AcDbLine
 10
-4553.583965307262
 20
-12314.8291
 30
0.0
 11
-4563.583965307262
 21
-12314.8291
 31
0.0
  0
CIRCLE
  5
861E9
330
1E
100
AcDbEntity
  8
SIZE
  6
BYBLOCK
100
AcDbCircle
 10
-4328.583965307263
 20
-12314.8291
 30
0.0
 40
5.0
  0
LINE
  5
861EA
330
1E
100
AcDbEntity
  8
SIZE
  6
BYBLOCK
100
AcDbLine
 10
-4328.583965307263
 20
-12314.8291
 30
0.0
 11
-4318.583965307263
 21
-12314.8291
 31
0.0
  0
TEXT
  5
861EB
330
1E
100
AcDbEntity
  8
SIZE
  6
CONTINUOUS
100
AcDbText
 10
-5319.974657036297
 20
-10278.55579999999
 30
0.0
 40
64.0
  1
70
 41
0.9
100
AcDbText
  0
TEXT
  5
861EC
330
1E
100
AcDbEntity
  8
SIZE
  6
CONTINUOUS
100
AcDbText
 10
-5662.543099999998
 20
-11461.24693084723
 30
0.0
 40
64.0
  1
1340
 50
90.0
 41
0.9
100
AcDbText
  0
TEXT
  5
861ED
330
1E
100
AcDbEntity
  8
SIZE
  6
CONTINUOUS
100
AcDbText
 10
-5496.511199999998
 20
-11424.30405246967
 30
0.0
 40
64.0
  1
632
 50
90.0
 41
0.9
100
AcDbText
  0
CIRCLE
  5
861EE
330
1E
100
AcDbEntity
  8
SIZE
  6
BYBLOCK
100
AcDbCircle
 10
-5476.5112
 20
-11034.2469104334
 30
0.0
 40
5.0
  0
LINE
  5
861EF
330
1E
100
AcDbEntity
  8
SIZE
  6
BYBLOCK
100
AcDbLine
 10
-5476.5112
 20
-11034.2469104334
 30
0.0
 11
-5476.5112
 21
-11044.2469104334
 31
0.0
  0
TEXT
  5
861F0
330
1E
100
AcDbEntity
  8
SIZE
  6
CONTINUOUS
100
AcDbText
 10
-5450.88
 20
-10815.76121656151
 30
0.0
 40
64.0
  1
36
 50
90.0
 41
0.9
100
AcDbText
  0
CIRCLE
  5
861F1
330
1E
100
AcDbEntity
  8
SIZE
  6
BYBLOCK
100
AcDbCircle
 10
-5642.543100000001
 20
-10695.24693084723
 30
0.0
 40
5.0
  0
LINE
  5
861F2
330
1E
100
AcDbEntity
  8
SIZE
  6
BYBLOCK
100
AcDbLine
 10
-5642.543100000001
 20
-10695.24693084723
 30
0.0
 11
-5642.543100000001
 21
-10705.24693084722
 31
0.0
  0
CIRCLE
  5
861F3
330
1E
100
AcDbEntity
  8
SIZE
  6
BYBLOCK
100
AcDbCircle
 10
-5440.880000000002
 20
-10695.24693084723
 30
0.0
 40
5.0
  0
LINE
  5
861F4
330
1E
100
AcDbEntity
  8
SIZE
  6
BYBLOCK
100
AcDbLine
 10
-5440.880000000002
 20
-10700.24693084723
 30
0.0
 11
-5440.880000000002
 21
-10705.24693084722
 31
0.0
  0
CIRCLE
  5
861F5
330
1E
100
AcDbEntity
  8
SIZE
  6
BYBLOCK
100
AcDbCircle
 10
-5440.880000000002
 20
-10659.24693084723
 30
0.0
 40
5.0
  0
LINE
  5
861F6
330
1E
100
AcDbEntity
  8
SIZE
  6
BYBLOCK
100
AcDbLine
 10
-5440.880000000002
 20
-10654.24693084723
 30
0.0
 11
-5440.880000000002
 21
-10649.24693084723
 31
0.0
  0
TEXT
  5
861F7
330
1E
100
AcDbEntity
  8
SIZE
  6
CONTINUOUS
100
AcDbText
 10
-5290.061071428571
 20
-10401.5335
 30
0.0
 40
64.0
  1
50
 41
0.9
100
AcDbText
  0
CIRCLE
  5
861F8
330
1E
100
AcDbEntity
  8
SIZE
  6
BYBLOCK
100
AcDbCircle
 10
-5166.946085607726
 20
-10411.5335
 30
0.0
 40
5.0
  0
LINE
  5
861F9
330
1E
100
AcDbEntity
  8
SIZE
  6
BYBLOCK
100
AcDbLine
 10
-5161.946085607727
 20
-10411.5335
 30
0.0
 11
-5156.946085607727
 21
-10411.5335
 31
0.0
  0
CIRCLE
  5
861FA
330
1E
100
AcDbEntity
  8
SIZE
  6
BYBLOCK
100
AcDbCircle
 10
-5117.083995824711
 20
-10411.5335
 30
0.0
 40
5.0
  0
LINE
  5
861FB
330
1E
100
AcDbEntity
  8
SIZE
  6
BYBLOCK
100
AcDbLine
 10
-5122.083995824712
 20
-10411.5335
 30
0.0
 11
-5127.083995824712
 21
-10411.5335
 31
0.0
  0
CIRCLE
  5
861FC
330
1E
100
AcDbEntity
  8
SIZE
  6
BYBLOCK
100
AcDbCircle
 10
-5166.946085607726
 20
-10288.5558
 30
0.0
 40
5.0
  0
LINE
  5
861FD
330
1E
100
AcDbEntity
  8
SIZE
  6
BYBLOCK
100
AcDbLine
 10
-5161.946085607727
 20
-10288.5558
 30
0.0
 11
-5156.946085607727
 21
-10288.5558
 31
0.0
  0
CIRCLE
  5
861FE
330
1E
100
AcDbEntity
  8
SIZE
  6
BYBLOCK
100
AcDbCircle
 10
-5097.083995631544
 20
-10288.5558
 30
0.0
 40
5.0
  0
LINE
  5
861FF
330
1E
100
AcDbEntity
  8
SIZE
  6
BYBLOCK
100
AcDbLine
 10
-5102.083995631544
 20
-10288.5558
 30
0.0
 11
-5107.083995631544
 21
-10288.5558
 31
0.0
  0
CIRCLE
  5
86200
330
1E
100
AcDbEntity
  8
SIZE
  6
BYBLOCK
100
AcDbCircle
 10
-4542.936700000002
 20
-10675.24693084722
 30
0.0
 40
5.0
  0
LINE
  5
86201
330
1E
100
AcDbEntity
  8
SIZE
  6
BYBLOCK
100
AcDbLine
 10
-4542.936700000002
 20
-10670.24693084722
 30
0.0
 11
-4542.936700000002
 21
-10665.24693084722
 31
0.0
  0
CIRCLE
  5
86202
330
1E
100
AcDbEntity
  8
SIZE
  6
BYBLOCK
100
AcDbCircle
 10
-4542.936700000002
 20
-10695.24693084723
 30
0.0
 40
5.0
  0
LINE
  5
86203
330
1E
100
AcDbEntity
  8
SIZE
  6
BYBLOCK
100
AcDbLine
 10
-4542.936700000002
 20
-10700.24693084723
 30
0.0
 11
-4542.936700000002
 21
-10705.24693084722
 31
0.0
  0
CIRCLE
  5
86204
330
1E
100
AcDbEntity
  8
SIZE
  6
BYBLOCK
100
AcDbCircle
 10
-4396.959300000002
 20
-10604.24693084722
 30
0.0
 40
5.0
  0
LINE
  5
86205
330
1E
100
AcDbEntity
  8
SIZE
  6
BYBLOCK
100
AcDbLine
 10
-4396.959300000002
 20
-10609.24693084723
 30
0.0
 11
-4396.959300000002
 21
-10614.24693084723
 31
0.0
  0
CIRCLE
  5
86206
330
1E
100
AcDbEntity
  8
SIZE
  6
BYBLOCK
100
AcDbCircle
 10
-4396.959300000002
 20
-10695.24693084723
 30
0.0
 40
5.0
  0
LINE
  5
86207
330
1E
100
AcDbEntity
  8
SIZE
  6
BYBLOCK
100
AcDbLine
 10
-4396.959300000002
 20
-10690.24693084723
 30
0.0
 11
-4396.959300000002
 21
-10685.24693084722
 31
0.0
  0
TEXT
  5
86208
330
1E
100
AcDbEntity
  8
SIZE
  6
CONTINUOUS
100
AcDbText
 10
-4552.9367
 20
-10580.82657142857
 30
0.0
 40
64.0
  1
20
 50
90.0
 41
0.9
100
AcDbText
  0
TEXT
  5
86209
330
1E
100
AcDbEntity
  8
SIZE
  6
CONTINUOUS
100
AcDbText
 10
-4406.9593
 20
-10558.61461428571
 30
0.0
 40
64.0
  1
91
 50
90.0
 41
0.9
100
AcDbText
  0
CIRCLE
  5
8620A
330
1E
100
AcDbEntity
  8
SIZE
  6
BYBLOCK
100
AcDbCircle
 10
-5378.583995824864
 20
-10082.9758
 30
0.0
 40
5.0
  0
LINE
  5
8620B
330
1E
100
AcDbEntity
  8
SIZE
  6
BYBLOCK
100
AcDbLine
 10
-5373.583995824863
 20
-10082.9758
 30
0.0
 11
-5368.583995824863
 21
-10082.9758
 31
0.0
  0
TEXT
  5
8620C
330
1E
100
AcDbEntity
  8
SIZE
  6
CONTINUOUS
100
AcDbText
 10
-5071.520985714285
 20
-9966.348000000001
 30
0.0
 40
64.0
  1
301
 41
0.9
100
AcDbText
  0
TEXT
  5
8620D
330
1E
100
AcDbEntity
  8
SIZE
  6
CONTINUOUS
100
AcDbText
 10
-5143.312567253435
 20
-10198.9236
 30
0.0
 40
64.0
  1
141
 41
0.9
100
AcDbText
  0
CIRCLE
  5
8620E
330
1E
100
AcDbEntity
  8
SIZE
  6
BYBLOCK
100
AcDbCircle
 10
-5157.583995824863
 20
-10208.9236
 30
0.0
 40
5.0
  0
LINE
  5
8620F
330
1E
100
AcDbEntity
  8
SIZE
  6
BYBLOCK
100
AcDbLine
 10
-5152.583995824862
 20
-10208.9236
 30
0.0
 11
-5147.583995824863
 21
-10208.9236
 31
0.0
  0
TEXT
  5
86210
330
1E
100
AcDbEntity
  8
SIZE
  6
CONTINUOUS
100
AcDbText
 10
-5325.179685714285
 20
-10072.9758
 30
0.0
 40
64.0
  1
221
 41
0.9
100
AcDbText
  0
CIRCLE
  5
86211
330
1E
100
AcDbEntity
  8
SIZE
  6
BYBLOCK
100
AcDbCircle
 10
-5157.583995824863
 20
-10082.9758
 30
0.0
 40
5.0
  0
LINE
  5
86212
330
1E
100
AcDbEntity
  8
SIZE
  6
BYBLOCK
100
AcDbLine
 10
-5162.583995824863
 20
-10082.9758
 30
0.0
 11
-5167.583995824863
 21
-10082.9758
 31
0.0
  0
CIRCLE
  5
86213
330
1E
100
AcDbEntity
  8
SIZE
  6
BYBLOCK
100
AcDbCircle
 10
-5166.946085607726
 20
-9976.348000000001
 30
0.0
 40
5.0
  0
LINE
  5
86214
330
1E
100
AcDbEntity
  8
SIZE
  6
BYBLOCK
100
AcDbLine
 10
-5161.946085607727
 20
-9976.348000000001
 30
0.0
 11
-5156.946085607727
 21
-9976.348000000001
 31
0.0
  0
CIRCLE
  5
86215
330
1E
100
AcDbEntity
  8
SIZE
  6
BYBLOCK
100
AcDbCircle
 10
-4875.683995824867
 20
-10208.9236
 30
0.0
 40
5.0
  0
LINE
  5
86216
330
1E
100
AcDbEntity
  8
SIZE
  6
BYBLOCK
100
AcDbLine
 10
-4870.683995824866
 20
-10208.9236
 30
0.0
 11
-4865.683995824866
 21
-10208.9236
 31
0.0
  0
CIRCLE
  5
86217
330
1E
100
AcDbEntity
  8
SIZE
  6
BYBLOCK
100
AcDbCircle
 10
-5016.583995824863
 20
-10208.9236
 30
0.0
 40
5.0
  0
LINE
  5
86218
330
1E
100
AcDbEntity
  8
SIZE
  6
BYBLOCK
100
AcDbLine
 10
-5021.583995824863
 20
-10208.9236
 30
0.0
 11
-5026.583995824863
 21
-10208.9236
 31
0.0
  0
TEXT
  5
86219
330
1E
100
AcDbEntity
  8
SIZE
  6
CONTINUOUS
100
AcDbText
 10
-5002.362567253436
 20
-10198.9236
 30
0.0
 40
64.0
  1
141
 41
0.9
100
AcDbText
  0
CIRCLE
  5
8621A
330
1E
100
AcDbEntity
  8
SIZE
  6
BYBLOCK
100
AcDbCircle
 10
-5016.583995824863
 20
-10208.9236
 30
0.0
 40
5.0
  0
LINE
  5
8621B
330
1E
100
AcDbEntity
  8
SIZE
  6
BYBLOCK
100
AcDbLine
 10
-5021.583995824863
 20
-10208.9236
 30
0.0
 11
-5026.583995824863
 21
-10208.9236
 31
0.0
  0
CIRCLE
  5
8621C
330
1E
100
AcDbEntity
  8
SIZE
  6
BYBLOCK
100
AcDbCircle
 10
-4866.221906042007
 20
-9976.348000000001
 30
0.0
 40
5.0
  0
LINE
  5
8621D
330
1E
100
AcDbEntity
  8
SIZE
  6
BYBLOCK
100
AcDbLine
 10
-4871.221906042007
 20
-9976.348000000001
 30
0.0
 11
-4876.221906042008
 21
-9976.348000000001
 31
0.0
  0
LINE
  5
8621E
330
1E
100
AcDbEntity
  8
OUTLINE
  6
CONTINUOUS
100
AcDbLine
 10
-5165.483995824867
 20
-10695.24693084723
 30
0.0
 11
-4867.683995824866
 21
-10695.24693084723
 31
0.0
  0
LINE
  5
8621F
330
1E
100
AcDbEntity
  8
OUTLINE
  6
CONTINUOUS
100
AcDbLine
 10
-5152.565465137314
 20
-10673.24693084723
 30
0.0
 11
-4880.602526512419
 21
-10673.24693084723
 31
0.0
  0
LINE
  5
86220
330
1E
100
AcDbEntity
  8
OUTLINE
  6
CONTINUOUS
100
AcDbLine
 10
-4866.221906042007
 20
-10694.24693084723
 30
0.0
 11
-5166.946085607726
 21
-10694.24693084723
 31
0.0
  0
LINE
  5
86221
330
1E
100
AcDbEntity
  8
OUTLINE
  6
CONTINUOUS
100
AcDbLine
 10
-4884.593032376738
 20
-10604.24693084722
 30
0.0
 11
-5148.574959272997
 21
-10604.24693084722
 31
0.0
  0
LINE
  5
86222
330
1E
100
AcDbEntity
  8
OUTLINE
  6
CONTINUOUS
100
AcDbLine
 10
-5158.556307257214
 20
-10606.12483376816
 30
0.0
 11
-5162.546813121534
 21
-10671.3690279263
 31
0.0
  0
LINE
  5
86223
330
1E
100
AcDbEntity
  8
OUTLINE
  6
CONTINUOUS
100
AcDbLine
 10
-5157.483995824867
 20
-10680.24693084723
 30
0.0
 11
-5157.483995824867
 21
-10676.24693084723
 31
0.0
  0
LINE
  5
86224
330
1E
100
AcDbEntity
  8
OUTLINE
  6
CONTINUOUS
100
AcDbLine
 10
-5157.483995824867
 20
-10676.24693084723
 30
0.0
 11
-5157.483995824867
 21
-10675.24693084723
 31
0.0
  0
LINE
  5
86225
330
1E
100
AcDbEntity
  8
OUTLINE
  6
CONTINUOUS
100
AcDbLine
 10
-5158.191102606053
 20
-10695.24693084723
 30
0.0
 11
-5158.191102606053
 21
-10694.24693084723
 31
0.0
  0
LINE
  5
86226
330
1E
100
AcDbEntity
  8
OUTLINE
  6
CONTINUOUS
100
AcDbLine
 10
-5157.483995824867
 20
-10695.24693084723
 30
0.0
 11
-5157.483995824867
 21
-10694.24693084723
 31
0.0
  0
LINE
  5
86227
330
1E
100
AcDbEntity
  8
OUTLINE
  6
CONTINUOUS
100
AcDbLine
 10
-5164.483995824866
 20
-10675.24693084723
 30
0.0
 11
-5160.780258450754
 21
-10675.24693084723
 31
0.0
  0
LINE
  5
86228
330
1E
100
AcDbEntity
  8
OUTLINE
  6
CONTINUOUS
100
AcDbLine
 10
-5164.483995824866
 20
-10676.24693084723
 30
0.0
 11
-5157.483995824867
 21
-10676.24693084723
 31
0.0
  0
LINE
  5
86229
330
1E
100
AcDbEntity
  8
OUTLINE
  6
CONTINUOUS
100
AcDbLine
 10
-5165.483995824867
 20
-10695.24693084723
 30
0.0
 11
-5165.483995824867
 21
-10694.24693084723
 31
0.0
  0
ARC
  5
8622A
330
1E
100
AcDbEntity
  8
OUTLINE
  6
CONTINUOUS
100
AcDbCircle
 10
-5164.543082718378
 20
-10671.24693084723
 30
0.0
 40
2.0
100
AcDbArc
 50
270.0
 51
356.4999999999638
  0
ARC
  5
8622B
330
1E
100
AcDbEntity
  8
OUTLINE
  6
CONTINUOUS
100
AcDbCircle
 10
-5164.72096451766
 20
-10674.24693084723
 30
0.0
 40
1.0
100
AcDbArc
 50
90.0
 51
176.5000000000679
  0
LINE
  5
8622C
330
1E
100
AcDbEntity
  8
OUTLINE
  6
CONTINUOUS
100
AcDbLine
 10
-5153.741481735019
 20
-10673.24693084723
 30
0.0
 11
-5152.565465137314
 21
-10673.24693084723
 31
0.0
  0
LINE
  5
8622D
330
1E
100
AcDbEntity
  8
OUTLINE
  6
CONTINUOUS
100
AcDbLine
 10
-5164.543082718378
 20
-10673.24693084723
 30
0.0
 11
-5164.72096451766
 21
-10673.24693084723
 31
0.0
  0
LINE
  5
8622E
330
1E
100
AcDbEntity
  8
OUTLINE
  6
CONTINUOUS
100
AcDbLine
 10
-5165.719099316083
 20
-10674.18588230769
 30
0.0
 11
-5166.946085607726
 21
-10694.24693084723
 31
0.0
  0
LINE
  5
8622F
330
1E
100
AcDbEntity
  8
OUTLINE
  6
CONTINUOUS
100
AcDbLine
 10
-5153.741481735019
 20
-10673.24693084723
 30
0.0
 11
-5164.543082718378
 21
-10673.24693084723
 31
0.0
  0
LINE
  5
86230
330
1E
100
AcDbEntity
  8
OUTLINE
  6
CONTINUOUS
100
AcDbLine
 10
-5148.574959272997
 20
-10604.24693084722
 30
0.0
 11
-5156.560037660372
 21
-10604.24693084722
 31
0.0
  0
ARC
  5
86231
330
1E
100
AcDbEntity
  8
OUTLINE
  6
CONTINUOUS
100
AcDbCircle
 10
-5156.560037660372
 20
-10606.24693084722
 30
0.0
 40
2.0
100
AcDbArc
 50
90.0
 51
176.4999999999639
  0
LINE
  5
86232
330
1E
100
AcDbEntity
  8
OUTLINE
  6
CONTINUOUS
100
AcDbLine
 10
-4868.624908931356
 20
-10673.24693084723
 30
0.0
 11
-4879.426509914714
 21
-10673.24693084723
 31
0.0
  0
LINE
  5
86233
330
1E
100
AcDbEntity
  8
OUTLINE
  6
CONTINUOUS
100
AcDbLine
 10
-4876.607953989362
 20
-10604.24693084722
 30
0.0
 11
-4884.593032376738
 21
-10604.24693084722
 31
0.0
  0
LINE
  5
86234
330
1E
100
AcDbEntity
  8
OUTLINE
  6
CONTINUOUS
100
AcDbLine
 10
-4880.602526512419
 20
-10673.24693084723
 30
0.0
 11
-4879.426509914714
 21
-10673.24693084723
 31
0.0
  0
LINE
  5
86235
330
1E
100
AcDbEntity
  8
OUTLINE
  6
CONTINUOUS
100
AcDbLine
 10
-4870.6211785282
 20
-10671.3690279263
 30
0.0
 11
-4874.611684392519
 21
-10606.12483376816
 31
0.0
  0
LINE
  5
86236
330
1E
100
AcDbEntity
  8
OUTLINE
  6
CONTINUOUS
100
AcDbLine
 10
-4875.683995824867
 20
-10676.24693084723
 30
0.0
 11
-4868.683995824866
 21
-10676.24693084723
 31
0.0
  0
LINE
  5
86237
330
1E
100
AcDbEntity
  8
OUTLINE
  6
CONTINUOUS
100
AcDbLine
 10
-4872.38773319898
 20
-10675.24693084723
 30
0.0
 11
-4867.683995824866
 21
-10675.24693084723
 31
0.0
  0
LINE
  5
86238
330
1E
100
AcDbEntity
  8
OUTLINE
  6
CONTINUOUS
100
AcDbLine
 10
-4875.683995824867
 20
-10676.24693084723
 30
0.0
 11
-4875.683995824867
 21
-10680.24693084723
 31
0.0
  0
LINE
  5
86239
330
1E
100
AcDbEntity
  8
OUTLINE
  6
CONTINUOUS
100
AcDbLine
 10
-4875.683995824867
 20
-10676.24693084723
 30
0.0
 11
-4875.683995824867
 21
-10675.24693084723
 31
0.0
  0
LINE
  5
8623A
330
1E
100
AcDbEntity
  8
OUTLINE
  6
CONTINUOUS
100
AcDbLine
 10
-4874.976889043679
 20
-10695.24693084723
 30
0.0
 11
-4874.976889043679
 21
-10694.24693084723
 31
0.0
  0
LINE
  5
8623B
330
1E
100
AcDbEntity
  8
OUTLINE
  6
CONTINUOUS
100
AcDbLine
 10
-4875.683995824867
 20
-10695.24693084723
 30
0.0
 11
-4875.683995824867
 21
-10694.24693084723
 31
0.0
  0
LINE
  5
8623C
330
1E
100
AcDbEntity
  8
OUTLINE
  6
CONTINUOUS
100
AcDbLine
 10
-4867.683995824866
 20
-10677.24693084723
 30
0.0
 11
-4867.683995824866
 21
-10675.24693084723
 31
0.0
  0
LINE
  5
8623D
330
1E
100
AcDbEntity
  8
OUTLINE
  6
CONTINUOUS
100
AcDbLine
 10
-4867.683995824866
 20
-10695.24693084723
 30
0.0
 11
-4867.683995824866
 21
-10694.24693084723
 31
0.0
  0
ARC
  5
8623E
330
1E
100
AcDbEntity
  8
OUTLINE
  6
CONTINUOUS
100
AcDbCircle
 10
-4868.624908931356
 20
-10671.24693084723
 30
0.0
 40
2.000000000000344
100
AcDbArc
 50
183.500000000036
 51
270.0
  0
ARC
  5
8623F
330
1E
100
AcDbEntity
  8
OUTLINE
  6
CONTINUOUS
100
AcDbCircle
 10
-4868.447027132074
 20
-10674.24693084723
 30
0.0
 40
1.000000000000003
100
AcDbArc
 50
3.499999999932073
 51
90.0
  0
LINE
  5
86240
330
1E
100
AcDbEntity
  8
OUTLINE
  6
CONTINUOUS
100
AcDbLine
 10
-4868.447027132074
 20
-10673.24693084723
 30
0.0
 11
-4868.624908931356
 21
-10673.24693084723
 31
0.0
  0
LINE
  5
86241
330
1E
100
AcDbEntity
  8
OUTLINE
  6
CONTINUOUS
100
AcDbLine
 10
-4867.448892333651
 20
-10674.18588230769
 30
0.0
 11
-4866.221906042007
 21
-10694.24693084723
 31
0.0
  0
ARC
  5
86242
330
1E
100
AcDbEntity
  8
OUTLINE
  6
CONTINUOUS
100
AcDbCircle
 10
-4876.607953989362
 20
-10606.24693084722
 30
0.0
 40
1.999999999999153
100
AcDbArc
 50
3.5000000000361
 51
90.0
  0
ENDSEC
  0
SECTION
  2
OBJECTS
  0
DICTIONARY
  5
C
330
0
100
AcDbDictionary
  3
ACAD_GROUP
350
D
  3
ACAD_LAYOUT
350
19
  3
ACAD_MLINESTYLE
350
16
  3
ACAD_PLOTSETTINGS
350
18
  3
ACAD_PLOTSTYLENAME
350
E
  3
ACDBHEADERROUNDTRIPXREC
350
86247
  0
DICTIONARY
  5
8626A
330
1E
100
AcDbDictionary
280
     1
  3
ACAD_LAYOUTSELFREF
360
8626B
  0
DICTIONARY
  5
86268
330
1A
100
AcDbDictionary
280
     1
  3
ACAD_LAYOUTSELFREF
360
86269
  0
DICTIONARY
  5
D
102
{ACAD_REACTORS
330
C
102
}
330
C
100
AcDbDictionary
  0
DICTIONARY
  5
19
102
{ACAD_REACTORS
330
C
102
}
330
C
100
AcDbDictionary
  0
DICTIONARY
  5
16
102
{ACAD_REACTORS
330
C
102
}
330
C
100
AcDbDictionary
  3
STANDARD
350
17
  0
DICTIONARY
  5
18
102
{ACAD_REACTORS
330
C
102
}
330
C
100
AcDbDictionary
  0
ACDBDICTIONARYWDFLT
  5
E
102
{ACAD_REACTORS
330
C
102
}
330
C
100
AcDbDictionary
281
     1
  3
Normal
350
F
100
AcDbDictionaryWithDefault
340
F
  0
DICTIONARY
  5
86247
102
{ACAD_REACTORS
330
C
102
}
330
C
100
AcDbDictionary
  3
CEPSNTYPE
350
86251
  3
DIMSTYLEDATA
350
86255
  3
FINGERPRINTGUID
350
86252
  3
HYPERLINKBASE
350
8624A
  3
INSUNITS
350
86250
  3
LAYOUTDICT
350
8624C
  3
LWETCUNION
350
8624F
  3
PLOTSETDICT
350
8624D
  3
PLOTSTYLNAMDICT
350
8624E
  3
PSVPSCALE
350
86254
  3
PUCSBASE
350
86258
  3
PUCSORGBACK
350
8625E
  3
PUCSORGBOTTOM
350
8625A
  3
PUCSORGFRONT
350
8625D
  3
PUCSORGLEFT
350
8625B
  3
PUCSORGRIGHT
350
8625C
  3
PUCSORGTOP
350
86259
  3
PUCSORTHOREF
350
86256
  3
PUCSORTHOVIEW
350
86257
  3
STYLESHEET
350
8624B
  3
TSTACKALIGN
350
86248
  3
TSTACKSIZE
350
86249
  3
UCSBASE
350
86261
  3
UCSORGBACK
350
86267
  3
UCSORGBOTTOM
350
86263
  3
UCSORGFRONT
350
86266
  3
UCSORGLEFT
350
86264
  3
UCSORGRIGHT
350
86265
  3
UCSORGTOP
350
86262
  3
UCSORTHOREF
350
8625F
  3
UCSORTHOVIEW
350
86260
  3
VERSIONGUID
350
86253
  0
XRECORD
  5
8626B
102
{ACAD_REACTORS
330
8626A
102
}
330
8626A
100
AcDbXrecord
340
1E
  0
XRECORD
  5
86269
102
{ACAD_REACTORS
330
86268
102
}
330
86268
100
AcDbXrecord
340
1A
  0
MLINESTYLE
  5
17
102
{ACAD_REACTORS
330
16
102
}
330
16
100
AcDbMlineStyle
  2
STANDARD
 70
     0
  3

 62
   256
 51
90.0
 52
90.0
 71
     2
 49
0.5
 62
   256
  6
BYLAYER
 49
-0.5
 62
   256
  6
BYLAYER
  0
ACDBPLACEHOLDER
  5
F
102
{ACAD_REACTORS
330
E
102
}
330
E
100
AcDbPlaceHolder
280
     0
  0
XRECORD
  5
86251
102
{ACAD_REACTORS
330
86247
102
}
330
86247
100
AcDbXrecord
 90
        0
  0
XRECORD
  5
86255
102
{ACAD_REACTORS
330
86247
102
}
330
86247
100
AcDbXrecord
1000
DSTYLE
1002
{
1070
   341
340
989D
1070
   342
340
989D
1002
}
  0
XRECORD
  5
86252
102
{ACAD_REACTORS
330
86247
102
}
330
86247
100
AcDbXrecord
  1
{B080D177-E69E-4E21-B2C6-E176D61109FE}
  0
XRECORD
  5
8624A
102
{ACAD_REACTORS
330
86247
102
}
330
86247
100
AcDbXrecord
  1

  0
XRECORD
  5
86250
102
{ACAD_REACTORS
330
86247
102
}
330
86247
100
AcDbXrecord
 90
        0
  0
XRECORD
  5
8624C
102
{ACAD_REACTORS
330
86247
102
}
330
86247
100
AcDbXrecord
340
19
  0
XRECORD
  5
8624F
102
{ACAD_REACTORS
330
86247
102
}
330
86247
100
AcDbXrecord
 90
    10781
  0
XRECORD
  5
8624D
102
{ACAD_REACTORS
330
86247
102
}
330
86247
100
AcDbXrecord
340
18
  0
XRECORD
  5
8624E
102
{ACAD_REACTORS
330
86247
102
}
330
86247
100
AcDbXrecord
340
E
  0
XRECORD
  5
86254
102
{ACAD_REACTORS
330
86247
102
}
330
86247
100
AcDbXrecord
 40
0.0
  0
XRECORD
  5
86258
102
{ACAD_REACTORS
330
86247
102
}
330
86247
100
AcDbXrecord
340
0
  0
XRECORD
  5
8625E
102
{ACAD_REACTORS
330
86247
102
}
330
86247
100
AcDbXrecord
 10
0.0
 20
0.0
 30
0.0
  0
XRECORD
  5
8625A
102
{ACAD_REACTORS
330
86247
102
}
330
86247
100
AcDbXrecord
 10
0.0
 20
0.0
 30
0.0
  0
XRECORD
  5
8625D
102
{ACAD_REACTORS
330
86247
102
}
330
86247
100
AcDbXrecord
 10
0.0
 20
0.0
 30
0.0
  0
XRECORD
  5
8625B
102
{ACAD_REACTORS
330
86247
102
}
330
86247
100
AcDbXrecord
 10
0.0
 20
0.0
 30
0.0
  0
XRECORD
  5
8625C
102
{ACAD_REACTORS
330
86247
102
}
330
86247
100
AcDbXrecord
 10
0.0
 20
0.0
 30
0.0
  0
XRECORD
  5
86259
102
{ACAD_REACTORS
330
86247
102
}
330
86247
100
AcDbXrecord
 10
0.0
 20
0.0
 30
0.0
  0
XRECORD
  5
86256
102
{ACAD_REACTORS
330
86247
102
}
330
86247
100
AcDbXrecord
340
0
  0
XRECORD
  5
86257
102
{ACAD_REACTORS
330
86247
102
}
330
86247
100
AcDbXrecord
 70
     0
  0
XRECORD
  5
8624B
102
{ACAD_REACTORS
330
86247
102
}
330
86247
100
AcDbXrecord
  1

  0
XRECORD
  5
86248
102
{ACAD_REACTORS
330
86247
102
}
330
86247
100
AcDbXrecord
 90
        1
  0
XRECORD
  5
86249
102
{ACAD_REACTORS
330
86247
102
}
330
86247
100
AcDbXrecord
 90
       70
  0
XRECORD
  5
86261
102
{ACAD_REACTORS
330
86247
102
}
330
86247
100
AcDbXrecord
340
0
  0
XRECORD
  5
86267
102
{ACAD_REACTORS
330
86247
102
}
330
86247
100
AcDbXrecord
 10
0.0
 20
0.0
 30
0.0
  0
XRECORD
  5
86263
102
{ACAD_REACTORS
330
86247
102
}
330
86247
100
AcDbXrecord
 10
0.0
 20
0.0
 30
0.0
  0
XRECORD
  5
86266
102
{ACAD_REACTORS
330
86247
102
}
330
86247
100
AcDbXrecord
 10
0.0
 20
0.0
 30
0.0
  0
XRECORD
  5
86264
102
{ACAD_REACTORS
330
86247
102
}
330
86247
100
AcDbXrecord
 10
0.0
 20
0.0
 30
0.0
  0
XRECORD
  5
86265
102
{ACAD_REACTORS
330
86247
102
}
330
86247
100
AcDbXrecord
 10
0.0
 20
0.0
 30
0.0
  0
XRECORD
  5
86262
102
{ACAD_REACTORS
330
86247
102
}
330
86247
100
AcDbXrecord
 10
0.0
 20
0.0
 30
0.0
  0
XRECORD
  5
8625F
102
{ACAD_REACTORS
330
86247
102
}
330
86247
100
AcDbXrecord
340
0
  0
XRECORD
  5
86260
102
{ACAD_REACTORS
330
86247
102
}
330
86247
100
AcDbXrecord
 70
     0
  0
XRECORD
  5
86253
102
{ACAD_REACTORS
330
86247
102
}
330
86247
100
AcDbXrecord
  1
{3263F955-1DD2-435D-8520-6780428A8A55}
  0
ENDSEC
  0
EOF
