  0
SECTION
  2
HEADER
  9
$ACADVER
  1
AC1009
  9
$INSBASE
 10
0.0
 20
0.0
 30
0.0
  9
$EXTMIN
 10
-1123.236134421393
 20
-752.23911612129996
 30
-0.0015258207003583
  9
$EXTMAX
 10
869.67262742505045
 20
577.96017107044645
 30
0.0000000349246037
  9
$LIMMIN
 10
117.6828356163423
 20
-915.03288551485105
  9
$LIMMAX
 10
11247.40327136001
 20
6321.4737363183158
  9
$ORTHOMODE
 70
     0
  9
$REGENMODE
 70
     1
  9
$FILLMODE
 70
     1
  9
$QTEXTMODE
 70
     0
  9
$MIRRTEXT
 70
     0
  9
$DRAGMODE
 70
     2
  9
$LTSCALE
 40
20.0
  9
$OSMODE
 70
    63
  9
$ATTMODE
 70
     1
  9
$TEXTSIZE
 40
64.0
  9
$TRACEWID
 40
0.05
  9
$TEXTSTYLE
  7
STANDARD
  9
$CLAYER
  8
SIZE
  9
$CELTYPE
  6
CONTINUOUS
  9
$CECOLOR
 62
   256
  9
$DIMSCALE
 40
1.0
  9
$DIMASZ
 40
10.0
  9
$DIMEXO
 40
20.0
  9
$DIMDLI
 40
200.0
  9
$DIMRND
 40
0.0
  9
$DIMDLE
 40
0.0
  9
$DIMEXE
 40
20.0
  9
$DIMTP
 40
0.0
  9
$DIMTM
 40
0.0
  9
$DIMTXT
 40
50.0
  9
$DIMCEN
 40
0.082
  9
$DIMTSZ
 40
0.0
  9
$DIMTOL
 70
     0
  9
$DIMLIM
 70
     0
  9
$DIMTIH
 70
     0
  9
$DIMTOH
 70
     0
  9
$DIMSE1
 70
     0
  9
$DIMSE2
 70
     0
  9
$DIMTAD
 70
     1
  9
$DIMZIN
 70
     8
  9
$DIMBLK
  1
ORIGIN
  9
$DIMASO
 70
     1
  9
$DIMSHO
 70
     0
  9
$DIMPOST
  1

  9
$DIMAPOST
  1

  9
$DIMALT
 70
     0
  9
$DIMALTD
 70
     2
  9
$DIMALTF
 40
25.399999999999999
  9
$DIMLFAC
 40
1.0
  9
$DIMTOFL
 70
     1
  9
$DIMTVP
 40
0.0
  9
$DIMTIX
 70
     0
  9
$DIMSOXD
 70
     0
  9
$DIMSAH
 70
     0
  9
$DIMBLK1
  1

  9
$DIMBLK2
  1

  9
$DIMSTYLE
  2
STANDARD
  9
$DIMCLRD
 70
     0
  9
$DIMCLRE
 70
     0
  9
$DIMCLRT
 70
     0
  9
$DIMTFAC
 40
1.0
  9
$DIMGAP
 40
10.0
  9
$LUNITS
 70
     2
  9
$LUPREC
 70
     4
  9
$SKETCHINC
 40
0.1
  9
$FILLETRAD
 40
5.0
  9
$AUNITS
 70
     1
  9
$AUPREC
 70
     3
  9
$MENU
  1
ACAD
  9
$ELEVATION
 40
0.0
  9
$PELEVATION
 40
0.0
  9
$THICKNESS
 40
0.0
  9
$LIMCHECK
 70
     0
  9
$BLIPMODE
 70
     0
  9
$CHAMFERA
 40
0.0
  9
$CHAMFERB
 40
0.0
  9
$SKPOLY
 70
     0
  9
$TDCREATE
 40
2450330.3932059952
  9
$TDUPDATE
 40
2452979.5645844089
  9
$TDINDWG
 40
0.4009649769
  9
$TDUSRTIMER
 40
0.4009649769
  9
$USRTIMER
 70
     1
  9
$ANGBASE
 50
0.0
  9
$ANGDIR
 70
     0
  9
$PDMODE
 70
     3
  9
$PDSIZE
 40
-2.0
  9
$PLINEWID
 40
0.0
  9
$COORDS
 70
     2
  9
$SPLFRAME
 70
     0
  9
$SPLINETYPE
 70
     6
  9
$SPLINESEGS
 70
     8
  9
$ATTDIA
 70
     0
  9
$ATTREQ
 70
     1
  9
$HANDLING
 70
-16383
  9
$HANDSEED
  5
7073
  9
$SURFTAB1
 70
     6
  9
$SURFTAB2
 70
     6
  9
$SURFTYPE
 70
     6
  9
$SURFU
 70
     6
  9
$SURFV
 70
     6
  9
$UCSNAME
  2

  9
$UCSORG
 10
0.0
 20
0.0
 30
0.0
  9
$UCSXDIR
 10
1.0
 20
0.0
 30
0.0
  9
$UCSYDIR
 10
0.0
 20
1.0
 30
0.0
  9
$PUCSNAME
  2

  9
$PUCSORG
 10
0.0
 20
0.0
 30
0.0
  9
$PUCSXDIR
 10
1.0
 20
0.0
 30
0.0
  9
$PUCSYDIR
 10
0.0
 20
1.0
 30
0.0
  9
$USERI1
 70
     0
  9
$USERI2
 70
     0
  9
$USERI3
 70
     0
  9
$USERI4
 70
     0
  9
$USERI5
 70
     0
  9
$USERR1
 40
20.0
  9
$USERR2
 40
0.0
  9
$USERR3
 40
0.0
  9
$USERR4
 40
0.0
  9
$USERR5
 40
0.0
  9
$WORLDVIEW
 70
     1
  9
$SHADEDGE
 70
     3
  9
$SHADEDIF
 70
    70
  9
$TILEMODE
 70
     1
  9
$MAXACTVP
 70
    64
  9
$PLIMCHECK
 70
     0
  9
$PEXTMIN
 10
1.0000000000000000E+020
 20
1.0000000000000000E+020
 30
1.0000000000000000E+020
  9
$PEXTMAX
 10
-1.0000000000000000E+020
 20
-1.0000000000000000E+020
 30
-1.0000000000000000E+020
  9
$PLIMMIN
 10
0.0
 20
0.0
  9
$PLIMMAX
 10
12.0
 20
9.0
  9
$UNITMODE
 70
     0
  9
$VISRETAIN
 70
     1
  9
$PLINEGEN
 70
     0
  9
$PSLTSCALE
 70
     1
  0
ENDSEC
  0
SECTION
  2
TABLES
  0
TABLE
  2
VPORT
 70
     2
  0
VPORT
  2
*ACTIVE
 70
     0
 10
0.0
 20
0.0
 11
1.0
 21
1.0
 12
-52.50907596758725
 22
-20.957636658682532
 13
0.0
 23
0.0
 14
50.0
 24
50.0
 15
100.0
 25
100.0
 16
0.0
 26
0.0
 36
1.0
 17
0.0
 27
0.0
 37
0.0
 40
2023.9617438570599
 41
1.2953367875647659
 42
50.0
 43
0.0
 44
0.0
 50
0.0
 51
0.0
 71
     0
 72
   500
 73
     1
 74
     0
 75
     0
 76
     0
 77
     0
 78
     0
  0
ENDTAB
  0
TABLE
  2
LTYPE
 70
    15
  0
LTYPE
  2
CONTINUOUS
 70
     0
  3
実線
 72
    65
 73
     0
 40
0.0
  0
LTYPE
  2
DASHDOT
 70
     0
  3
____ _ ____ _ ____ _ ____ _ ____ _ ____ _ ____
 72
    65
 73
     4
 40
5.5
 49
4.0
 49
-0.6
 49
0.3
 49
-0.6
  0
LTYPE
  2
CONTINOUS
 70
     0
  3
Solid line
 72
    65
 73
     0
 40
0.0
  0
LTYPE
  2
BORDER
 70
     0
  3
BORDER
 72
    65
 73
     6
 40
1.75
 49
0.5
 49
-0.25
 49
0.5
 49
-0.25
 49
0.0
 49
-0.25
  0
LTYPE
  2
CENTER
 70
     0
  3
CENTER
 72
    65
 73
     4
 40
2.0
 49
1.25
 49
-0.25
 49
0.25
 49
-0.25
  0
LTYPE
  2
DASHED
 70
     0
  3
DASHED
 72
    65
 73
     2
 40
0.75
 49
0.5
 49
-0.25
  0
LTYPE
  2
DIVIDE
 70
     0
  3
DIVIDE
 72
    65
 73
     6
 40
1.25
 49
0.5
 49
-0.25
 49
0.0
 49
-0.25
 49
0.0
 49
-0.25
  0
LTYPE
  2
DOT
 70
     0
  3
DOT
 72
    65
 73
     2
 40
0.25
 49
0.0
 49
-0.25
  0
LTYPE
  2
HIDDEN
 70
     0
  3
HIDDEN
 72
    65
 73
     2
 40
0.375
 49
0.25
 49
-0.125
  0
LTYPE
  2
PHANTOM
 70
     0
  3
PHANTOM
 72
    65
 73
     6
 40
2.5
 49
1.25
 49
-0.25
 49
0.25
 49
-0.25
 49
0.25
 49
-0.25
  0
LTYPE
  2
$INVISIBLE
 70
     0
  3
$INVISIBLE
 72
    65
 73
     2
 40
200.0
 49
-100.0
 49
-100.0
  0
LTYPE
  2
$MARGINS
 70
     0
  3
$MARGINS
 72
    65
 73
     2
 40
0.075
 49
0.05
 49
-0.025
  0
LTYPE
  2
JLSTYLE_0
 70
     0
  3
JLSTYLE_0
 72
    65
 73
     4
 40
1.0
 49
0.5
 49
-0.25
 49
0.0
 49
-0.25
  0
LTYPE
  2
JLSTYLE_1
 70
     0
  3
JLSTYLE_1
 72
    65
 73
     2
 40
0.75
 49
0.5
 49
-0.25
  0
LTYPE
  2
JLSTYLE_2
 70
     0
  3
JLSTYLE_2
 72
    65
 73
     6
 40
1.25
 49
0.5
 49
-0.25
 49
0.0
 49
-0.25
 49
0.0
 49
-0.25
  0
ENDTAB
  0
TABLE
  2
LAYER
 70
    14
  0
LAYER
  2
0
 70
     0
 62
     7
  6
CONTINUOUS
  0
LAYER
  2
SIZE
 70
     0
 62
    32
  6
CONTINUOUS
  0
LAYER
  2
DETAIL
 70
     0
 62
     5
  6
CONTINUOUS
  0
LAYER
  2
OUTLINE
 70
     0
 62
     3
  6
CONTINUOUS
  0
LAYER
  2
BASIS
 70
     0
 62
     6
  6
CONTINUOUS
  0
LAYER
  2
NOTE
 70
     0
 62
     4
  6
CONTINUOUS
  0
LAYER
  2
ARRANGE
 70
     0
 62
     1
  6
CONTINUOUS
  0
LAYER
  2
FIX
 70
     0
 62
   241
  6
CONTINUOUS
  0
LAYER
  2
ETC
 70
     0
 62
    83
  6
CONTINUOUS
  0
LAYER
  2
SERVICESPACE
 70
     0
 62
     2
  6
CONTINUOUS
  0
LAYER
  2
SYMBOLLINE
 70
     0
 62
    38
  6
CONTINUOUS
  0
LAYER
  2
DEFPOINTS
 70
     0
 62
     7
  6
CONTINUOUS
  0
LAYER
  2
SERVICE_SPACE
 70
     0
 62
     2
  6
CONTINUOUS
  0
LAYER
  2
16
 70
     0
 62
   150
  6
CONTINUOUS
  0
ENDTAB
  0
TABLE
  2
STYLE
 70
     2
  0
STYLE
  2
STANDARD
 70
     0
 40
0.0
 41
0.9
 50
0.0
 71
     0
 42
64.0
  3
SIMPLEX
  4
BIGFONT
  0
STYLE
  2
STANDARD1
 70
     0
 40
0.0
 41
1.0
 50
0.0
 71
     0
 42
3.5
  3
MONOTXT
  4
BIGFONT
  0
ENDTAB
  0
TABLE
  2
VIEW
 70
     1
  0
VIEW
  2
ALL
 70
     0
 40
4282.6199999999999
 10
0.0
 20
41.309903999999989
 41
5940.0
 11
0.0
 21
0.0
 31
1.0
 12
0.0
 22
0.0
 32
0.0
 42
50.0
 43
0.0
 44
0.0
 50
0.0
 71
     0
  0
ENDTAB
  0
TABLE
  2
UCS
 70
     0
  0
ENDTAB
  0
TABLE
  2
APPID
 70
     1
  0
APPID
  2
ACAD
 70
     0
  0
ENDTAB
  0
TABLE
  2
DIMSTYLE
 70
     1
  0
DIMSTYLE
  2
STANDARD
 70
     0
  3

  4

  5

  6

  7

 40
1.0
 41
0.18
 42
0.0625
 43
0.38
 44
0.18
 45
0.0
 46
0.0
 47
0.0
 48
0.0
140
0.18
141
0.09
142
0.0
143
25.399999999999999
144
1.0
145
0.0
146
1.0
147
0.09
 71
     0
 72
     0
 73
     1
 74
     1
 75
     0
 76
     0
 77
     0
 78
     0
170
     0
171
     2
172
     0
173
     0
174
     0
175
     0
176
     0
177
     0
178
     0
  0
ENDTAB
  0
ENDSEC
  0
SECTION
  2
BLOCKS
  0
BLOCK
  8
0
  2
$MODEL_SPACE
 70
     0
 10
0.0
 20
0.0
 30
0.0
  3
$MODEL_SPACE
  1

  0
ENDBLK
  5
20
  8
0
  0
BLOCK
 67
     1
  8
0
  2
$PAPER_SPACE
 70
     0
 10
0.0
 20
0.0
 30
0.0
  3
$PAPER_SPACE
  1

  0
ENDBLK
  5
1C
 67
     1
  8
0
  0
BLOCK
  8
0
  2
_ORIGIN
 70
     0
 10
0.0
 20
0.0
 30
0.0
  3
_ORIGIN
  1

  0
CIRCLE
  5
48
  8
0
  6
BYBLOCK
 62
     0
 10
0.0
 20
0.0
 30
0.0
 40
0.5
  0
LINE
  5
49
  8
0
  6
BYBLOCK
 62
     0
 10
0.0
 20
0.0
 30
0.0
 11
-1.0
 21
0.0
 31
0.0
  0
ENDBLK
  5
4A
  8
0
  0
BLOCK
  8
0
  2
_DOTBLANK
 70
     0
 10
0.0
 20
0.0
 30
0.0
  3
_DOTBLANK
  1

  0
CIRCLE
  5
CE8
  8
0
  6
BYBLOCK
 62
     0
 10
0.0
 20
0.0
 30
0.0
 40
0.5
  0
LINE
  5
CE9
  8
0
  6
BYBLOCK
 62
     0
 10
-0.5
 20
0.0
 30
0.0
 11
-1.0
 21
0.0
 31
0.0
  0
ENDBLK
  5
CEB
  8
0
  0
BLOCK
  8
0
  2
_NONE
 70
     0
 10
0.0
 20
0.0
 30
0.0
  3
_NONE
  1

  0
ENDBLK
  5
175C
  8
0
  0
ENDSEC
  0
SECTION
  2
ENTITIES
  0
POLYLINE
  5
65E5
  8
NOTE
  6
CONTINUOUS
 66
     1
 10
0.0
 20
0.0
 30
0.0
  0
VERTEX
  5
7053
  8
NOTE
  6
CONTINUOUS
 10
36.971953000000212
 20
-231.2667849999979
 30
0.0
  0
VERTEX
  5
7054
  8
NOTE
  6
CONTINUOUS
 10
0.0
 20
-215.9999999999981
 30
0.0
  0
VERTEX
  5
7055
  8
NOTE
  6
CONTINUOUS
 10
24.385258000000249
 20
-247.70739999999839
 30
0.0
  0
SEQEND
  5
7056
  8
NOTE
  6
CONTINUOUS
  0
POLYLINE
  5
65E6
  8
NOTE
  6
CONTINUOUS
 66
     1
 10
0.0
 20
0.0
 30
0.0
  0
VERTEX
  5
7057
  8
NOTE
  6
CONTINUOUS
 10
35.571787000000761
 20
-196.2933849999981
 30
0.0
  0
VERTEX
  5
7058
  8
NOTE
  6
CONTINUOUS
 10
0.0
 20
-177.9999999999981
 30
0.0
  0
VERTEX
  5
7059
  8
NOTE
  6
CONTINUOUS
 10
21.659379000000619
 20
-211.62842999999791
 30
0.0
  0
SEQEND
  5
705A
  8
NOTE
  6
CONTINUOUS
  0
POLYLINE
  5
65E7
  8
NOTE
  6
CONTINUOUS
 66
     1
 10
0.0
 20
0.0
 30
0.0
  0
VERTEX
  5
705B
  8
NOTE
  6
CONTINUOUS
 10
33.998742000001577
 20
-161.0733379999983
 30
0.0
  0
VERTEX
  5
705C
  8
NOTE
  6
CONTINUOUS
 10
0.0
 20
-139.9999999999981
 30
0.0
  0
VERTEX
  5
705D
  8
NOTE
  6
CONTINUOUS
 10
18.907105000000229
 20
-175.24941699999809
 30
0.0
  0
SEQEND
  5
705E
  8
NOTE
  6
CONTINUOUS
  0
CIRCLE
  5
65E8
  8
SIZE
  6
CONTINUOUS
 10
0.0
 20
271.48572800000193
 30
0.0
 40
6.0
  0
CIRCLE
  5
65E9
  8
SIZE
  6
CONTINUOUS
 10
0.0
 20
-444.88929799999818
 30
0.0
 40
6.0
  0
CIRCLE
  5
65EA
  8
SIZE
  6
CONTINUOUS
 10
0.0
 20
-561.62749299999814
 30
0.0
 40
6.0
  0
CIRCLE
  5
65EB
  8
SIZE
  6
CONTINUOUS
 10
0.0
 20
-721.80315599999813
 30
0.0
 40
6.0
  0
CIRCLE
  5
65EC
  8
SIZE
  6
CONTINUOUS
 10
0.0
 20
426.93184500000177
 30
0.0
 40
6.0
  0
LINE
  5
65ED
  8
SIZE
  6
BYBLOCK
 10
-205.0
 20
-235.9999999999981
 30
0.0
 11
446.8174580000013
 21
-235.9999999999981
 31
0.0
  0
LINE
  5
65EE
  8
SIZE
  6
BYBLOCK
 10
-142.0
 20
-191.9999999999981
 30
0.0
 11
311.09466600000081
 21
-191.9999999999981
 31
0.0
  0
TEXT
  5
65EF
  8
SIZE
  6
BYBLOCK
 10
-86.628570999999283
 20
303.48572800000193
 30
0.0
 40
64.0
  1
80
 41
0.9
  0
POINT
  5
65F0
  8
ARRANGE
  6
CONTINUOUS
 10
0.0
 20
0.000000000001819
 30
0.0
  0
LINE
  5
65F1
  8
NOTE
  6
CONTINUOUS
 10
20.0
 20
-215.9999999999981
 30
0.0
 11
-20.0
 21
-215.9999999999981
 31
0.0
  0
LINE
  5
65F2
  8
NOTE
  6
CONTINUOUS
 10
20.0
 20
-177.9999999999981
 30
0.0
 11
-20.0
 21
-177.9999999999981
 31
0.0
  0
LINE
  5
65F3
  8
NOTE
  6
CONTINUOUS
 10
20.0
 20
-139.9999999999981
 30
0.0
 11
-20.0
 21
-139.9999999999981
 31
0.0
  0
CIRCLE
  5
65F4
  8
ARRANGE
  6
CONTINUOUS
 10
0.0
 20
0.000000000001819
 30
0.0
 40
40.0
  0
LINE
  5
65F5
  8
NOTE
  6
CONTINUOUS
 10
0.0
 20
-177.9999999999981
 30
0.0
 11
257.50673300000011
 21
-409.33993299999833
 31
0.0
  0
LINE
  5
65F6
  8
NOTE
  6
CONTINUOUS
 10
0.0
 20
-215.9999999999981
 30
0.0
 11
257.50673300000011
 21
-409.33993299999833
 31
0.0
  0
LINE
  5
65F7
  8
NOTE
  6
CONTINUOUS
 10
0.0
 20
-139.9999999999981
 30
0.0
 11
257.50673300000011
 21
-409.33993299999833
 31
0.0
  0
LINE
  5
65F8
  8
NOTE
  6
CONTINUOUS
 10
-80.0
 20
-1.478991999998015
 30
0.0
 11
35.332242000000399
 21
89.611802000001717
 31
0.0
  0
LINE
  5
65F9
  8
NOTE
  6
CONTINUOUS
 10
-182.0
 20
-191.9999999999981
 30
0.0
 11
30.42429900000025
 21
230.7231930000016
 31
0.0
  0
POLYLINE
  5
65FA
  8
NOTE
  6
CONTINUOUS
 66
     1
 10
0.0
 20
0.0
 30
0.0
  0
VERTEX
  5
705F
  8
NOTE
  6
CONTINUOUS
 10
-427.32882399999829
 20
21.801446000001761
 30
0.0
  0
VERTEX
  5
7060
  8
NOTE
  6
CONTINUOUS
 10
-399.9895489999999
 20
-7.3972529999982717
 30
0.0
  0
VERTEX
  5
7061
  8
NOTE
  6
CONTINUOUS
 10
-409.06670699999808
 20
31.559200000001962
 30
0.0
  0
SEQEND
  5
7062
  8
NOTE
  6
CONTINUOUS
  0
POLYLINE
  5
65FB
  8
NOTE
  6
CONTINUOUS
 66
     1
 10
0.0
 20
0.0
 30
0.0
  0
VERTEX
  5
7063
  8
NOTE
  6
CONTINUOUS
 10
-56.987125999999989
 20
31.250300000001971
 30
0.0
  0
VERTEX
  5
7064
  8
NOTE
  6
CONTINUOUS
 10
-79.999730999999883
 20
-1.4669739999981171
 30
0.0
  0
VERTEX
  5
7065
  8
NOTE
  6
CONTINUOUS
 10
-43.711593999998513
 20
15.36071400000173
 30
0.0
  0
SEQEND
  5
7066
  8
NOTE
  6
CONTINUOUS
  0
LINE
  5
65FC
  8
SIZE
  6
BYBLOCK
 10
-680.0
 20
-20.999999999998181
 30
0.0
 11
-680.0
 21
456.93184500000177
 31
0.0
  0
LINE
  5
65FD
  8
SIZE
  6
BYBLOCK
 10
-680.0
 20
-20.999999999998181
 30
0.0
 11
-680.0
 21
298.10483900000179
 31
0.0
  0
LINE
  5
65FE
  8
SIZE
  6
BYBLOCK
 10
-664.0
 20
-20.999999999998181
 30
0.0
 11
-664.0
 21
132.3964380000015
 31
0.0
  0
LINE
  5
65FF
  8
SIZE
  6
BYBLOCK
 10
-680.0
 20
-20.999999999998181
 30
0.0
 11
-680.0
 21
132.3964380000015
 31
0.0
  0
CIRCLE
  5
6600
  8
FIX
  6
CONTINUOUS
 10
-80.0
 20
-1.4839799999981551
 30
0.0
 40
5.0
  0
LINE
  5
6601
  8
NOTE
  6
CONTINUOUS
 10
-80.0
 20
18.521008000001981
 30
0.0
 11
-80.0
 21
-21.478991999998009
 31
0.0
  0
LINE
  5
6602
  8
NOTE
  6
CONTINUOUS
 10
-400.0
 20
12.60504200000196
 30
0.0
 11
-400.0
 21
-27.394957999998041
 31
0.0
  0
LINE
  5
6604
  8
NOTE
  6
CONTINUOUS
 10
-400.0
 20
-7.3949579999980406
 30
0.0
 11
-442.343918999999
 21
76.655291000001853
 31
0.0
  0
LINE
  5
6605
  8
NOTE
  6
CONTINUOUS
 10
-198.0
 20
-191.9999999999981
 30
0.0
 11
-521.62055899999905
 21
489.51153800000162
 31
0.0
  0
LINE
  5
6606
  8
SIZE
  6
BYBLOCK
 10
-274.0
 20
-280.99999999999812
 30
0.0
 11
-1056.4519999999991
 21
-280.99999999999812
 31
0.0
  0
LINE
  5
6607
  8
SIZE
  6
BYBLOCK
 10
-633.0
 20
-10.999999999998179
 30
0.0
 11
-1056.4519999999991
 21
-10.999999999998179
 31
0.0
  0
TEXT
  5
6608
  8
SIZE
  6
BYBLOCK
 10
-912.66470499999912
 20
-188.0714289999982
 30
0.0
 40
64.0
  1
217
 50
90.0
 41
0.9
  0
TEXT
  5
6609
  8
SIZE
  6
BYBLOCK
 10
-1058.4519999999991
 20
-220.05714299999809
 30
0.0
 40
64.0
  1
270
 50
90.0
 41
0.9
  0
LINE
  5
660A
  8
SIZE
  6
BYBLOCK
 10
-1026.4519999999991
 20
-12.999999999998179
 30
0.0
 11
-1026.4519999999991
 21
-278.99999999999812
 31
0.0
  0
CIRCLE
  5
660B
  8
SIZE
  6
CONTINUOUS
 10
-1026.4519999999991
 20
-280.99999999999812
 30
0.0
 40
6.0
  0
CIRCLE
  5
660C
  8
SIZE
  6
CONTINUOUS
 10
-1026.4519999999991
 20
-10.999999999998179
 30
0.0
 40
6.0
  0
TEXT
  5
660D
  8
SIZE
  6
BYBLOCK
 10
-196.55714299999809
 20
-689.80315599999813
 30
0.0
 40
64.0
  1
245
 41
0.9
  0
LINE
  5
660E
  8
SIZE
  6
BYBLOCK
 10
-245.0
 20
-275.99999999999818
 30
0.0
 11
-245.0
 21
-751.80315599999813
 31
0.0
  0
LINE
  5
660F
  8
SIZE
  6
BYBLOCK
 10
0.0
 20
-300.99999999999818
 30
0.0
 11
0.0
 21
-751.80315599999813
 31
0.0
  0
LINE
  5
6610
  8
SIZE
  6
BYBLOCK
 10
-2.0
 20
-721.80315599999813
 30
0.0
 11
-243.0
 21
-721.80315599999813
 31
0.0
  0
CIRCLE
  5
6611
  8
SIZE
  6
CONTINUOUS
 10
-245.0
 20
-721.80315599999813
 30
0.0
 40
6.0
  0
LINE
  5
6614
  8
DETAIL
  6
CONTINUOUS
 10
0.0
 20
-40.999999999998181
 30
0.0
 11
-680.0
 21
-40.999999999998181
 31
0.0
  0
LINE
  5
6615
  8
DETAIL
  6
CONTINUOUS
 10
0.0
 20
-227.99999999999821
 30
0.0
 11
-680.0
 21
-227.99999999999821
 31
0.0
  0
LINE
  5
6616
  8
DETAIL
  6
CONTINUOUS
 10
-254.0
 20
-280.99999999999812
 30
0.0
 11
-680.0
 21
-227.99999999999821
 31
0.0
  0
LINE
  5
6617
  8
NOTE
  6
CONTINUOUS
 10
-678.4978349999983
 20
-421.90044599999823
 30
0.0
 11
-399.94361499999832
 21
-421.90044599999823
 31
0.0
  0
TEXT
  5
6618
  8
NOTE
  6
CONTINUOUS
 10
-678.28664787637535
 20
-405.78751999999798
 30
0.0
 40
64.0
  1
D %%c26
 41
0.9
  0
LINE
  5
6619
  8
DETAIL
  6
CONTINUOUS
 10
-593.0
 20
-10.999999999998179
 30
0.0
 11
0.0
 21
0.000000000001819
 31
0.0
  0
LINE
  5
661A
  8
SIZE
  6
BYBLOCK
 10
-613.0
 20
-10.999999999998179
 30
0.0
 11
-910.66470499999923
 21
-10.999999999998179
 31
0.0
  0
LINE
  5
661B
  8
SIZE
  6
BYBLOCK
 10
-880.66470499999934
 20
-225.99999999999821
 30
0.0
 11
-880.66470499999934
 21
-12.999999999998179
 31
0.0
  0
LINE
  5
661C
  8
SIZE
  6
BYBLOCK
 10
-700.0
 20
-227.99999999999821
 30
0.0
 11
-910.66470499999923
 21
-227.99999999999821
 31
0.0
  0
CIRCLE
  5
661D
  8
SIZE
  6
CONTINUOUS
 10
-880.66470499999934
 20
-227.99999999999821
 30
0.0
 40
6.0
  0
CIRCLE
  5
661E
  8
SIZE
  6
CONTINUOUS
 10
-880.66470499999934
 20
-10.999999999998179
 30
0.0
 40
6.0
  0
LINE
  5
6620
  8
DETAIL
  6
CONTINUOUS
 10
-680.0
 20
-40.999999999998181
 30
0.0
 11
-680.0
 21
-227.99999999999821
 31
0.0
  0
LINE
  5
6622
  8
DETAIL
  6
CONTINUOUS
 10
-664.0
 20
-40.999999999998181
 30
0.0
 11
-593.0
 21
-10.999999999998179
 31
0.0
  0
LINE
  5
6624
  8
SIZE
  6
BYBLOCK
 10
-198.0
 20
-231.99999999999821
 30
0.0
 11
-198.0
 21
-591.62749299999814
 31
0.0
  0
LINE
  5
6625
  8
SIZE
  6
BYBLOCK
 10
0.0
 20
-300.99999999999818
 30
0.0
 11
0.0
 21
-591.62749299999814
 31
0.0
  0
LINE
  5
6626
  8
SIZE
  6
BYBLOCK
 10
-182.0
 20
-231.99999999999821
 30
0.0
 11
-182.0
 21
-474.88929799999818
 31
0.0
  0
LINE
  5
6627
  8
SIZE
  6
BYBLOCK
 10
0.0
 20
-300.99999999999818
 30
0.0
 11
0.0
 21
-474.88929799999818
 31
0.0
  0
LINE
  5
6628
  8
NOTE
  6
CONTINUOUS
 10
-245.0
 20
-235.9999999999981
 30
0.0
 11
-399.94361499999832
 21
-421.90044599999823
 31
0.0
  0
TEXT
  5
6629
  8
SIZE
  6
BYBLOCK
 10
-167.5714289999996
 20
-529.62749299999814
 30
0.0
 40
64.0
  1
198
 41
0.9
  0
LINE
  5
662A
  8
SIZE
  6
BYBLOCK
 10
-2.0
 20
-561.62749299999814
 30
0.0
 11
-196.0
 21
-561.62749299999814
 31
0.0
  0
CIRCLE
  5
662B
  8
SIZE
  6
CONTINUOUS
 10
-198.0
 20
-561.62749299999814
 30
0.0
 40
6.0
  0
TEXT
  5
662C
  8
SIZE
  6
BYBLOCK
 10
-159.5714289999996
 20
-412.88929799999818
 30
0.0
 40
64.0
  1
182
 41
0.9
  0
LINE
  5
662D
  8
SIZE
  6
BYBLOCK
 10
-2.0
 20
-444.88929799999818
 30
0.0
 11
-180.0
 21
-444.88929799999818
 31
0.0
  0
CIRCLE
  5
662E
  8
SIZE
  6
CONTINUOUS
 10
-182.0
 20
-444.88929799999818
 30
0.0
 40
6.0
  0
LINE
  5
6631
  8
NOTE
  6
CONTINUOUS
 10
-225.0
 20
-235.9999999999981
 30
0.0
 11
-265.0
 21
-235.9999999999981
 31
0.0
  0
LINE
  5
6632
  8
DETAIL
  6
CONTINUOUS
 10
0.0
 20
-280.99999999999812
 30
0.0
 11
-241.0
 21
-280.99999999999812
 31
0.0
  0
LINE
  5
6633
  8
DETAIL
  6
CONTINUOUS
 10
-254.0
 20
-280.99999999999812
 30
0.0
 11
0.0
 21
-280.99999999999812
 31
0.0
  0
POLYLINE
  5
6634
  8
NOTE
  6
CONTINUOUS
 66
     1
 10
0.0
 20
0.0
 30
0.0
  0
VERTEX
  5
7067
  8
NOTE
  6
CONTINUOUS
 10
-261.43976699999979
 20
-272.46551899999798
 30
0.0
  0
VERTEX
  5
7068
  8
NOTE
  6
CONTINUOUS
 10
-245.0
 20
-235.9999999999981
 30
0.0
  0
VERTEX
  5
7069
  8
NOTE
  6
CONTINUOUS
 10
-277.47001499999891
 20
-259.36018199999802
 30
0.0
  0
SEQEND
  5
706A
  8
NOTE
  6
CONTINUOUS
  0
LINE
  5
6635
  8
NOTE
  6
CONTINUOUS
 10
-245.0
 20
-215.9999999999981
 30
0.0
 11
-245.0
 21
-255.9999999999981
 31
0.0
  0
LINE
  5
6636
  8
NOTE
  6
CONTINUOUS
 10
-380.0
 20
-7.3949579999980406
 30
0.0
 11
-420.0
 21
-7.3949579999980406
 31
0.0
  0
CIRCLE
  5
6637
  8
FIX
  6
CONTINUOUS
 10
-400.0
 20
-7.4198989999981668
 30
0.0
 40
5.0
  0
POLYLINE
  5
6638
  8
NOTE
  6
CONTINUOUS
 66
     1
 10
0.0
 20
0.0
 30
0.0
  0
VERTEX
  5
706B
  8
NOTE
  6
CONTINUOUS
 10
-223.94401299999839
 20
-161.5548329999983
 30
0.0
  0
VERTEX
  5
706C
  8
NOTE
  6
CONTINUOUS
 10
-198.0
 20
-191.9999999999981
 30
0.0
  0
VERTEX
  5
706D
  8
NOTE
  6
CONTINUOUS
 10
-205.24559099999891
 20
-152.66170599999799
 30
0.0
  0
SEQEND
  5
706E
  8
NOTE
  6
CONTINUOUS
  0
POLYLINE
  5
6639
  8
NOTE
  6
CONTINUOUS
 66
     1
 10
0.0
 20
0.0
 30
0.0
  0
VERTEX
  5
706F
  8
NOTE
  6
CONTINUOUS
 10
-174.1516709999996
 20
-152.77750999999799
 30
0.0
  0
VERTEX
  5
7070
  8
NOTE
  6
CONTINUOUS
 10
-182.0
 20
-191.9999999999981
 30
0.0
  0
VERTEX
  5
7071
  8
NOTE
  6
CONTINUOUS
 10
-155.59190299999861
 20
-161.95649199999841
 30
0.0
  0
SEQEND
  5
7072
  8
NOTE
  6
CONTINUOUS
  0
LINE
  5
663B
  8
NOTE
  6
CONTINUOUS
 10
0.0
 20
-157.9999999999981
 30
0.0
 11
0.0
 21
-197.9999999999981
 31
0.0
  0
LINE
  5
663C
  8
DETAIL
  6
CONTINUOUS
 10
0.0
 20
-280.99999999999812
 30
0.0
 11
0.0
 21
0.000000000001819
 31
0.0
  0
LINE
  5
663D
  8
NOTE
  6
CONTINUOUS
 10
-162.0
 20
-191.9999999999981
 30
0.0
 11
-202.0
 21
-191.9999999999981
 31
0.0
  0
LINE
  5
663E
  8
NOTE
  6
CONTINUOUS
 10
-182.0
 20
-171.9999999999981
 30
0.0
 11
-182.0
 21
-211.9999999999981
 31
0.0
  0
LINE
  5
663F
  8
NOTE
  6
CONTINUOUS
 10
-198.0
 20
-171.9999999999981
 30
0.0
 11
-198.0
 21
-211.9999999999981
 31
0.0
  0
LINE
  5
6640
  8
NOTE
  6
CONTINUOUS
 10
-178.0
 20
-191.9999999999981
 30
0.0
 11
-218.0
 21
-191.9999999999981
 31
0.0
  0
LINE
  5
6641
  8
NOTE
  6
CONTINUOUS
 10
0.0
 20
-195.9999999999981
 30
0.0
 11
0.0
 21
-235.9999999999981
 31
0.0
  0
LINE
  5
6642
  8
NOTE
  6
CONTINUOUS
 10
0.0
 20
-119.9999999999981
 30
0.0
 11
0.0
 21
-159.9999999999981
 31
0.0
  0
LINE
  5
6643
  8
NOTE
  6
CONTINUOUS
 10
-60.0
 20
-1.478991999998015
 30
0.0
 11
-100.0
 21
-1.478991999998015
 31
0.0
  0
LINE
  5
6644
  8
NOTE
  6
CONTINUOUS
 10
-521.62055899999905
 20
489.51153800000162
 30
0.0
 11
-1004.855999999999
 21
489.51153800000162
 31
0.0
  0
TEXT
  5
6645
  8
NOTE
  6
CONTINUOUS
 10
-977.34521299999858
 20
513.49344000000201
 30
0.0
 40
64.0
  1
RG %%c15.88
 41
0.9
  0
LINE
  5
6646
  8
SIZE
  6
BYBLOCK
 10
-2.0
 20
426.93184500000177
 30
0.0
 11
-678.0
 21
426.93184500000177
 31
0.0
  0
TEXT
  5
6647
  8
NOTE
  6
CONTINUOUS
 10
-555.52312299999903
 20
99.290713000001688
 30
0.0
 40
64.0
  1
AH
 41
0.9
  0
LINE
  5
6648
  8
NOTE
  6
CONTINUOUS
 10
-572.50000399999954
 20
76.655291000001853
 30
0.0
 11
-442.343918999999
 21
76.655291000001853
 31
0.0
  0
TEXT
  5
6649
  8
SIZE
  6
BYBLOCK
 10
-775.92039407723314
 20
300.10483900000179
 30
0.0
 40
64.0
  1
87
 41
0.9
  0
TEXT
  5
664A
  8
SIZE
  6
BYBLOCK
 10
-775.03860202341446
 20
134.3964380000015
 30
0.0
 40
64.0
  1
16
 41
0.9
  0
LINE
  5
664B
  8
SIZE
  6
BYBLOCK
 10
-593.0
 20
9.0000000000018172
 30
0.0
 11
-593.0
 21
298.10483900000179
 31
0.0
  0
CIRCLE
  5
664C
  8
SIZE
  6
CONTINUOUS
 10
-664.0
 20
102.3964380000015
 30
0.0
 40
6.0
  0
CIRCLE
  5
664D
  8
SIZE
  6
CONTINUOUS
 10
-680.0
 20
102.3964380000015
 30
0.0
 40
6.0
  0
LINE
  5
664E
  8
SIZE
  6
BYBLOCK
 10
-664.0
 20
102.3964380000015
 30
0.0
 11
-795.50077230697195
 21
102.3964380000015
 31
0.0
  0
LINE
  5
664F
  8
SIZE
  6
BYBLOCK
 10
-682.0
 20
102.3964380000015
 30
0.0
 11
-684.0
 21
102.3964380000015
 31
0.0
  0
LINE
  5
6650
  8
SIZE
  6
BYBLOCK
 10
-662.0
 20
102.3964380000015
 30
0.0
 11
-660.0
 21
102.3964380000015
 31
0.0
  0
LINE
  5
6651
  8
SIZE
  6
BYBLOCK
 10
-593.0
 20
268.1048390000019
 30
0.0
 11
-782.83642149788636
 21
268.1048390000019
 31
0.0
  0
CIRCLE
  5
6652
  8
SIZE
  6
CONTINUOUS
 10
-680.0
 20
268.1048390000019
 30
0.0
 40
6.0
  0
LINE
  5
6653
  8
SIZE
  6
BYBLOCK
 10
-682.0
 20
268.1048390000019
 30
0.0
 11
-684.0
 21
268.1048390000019
 31
0.0
  0
CIRCLE
  5
6654
  8
SIZE
  6
CONTINUOUS
 10
-593.0
 20
268.1048390000019
 30
0.0
 40
6.0
  0
LINE
  5
6655
  8
SIZE
  6
BYBLOCK
 10
-591.0
 20
268.1048390000019
 30
0.0
 11
-589.0
 21
268.1048390000019
 31
0.0
  0
CIRCLE
  5
6656
  8
SIZE
  6
CONTINUOUS
 10
-680.0
 20
426.93184500000177
 30
0.0
 40
6.0
  0
LINE
  5
6657
  8
SIZE
  6
BYBLOCK
 10
0.0
 20
20.000000000001819
 30
0.0
 11
0.0
 21
456.93184500000177
 31
0.0
  0
TEXT
  5
6658
  8
SIZE
  6
BYBLOCK
 10
-314.05714299999812
 20
303.48572800000193
 30
0.0
 40
64.0
  1
320
 41
0.9
  0
LINE
  5
6659
  8
SIZE
  6
BYBLOCK
 10
-82.0
 20
271.48572800000193
 30
0.0
 11
-398.0
 21
271.48572800000193
 31
0.0
  0
LINE
  5
665A
  8
SIZE
  6
BYBLOCK
 10
-400.0
 20
32.605042000001959
 30
0.0
 11
-400.0
 21
301.48572800000193
 31
0.0
  0
CIRCLE
  5
665B
  8
SIZE
  6
CONTINUOUS
 10
-400.0
 20
271.48572800000193
 30
0.0
 40
6.0
  0
LINE
  5
665C
  8
SIZE
  6
BYBLOCK
 10
-80.0
 20
38.521008000001977
 30
0.0
 11
-80.0
 21
301.48572800000193
 31
0.0
  0
LINE
  5
665D
  8
SIZE
  6
BYBLOCK
 10
0.0
 20
20.000000000001819
 30
0.0
 11
0.0
 21
301.48572800000193
 31
0.0
  0
LINE
  5
665E
  8
SIZE
  6
BYBLOCK
 10
-80.0
 20
38.521008000001977
 30
0.0
 11
-80.0
 21
301.48572800000193
 31
0.0
  0
LINE
  5
665F
  8
SIZE
  6
BYBLOCK
 10
-80.0
 20
271.48572800000193
 30
0.0
 11
0.0
 21
271.48572800000193
 31
0.0
  0
CIRCLE
  5
6660
  8
SIZE
  6
CONTINUOUS
 10
-80.0
 20
271.48572800000193
 30
0.0
 40
6.0
  0
CIRCLE
  5
6661
  8
SIZE
  6
CONTINUOUS
 10
-80.0
 20
271.48572800000193
 30
0.0
 40
6.0
  0
LINE
  5
6662
  8
SIZE
  6
BYBLOCK
 10
-82.0
 20
271.48572800000193
 30
0.0
 11
-84.0
 21
271.48572800000193
 31
0.0
  0
TEXT
  5
6663
  8
SIZE
  6
BYBLOCK
 10
-414.05714299999812
 20
458.93184500000189
 30
0.0
 40
64.0
  1
680
 41
0.9
  0
CIRCLE
  5
6664
  8
SIZE
  6
CONTINUOUS
 10
687.14865400000053
 20
0.000000000001819
 30
0.0
 40
6.0
  0
CIRCLE
  5
6665
  8
SIZE
  6
CONTINUOUS
 10
558.2037820000005
 20
0.000000000001819
 30
0.0
 40
6.0
  0
CIRCLE
  5
6666
  8
SIZE
  6
CONTINUOUS
 10
281.09466600000081
 20
0.000000000001819
 30
0.0
 40
6.0
  0
CIRCLE
  5
6667
  8
SIZE
  6
CONTINUOUS
 10
416.8174580000013
 20
0.000000000001819
 30
0.0
 40
6.0
  0
TEXT
  5
6668
  8
SIZE
  6
BYBLOCK
 10
526.2037820000005
 20
-202.214285999998
 30
0.0
 40
64.0
  1
281
 50
90.0
 41
0.9
  0
LINE
  5
6669
  8
SIZE
  6
BYBLOCK
 10
20.0
 20
0.000000000001819
 30
0.0
 11
588.2037820000005
 21
0.000000000001819
 31
0.0
  0
LINE
  5
666A
  8
SIZE
  6
BYBLOCK
 10
20.0
 20
-280.99999999999812
 30
0.0
 11
588.2037820000005
 21
-280.99999999999812
 31
0.0
  0
LINE
  5
666B
  8
SIZE
  6
BYBLOCK
 10
40.0
 20
-139.9999999999981
 30
0.0
 11
717.14865400000053
 21
-139.9999999999981
 31
0.0
  0
LINE
  5
666C
  8
SIZE
  6
BYBLOCK
 10
20.0
 20
0.000000000001819
 30
0.0
 11
717.14865400000053
 21
0.000000000001819
 31
0.0
  0
LINE
  5
666D
  8
SIZE
  6
BYBLOCK
 10
20.0
 20
-177.9999999999981
 30
0.0
 11
868.87259300000005
 21
-177.9999999999981
 31
0.0
  0
LINE
  5
666E
  8
SIZE
  6
BYBLOCK
 10
20.0
 20
-139.9999999999981
 30
0.0
 11
868.87259300000005
 21
-139.9999999999981
 31
0.0
  0
LINE
  5
666F
  8
SIZE
  6
BYBLOCK
 10
20.0
 20
-215.9999999999981
 30
0.0
 11
739.05392900000152
 21
-215.9999999999981
 31
0.0
  0
LINE
  5
6670
  8
SIZE
  6
BYBLOCK
 10
40.0
 20
-177.9999999999981
 30
0.0
 11
739.05392900000152
 21
-177.9999999999981
 31
0.0
  0
LINE
  5
6671
  8
NOTE
  6
CONTINUOUS
 10
257.50673300000011
 20
-409.33993299999833
 30
0.0
 11
586.14097600000059
 21
-409.33993299999833
 31
0.0
  0
TEXT
  5
6672
  8
NOTE
  6
CONTINUOUS
 10
284.00083400000028
 20
-386.47966699999819
 30
0.0
 40
64.0
  1
EL %%c27
 41
0.9
  0
LINE
  5
6673
  8
SIZE
  6
BYBLOCK
 10
20.0
 20
0.000000000001819
 30
0.0
 11
446.8174580000013
 21
0.000000000001819
 31
0.0
  0
TEXT
  5
6674
  8
SIZE
  6
BYBLOCK
 10
249.09466600000081
 20
-164.5714289999982
 30
0.0
 40
64.0
  1
192
 50
90.0
 41
0.9
  0
LINE
  5
6675
  8
SIZE
  6
BYBLOCK
 10
20.0
 20
0.000000000001819
 30
0.0
 11
311.09466600000081
 21
0.000000000001819
 31
0.0
  0
TEXT
  5
6676
  8
SIZE
  6
BYBLOCK
 10
384.8174580000013
 20
-190.68571399999831
 30
0.0
 40
64.0
  1
236
 50
90.0
 41
0.9
  0
LINE
  5
6677
  8
SIZE
  6
BYBLOCK
 10
416.8174580000013
 20
-1.999999999998181
 30
0.0
 11
416.8174580000013
 21
-233.9999999999981
 31
0.0
  0
LINE
  5
6678
  8
SIZE
  6
BYBLOCK
 10
281.09466600000081
 20
-189.9999999999981
 30
0.0
 11
281.09466600000081
 21
-1.999999999998181
 31
0.0
  0
CIRCLE
  5
6679
  8
SIZE
  6
CONTINUOUS
 10
281.09466600000081
 20
-191.9999999999981
 30
0.0
 40
6.0
  0
CIRCLE
  5
667A
  8
SIZE
  6
CONTINUOUS
 10
416.8174580000013
 20
-235.9999999999981
 30
0.0
 40
6.0
  0
LINE
  5
667B
  8
SIZE
  6
BYBLOCK
 10
558.2037820000005
 20
-278.99999999999812
 30
0.0
 11
558.2037820000005
 21
-1.999999999998181
 31
0.0
  0
TEXT
  5
667C
  8
SIZE
  6
BYBLOCK
 10
677.05392900000152
 20
-322.7542048387167
 30
0.0
 40
64.0
  1
38
 50
90.0
 41
0.9
  0
CIRCLE
  5
667D
  8
SIZE
  6
CONTINUOUS
 10
558.2037820000005
 20
-280.99999999999812
 30
0.0
 40
6.0
  0
TEXT
  5
667E
  8
SIZE
  6
BYBLOCK
 10
655.14865400000053
 20
-138.5714289999982
 30
0.0
 40
64.0
  1
140
 50
90.0
 41
0.9
  0
LINE
  5
667F
  8
SIZE
  6
BYBLOCK
 10
687.14865400000053
 20
-1.999999999998181
 30
0.0
 11
687.14865400000053
 21
-137.9999999999981
 31
0.0
  0
CIRCLE
  5
6680
  8
SIZE
  6
CONTINUOUS
 10
687.14865400000053
 20
-139.9999999999981
 30
0.0
 40
6.0
  0
TEXT
  5
6681
  8
SIZE
  6
BYBLOCK
 10
806.87259300000005
 20
-328.44794620371061
 30
0.0
 40
64.0
  1
38
 50
90.0
 41
0.9
  0
LINE
  5
6682
  8
SIZE
  6
BYBLOCK
 10
838.87259300000005
 20
-333.38121929792942
 30
0.0
 11
838.87259300000005
 21
-139.9999999999981
 31
0.0
  0
CIRCLE
  5
6683
  8
SIZE
  6
CONTINUOUS
 10
709.05392900000152
 20
-215.9999999999981
 30
0.0
 40
6.0
  0
CIRCLE
  5
6684
  8
SIZE
  6
CONTINUOUS
 10
709.05392900000152
 20
-177.9999999999981
 30
0.0
 40
6.0
  0
LINE
  5
6685
  8
SIZE
  6
BYBLOCK
 10
709.05392900000152
 20
-337.49227716595669
 30
0.0
 11
709.05392900000152
 21
-177.9999999999981
 31
0.0
  0
LINE
  5
6686
  8
SIZE
  6
BYBLOCK
 10
709.05392900000152
 20
-175.9999999999981
 30
0.0
 11
709.05392900000152
 21
-173.9999999999981
 31
0.0
  0
LINE
  5
6687
  8
SIZE
  6
BYBLOCK
 10
709.05392900000152
 20
-217.9999999999981
 30
0.0
 11
709.05392900000152
 21
-219.9999999999981
 31
0.0
  0
CIRCLE
  5
6688
  8
SIZE
  6
CONTINUOUS
 10
838.87259300000005
 20
-177.9999999999981
 30
0.0
 40
6.0
  0
LINE
  5
6689
  8
SIZE
  6
BYBLOCK
 10
838.87259300000005
 20
-179.9999999999981
 30
0.0
 11
838.87259300000005
 21
-181.9999999999981
 31
0.0
  0
CIRCLE
  5
668A
  8
SIZE
  6
CONTINUOUS
 10
838.87259300000005
 20
-139.9999999999981
 30
0.0
 40
6.0
  0
LINE
  5
668B
  8
SIZE
  6
BYBLOCK
 10
838.87259300000005
 20
-137.9999999999981
 30
0.0
 11
838.87259300000005
 21
-135.9999999999981
 31
0.0
  0
TEXT
  5
668C
  8
ETC
  6
CONTINUOUS
 10
342.97306600000041
 20
454.57974100000177
 30
0.0
 40
64.0
  1
PAC
 41
0.9
  0
TEXT
  5
668D
  8
NOTE
  6
CONTINUOUS
 10
52.309122000000571
 20
112.24722400000149
 30
0.0
 40
64.0
  1
AH 4-%%c10
 41
0.9
  0
LINE
  5
668E
  8
NOTE
  6
CONTINUOUS
 10
35.332242000000399
 20
89.611802000001717
 30
0.0
 11
491.99912900000157
 21
89.611802000001717
 31
0.0
  0
TEXT
  5
668F
  8
ETC
  6
CONTINUOUS
 10
342.97306600000041
 20
342.98970500000172
 30
0.0
 40
64.0
  1
SPCF2664
 41
0.9
  0
LINE
  5
6690
  8
NOTE
  6
CONTINUOUS
 10
432.37595900000082
 20
230.7231930000016
 30
0.0
 11
30.42429900000025
 21
230.7231930000016
 31
0.0
  0
TEXT
  5
6691
  8
NOTE
  6
CONTINUOUS
 10
44.194720000001332
 20
246.46114600000189
 30
0.0
 40
64.0
  1
RL %%c9.52
 41
0.9
  0
LINE
  5
6692
  8
SIZE
  6
BYBLOCK
 10
2.0
 20
271.48572800000193
 30
0.0
 11
4.0
 21
271.48572800000193
 31
0.0
  0
LINE
  5
6FE7
  8
OUTLINE
  6
CONTINUOUS
 10
-593.0
 20
-11.0
 30
0.0
 11
0.0
 21
0.0
 31
0.0
  0
LINE
  5
6FE8
  8
OUTLINE
  6
CONTINUOUS
 10
-254.0
 20
-281.0
 30
0.0
 11
-680.0
 21
-228.0
 31
0.0
  0
LINE
  5
7002
  8
OUTLINE
  6
CONTINUOUS
 10
-680.0
 20
-41.0
 30
0.0
 11
-680.0
 21
-228.0
 31
0.0
  0
LINE
  5
7003
  8
OUTLINE
  6
CONTINUOUS
 10
-664.0
 20
-41.0
 30
0.0
 11
-593.0
 21
-11.0
 31
0.0
  0
LINE
  5
7004
  8
OUTLINE
  6
CONTINUOUS
 10
0.0
 20
-281.0
 30
0.0
 11
0.0
 21
0.0
 31
0.0
  0
LINE
  5
7005
  8
OUTLINE
  6
CONTINUOUS
 10
-254.0
 20
-281.0
 30
0.0
 11
0.0
 21
-281.0
 31
0.0
  0
LINE
  5
7006
  8
OUTLINE
  6
CONTINUOUS
 10
0.0
 20
-281.0
 30
0.0
 11
-241.0
 21
-281.0
 31
0.0
  0
LINE
  5
7008
  8
OUTLINE
  6
CONTINUOUS
 10
-664.0
 20
-41.0
 30
0.0
 11
-680.0
 21
-41.0
 31
0.0
  0
ENDSEC
  0
EOF
