  0
SECTION
  2
HEADER
  9
$ACADVER
  1
AC1014
  9
$ACADMAINTVER
 70
     9
  9
$DWGCODEPAGE
  3
ANSI_932
  9
$INSBASE
 10
0.0
 20
0.0
 30
0.0
  9
$EXTMIN
 10
-1394.765840081787
 20
-1330.963
 30
0.0
  9
$EXTMAX
 10
1489.553
 20
481.528574
 30
0.0
  9
$LIMMIN
 10
-6425.768467696831
 20
-5966.642460987593
  9
$LIMMAX
 10
10113.08384347792
 20
5093.734920345017
  9
$ORTHOMODE
 70
     1
  9
$REGENMODE
 70
     0
  9
$FILLMODE
 70
     1
  9
$QTEXTMODE
 70
     0
  9
$MIRRTEXT
 70
     0
  9
$DRAGMODE
 70
     2
  9
$LTSCALE
 40
20.0
  9
$OSMODE
 70
    37
  9
$ATTMODE
 70
     1
  9
$TEXTSIZE
 40
64.0
  9
$TRACEWID
 40
0.05
  9
$TEXTSTYLE
  7
STANDARD
  9
$CLAYER
  8
0
  9
$CELTYPE
  6
CONTINUOUS
  9
$CECOLOR
 62
     1
  9
$CELTSCALE
 40
1.0
  9
$DELOBJ
 70
     1
  9
$DISPSILH
 70
     0
  9
$DIMSCALE
 40
1.0
  9
$DIMASZ
 40
2.0
  9
$DIMEXO
 40
20.0
  9
$DIMDLI
 40
200.0
  9
$DIMRND
 40
0.0
  9
$DIMDLE
 40
0.0
  9
$DIMEXE
 40
30.0
  9
$DIMTP
 40
0.0
  9
$DIMTM
 40
0.0
  9
$DIMTXT
 40
64.0
  9
$DIMCEN
 40
0.09
  9
$DIMTSZ
 40
0.0
  9
$DIMTOL
 70
     0
  9
$DIMLIM
 70
     0
  9
$DIMTIH
 70
     0
  9
$DIMTOH
 70
     0
  9
$DIMSE1
 70
     0
  9
$DIMSE2
 70
     0
  9
$DIMTAD
 70
     1
  9
$DIMZIN
 70
     8
  9
$DIMBLK
  1

  9
$DIMASO
 70
     1
  9
$DIMSHO
 70
     0
  9
$DIMPOST
  1

  9
$DIMAPOST
  1

  9
$DIMALT
 70
     0
  9
$DIMALTD
 70
     2
  9
$DIMALTF
 40
25.4
  9
$DIMLFAC
 40
1.0
  9
$DIMTOFL
 70
     1
  9
$DIMTVP
 40
0.0
  9
$DIMTIX
 70
     1
  9
$DIMSOXD
 70
     0
  9
$DIMSAH
 70
     0
  9
$DIMBLK1
  1

  9
$DIMBLK2
  1

  9
$DIMSTYLE
  2
STANDARD
  9
$DIMCLRD
 70
     0
  9
$DIMCLRE
 70
     0
  9
$DIMCLRT
 70
     0
  9
$DIMTFAC
 40
1.0
  9
$DIMGAP
 40
0.09
  9
$DIMJUST
 70
     0
  9
$DIMSD1
 70
     0
  9
$DIMSD2
 70
     0
  9
$DIMTOLJ
 70
     1
  9
$DIMTZIN
 70
     0
  9
$DIMALTZ
 70
     0
  9
$DIMALTTZ
 70
     0
  9
$DIMFIT
 70
     3
  9
$DIMUPT
 70
     0
  9
$DIMUNIT
 70
     2
  9
$DIMDEC
 70
     4
  9
$DIMTDEC
 70
     4
  9
$DIMALTU
 70
     2
  9
$DIMALTTD
 70
     2
  9
$DIMTXSTY
  7
STANDARD
  9
$DIMAUNIT
 70
     0
  9
$LUNITS
 70
     2
  9
$LUPREC
 70
     4
  9
$SKETCHINC
 40
0.1
  9
$FILLETRAD
 40
0.0
  9
$AUNITS
 70
     1
  9
$AUPREC
 70
     3
  9
$MENU
  1
ACAD
  9
$ELEVATION
 40
0.0
  9
$PELEVATION
 40
0.0
  9
$THICKNESS
 40
0.0
  9
$LIMCHECK
 70
     1
  9
$BLIPMODE
 70
     0
  9
$CHAMFERA
 40
0.0
  9
$CHAMFERB
 40
0.0
  9
$CHAMFERC
 40
0.0
  9
$CHAMFERD
 40
0.0
  9
$SKPOLY
 70
     0
  9
$TDCREATE
 40
2450737.648472002
  9
$TDUPDATE
 40
2454077.480659896
  9
$TDINDWG
 40
0.1528258333
  9
$TDUSRTIMER
 40
0.1528256481
  9
$USRTIMER
 70
     1
  9
$ANGBASE
 50
0.0
  9
$ANGDIR
 70
     0
  9
$PDMODE
 70
     3
  9
$PDSIZE
 40
-2.0
  9
$PLINEWID
 40
0.0
  9
$COORDS
 70
     2
  9
$SPLFRAME
 70
     0
  9
$SPLINETYPE
 70
     6
  9
$SPLINESEGS
 70
     8
  9
$ATTDIA
 70
     0
  9
$ATTREQ
 70
     1
  9
$HANDLING
 70
 10241
  9
$HANDSEED
  5
1DF
  9
$SURFTAB1
 70
     6
  9
$SURFTAB2
 70
     6
  9
$SURFTYPE
 70
     6
  9
$SURFU
 70
     6
  9
$SURFV
 70
     6
  9
$UCSNAME
  2

  9
$UCSORG
 10
0.0
 20
0.0
 30
0.0
  9
$UCSXDIR
 10
1.0
 20
0.0
 30
0.0
  9
$UCSYDIR
 10
0.0
 20
1.0
 30
0.0
  9
$PUCSNAME
  2

  9
$PUCSORG
 10
0.0
 20
0.0
 30
0.0
  9
$PUCSXDIR
 10
1.0
 20
0.0
 30
0.0
  9
$PUCSYDIR
 10
0.0
 20
1.0
 30
0.0
  9
$USERI1
 70
     0
  9
$USERI2
 70
     0
  9
$USERI3
 70
     0
  9
$USERI4
 70
     0
  9
$USERI5
 70
     0
  9
$USERR1
 40
20.0
  9
$USERR2
 40
0.0
  9
$USERR3
 40
0.0
  9
$USERR4
 40
0.0
  9
$USERR5
 40
0.0
  9
$WORLDVIEW
 70
     1
  9
$SHADEDGE
 70
     3
  9
$SHADEDIF
 70
    70
  9
$TILEMODE
 70
     1
  9
$MAXACTVP
 70
    64
  9
$PINSBASE
 10
0.0
 20
0.0
 30
0.0
  9
$PLIMCHECK
 70
     0
  9
$PEXTMIN
 10
1.000000000000000E+20
 20
1.000000000000000E+20
 30
1.000000000000000E+20
  9
$PEXTMAX
 10
-1.000000000000000E+20
 20
-1.000000000000000E+20
 30
-1.000000000000000E+20
  9
$PLIMMIN
 10
0.0
 20
0.0
  9
$PLIMMAX
 10
12.0
 20
9.0
  9
$UNITMODE
 70
     0
  9
$VISRETAIN
 70
     1
  9
$PLINEGEN
 70
     0
  9
$PSLTSCALE
 70
     1
  9
$TREEDEPTH
 70
  3020
  9
$PICKSTYLE
 70
     1
  9
$CMLSTYLE
  2
STANDARD
  9
$CMLJUST
 70
     0
  9
$CMLSCALE
 40
1.0
  9
$PROXYGRAPHICS
 70
     1
  9
$MEASUREMENT
 70
     0
  0
ENDSEC
  0
SECTION
  2
CLASSES
  0
CLASS
  1
ACDBDICTIONARYWDFLT
  2
AcDbDictionaryWithDefault
  3
AutoCAD 2000
 90
        0
280
     0
281
     0
  0
CLASS
  1
ACDBPLACEHOLDER
  2
AcDbPlaceHolder
  3
AutoCAD 2000
 90
        0
280
     0
281
     0
  0
CLASS
  1
LAYOUT
  2
AcDbLayout
  3
AutoCAD 2000
 90
        0
280
     0
281
     0
  0
CLASS
  1
LONG_TRANSACTION
  2
AcDbLongTransaction
  3
AutoCAD 2000
 90
        0
280
     0
281
     0
  0
CLASS
  1
LWPOLYLINE
  2
AcDbPolyline
  3
AutoCAD 2000
 90
        0
280
     0
281
     1
  0
CLASS
  1
HATCH
  2
AcDbHatch
  3
AutoCAD 2000
 90
        0
280
     0
281
     1
  0
CLASS
  1
XRECORD
  2
AcDbXrecord
  3
AutoCAD 2000
 90
        0
280
     0
281
     0
  0
ENDSEC
  0
SECTION
  2
TABLES
  0
TABLE
  2
VPORT
  5
8
330
0
100
AcDbSymbolTable
 70
     2
  0
VPORT
  5
1BA
330
8
100
AcDbSymbolTableRecord
100
AcDbViewportTableRecord
  2
*ACTIVE
 70
     0
 10
0.0
 20
0.0
 11
1.0
 21
1.0
 12
635.6348542741068
 22
-324.1416311418997
 13
0.0
 23
0.0
 14
400.0
 24
400.0
 15
400.0
 25
400.0
 16
0.0
 26
0.0
 36
1.0
 17
0.0
 27
0.0
 37
0.0
 40
2760.878450357257
 41
1.635574837310195
 42
50.0
 43
0.0
 44
0.0
 50
0.0
 51
0.0
 71
     0
 72
  1000
 73
     1
 74
     0
 75
     0
 76
     0
 77
     0
 78
     0
  0
ENDTAB
  0
TABLE
  2
LTYPE
  5
5
330
0
100
AcDbSymbolTable
 70
     7
  0
LTYPE
  5
13
330
5
100
AcDbSymbolTableRecord
100
AcDbLinetypeTableRecord
  2
BYBLOCK
 70
     0
  3

 72
    65
 73
     0
 40
0.0
  0
LTYPE
  5
14
330
5
100
AcDbSymbolTableRecord
100
AcDbLinetypeTableRecord
  2
BYLAYER
 70
     0
  3

 72
    65
 73
     0
 40
0.0
  0
LTYPE
  5
15
330
5
100
AcDbSymbolTableRecord
100
AcDbLinetypeTableRecord
  2
CONTINUOUS
 70
     0
  3
実線
 72
    65
 73
     0
 40
0.0
  0
LTYPE
  5
22
330
5
100
AcDbSymbolTableRecord
100
AcDbLinetypeTableRecord
  2
DASHDOT
 70
     0
  3
____ _ ____ _ ____ _ ____ _ ____ _ ____ _ ____
 72
    65
 73
     4
 40
5.5
 49
4.0
 74
     0
 49
-0.6
 74
     0
 49
0.3
 74
     0
 49
-0.6
 74
     0
  0
LTYPE
  5
23
330
5
100
AcDbSymbolTableRecord
100
AcDbLinetypeTableRecord
  2
DASHED
 70
     0
  3
_ _ _ _ _ _ _ _ _ _ _ _ _ _ _ _ _ _ _ _ _ _ _
 72
    65
 73
     2
 40
2.0
 49
1.199999999999999
 74
     0
 49
-0.8
 74
     0
  0
LTYPE
  5
24
330
5
100
AcDbSymbolTableRecord
100
AcDbLinetypeTableRecord
  2
DOT
 70
     0
  3
...............................................
 72
    65
 73
     2
 40
0.8
 49
0.5
 74
     0
 49
-0.3
 74
     0
  0
LTYPE
  5
25
330
5
100
AcDbSymbolTableRecord
100
AcDbLinetypeTableRecord
  2
DASHDOT1
 70
     0
  3
____ _ ____ _ ____ _ ____ _ ____ _ ____ _ ____
 72
    65
 73
     4
 40
2.0
 49
1.5
 74
     0
 49
-0.2
 74
     0
 49
0.1
 74
     0
 49
-0.2
 74
     0
  0
LTYPE
  5
26
330
5
100
AcDbSymbolTableRecord
100
AcDbLinetypeTableRecord
  2
DIVIDE
 70
     0
  3
_____ _ _ _____ _ _ _____ _ _ _____ _ _ ____
 72
    65
 73
     6
 40
6.4
 49
4.0
 74
     0
 49
-0.6
 74
     0
 49
0.3
 74
     0
 49
-0.6
 74
     0
 49
0.3
 74
     0
 49
-0.6
 74
     0
  0
LTYPE
  5
27
330
5
100
AcDbSymbolTableRecord
100
AcDbLinetypeTableRecord
  2
DIVIDE1
 70
     0
  3
_____ _ _ _____ _ _ _____ _ _ _____ _ _ ____
 72
    65
 73
     6
 40
3.2
 49
2.0
 74
     0
 49
-0.3
 74
     0
 49
0.15
 74
     0
 49
-0.3
 74
     0
 49
0.15
 74
     0
 49
-0.3
 74
     0
  0
ENDTAB
  0
TABLE
  2
LAYER
  5
2
330
0
100
AcDbSymbolTable
 70
    12
  0
LAYER
  5
10
330
2
100
AcDbSymbolTableRecord
100
AcDbLayerTableRecord
  2
0
 70
     0
 62
     7
  6
CONTINUOUS
  0
LAYER
  5
28
330
2
100
AcDbSymbolTableRecord
100
AcDbLayerTableRecord
  2
OUTLINE
 70
     0
 62
     3
  6
CONTINUOUS
  0
LAYER
  5
29
330
2
100
AcDbSymbolTableRecord
100
AcDbLayerTableRecord
  2
DETAIL
 70
     0
 62
     5
  6
CONTINUOUS
  0
LAYER
  5
2A
330
2
100
AcDbSymbolTableRecord
100
AcDbLayerTableRecord
  2
BASIS
 70
     0
 62
     6
  6
CONTINUOUS
  0
LAYER
  5
2B
330
2
100
AcDbSymbolTableRecord
100
AcDbLayerTableRecord
  2
NOTE
 70
     0
 62
     4
  6
CONTINUOUS
  0
LAYER
  5
2C
330
2
100
AcDbSymbolTableRecord
100
AcDbLayerTableRecord
  2
DEFPOINTS
 70
     0
 62
     7
  6
CONTINUOUS
  0
LAYER
  5
2D
330
2
100
AcDbSymbolTableRecord
100
AcDbLayerTableRecord
  2
SIZE
 70
     0
 62
    32
  6
CONTINUOUS
  0
LAYER
  5
2E
330
2
100
AcDbSymbolTableRecord
100
AcDbLayerTableRecord
  2
ARRANGE
 70
     0
 62
     1
  6
CONTINUOUS
  0
LAYER
  5
2F
330
2
100
AcDbSymbolTableRecord
100
AcDbLayerTableRecord
  2
FIX
 70
     0
 62
   241
  6
CONTINUOUS
  0
LAYER
  5
30
330
2
100
AcDbSymbolTableRecord
100
AcDbLayerTableRecord
  2
ETC
 70
     0
 62
    83
  6
CONTINUOUS
  0
LAYER
  5
31
330
2
100
AcDbSymbolTableRecord
100
AcDbLayerTableRecord
  2
SERVICESPACE
 70
     0
 62
     2
  6
CONTINUOUS
  0
LAYER
  5
32
330
2
100
AcDbSymbolTableRecord
100
AcDbLayerTableRecord
  2
SYMBOLLINE
 70
     0
 62
    38
  6
CONTINUOUS
  0
ENDTAB
  0
TABLE
  2
STYLE
  5
3
330
0
100
AcDbSymbolTable
 70
     1
  0
STYLE
  5
11
330
3
100
AcDbSymbolTableRecord
100
AcDbTextStyleTableRecord
  2
STANDARD
 70
     0
 40
0.0
 41
0.9
 50
0.0
 71
     0
 42
64.0
  3
SIMPLEX
  4
BIGFONT
  0
ENDTAB
  0
TABLE
  2
VIEW
  5
6
330
0
100
AcDbSymbolTable
 70
     1
  0
VIEW
  5
33
330
6
100
AcDbSymbolTableRecord
100
AcDbViewTableRecord
  2
ALL
 70
     0
 40
4508.021
 10
0.0
 20
41.30990399999999
 41
6252.632
 11
0.0
 21
0.0
 31
1.0
 12
0.0
 22
0.0
 32
0.0
 42
50.0
 43
0.0
 44
0.0
 50
0.0
 71
     0
  0
ENDTAB
  0
TABLE
  2
UCS
  5
7
330
0
100
AcDbSymbolTable
 70
     0
  0
ENDTAB
  0
TABLE
  2
APPID
  5
9
330
0
100
AcDbSymbolTable
 70
     1
  0
APPID
  5
12
330
9
100
AcDbSymbolTableRecord
100
AcDbRegAppTableRecord
  2
ACAD
 70
     0
  0
ENDTAB
  0
TABLE
  2
DIMSTYLE
  5
A
330
0
100
AcDbSymbolTable
 70
     1
  0
DIMSTYLE
105
1B8
330
A
100
AcDbSymbolTableRecord
100
AcDbDimStyleTableRecord
  2
STANDARD
 70
     0
  3

  4

  5

  6

  7

 40
1.0
 41
0.18
 42
0.0625
 43
0.38
 44
0.18
 45
0.0
 46
0.0
 47
0.0
 48
0.0
140
0.18
141
0.09
142
0.0
143
25.4
144
1.0
145
0.0
146
1.0
147
0.09
 71
     0
 72
     0
 73
     1
 74
     1
 75
     0
 76
     0
 77
     0
 78
     0
170
     0
171
     2
172
     0
173
     0
174
     0
175
     0
176
     0
177
     0
178
     0
270
     2
271
     4
272
     4
273
     2
274
     2
340
11
275
     0
280
     0
281
     0
282
     0
283
     1
284
     0
285
     0
286
     0
287
     3
288
     0
  0
ENDTAB
  0
TABLE
  2
BLOCK_RECORD
  5
1
330
0
100
AcDbSymbolTable
 70
     3
  0
BLOCK_RECORD
  5
1E
102
{ACAD_XDICTIONARY
360
1DD
102
}
330
1
100
AcDbSymbolTableRecord
100
AcDbBlockTableRecord
  2
*MODEL_SPACE
  0
BLOCK_RECORD
  5
1A
102
{ACAD_XDICTIONARY
360
1DB
102
}
330
1
100
AcDbSymbolTableRecord
100
AcDbBlockTableRecord
  2
*PAPER_SPACE
  0
BLOCK_RECORD
  5
37
330
1
100
AcDbSymbolTableRecord
100
AcDbBlockTableRecord
  2
$MODEL_SPACE
  0
BLOCK_RECORD
  5
3A
330
1
100
AcDbSymbolTableRecord
100
AcDbBlockTableRecord
  2
$PAPER_SPACE
  0
BLOCK_RECORD
  5
3D
330
1
100
AcDbSymbolTableRecord
100
AcDbBlockTableRecord
  2
A$C4C9A7C4E
  0
ENDTAB
  0
ENDSEC
  0
SECTION
  2
BLOCKS
  0
BLOCK
  5
1F
330
1E
100
AcDbEntity
  8
0
100
AcDbBlockBegin
  2
*MODEL_SPACE
 70
     0
 10
0.0
 20
0.0
 30
0.0
  3
*MODEL_SPACE
  1

  0
ENDBLK
  5
20
330
1E
100
AcDbEntity
  8
0
100
AcDbBlockEnd
  0
BLOCK
  5
1B
330
1A
100
AcDbEntity
 67
     1
  8
0
100
AcDbBlockBegin
  2
*PAPER_SPACE
 70
     0
 10
0.0
 20
0.0
 30
0.0
  3
*PAPER_SPACE
  1

  0
ENDBLK
  5
1C
330
1A
100
AcDbEntity
 67
     1
  8
0
100
AcDbBlockEnd
  0
BLOCK
  5
38
330
37
100
AcDbEntity
  8
0
100
AcDbBlockBegin
  2
$MODEL_SPACE
 70
     0
 10
0.0
 20
0.0
 30
0.0
  3
$MODEL_SPACE
  1

  0
ENDBLK
  5
39
330
37
100
AcDbEntity
  8
0
100
AcDbBlockEnd
  0
BLOCK
  5
3B
330
3A
100
AcDbEntity
  8
0
100
AcDbBlockBegin
  2
$PAPER_SPACE
 70
     0
 10
0.0
 20
0.0
 30
0.0
  3
$PAPER_SPACE
  1

  0
ENDBLK
  5
3C
330
3A
100
AcDbEntity
  8
0
100
AcDbBlockEnd
  0
BLOCK
  5
3E
330
3D
100
AcDbEntity
  8
0
 62
     1
100
AcDbBlockBegin
  2
A$C4C9A7C4E
 70
     0
 10
0.0
 20
0.0
 30
0.0
  3
A$C4C9A7C4E
  1

  0
TEXT
  5
3F
330
3D
100
AcDbEntity
  8
SIZE
  6
BYBLOCK
100
AcDbText
 10
1057.612999041217
 20
195.6697495547124
 30
0.0
 40
64.0
  1
1370
 41
0.9
100
AcDbText
  0
LINE
  5
40
330
3D
100
AcDbEntity
  8
SIZE
  6
BYBLOCK
100
AcDbLine
 10
470.6129990412172
 20
163.6697495547124
 30
0.0
 11
1836.612999041216
 21
163.6697495547124
 31
0.0
  0
TEXT
  5
41
330
3D
100
AcDbEntity
  8
SIZE
  6
BYBLOCK
100
AcDbText
 10
1057.612999041217
 20
61.99999755471242
 30
0.0
 40
64.0
  1
1520
 41
0.9
100
AcDbText
  0
LINE
  5
42
330
3D
100
AcDbEntity
  8
SIZE
  6
BYBLOCK
100
AcDbLine
 10
395.6129990412172
 20
29.99999755471241
 30
0.0
 11
1911.612999041216
 21
29.99999755471241
 31
0.0
  0
TEXT
  5
43
330
3D
100
AcDbEntity
  8
SIZE
  6
BYBLOCK
100
AcDbText
 10
1056.241570041217
 20
914.7208305547124
 30
0.0
 40
64.0
  1
1564
 41
0.9
100
AcDbText
  0
LINE
  5
44
330
3D
100
AcDbEntity
  8
SIZE
  6
BYBLOCK
100
AcDbLine
 10
373.6129990412172
 20
882.7208305547125
 30
0.0
 11
1933.612999041216
 21
882.7208305547125
 31
0.0
  0
TEXT
  5
45
330
3D
100
AcDbEntity
  8
SIZE
  6
BYBLOCK
100
AcDbText
 10
1057.612999041217
 20
1043.781280554712
 30
0.0
 40
64.0
  1
1608
 41
0.9
100
AcDbText
  0
LINE
  5
46
330
3D
100
AcDbEntity
  8
SIZE
  6
BYBLOCK
100
AcDbLine
 10
351.6129990412173
 20
1011.781280554712
 30
0.0
 11
1955.612999041216
 21
1011.781280554712
 31
0.0
  0
LINE
  5
47
330
3D
100
AcDbEntity
  8
OUTLINE
  6
CONTINUOUS
100
AcDbLine
 10
393.6129990412172
 20
448.5372275547123
 30
0.0
 11
1913.612999041216
 21
448.5372275547123
 31
0.0
  0
LINE
  5
48
330
3D
100
AcDbEntity
  8
OUTLINE
  6
CONTINUOUS
100
AcDbLine
 10
393.6129990412172
 20
728.5372275547123
 30
0.0
 11
1913.612999041216
 21
728.5372275547123
 31
0.0
  0
LINE
  5
49
330
3D
100
AcDbEntity
  8
DETAIL
  6
CONTINUOUS
100
AcDbLine
 10
933.6129990412173
 20
596.5372275547125
 30
0.0
 11
1373.612999041217
 21
596.5372275547125
 31
0.0
  0
LINE
  5
4A
330
3D
100
AcDbEntity
  8
DETAIL
  6
CONTINUOUS
100
AcDbLine
 10
933.6129990412173
 20
546.5372275547125
 30
0.0
 11
1373.612999041217
 21
546.5372275547125
 31
0.0
  0
LINE
  5
4B
330
3D
100
AcDbEntity
  8
DETAIL
  6
CONTINUOUS
100
AcDbLine
 10
468.6129990412172
 20
516.5372275547126
 30
0.0
 11
1838.612999041217
 21
516.5372275547126
 31
0.0
  0
LINE
  5
4C
330
3D
100
AcDbEntity
  8
DETAIL
  6
CONTINUOUS
100
AcDbLine
 10
468.6129990412172
 20
626.5372275547125
 30
0.0
 11
1838.612999041217
 21
626.5372275547125
 31
0.0
  0
LINE
  5
4D
330
3D
100
AcDbEntity
  8
DETAIL
  6
CONTINUOUS
100
AcDbLine
 10
393.6129990412172
 20
485.5372275547123
 30
0.0
 11
1913.612999041216
 21
485.5372275547123
 31
0.0
  0
LINE
  5
4E
330
3D
100
AcDbEntity
  8
DETAIL
  6
CONTINUOUS
100
AcDbLine
 10
393.6129990412172
 20
485.5372275547123
 30
0.0
 11
1913.612999041216
 21
485.5372275547123
 31
0.0
  0
LINE
  5
4F
330
3D
100
AcDbEntity
  8
DETAIL
  6
CONTINUOUS
100
AcDbLine
 10
393.6129990412172
 20
653.5372275547125
 30
0.0
 11
1913.612999041216
 21
653.5372275547125
 31
0.0
  0
LINE
  5
50
330
3D
100
AcDbEntity
  8
DETAIL
  6
CONTINUOUS
100
AcDbLine
 10
393.6129990412172
 20
448.5372275547123
 30
0.0
 11
1913.612999041216
 21
448.5372275547123
 31
0.0
  0
CIRCLE
  5
51
330
3D
100
AcDbEntity
  8
ARRANGE
  6
CONTINUOUS
100
AcDbCircle
 10
1153.612999041217
 20
728.5372275547123
 30
0.0
 40
40.0
  0
LINE
  5
52
330
3D
100
AcDbEntity
  8
DETAIL
  6
CONTINUOUS
100
AcDbLine
 10
393.6129990412172
 20
728.5372275547123
 30
0.0
 11
1913.612999041216
 21
728.5372275547123
 31
0.0
  0
POINT
  5
53
330
3D
100
AcDbEntity
  8
ARRANGE
  6
CONTINUOUS
100
AcDbPoint
 10
1153.612999041217
 20
728.5372275547123
 30
0.0
  0
CIRCLE
  5
54
330
3D
100
AcDbEntity
  8
SIZE
  6
CONTINUOUS
100
AcDbCircle
 10
264.9994000412172
 20
728.5372275547123
 30
0.0
 40
6.0
  0
LINE
  5
55
330
3D
100
AcDbEntity
  8
SIZE
  6
BYBLOCK
100
AcDbLine
 10
371.6129990412172
 20
725.5372275547123
 30
0.0
 11
371.6129990412172
 21
912.7208305547124
 31
0.0
  0
LINE
  5
56
330
3D
100
AcDbEntity
  8
SIZE
  6
BYBLOCK
100
AcDbLine
 10
349.6129990412172
 20
703.0372275547125
 30
0.0
 11
349.6129990412172
 21
1041.781280554712
 31
0.0
  0
LINE
  5
57
330
3D
100
AcDbEntity
  8
NOTE
  6
CONTINUOUS
100
AcDbLine
 10
371.6129990412172
 20
685.5372275547125
 30
0.0
 11
221.5373830412172
 21
860.5098355547124
 31
0.0
  0
LINE
  5
58
330
3D
100
AcDbEntity
  8
BASIS
  6
DASHDOT
100
AcDbLine
 10
1153.612999041217
 20
343.4325195547124
 30
0.0
 11
1153.612999041217
 21
845.8464155547124
 31
0.0
  0
TEXT
  5
59
330
3D
100
AcDbEntity
  8
SIZE
  6
BYBLOCK
100
AcDbText
 10
232.9994000412172
 20
506.9800845547123
 30
0.0
 40
64.0
  1
295
 50
90.0
 41
0.9
100
AcDbText
  0
LINE
  5
5A
330
3D
100
AcDbEntity
  8
SIZE
  6
BYBLOCK
100
AcDbLine
 10
393.6129990412172
 20
415.5372275547123
 30
0.0
 11
393.6129990412172
 21
-0.0000024452875778
 31
0.0
  0
CIRCLE
  5
5B
330
3D
100
AcDbEntity
  8
SIZE
  6
CONTINUOUS
100
AcDbCircle
 10
393.6129990412172
 20
29.99999755471241
 30
0.0
 40
6.0
  0
LINE
  5
5C
330
3D
100
AcDbEntity
  8
DETAIL
  6
CONTINUOUS
100
AcDbLine
 10
468.6129990412172
 20
546.5372275547125
 30
0.0
 11
908.6129990412173
 21
546.5372275547125
 31
0.0
  0
LINE
  5
5D
330
3D
100
AcDbEntity
  8
DETAIL
  6
CONTINUOUS
100
AcDbLine
 10
468.6129990412172
 20
596.5372275547125
 30
0.0
 11
908.6129990412173
 21
596.5372275547125
 31
0.0
  0
LINE
  5
5E
330
3D
100
AcDbEntity
  8
DETAIL
  6
CONTINUOUS
100
AcDbLine
 10
393.6129990412172
 20
433.5372275547124
 30
0.0
 11
753.6129990412172
 21
433.5372275547124
 31
0.0
  0
LINE
  5
5F
330
3D
100
AcDbEntity
  8
SIZE
  6
BYBLOCK
100
AcDbLine
 10
468.6129990412172
 20
496.5372275547124
 30
0.0
 11
468.6129990412172
 21
133.6697495547124
 31
0.0
  0
CIRCLE
  5
60
330
3D
100
AcDbEntity
  8
SIZE
  6
CONTINUOUS
100
AcDbCircle
 10
468.6129990412172
 20
163.6697495547124
 30
0.0
 40
6.0
  0
LINE
  5
61
330
3D
100
AcDbEntity
  8
SIZE
  6
BYBLOCK
100
AcDbLine
 10
264.9994000412172
 20
726.5372275547123
 30
0.0
 11
264.9994000412172
 21
435.5372275547123
 31
0.0
  0
LINE
  5
62
330
3D
100
AcDbEntity
  8
OUTLINE
  6
CONTINUOUS
100
AcDbLine
 10
393.6129990412172
 20
448.5372275547123
 30
0.0
 11
393.6129990412172
 21
728.5372275547123
 31
0.0
  0
LINE
  5
63
330
3D
100
AcDbEntity
  8
DETAIL
  6
CONTINUOUS
100
AcDbLine
 10
393.6129990412172
 20
433.5372275547124
 30
0.0
 11
393.6129990412172
 21
728.5372275547123
 31
0.0
  0
LINE
  5
64
330
3D
100
AcDbEntity
  8
SIZE
  6
BYBLOCK
100
AcDbLine
 10
373.6129990412172
 20
433.5372275547124
 30
0.0
 11
234.9994000412172
 21
433.5372275547124
 31
0.0
  0
CIRCLE
  5
65
330
3D
100
AcDbEntity
  8
SIZE
  6
CONTINUOUS
100
AcDbCircle
 10
264.9994000412172
 20
433.5372275547124
 30
0.0
 40
6.0
  0
LWPOLYLINE
  5
66
330
3D
100
AcDbEntity
  8
NOTE
  6
CONTINUOUS
100
AcDbPolyline
 90
        3
 70
     0
 43
0.0
 10
339.6743450412172
 20
709.6188045547124
 10
371.6129990412172
 20
685.5372275547125
 10
355.9941020412172
 20
722.3618125547123
  0
LINE
  5
6B
330
3D
100
AcDbEntity
  8
SIZE
  6
BYBLOCK
100
AcDbLine
 10
373.6129990412172
 20
728.5372275547123
 30
0.0
 11
234.9994000412172
 21
728.5372275547123
 31
0.0
  0
LINE
  5
6C
330
3D
100
AcDbEntity
  8
NOTE
  6
CONTINUOUS
100
AcDbLine
 10
351.6129990412173
 20
685.5372275547125
 30
0.0
 11
391.6129990412173
 21
685.5372275547125
 31
0.0
  0
LINE
  5
6D
330
3D
100
AcDbEntity
  8
NOTE
  6
CONTINUOUS
100
AcDbLine
 10
371.6129990412172
 20
665.5372275547125
 30
0.0
 11
371.6129990412172
 21
705.5372275547125
 31
0.0
  0
CIRCLE
  5
6E
330
3D
100
AcDbEntity
  8
FIX
  6
CONTINUOUS
100
AcDbCircle
 10
371.6129990412172
 20
685.5372275547125
 30
0.0
 40
5.0
  0
LINE
  5
6F
330
3D
100
AcDbEntity
  8
DETAIL
  6
CONTINUOUS
100
AcDbLine
 10
349.6129990412172
 20
683.0372275547126
 30
0.0
 11
393.6129990412172
 21
683.0372275547126
 31
0.0
  0
LINE
  5
70
330
3D
100
AcDbEntity
  8
DETAIL
  6
CONTINUOUS
100
AcDbLine
 10
349.6129990412172
 20
688.0372275547125
 30
0.0
 11
393.6129990412172
 21
688.0372275547125
 31
0.0
  0
LINE
  5
71
330
3D
100
AcDbEntity
  8
DETAIL
  6
CONTINUOUS
100
AcDbLine
 10
349.6129990412172
 20
683.0372275547126
 30
0.0
 11
349.6129990412172
 21
688.0372275547125
 31
0.0
  0
LINE
  5
72
330
3D
100
AcDbEntity
  8
DETAIL
  6
CONTINUOUS
100
AcDbLine
 10
468.6129990412172
 20
516.5372275547126
 30
0.0
 11
468.6129990412172
 21
626.5372275547125
 31
0.0
  0
LINE
  5
73
330
3D
100
AcDbEntity
  8
DETAIL
  6
CONTINUOUS
100
AcDbLine
 10
780.6129990412172
 20
433.5372275547124
 30
0.0
 11
1140.612999041217
 21
433.5372275547124
 31
0.0
  0
LINE
  5
74
330
3D
100
AcDbEntity
  8
DETAIL
  6
CONTINUOUS
100
AcDbLine
 10
908.6129990412173
 20
546.5372275547125
 30
0.0
 11
908.6129990412173
 21
596.5372275547125
 31
0.0
  0
LINE
  5
75
330
3D
100
AcDbEntity
  8
DETAIL
  6
CONTINUOUS
100
AcDbLine
 10
780.6129990412172
 20
433.5372275547124
 30
0.0
 11
780.6129990412172
 21
448.5372275547123
 31
0.0
  0
LINE
  5
76
330
3D
100
AcDbEntity
  8
DETAIL
  6
CONTINUOUS
100
AcDbLine
 10
753.6129990412172
 20
433.5372275547124
 30
0.0
 11
753.6129990412172
 21
448.5372275547123
 31
0.0
  0
LINE
  5
77
330
3D
100
AcDbEntity
  8
DETAIL
  6
CONTINUOUS
100
AcDbLine
 10
933.6129990412173
 20
546.5372275547125
 30
0.0
 11
933.6129990412173
 21
596.5372275547125
 31
0.0
  0
LINE
  5
78
330
3D
100
AcDbEntity
  8
DETAIL
  6
CONTINUOUS
100
AcDbLine
 10
1140.612999041217
 20
433.5372275547124
 30
0.0
 11
1140.612999041217
 21
448.5372275547123
 31
0.0
  0
TEXT
  5
79
330
3D
100
AcDbEntity
  8
NOTE
  6
CONTINUOUS
100
AcDbText
 10
25.88099904121736
 20
869.8290275547124
 30
0.0
 40
64.0
  1
AH
 41
0.9
100
AcDbText
  0
LINE
  5
7A
330
3D
100
AcDbEntity
  8
NOTE
  6
CONTINUOUS
100
AcDbLine
 10
221.5373830412172
 20
860.5098355547124
 30
0.0
 11
-0.0000009587827208
 21
860.5098355547124
 31
0.0
  0
CIRCLE
  5
7B
330
3D
100
AcDbEntity
  8
SIZE
  6
CONTINUOUS
100
AcDbCircle
 10
371.6129990412172
 20
882.7208305547125
 30
0.0
 40
6.0
  0
CIRCLE
  5
7C
330
3D
100
AcDbEntity
  8
SIZE
  6
CONTINUOUS
100
AcDbCircle
 10
349.6129990412172
 20
1011.781280554712
 30
0.0
 40
6.0
  0
CIRCLE
  5
7D
330
3D
100
AcDbEntity
  8
SIZE
  6
CONTINUOUS
100
AcDbCircle
 10
2499.211999041217
 20
728.5372275547123
 30
0.0
 40
6.0
  0
CIRCLE
  5
7E
330
3D
100
AcDbEntity
  8
SIZE
  6
CONTINUOUS
100
AcDbCircle
 10
2367.712999041217
 20
728.5372275547123
 30
0.0
 40
6.0
  0
CIRCLE
  5
7F
330
3D
100
AcDbEntity
  8
SIZE
  6
CONTINUOUS
100
AcDbCircle
 10
2244.497999041216
 20
728.5372275547123
 30
0.0
 40
6.0
  0
CIRCLE
  5
80
330
3D
100
AcDbEntity
  8
SIZE
  6
CONTINUOUS
100
AcDbCircle
 10
2104.715411041216
 20
728.5372275547123
 30
0.0
 40
6.0
  0
LINE
  5
81
330
3D
100
AcDbEntity
  8
SIZE
  6
BYBLOCK
100
AcDbLine
 10
1935.612999041216
 20
725.5372275547123
 30
0.0
 11
1935.612999041216
 21
912.7208305547124
 31
0.0
  0
LINE
  5
82
330
3D
100
AcDbEntity
  8
SIZE
  6
BYBLOCK
100
AcDbLine
 10
1957.612999041216
 20
703.0372275547125
 30
0.0
 11
1957.612999041216
 21
1041.781280554712
 31
0.0
  0
TEXT
  5
83
330
3D
100
AcDbEntity
  8
SIZE
  6
BYBLOCK
100
AcDbText
 10
2212.497999041216
 20
644.4086565547125
 30
0.0
 40
64.0
  1
75
 50
90.0
 41
0.9
100
AcDbText
  0
LINE
  5
84
330
3D
100
AcDbEntity
  8
SIZE
  6
CONTINUOUS
100
AcDbLine
 10
2367.712999041217
 20
728.5372275547123
 30
0.0
 11
2367.712999041217
 21
892.0804115547124
 31
0.0
  0
LINE
  5
85
330
3D
100
AcDbEntity
  8
SIZE
  6
CONTINUOUS
100
AcDbLine
 10
2104.715411041216
 20
728.5372275547123
 30
0.0
 11
2104.715411041216
 21
841.3425895547124
 31
0.0
  0
LINE
  5
86
330
3D
100
AcDbEntity
  8
SIZE
  6
BYBLOCK
100
AcDbLine
 10
1975.612999041216
 20
685.5372275547125
 30
0.0
 11
2134.715411041216
 21
685.5372275547125
 31
0.0
  0
LINE
  5
87
330
3D
100
AcDbEntity
  8
SIZE
  6
BYBLOCK
100
AcDbLine
 10
1933.612999041216
 20
728.5372275547123
 30
0.0
 11
2134.715411041216
 21
728.5372275547123
 31
0.0
  0
LINE
  5
88
330
3D
100
AcDbEntity
  8
SIZE
  6
BYBLOCK
100
AcDbLine
 10
1933.612999041216
 20
653.5372275547125
 30
0.0
 11
2274.497999041217
 21
653.5372275547125
 31
0.0
  0
LINE
  5
89
330
3D
100
AcDbEntity
  8
SIZE
  6
BYBLOCK
100
AcDbLine
 10
1933.612999041216
 20
728.5372275547123
 30
0.0
 11
2274.497999041217
 21
728.5372275547123
 31
0.0
  0
LINE
  5
8A
330
3D
100
AcDbEntity
  8
SIZE
  6
BYBLOCK
100
AcDbLine
 10
1858.612999041216
 20
626.5372275547125
 30
0.0
 11
2397.712999041217
 21
626.5372275547125
 31
0.0
  0
LINE
  5
8B
330
3D
100
AcDbEntity
  8
SIZE
  6
BYBLOCK
100
AcDbLine
 10
1933.612999041216
 20
728.5372275547123
 30
0.0
 11
2397.712999041217
 21
728.5372275547123
 31
0.0
  0
LINE
  5
8C
330
3D
100
AcDbEntity
  8
SIZE
  6
BYBLOCK
100
AcDbLine
 10
1858.612999041216
 20
516.5372275547126
 30
0.0
 11
2397.712999041217
 21
516.5372275547126
 31
0.0
  0
LINE
  5
8D
330
3D
100
AcDbEntity
  8
SIZE
  6
BYBLOCK
100
AcDbLine
 10
1858.612999041216
 20
626.5372275547125
 30
0.0
 11
2397.712999041217
 21
626.5372275547125
 31
0.0
  0
LINE
  5
8E
330
3D
100
AcDbEntity
  8
SIZE
  6
BYBLOCK
100
AcDbLine
 10
1933.612999041216
 20
448.5372275547123
 30
0.0
 11
2529.211999041217
 21
448.5372275547123
 31
0.0
  0
LINE
  5
8F
330
3D
100
AcDbEntity
  8
SIZE
  6
BYBLOCK
100
AcDbLine
 10
1933.612999041216
 20
728.5372275547123
 30
0.0
 11
2529.211999041217
 21
728.5372275547123
 31
0.0
  0
LINE
  5
90
330
3D
100
AcDbEntity
  8
NOTE
  6
CONTINUOUS
100
AcDbLine
 10
2077.598899041217
 20
242.6303795547124
 30
0.0
 11
2548.635999041217
 21
242.6303795547124
 31
0.0
  0
LINE
  5
91
330
3D
100
AcDbEntity
  8
SIZE
  6
BYBLOCK
100
AcDbLine
 10
1913.612999041216
 20
415.5372275547123
 30
0.0
 11
1913.612999041216
 21
-0.0000024452875778
 31
0.0
  0
CIRCLE
  5
92
330
3D
100
AcDbEntity
  8
SIZE
  6
CONTINUOUS
100
AcDbCircle
 10
1913.612999041216
 20
29.99999755471241
 30
0.0
 40
6.0
  0
LINE
  5
93
330
3D
100
AcDbEntity
  8
SIZE
  6
BYBLOCK
100
AcDbLine
 10
1911.612999041216
 20
281.2069455547124
 30
0.0
 11
1555.612999041217
 21
281.2069455547124
 31
0.0
  0
LINE
  5
94
330
3D
100
AcDbEntity
  8
DETAIL
  6
CONTINUOUS
100
AcDbLine
 10
1398.612999041217
 20
596.5372275547125
 30
0.0
 11
1838.612999041217
 21
596.5372275547125
 31
0.0
  0
LINE
  5
95
330
3D
100
AcDbEntity
  8
DETAIL
  6
CONTINUOUS
100
AcDbLine
 10
1398.612999041217
 20
546.5372275547125
 30
0.0
 11
1838.612999041217
 21
546.5372275547125
 31
0.0
  0
LINE
  5
96
330
3D
100
AcDbEntity
  8
DETAIL
  6
CONTINUOUS
100
AcDbLine
 10
1553.612999041217
 20
433.5372275547124
 30
0.0
 11
1913.612999041216
 21
433.5372275547124
 31
0.0
  0
LINE
  5
97
330
3D
100
AcDbEntity
  8
SIZE
  6
BYBLOCK
100
AcDbLine
 10
1553.612999041217
 20
415.5372275547123
 30
0.0
 11
1553.612999041217
 21
251.2069455547123
 31
0.0
  0
CIRCLE
  5
98
330
3D
100
AcDbEntity
  8
SIZE
  6
CONTINUOUS
100
AcDbCircle
 10
1553.612999041217
 20
281.2069455547124
 30
0.0
 40
6.0
  0
LINE
  5
99
330
3D
100
AcDbEntity
  8
DETAIL
  6
CONTINUOUS
100
AcDbLine
 10
1166.612999041217
 20
433.5372275547124
 30
0.0
 11
1526.612999041217
 21
433.5372275547124
 31
0.0
  0
LINE
  5
9A
330
3D
100
AcDbEntity
  8
DETAIL
  6
CONTINUOUS
100
AcDbLine
 10
1373.612999041217
 20
546.5372275547125
 30
0.0
 11
1373.612999041217
 21
596.5372275547125
 31
0.0
  0
LINE
  5
9B
330
3D
100
AcDbEntity
  8
DETAIL
  6
CONTINUOUS
100
AcDbLine
 10
1166.612999041217
 20
433.5372275547124
 30
0.0
 11
1166.612999041217
 21
448.5372275547123
 31
0.0
  0
LINE
  5
9C
330
3D
100
AcDbEntity
  8
DETAIL
  6
CONTINUOUS
100
AcDbLine
 10
1398.612999041217
 20
546.5372275547125
 30
0.0
 11
1398.612999041217
 21
596.5372275547125
 31
0.0
  0
LINE
  5
9D
330
3D
100
AcDbEntity
  8
DETAIL
  6
CONTINUOUS
100
AcDbLine
 10
1526.612999041217
 20
433.5372275547124
 30
0.0
 11
1526.612999041217
 21
448.5372275547123
 31
0.0
  0
LINE
  5
9E
330
3D
100
AcDbEntity
  8
DETAIL
  6
CONTINUOUS
100
AcDbLine
 10
1553.612999041217
 20
433.5372275547124
 30
0.0
 11
1553.612999041217
 21
448.5372275547123
 31
0.0
  0
LINE
  5
9F
330
3D
100
AcDbEntity
  8
SIZE
  6
BYBLOCK
100
AcDbLine
 10
1838.612999041217
 20
496.5372275547124
 30
0.0
 11
1838.612999041217
 21
133.6697495547124
 31
0.0
  0
LINE
  5
A0
330
3D
100
AcDbEntity
  8
SIZE
  6
BYBLOCK
100
AcDbLine
 10
1913.612999041216
 20
415.5372275547123
 30
0.0
 11
1913.612999041216
 21
251.2069455547123
 31
0.0
  0
LINE
  5
A1
330
3D
100
AcDbEntity
  8
SIZE
  6
BYBLOCK
100
AcDbLine
 10
1913.612999041216
 20
413.5372275547124
 30
0.0
 11
1913.612999041216
 21
133.6697495547124
 31
0.0
  0
LINE
  5
A2
330
3D
100
AcDbEntity
  8
SIZE
  6
BYBLOCK
100
AcDbLine
 10
1838.612999041217
 20
496.5372275547124
 30
0.0
 11
1838.612999041217
 21
133.6697495547124
 31
0.0
  0
LINE
  5
A3
330
3D
100
AcDbEntity
  8
NOTE
  6
CONTINUOUS
100
AcDbLine
 10
1935.612999041216
 20
685.5372275547125
 30
0.0
 11
2077.598899041217
 21
242.6303795547124
 31
0.0
  0
TEXT
  5
A4
330
3D
100
AcDbEntity
  8
SIZE
  6
BYBLOCK
100
AcDbText
 10
1829.484428041216
 20
195.6697495547124
 30
0.0
 40
64.0
  1
75
 41
0.9
100
AcDbText
  0
LINE
  5
A5
330
3D
100
AcDbEntity
  8
SIZE
  6
BYBLOCK
100
AcDbLine
 10
1913.612999041216
 20
163.6697495547124
 30
0.0
 11
1838.612999041217
 21
163.6697495547124
 31
0.0
  0
CIRCLE
  5
A6
330
3D
100
AcDbEntity
  8
SIZE
  6
CONTINUOUS
100
AcDbCircle
 10
1838.612999041217
 20
163.6697495547124
 30
0.0
 40
6.0
  0
CIRCLE
  5
A7
330
3D
100
AcDbEntity
  8
SIZE
  6
CONTINUOUS
100
AcDbCircle
 10
1838.612999041217
 20
163.6697495547124
 30
0.0
 40
6.0
  0
LINE
  5
A8
330
3D
100
AcDbEntity
  8
SIZE
  6
BYBLOCK
100
AcDbLine
 10
1836.612999041216
 20
163.6697495547124
 30
0.0
 11
1834.612999041216
 21
163.6697495547124
 31
0.0
  0
TEXT
  5
A9
330
3D
100
AcDbEntity
  8
SIZE
  6
BYBLOCK
100
AcDbText
 10
1659.555856041217
 20
313.2069455547124
 30
0.0
 40
64.0
  1
360
 41
0.9
100
AcDbText
  0
CIRCLE
  5
AA
330
3D
100
AcDbEntity
  8
SIZE
  6
CONTINUOUS
100
AcDbCircle
 10
1913.612999041216
 20
163.6697495547124
 30
0.0
 40
6.0
  0
LINE
  5
AB
330
3D
100
AcDbEntity
  8
SIZE
  6
BYBLOCK
100
AcDbLine
 10
1915.612999041217
 20
163.6697495547124
 30
0.0
 11
1917.612999041216
 21
163.6697495547124
 31
0.0
  0
CIRCLE
  5
AC
330
3D
100
AcDbEntity
  8
SIZE
  6
CONTINUOUS
100
AcDbCircle
 10
1913.612999041216
 20
281.2069455547124
 30
0.0
 40
6.0
  0
LINE
  5
AD
330
3D
100
AcDbEntity
  8
DETAIL
  6
CONTINUOUS
100
AcDbLine
 10
1838.612999041217
 20
516.5372275547126
 30
0.0
 11
1838.612999041217
 21
626.5372275547125
 31
0.0
  0
LINE
  5
AE
330
3D
100
AcDbEntity
  8
OUTLINE
  6
CONTINUOUS
100
AcDbLine
 10
1913.612999041216
 20
448.5372275547123
 30
0.0
 11
1913.612999041216
 21
728.5372275547123
 31
0.0
  0
LINE
  5
AF
330
3D
100
AcDbEntity
  8
DETAIL
  6
CONTINUOUS
100
AcDbLine
 10
1913.612999041216
 20
433.5372275547124
 30
0.0
 11
1913.612999041216
 21
728.5372275547123
 31
0.0
  0
LWPOLYLINE
  5
B0
330
3D
100
AcDbEntity
  8
NOTE
  6
CONTINUOUS
100
AcDbPolyline
 90
        3
 70
     0
 43
0.0
 10
1957.792822041216
 20
652.2497605547125
 10
1935.612999041216
 20
685.5372275547125
 10
1938.177555041217
 20
645.6195245547124
  0
LINE
  5
B5
330
3D
100
AcDbEntity
  8
NOTE
  6
CONTINUOUS
100
AcDbLine
 10
1915.612999041217
 20
685.5372275547125
 30
0.0
 11
1955.612999041216
 21
685.5372275547125
 31
0.0
  0
LINE
  5
B6
330
3D
100
AcDbEntity
  8
NOTE
  6
CONTINUOUS
100
AcDbLine
 10
1935.612999041216
 20
665.5372275547125
 30
0.0
 11
1935.612999041216
 21
705.5372275547125
 31
0.0
  0
CIRCLE
  5
B7
330
3D
100
AcDbEntity
  8
FIX
  6
CONTINUOUS
100
AcDbCircle
 10
1935.612999041216
 20
685.5372275547125
 30
0.0
 40
5.0
  0
LINE
  5
B8
330
3D
100
AcDbEntity
  8
DETAIL
  6
CONTINUOUS
100
AcDbLine
 10
1913.612999041216
 20
688.0372275547125
 30
0.0
 11
1957.612999041216
 21
688.0372275547125
 31
0.0
  0
LINE
  5
B9
330
3D
100
AcDbEntity
  8
DETAIL
  6
CONTINUOUS
100
AcDbLine
 10
1913.612999041216
 20
683.0372275547126
 30
0.0
 11
1957.612999041216
 21
683.0372275547126
 31
0.0
  0
LINE
  5
BA
330
3D
100
AcDbEntity
  8
DETAIL
  6
CONTINUOUS
100
AcDbLine
 10
1957.612999041216
 20
683.0372275547126
 30
0.0
 11
1957.612999041216
 21
688.0372275547125
 31
0.0
  0
TEXT
  5
BB
330
3D
100
AcDbEntity
  8
NOTE
  6
CONTINUOUS
100
AcDbText
 10
2113.684311041216
 20
278.5846025547124
 30
0.0
 40
64.0
  1
AH 4-φ10
 41
0.9
100
AcDbText
  0
TEXT
  5
BC
330
3D
100
AcDbEntity
  8
SIZE
  6
BYBLOCK
100
AcDbText
 10
2335.712999041217
 20
508.4515135547124
 30
0.0
 40
64.0
  1
110
 50
90.0
 41
0.9
100
AcDbText
  0
CIRCLE
  5
BD
330
3D
100
AcDbEntity
  8
SIZE
  6
CONTINUOUS
100
AcDbCircle
 10
2104.715411041216
 20
685.5372275547125
 30
0.0
 40
6.0
  0
LINE
  5
BE
330
3D
100
AcDbEntity
  8
SIZE
  6
BYBLOCK
100
AcDbLine
 10
2104.715411041216
 20
685.5372275547125
 30
0.0
 11
2104.715411041216
 21
728.5372275547123
 31
0.0
  0
LINE
  5
BF
330
3D
100
AcDbEntity
  8
SIZE
  6
BYBLOCK
100
AcDbLine
 10
2104.715411041216
 20
683.5372275547126
 30
0.0
 11
2104.715411041216
 21
681.5372275547125
 31
0.0
  0
CIRCLE
  5
C0
330
3D
100
AcDbEntity
  8
SIZE
  6
CONTINUOUS
100
AcDbCircle
 10
2244.497999041216
 20
653.5372275547125
 30
0.0
 40
6.0
  0
LINE
  5
C1
330
3D
100
AcDbEntity
  8
SIZE
  6
BYBLOCK
100
AcDbLine
 10
2244.497999041216
 20
653.5372275547125
 30
0.0
 11
2244.497999041216
 21
728.5372275547123
 31
0.0
  0
LINE
  5
C2
330
3D
100
AcDbEntity
  8
SIZE
  6
BYBLOCK
100
AcDbLine
 10
2244.497999041216
 20
651.5372275547125
 30
0.0
 11
2244.497999041216
 21
649.5372275547126
 31
0.0
  0
LINE
  5
C3
330
3D
100
AcDbEntity
  8
SIZE
  6
BYBLOCK
100
AcDbLine
 10
2367.712999041217
 20
516.5372275547126
 30
0.0
 11
2367.712999041217
 21
626.5372275547125
 31
0.0
  0
TEXT
  5
C4
330
3D
100
AcDbEntity
  8
SIZE
  6
BYBLOCK
100
AcDbText
 10
2467.211999041217
 20
514.4800845547125
 30
0.0
 40
64.0
  1
280
 50
90.0
 41
0.9
100
AcDbText
  0
LINE
  5
C5
330
3D
100
AcDbEntity
  8
SIZE
  6
BYBLOCK
100
AcDbLine
 10
2499.211999041217
 20
450.5372275547124
 30
0.0
 11
2499.211999041217
 21
588.5372275547125
 31
0.0
  0
CIRCLE
  5
C6
330
3D
100
AcDbEntity
  8
SIZE
  6
CONTINUOUS
100
AcDbCircle
 10
2367.712999041217
 20
516.5372275547126
 30
0.0
 40
6.0
  0
LINE
  5
C7
330
3D
100
AcDbEntity
  8
SIZE
  6
BYBLOCK
100
AcDbLine
 10
2367.712999041217
 20
514.5372275547125
 30
0.0
 11
2367.712999041217
 21
512.5372275547126
 31
0.0
  0
CIRCLE
  5
C8
330
3D
100
AcDbEntity
  8
SIZE
  6
CONTINUOUS
100
AcDbCircle
 10
2499.211999041217
 20
448.5372275547123
 30
0.0
 40
6.0
  0
LINE
  5
C9
330
3D
100
AcDbEntity
  8
SIZE
  6
BYBLOCK
100
AcDbLine
 10
2367.712999041217
 20
626.5372275547125
 30
0.0
 11
2367.712999041217
 21
728.5372275547123
 31
0.0
  0
CIRCLE
  5
CA
330
3D
100
AcDbEntity
  8
SIZE
  6
CONTINUOUS
100
AcDbCircle
 10
2367.712999041217
 20
626.5372275547125
 30
0.0
 40
6.0
  0
CIRCLE
  5
CB
330
3D
100
AcDbEntity
  8
SIZE
  6
CONTINUOUS
100
AcDbCircle
 10
2367.712999041217
 20
626.5372275547125
 30
0.0
 40
6.0
  0
LINE
  5
CC
330
3D
100
AcDbEntity
  8
SIZE
  6
BYBLOCK
100
AcDbLine
 10
2367.712999041217
 20
624.5372275547126
 30
0.0
 11
2367.712999041217
 21
622.5372275547125
 31
0.0
  0
LINE
  5
CD
330
3D
100
AcDbEntity
  8
SIZE
  6
BYBLOCK
100
AcDbLine
 10
2367.712999041217
 20
628.5372275547125
 30
0.0
 11
2367.712999041217
 21
630.5372275547125
 31
0.0
  0
LINE
  5
CE
330
3D
100
AcDbEntity
  8
SIZE
  6
BYBLOCK
100
AcDbLine
 10
2499.211999041217
 20
726.5372275547123
 30
0.0
 11
2499.211999041217
 21
588.5372275547125
 31
0.0
  0
CIRCLE
  5
CF
330
3D
100
AcDbEntity
  8
SIZE
  6
CONTINUOUS
100
AcDbCircle
 10
1935.612999041216
 20
882.7208305547125
 30
0.0
 40
6.0
  0
TEXT
  5
D0
330
3D
100
AcDbEntity
  8
SIZE
  6
BYBLOCK
100
AcDbText
 10
2072.715411041216
 20
738.0685865547124
 30
0.0
 40
64.0
  1
43
 50
90.0
 41
0.9
100
AcDbText
  0
CIRCLE
  5
D1
330
3D
100
AcDbEntity
  8
SIZE
  6
CONTINUOUS
100
AcDbCircle
 10
1957.612999041216
 20
1011.781280554712
 30
0.0
 40
6.0
  0
TEXT
  5
D2
330
3D
100
AcDbEntity
  8
ETC
  6
CONTINUOUS
100
AcDbText
 10
2239.965999041217
 20
1297.936492554712
 30
0.0
 40
64.0
  1
PCA0022
 41
0.9
100
AcDbText
  0
TEXT
  5
D3
330
3D
100
AcDbEntity
  8
SIZE
  6
BYBLOCK
100
AcDbText
 10
2332.606999041217
 20
742.5408795547123
 30
0.0
 40
64.0
  1
102
 50
90.0
 41
0.9
100
AcDbText
  0
LINE
  5
D4
330
3D
100
AcDbEntity
  8
SIZE
  6
BYBLOCK
100
AcDbLine
 10
2104.715411041216
 20
730.5372275547123
 30
0.0
 11
2104.715411041216
 21
732.5372275547123
 31
0.0
  0
LINE
  5
D5
330
3D
100
AcDbEntity
  8
SIZE
  6
BYBLOCK
100
AcDbLine
 10
2244.497999041216
 20
730.5372275547123
 30
0.0
 11
2244.497999041216
 21
732.5372275547123
 31
0.0
  0
LINE
  5
D6
330
3D
100
AcDbEntity
  8
SIZE
  6
BYBLOCK
100
AcDbLine
 10
2367.712999041217
 20
730.5372275547123
 30
0.0
 11
2367.712999041217
 21
732.5372275547123
 31
0.0
  0
TEXT
  5
D7
330
3D
100
AcDbEntity
  8
ETC
  6
CONTINUOUS
100
AcDbText
 10
2245.327139041216
 20
1177.306846554712
 30
0.0
 40
64.0
  1
PAC
 41
0.9
100
AcDbText
  0
ENDBLK
  5
D8
330
3D
100
AcDbEntity
  8
0
 62
     1
100
AcDbBlockEnd
  0
ENDSEC
  0
SECTION
  2
ENTITIES
  0
POINT
  5
D9
330
1E
100
AcDbEntity
  8
ARRANGE
  6
CONTINUOUS
100
AcDbPoint
 10
0.0
 20
0.0
 30
0.0
  0
LINE
  5
DA
330
1E
100
AcDbEntity
  8
BASIS
  6
DASHDOT
100
AcDbLine
 10
-831.4121319999998
 20
-325.0
 30
0.0
 11
844.3418169999999
 21
-325.0
 31
0.0
  0
LINE
  5
DB
330
1E
100
AcDbEntity
  8
BASIS
  6
DASHDOT
100
AcDbLine
 10
0.0
 20
-781.996081
 30
0.0
 11
0.0
 21
145.8037669999998
 31
0.0
  0
CIRCLE
  5
DC
330
1E
100
AcDbEntity
  8
ARRANGE
  6
CONTINUOUS
100
AcDbCircle
 10
0.0
 20
0.0
 30
0.0
 40
40.0
  0
TEXT
  5
DD
330
1E
100
AcDbEntity
  8
ETC
  6
CONTINUOUS
100
AcDbText
 10
1086.353
 20
417.5285739999999
 30
0.0
 40
64.0
  1
SPCZ3621
 41
0.9
100
AcDbText
  0
LINE
  5
DE
330
1E
100
AcDbEntity
  8
DETAIL
  6
CONTINUOUS
100
AcDbLine
 10
-760.0
 20
-650.0
 30
0.0
 11
-760.0
 21
0.0
 31
0.0
  0
LINE
  5
DF
330
1E
100
AcDbEntity
  8
DETAIL
  6
CONTINUOUS
100
AcDbLine
 10
760.0
 20
-650.0
 30
0.0
 11
760.0
 21
0.0
 31
0.0
  0
LINE
  5
E0
330
1E
100
AcDbEntity
  8
DETAIL
  6
CONTINUOUS
100
AcDbLine
 10
-760.0
 20
0.0
 30
0.0
 11
760.0
 21
0.0
 31
0.0
  0
LINE
  5
E1
330
1E
100
AcDbEntity
  8
DETAIL
  6
CONTINUOUS
100
AcDbLine
 10
-760.0
 20
-650.0
 30
0.0
 11
760.0
 21
-650.0
 31
0.0
  0
LINE
  5
E2
330
1E
100
AcDbEntity
  8
DETAIL
  6
CONTINUOUS
100
AcDbLine
 10
-760.0
 20
-495.0
 30
0.0
 11
760.0
 21
-495.0
 31
0.0
  0
LINE
  5
E3
330
1E
100
AcDbEntity
  8
DETAIL
  6
CONTINUOUS
100
AcDbLine
 10
-760.0
 20
-570.0
 30
0.0
 11
760.0
 21
-570.0
 31
0.0
  0
LINE
  5
E4
330
1E
100
AcDbEntity
  8
DETAIL
  6
CONTINUOUS
100
AcDbLine
 10
-804.0
 20
-430.0
 30
0.0
 11
-804.0
 21
-370.0
 31
0.0
  0
LINE
  5
E5
330
1E
100
AcDbEntity
  8
DETAIL
  6
CONTINUOUS
100
AcDbLine
 10
804.0
 20
-430.0
 30
0.0
 11
804.0
 21
-370.0
 31
0.0
  0
ARC
  5
E6
330
1E
100
AcDbEntity
  8
DETAIL
  6
CONTINUOUS
100
AcDbCircle
 10
782.0
 20
-80.0
 30
0.0
 40
5.0
100
AcDbArc
 50
180.0
 51
0.0
  0
ARC
  5
E7
330
1E
100
AcDbEntity
  8
DETAIL
  6
CONTINUOUS
100
AcDbCircle
 10
782.0
 20
-400.0
 30
0.0
 40
5.0
100
AcDbArc
 50
180.0
 51
0.0
  0
ARC
  5
E8
330
1E
100
AcDbEntity
  8
DETAIL
  6
CONTINUOUS
100
AcDbCircle
 10
-782.0
 20
-80.0
 30
0.0
 40
5.0
100
AcDbArc
 50
180.0
 51
0.0
  0
ARC
  5
E9
330
1E
100
AcDbEntity
  8
DETAIL
  6
CONTINUOUS
100
AcDbCircle
 10
-782.0
 20
-400.0
 30
0.0
 40
5.0
100
AcDbArc
 50
180.0
 51
0.0
  0
LINE
  5
EA
330
1E
100
AcDbEntity
  8
DETAIL
  6
CONTINUOUS
100
AcDbLine
 10
777.0
 20
-400.0000039999999
 30
0.0
 11
777.0
 21
-370.0
 31
0.0
  0
LINE
  5
EB
330
1E
100
AcDbEntity
  8
DETAIL
  6
CONTINUOUS
100
AcDbLine
 10
787.0
 20
-400.0000039999999
 30
0.0
 11
787.0
 21
-370.0
 31
0.0
  0
LINE
  5
EC
330
1E
100
AcDbEntity
  8
DETAIL
  6
CONTINUOUS
100
AcDbLine
 10
-787.0
 20
-400.0
 30
0.0
 11
-787.0
 21
-370.0
 31
0.0
  0
LINE
  5
ED
330
1E
100
AcDbEntity
  8
DETAIL
  6
CONTINUOUS
100
AcDbLine
 10
-777.0
 20
-400.0
 30
0.0
 11
-777.0
 21
-370.0
 31
0.0
  0
LINE
  5
EE
330
1E
100
AcDbEntity
  8
DETAIL
  6
CONTINUOUS
100
AcDbLine
 10
-804.0
 20
-50.0
 30
0.0
 11
-787.0
 21
-50.0
 31
0.0
  0
LINE
  5
EF
330
1E
100
AcDbEntity
  8
DETAIL
  6
CONTINUOUS
100
AcDbLine
 10
-804.0
 20
-110.0
 30
0.0
 11
-760.0
 21
-110.0
 31
0.0
  0
LINE
  5
F0
330
1E
100
AcDbEntity
  8
DETAIL
  6
CONTINUOUS
100
AcDbLine
 10
-804.0
 20
-370.0
 30
0.0
 11
-787.0
 21
-370.0
 31
0.0
  0
LINE
  5
F1
330
1E
100
AcDbEntity
  8
DETAIL
  6
CONTINUOUS
100
AcDbLine
 10
-804.0
 20
-430.0
 30
0.0
 11
-760.0
 21
-430.0
 31
0.0
  0
LINE
  5
F2
330
1E
100
AcDbEntity
  8
DETAIL
  6
CONTINUOUS
100
AcDbLine
 10
787.0
 20
-50.0
 30
0.0
 11
804.0
 21
-50.0
 31
0.0
  0
LINE
  5
F3
330
1E
100
AcDbEntity
  8
DETAIL
  6
CONTINUOUS
100
AcDbLine
 10
777.0
 20
-80.0
 30
0.0
 11
777.0
 21
-50.0
 31
0.0
  0
LINE
  5
F4
330
1E
100
AcDbEntity
  8
DETAIL
  6
CONTINUOUS
100
AcDbLine
 10
787.0
 20
-80.0
 30
0.0
 11
787.0
 21
-50.0
 31
0.0
  0
LINE
  5
F5
330
1E
100
AcDbEntity
  8
DETAIL
  6
CONTINUOUS
100
AcDbLine
 10
804.0
 20
-110.0
 30
0.0
 11
804.0
 21
-50.0
 31
0.0
  0
LINE
  5
F6
330
1E
100
AcDbEntity
  8
DETAIL
  6
CONTINUOUS
100
AcDbLine
 10
787.0
 20
-370.0
 30
0.0
 11
804.0
 21
-370.0
 31
0.0
  0
LINE
  5
F7
330
1E
100
AcDbEntity
  8
DETAIL
  6
CONTINUOUS
100
AcDbLine
 10
-777.0
 20
-50.0
 30
0.0
 11
-760.0
 21
-50.0
 31
0.0
  0
LINE
  5
F8
330
1E
100
AcDbEntity
  8
DETAIL
  6
CONTINUOUS
100
AcDbLine
 10
-787.0
 20
-80.0
 30
0.0
 11
-787.0
 21
-50.0
 31
0.0
  0
LINE
  5
F9
330
1E
100
AcDbEntity
  8
DETAIL
  6
CONTINUOUS
100
AcDbLine
 10
-777.0
 20
-80.0
 30
0.0
 11
-777.0
 21
-50.0
 31
0.0
  0
LINE
  5
FA
330
1E
100
AcDbEntity
  8
DETAIL
  6
CONTINUOUS
100
AcDbLine
 10
-804.0
 20
-110.0
 30
0.0
 11
-804.0
 21
-50.0
 31
0.0
  0
LINE
  5
FB
330
1E
100
AcDbEntity
  8
DETAIL
  6
CONTINUOUS
100
AcDbLine
 10
-777.0
 20
-370.0
 30
0.0
 11
-760.0
 21
-370.0
 31
0.0
  0
LINE
  5
FC
330
1E
100
AcDbEntity
  8
DETAIL
  6
CONTINUOUS
100
AcDbLine
 10
760.0
 20
-110.0
 30
0.0
 11
804.0
 21
-110.0
 31
0.0
  0
LINE
  5
FD
330
1E
100
AcDbEntity
  8
DETAIL
  6
CONTINUOUS
100
AcDbLine
 10
760.0
 20
-50.0
 30
0.0
 11
777.0
 21
-50.0
 31
0.0
  0
LINE
  5
FE
330
1E
100
AcDbEntity
  8
DETAIL
  6
CONTINUOUS
100
AcDbLine
 10
760.0
 20
-370.0
 30
0.0
 11
777.0
 21
-370.0
 31
0.0
  0
LINE
  5
FF
330
1E
100
AcDbEntity
  8
DETAIL
  6
CONTINUOUS
100
AcDbLine
 10
760.0
 20
-430.0
 30
0.0
 11
804.0
 21
-430.0
 31
0.0
  0
CIRCLE
  5
100
330
1E
100
AcDbEntity
  8
FIX
  6
CONTINUOUS
100
AcDbCircle
 10
-782.0
 20
-80.0
 30
0.0
 40
5.0
  0
CIRCLE
  5
101
330
1E
100
AcDbEntity
  8
FIX
  6
CONTINUOUS
100
AcDbCircle
 10
-782.0
 20
-400.0
 30
0.0
 40
5.0
  0
CIRCLE
  5
102
330
1E
100
AcDbEntity
  8
FIX
  6
CONTINUOUS
100
AcDbCircle
 10
782.0
 20
-80.0
 30
0.0
 40
5.0
  0
CIRCLE
  5
103
330
1E
100
AcDbEntity
  8
FIX
  6
CONTINUOUS
100
AcDbCircle
 10
782.0
 20
-400.0
 30
0.0
 40
5.0
  0
LINE
  5
104
330
1E
100
AcDbEntity
  8
SIZE
  6
CONTINUOUS
100
AcDbLine
 10
760.0
 20
70.68558699999993
 30
0.0
 11
859.4464
 21
70.68558699999993
 31
0.0
  0
LINE
  5
105
330
1E
100
AcDbEntity
  8
NOTE
  6
CONTINUOUS
100
AcDbLine
 10
-782.0
 20
-80.0
 30
0.0
 11
-960.6750630817876
 21
131.2891112962206
 31
0.0
  0
LINE
  5
106
330
1E
100
AcDbEntity
  8
NOTE
  6
CONTINUOUS
100
AcDbLine
 10
-1394.765840081787
 20
131.2891112962206
 30
0.0
 11
-960.6750630817876
 21
131.2891112962206
 31
0.0
  0
TEXT
  5
107
330
1E
100
AcDbEntity
  8
NOTE
  6
CONTINUOUS
100
AcDbText
 10
-1388.426488081787
 20
145.0248812962203
 30
0.0
 40
64.0
  1
AH 4-%%C10
 41
0.9
100
AcDbText
  0
LINE
  5
108
330
1E
100
AcDbEntity
  8
NOTE
  6
CONTINUOUS
100
AcDbLine
 10
584.0
 20
0.0
 30
0.0
 11
242.253733
 21
185.937574
 31
0.0
  0
LINE
  5
109
330
1E
100
AcDbEntity
  8
NOTE
  6
CONTINUOUS
100
AcDbLine
 10
242.253733
 20
185.937574
 30
0.0
 11
-156.1038579999998
 21
185.937574
 31
0.0
  0
LINE
  5
10A
330
1E
100
AcDbEntity
  8
NOTE
  6
CONTINUOUS
100
AcDbLine
 10
630.0
 20
0.0
 30
0.0
 11
286.3715119999998
 21
344.2671890000001
 31
0.0
  0
LINE
  5
10B
330
1E
100
AcDbEntity
  8
NOTE
  6
CONTINUOUS
100
AcDbLine
 10
286.3715119999998
 20
344.2671890000001
 30
0.0
 11
-134.044968
 21
344.2671890000001
 31
0.0
  0
LINE
  5
10C
330
1E
100
AcDbEntity
  8
NOTE
  6
CONTINUOUS
100
AcDbLine
 10
655.0
 20
0.0
 30
0.0
 11
497.577173
 21
-165.4406119999998
 31
0.0
  0
LINE
  5
10D
330
1E
100
AcDbEntity
  8
NOTE
  6
CONTINUOUS
100
AcDbLine
 10
497.577173
 20
-165.4406119999998
 30
0.0
 11
196.435177
 21
-165.4406119999998
 31
0.0
  0
LINE
  5
10E
330
1E
100
AcDbEntity
  8
NOTE
  6
CONTINUOUS
100
AcDbLine
 10
715.0
 20
0.0
 30
0.0
 11
990.230852
 21
126.317851
 31
0.0
  0
LINE
  5
10F
330
1E
100
AcDbEntity
  8
NOTE
  6
CONTINUOUS
100
AcDbLine
 10
990.230852
 20
126.317851
 30
0.0
 11
1450.33992
 21
126.317851
 31
0.0
  0
TEXT
  5
110
330
1E
100
AcDbEntity
  8
NOTE
  6
CONTINUOUS
100
AcDbText
 10
-105.874134
 20
370.727213
 30
0.0
 40
64.0
  1
RL %%c9.52
 41
0.9
100
AcDbText
  0
TEXT
  5
111
330
1E
100
AcDbEntity
  8
NOTE
  6
CONTINUOUS
100
AcDbText
 10
-112.9158259999999
 20
204.066254
 30
0.0
 40
64.0
  1
2-%%c27
 41
0.9
100
AcDbText
  0
TEXT
  5
112
330
1E
100
AcDbEntity
  8
NOTE
  6
CONTINUOUS
100
AcDbText
 10
225.0854159999998
 20
-136.297675
 30
0.0
 40
64.0
  1
D %%c32
 41
0.9
100
AcDbText
  0
TEXT
  5
113
330
1E
100
AcDbEntity
  8
NOTE
  6
CONTINUOUS
100
AcDbText
 10
999.671597
 20
145.3828179999999
 30
0.0
 40
64.0
  1
RG %%c15.88
 41
0.9
100
AcDbText
  0
TEXT
  5
114
330
1E
100
AcDbEntity
  8
NOTE
  6
CONTINUOUS
100
AcDbText
 10
-269.6248839999997
 20
-1132.395
 30
0.0
 40
64.0
  1
吊りボルトピッチ
 41
0.9
100
AcDbText
  0
TEXT
  5
115
330
1E
100
AcDbEntity
  8
NOTE
  6
CONTINUOUS
100
AcDbText
 10
1132.08159
 20
-533.544981
 30
0.0
 40
64.0
  1
吊りボルトピッチ
 50
90.0
 41
0.9
100
AcDbText
  0
LINE
  5
116
330
1E
100
AcDbEntity
  8
SIZE
  6
BYBLOCK
100
AcDbLine
 10
780.0
 20
0.0
 30
0.0
 11
1448.992
 21
0.0
 31
0.0
  0
LINE
  5
117
330
1E
100
AcDbEntity
  8
SIZE
  6
BYBLOCK
100
AcDbLine
 10
780.0
 20
-650.0
 30
0.0
 11
1448.992
 21
-650.0
 31
0.0
  0
LINE
  5
118
330
1E
100
AcDbEntity
  8
SIZE
  6
BYBLOCK
100
AcDbLine
 10
1418.992
 20
-2.0
 30
0.0
 11
1418.992
 21
-325.0
 31
0.0
  0
LINE
  5
119
330
1E
100
AcDbEntity
  8
SIZE
  6
BYBLOCK
100
AcDbLine
 10
1418.992
 20
-648.0
 30
0.0
 11
1418.992
 21
-325.0
 31
0.0
  0
TEXT
  5
11A
330
1E
100
AcDbEntity
  8
SIZE
  6
BYBLOCK
100
AcDbText
 10
1386.992
 20
-399.057143
 30
0.0
 40
64.0
  1
650
 50
90.0
 41
0.9
100
AcDbText
  0
LINE
  5
11B
330
1E
100
AcDbEntity
  8
SIZE
  6
BYBLOCK
100
AcDbLine
 10
780.0
 20
-495.0
 30
0.0
 11
1311.226
 21
-495.0
 31
0.0
  0
LINE
  5
11C
330
1E
100
AcDbEntity
  8
SIZE
  6
BYBLOCK
100
AcDbLine
 10
780.0
 20
-570.0
 30
0.0
 11
1311.226
 21
-570.0
 31
0.0
  0
LINE
  5
11D
330
1E
100
AcDbEntity
  8
SIZE
  6
BYBLOCK
100
AcDbLine
 10
1281.226
 20
-572.0
 30
0.0
 11
1281.226
 21
-574.0
 31
0.0
  0
LINE
  5
11E
330
1E
100
AcDbEntity
  8
SIZE
  6
BYBLOCK
100
AcDbLine
 10
1281.226
 20
-493.0
 30
0.0
 11
1281.226
 21
-491.0
 31
0.0
  0
LINE
  5
11F
330
1E
100
AcDbEntity
  8
SIZE
  6
BYBLOCK
100
AcDbLine
 10
1281.226
 20
-570.0
 30
0.0
 11
1281.226
 21
-495.0
 31
0.0
  0
TEXT
  5
120
330
1E
100
AcDbEntity
  8
SIZE
  6
BYBLOCK
100
AcDbText
 10
1249.226
 20
-579.1285709999998
 30
0.0
 40
64.0
  1
75
 50
90.0
 41
0.9
100
AcDbText
  0
LINE
  5
121
330
1E
100
AcDbEntity
  8
SIZE
  6
BYBLOCK
100
AcDbLine
 10
780.0
 20
0.0
 30
0.0
 11
1311.226
 21
0.0
 31
0.0
  0
LINE
  5
122
330
1E
100
AcDbEntity
  8
SIZE
  6
BYBLOCK
100
AcDbLine
 10
780.0
 20
-495.0
 30
0.0
 11
1311.226
 21
-495.0
 31
0.0
  0
LINE
  5
123
330
1E
100
AcDbEntity
  8
SIZE
  6
BYBLOCK
100
AcDbLine
 10
1281.226
 20
-2.0
 30
0.0
 11
1281.226
 21
-247.5
 31
0.0
  0
LINE
  5
124
330
1E
100
AcDbEntity
  8
SIZE
  6
BYBLOCK
100
AcDbLine
 10
1281.226
 20
-493.0
 30
0.0
 11
1281.226
 21
-247.5
 31
0.0
  0
TEXT
  5
125
330
1E
100
AcDbEntity
  8
SIZE
  6
BYBLOCK
100
AcDbText
 10
1249.226
 20
-321.557143
 30
0.0
 40
64.0
  1
495
 50
90.0
 41
0.9
100
AcDbText
  0
LINE
  5
126
330
1E
100
AcDbEntity
  8
SIZE
  6
BYBLOCK
100
AcDbLine
 10
822.0
 20
-80.0
 30
0.0
 11
1058.667
 21
-80.0
 31
0.0
  0
LINE
  5
127
330
1E
100
AcDbEntity
  8
SIZE
  6
BYBLOCK
100
AcDbLine
 10
822.0
 20
-400.0
 30
0.0
 11
1058.667
 21
-400.0
 31
0.0
  0
LINE
  5
128
330
1E
100
AcDbEntity
  8
SIZE
  6
BYBLOCK
100
AcDbLine
 10
1028.666999999999
 20
-82.0
 30
0.0
 11
1028.666999999999
 21
-240.0
 31
0.0
  0
LINE
  5
129
330
1E
100
AcDbEntity
  8
SIZE
  6
BYBLOCK
100
AcDbLine
 10
1028.666999999999
 20
-398.0
 30
0.0
 11
1028.666999999999
 21
-240.0
 31
0.0
  0
TEXT
  5
12A
330
1E
100
AcDbEntity
  8
SIZE
  6
BYBLOCK
100
AcDbText
 10
996.666706
 20
-314.057143
 30
0.0
 40
64.0
  1
320
 50
90.0
 41
0.9
100
AcDbText
  0
LINE
  5
12B
330
1E
100
AcDbEntity
  8
SIZE
  6
BYBLOCK
100
AcDbLine
 10
780.0
 20
0.0
 30
0.0
 11
966.5357609999999
 21
0.0
 31
0.0
  0
LINE
  5
12C
330
1E
100
AcDbEntity
  8
SIZE
  6
BYBLOCK
100
AcDbLine
 10
807.0
 20
-80.0
 30
0.0
 11
966.5357609999999
 21
-80.0
 31
0.0
  0
LINE
  5
12D
330
1E
100
AcDbEntity
  8
SIZE
  6
BYBLOCK
100
AcDbLine
 10
936.5357610000001
 20
-82.0
 30
0.0
 11
936.5357610000001
 21
-84.0
 31
0.0
  0
LINE
  5
12E
330
1E
100
AcDbEntity
  8
SIZE
  6
BYBLOCK
100
AcDbLine
 10
936.5357610000001
 20
2.0
 30
0.0
 11
936.5357610000001
 21
4.0
 31
0.0
  0
LINE
  5
12F
330
1E
100
AcDbEntity
  8
SIZE
  6
BYBLOCK
100
AcDbLine
 10
936.5357610000001
 20
-80.0
 30
0.0
 11
936.5357610000001
 21
0.0
 31
0.0
  0
TEXT
  5
130
330
1E
100
AcDbEntity
  8
SIZE
  6
BYBLOCK
100
AcDbText
 10
904.5357610000001
 20
-86.62857099999996
 30
0.0
 40
64.0
  1
80
 50
90.0
 41
0.9
100
AcDbText
  0
LINE
  5
131
330
1E
100
AcDbEntity
  8
SIZE
  6
BYBLOCK
100
AcDbLine
 10
804.0
 20
-450.0
 30
0.0
 11
804.0
 21
-1330.963
 31
0.0
  0
LINE
  5
132
330
1E
100
AcDbEntity
  8
SIZE
  6
BYBLOCK
100
AcDbLine
 10
-804.0
 20
-450.0
 30
0.0
 11
-804.0
 21
-1330.963
 31
0.0
  0
LINE
  5
133
330
1E
100
AcDbEntity
  8
SIZE
  6
BYBLOCK
100
AcDbLine
 10
802.0
 20
-1300.963
 30
0.0
 11
0.0
 21
-1300.963
 31
0.0
  0
LINE
  5
134
330
1E
100
AcDbEntity
  8
SIZE
  6
BYBLOCK
100
AcDbLine
 10
-802.0
 20
-1300.963
 30
0.0
 11
0.0
 21
-1300.963
 31
0.0
  0
TEXT
  5
135
330
1E
100
AcDbEntity
  8
SIZE
  6
BYBLOCK
100
AcDbText
 10
-96.0
 20
-1268.963
 30
0.0
 40
64.0
  1
1608
 41
0.9
100
AcDbText
  0
LINE
  5
136
330
1E
100
AcDbEntity
  8
SIZE
  6
BYBLOCK
100
AcDbLine
 10
782.0
 20
-440.0
 30
0.0
 11
782.0
 21
-1080.997
 31
0.0
  0
LINE
  5
137
330
1E
100
AcDbEntity
  8
SIZE
  6
BYBLOCK
100
AcDbLine
 10
-782.0
 20
-440.0
 30
0.0
 11
-782.0
 21
-1080.997
 31
0.0
  0
LINE
  5
138
330
1E
100
AcDbEntity
  8
SIZE
  6
BYBLOCK
100
AcDbLine
 10
780.0
 20
-1050.997
 30
0.0
 11
0.0
 21
-1050.997
 31
0.0
  0
LINE
  5
139
330
1E
100
AcDbEntity
  8
SIZE
  6
BYBLOCK
100
AcDbLine
 10
-780.0
 20
-1050.997
 30
0.0
 11
0.0
 21
-1050.997
 31
0.0
  0
TEXT
  5
13A
330
1E
100
AcDbEntity
  8
SIZE
  6
BYBLOCK
100
AcDbText
 10
-97.3714289999998
 20
-1018.996999999999
 30
0.0
 40
64.0
  1
1564
 41
0.9
100
AcDbText
  0
LINE
  5
13B
330
1E
100
AcDbEntity
  8
SIZE
  6
BYBLOCK
100
AcDbLine
 10
760.0
 20
-670.0
 30
0.0
 11
760.0
 21
-939.5226329999999
 31
0.0
  0
LINE
  5
13C
330
1E
100
AcDbEntity
  8
SIZE
  6
BYBLOCK
100
AcDbLine
 10
-760.0
 20
-670.0
 30
0.0
 11
-760.0
 21
-939.5226329999999
 31
0.0
  0
LINE
  5
13D
330
1E
100
AcDbEntity
  8
SIZE
  6
BYBLOCK
100
AcDbLine
 10
758.0
 20
-909.522633
 30
0.0
 11
0.0
 21
-909.522633
 31
0.0
  0
LINE
  5
13E
330
1E
100
AcDbEntity
  8
SIZE
  6
BYBLOCK
100
AcDbLine
 10
-758.0
 20
-909.522633
 30
0.0
 11
0.0
 21
-909.522633
 31
0.0
  0
TEXT
  5
13F
330
1E
100
AcDbEntity
  8
SIZE
  6
BYBLOCK
100
AcDbText
 10
-96.0
 20
-877.522633
 30
0.0
 40
64.0
  1
1520
 41
0.9
100
AcDbText
  0
LINE
  5
140
330
1E
100
AcDbEntity
  8
SIZE
  6
BYBLOCK
100
AcDbLine
 10
760.0
 20
20.0
 30
0.0
 11
760.0
 21
348.603135
 31
0.0
  0
LINE
  5
141
330
1E
100
AcDbEntity
  8
SIZE
  6
BYBLOCK
100
AcDbLine
 10
584.0
 20
40.0
 30
0.0
 11
584.0
 21
348.603135
 31
0.0
  0
LINE
  5
142
330
1E
100
AcDbEntity
  8
SIZE
  6
BYBLOCK
100
AcDbLine
 10
758.0
 20
318.603135
 30
0.0
 11
586.0
 21
318.603135
 31
0.0
  0
TEXT
  5
143
330
1E
100
AcDbEntity
  8
SIZE
  6
BYBLOCK
100
AcDbText
 10
604.8
 20
350.603135
 30
0.0
 40
64.0
  1
176
 41
0.9
100
AcDbText
  0
LINE
  5
144
330
1E
100
AcDbEntity
  8
SIZE
  6
BYBLOCK
100
AcDbLine
 10
760.0
 20
20.0
 30
0.0
 11
760.0
 21
226.84617
 31
0.0
  0
LINE
  5
145
330
1E
100
AcDbEntity
  8
SIZE
  6
BYBLOCK
100
AcDbLine
 10
655.0
 20
40.0
 30
0.0
 11
655.0
 21
226.84617
 31
0.0
  0
LINE
  5
146
330
1E
100
AcDbEntity
  8
SIZE
  6
BYBLOCK
100
AcDbLine
 10
653.0
 20
196.8461699999999
 30
0.0
 11
651.0
 21
196.8461699999999
 31
0.0
  0
LINE
  5
147
330
1E
100
AcDbEntity
  8
SIZE
  6
BYBLOCK
100
AcDbLine
 10
762.0
 20
196.8461699999999
 30
0.0
 11
764.0
 21
196.8461699999999
 31
0.0
  0
LINE
  5
148
330
1E
100
AcDbEntity
  8
SIZE
  6
BYBLOCK
100
AcDbLine
 10
655.0
 20
196.8461699999999
 30
0.0
 11
760.0
 21
196.8461699999999
 31
0.0
  0
TEXT
  5
149
330
1E
100
AcDbEntity
  8
SIZE
  6
BYBLOCK
100
AcDbText
 10
638.9285709999998
 20
228.84617
 30
0.0
 40
64.0
  1
105
 41
0.9
100
AcDbText
  0
LINE
  5
14A
330
1E
100
AcDbEntity
  8
SIZE
  6
BYBLOCK
100
AcDbLine
 10
715.0
 20
40.0
 30
0.0
 11
715.0
 21
100.6855869999998
 31
0.0
  0
LINE
  5
14B
330
1E
100
AcDbEntity
  8
SIZE
  6
BYBLOCK
100
AcDbLine
 10
630.0
 20
40.0
 30
0.0
 11
630.0
 21
100.6855869999998
 31
0.0
  0
LINE
  5
14C
330
1E
100
AcDbEntity
  8
SIZE
  6
BYBLOCK
100
AcDbLine
 10
628.0
 20
70.68558699999993
 30
0.0
 11
626.0
 21
70.68558699999993
 31
0.0
  0
LINE
  5
14D
330
1E
100
AcDbEntity
  8
SIZE
  6
BYBLOCK
100
AcDbLine
 10
717.0
 20
70.68558699999993
 30
0.0
 11
719.0
 21
70.68558699999993
 31
0.0
  0
LINE
  5
14E
330
1E
100
AcDbEntity
  8
SIZE
  6
BYBLOCK
100
AcDbLine
 10
630.0
 20
70.68558699999993
 30
0.0
 11
715.0
 21
70.68558699999993
 31
0.0
  0
TEXT
  5
14F
330
1E
100
AcDbEntity
  8
SIZE
  6
BYBLOCK
100
AcDbText
 10
625.871429
 20
102.6855869999999
 30
0.0
 40
64.0
  1
85
 41
0.9
100
AcDbText
  0
LINE
  5
150
330
1E
100
AcDbEntity
  8
SIZE
  6
BYBLOCK
100
AcDbLine
 10
760.0
 20
20.0
 30
0.0
 11
760.0
 21
100.6855869999998
 31
0.0
  0
LINE
  5
151
330
1E
100
AcDbEntity
  8
SIZE
  6
BYBLOCK
100
AcDbLine
 10
715.0
 20
40.0
 30
0.0
 11
715.0
 21
100.6855869999998
 31
0.0
  0
LINE
  5
152
330
1E
100
AcDbEntity
  8
SIZE
  6
BYBLOCK
100
AcDbLine
 10
713.0
 20
70.68558699999993
 30
0.0
 11
711.0
 21
70.68558699999993
 31
0.0
  0
LINE
  5
153
330
1E
100
AcDbEntity
  8
SIZE
  6
BYBLOCK
100
AcDbLine
 10
762.0
 20
70.68558699999993
 30
0.0
 11
764.0
 21
70.68558699999993
 31
0.0
  0
LINE
  5
154
330
1E
100
AcDbEntity
  8
SIZE
  6
BYBLOCK
100
AcDbLine
 10
715.0
 20
70.68558699999993
 30
0.0
 11
760.0
 21
70.68558699999993
 31
0.0
  0
TEXT
  5
155
330
1E
100
AcDbEntity
  8
SIZE
  6
BYBLOCK
100
AcDbText
 10
775.7422159999999
 20
106.0328889999999
 30
0.0
 40
64.0
  1
45
 41
0.9
100
AcDbText
  0
CIRCLE
  5
156
330
1E
100
AcDbEntity
  8
SIZE
  6
CONTINUOUS
100
AcDbCircle
 10
760.0
 20
70.68558699999993
 30
0.0
 40
6.0
  0
CIRCLE
  5
157
330
1E
100
AcDbEntity
  8
SIZE
  6
CONTINUOUS
100
AcDbCircle
 10
715.0
 20
70.68558699999993
 30
0.0
 40
6.0
  0
CIRCLE
  5
158
330
1E
100
AcDbEntity
  8
SIZE
  6
CONTINUOUS
100
AcDbCircle
 10
715.0
 20
70.68558699999993
 30
0.0
 40
6.0
  0
CIRCLE
  5
159
330
1E
100
AcDbEntity
  8
SIZE
  6
CONTINUOUS
100
AcDbCircle
 10
630.0
 20
70.68558699999993
 30
0.0
 40
6.0
  0
CIRCLE
  5
15A
330
1E
100
AcDbEntity
  8
SIZE
  6
CONTINUOUS
100
AcDbCircle
 10
760.0
 20
196.8461699999999
 30
0.0
 40
6.0
  0
CIRCLE
  5
15B
330
1E
100
AcDbEntity
  8
SIZE
  6
CONTINUOUS
100
AcDbCircle
 10
655.0
 20
196.8461699999999
 30
0.0
 40
6.0
  0
CIRCLE
  5
15C
330
1E
100
AcDbEntity
  8
SIZE
  6
CONTINUOUS
100
AcDbCircle
 10
584.0
 20
318.603135
 30
0.0
 40
6.0
  0
CIRCLE
  5
15D
330
1E
100
AcDbEntity
  8
SIZE
  6
CONTINUOUS
100
AcDbCircle
 10
760.0
 20
318.603135
 30
0.0
 40
6.0
  0
CIRCLE
  5
15E
330
1E
100
AcDbEntity
  8
SIZE
  6
CONTINUOUS
100
AcDbCircle
 10
-760.0
 20
-909.522633
 30
0.0
 40
6.0
  0
CIRCLE
  5
15F
330
1E
100
AcDbEntity
  8
SIZE
  6
CONTINUOUS
100
AcDbCircle
 10
760.0
 20
-909.522633
 30
0.0
 40
6.0
  0
CIRCLE
  5
160
330
1E
100
AcDbEntity
  8
SIZE
  6
CONTINUOUS
100
AcDbCircle
 10
-782.0
 20
-1050.997
 30
0.0
 40
6.0
  0
CIRCLE
  5
161
330
1E
100
AcDbEntity
  8
SIZE
  6
CONTINUOUS
100
AcDbCircle
 10
782.0
 20
-1050.997
 30
0.0
 40
6.0
  0
CIRCLE
  5
162
330
1E
100
AcDbEntity
  8
SIZE
  6
CONTINUOUS
100
AcDbCircle
 10
-804.0
 20
-1300.963
 30
0.0
 40
6.0
  0
CIRCLE
  5
163
330
1E
100
AcDbEntity
  8
SIZE
  6
CONTINUOUS
100
AcDbCircle
 10
804.0
 20
-1300.963
 30
0.0
 40
6.0
  0
CIRCLE
  5
164
330
1E
100
AcDbEntity
  8
SIZE
  6
CONTINUOUS
100
AcDbCircle
 10
936.5357610000001
 20
0.0
 30
0.0
 40
6.0
  0
CIRCLE
  5
165
330
1E
100
AcDbEntity
  8
SIZE
  6
CONTINUOUS
100
AcDbCircle
 10
936.5357610000001
 20
-80.0
 30
0.0
 40
6.0
  0
CIRCLE
  5
166
330
1E
100
AcDbEntity
  8
SIZE
  6
CONTINUOUS
100
AcDbCircle
 10
1028.666999999999
 20
-400.0
 30
0.0
 40
6.0
  0
CIRCLE
  5
167
330
1E
100
AcDbEntity
  8
SIZE
  6
CONTINUOUS
100
AcDbCircle
 10
1028.666999999999
 20
-80.0
 30
0.0
 40
6.0
  0
CIRCLE
  5
168
330
1E
100
AcDbEntity
  8
SIZE
  6
CONTINUOUS
100
AcDbCircle
 10
1281.226
 20
-495.0
 30
0.0
 40
6.0
  0
CIRCLE
  5
169
330
1E
100
AcDbEntity
  8
SIZE
  6
CONTINUOUS
100
AcDbCircle
 10
1281.226
 20
0.0
 30
0.0
 40
6.0
  0
CIRCLE
  5
16A
330
1E
100
AcDbEntity
  8
SIZE
  6
CONTINUOUS
100
AcDbCircle
 10
1281.226
 20
-495.0
 30
0.0
 40
6.0
  0
CIRCLE
  5
16B
330
1E
100
AcDbEntity
  8
SIZE
  6
CONTINUOUS
100
AcDbCircle
 10
1281.226
 20
-570.0
 30
0.0
 40
6.0
  0
CIRCLE
  5
16C
330
1E
100
AcDbEntity
  8
SIZE
  6
CONTINUOUS
100
AcDbCircle
 10
1418.992
 20
-650.0
 30
0.0
 40
6.0
  0
CIRCLE
  5
16D
330
1E
100
AcDbEntity
  8
SIZE
  6
CONTINUOUS
100
AcDbCircle
 10
1418.992
 20
0.0
 30
0.0
 40
6.0
  0
LWPOLYLINE
  5
16E
330
1E
100
AcDbEntity
  8
NOTE
  6
CONTINUOUS
100
AcDbPolyline
 90
        3
 70
     0
 43
0.0
 10
745.6050929999999
 20
25.75515999999999
 10
715.0
 20
0.0
 10
754.3823679999998
 20
7.002075999999988
  0
LWPOLYLINE
  5
173
330
1E
100
AcDbEntity
  8
NOTE
  6
CONTINUOUS
100
AcDbPolyline
 90
        3
 70
     0
 43
0.0
 10
636.54003
 20
-35.48562400000003
 10
655.0
 20
0.0
 10
621.2703849999997
 20
-21.50146699999999
  0
LWPOLYLINE
  5
178
330
1E
100
AcDbEntity
  8
NOTE
  6
CONTINUOUS
100
AcDbPolyline
 90
        3
 70
     0
 43
0.0
 10
594.970769
 20
19.31199099999999
 10
630.0
 20
0.0
 10
609.319792
 20
34.23929000000001
  0
LWPOLYLINE
  5
17D
330
1E
100
AcDbEntity
  8
NOTE
  6
CONTINUOUS
100
AcDbPolyline
 90
        3
 70
     0
 43
0.0
 10
545.1132129999999
 20
9.371116999999998
 10
584.0
 20
0.0
 10
555.0086139999999
 20
27.559019
  0
LWPOLYLINE
  5
182
330
1E
100
AcDbEntity
  8
NOTE
  6
CONTINUOUS
100
AcDbPolyline
 90
        3
 70
     0
 43
0.0
 10
-813.767127012205
 20
-55.69260087556688
 10
-782.0
 20
-80.0
 10
-797.3574395609773
 20
-43.06561158959436
  0
LINE
  5
187
330
1E
100
AcDbEntity
  8
NOTE
  6
CONTINUOUS
100
AcDbLine
 10
584.0
 20
-20.0
 30
0.0
 11
584.0
 21
20.0
 31
0.0
  0
LINE
  5
188
330
1E
100
AcDbEntity
  8
NOTE
  6
CONTINUOUS
100
AcDbLine
 10
564.0
 20
0.0
 30
0.0
 11
604.0
 21
0.0
 31
0.0
  0
LINE
  5
189
330
1E
100
AcDbEntity
  8
NOTE
  6
CONTINUOUS
100
AcDbLine
 10
630.0
 20
-20.0
 30
0.0
 11
630.0
 21
20.0
 31
0.0
  0
LINE
  5
18A
330
1E
100
AcDbEntity
  8
NOTE
  6
CONTINUOUS
100
AcDbLine
 10
610.0
 20
0.0
 30
0.0
 11
650.0
 21
0.0
 31
0.0
  0
LINE
  5
18B
330
1E
100
AcDbEntity
  8
NOTE
  6
CONTINUOUS
100
AcDbLine
 10
655.0
 20
-20.0
 30
0.0
 11
655.0
 21
20.0
 31
0.0
  0
LINE
  5
18C
330
1E
100
AcDbEntity
  8
NOTE
  6
CONTINUOUS
100
AcDbLine
 10
635.0
 20
0.0
 30
0.0
 11
675.0
 21
0.0
 31
0.0
  0
LINE
  5
18D
330
1E
100
AcDbEntity
  8
NOTE
  6
CONTINUOUS
100
AcDbLine
 10
715.0
 20
-20.0
 30
0.0
 11
715.0
 21
20.0
 31
0.0
  0
LINE
  5
18E
330
1E
100
AcDbEntity
  8
NOTE
  6
CONTINUOUS
100
AcDbLine
 10
695.0
 20
0.0
 30
0.0
 11
735.0
 21
0.0
 31
0.0
  0
LINE
  5
18F
330
1E
100
AcDbEntity
  8
NOTE
  6
CONTINUOUS
100
AcDbLine
 10
782.0
 20
-420.0
 30
0.0
 11
782.0
 21
-380.0
 31
0.0
  0
LINE
  5
190
330
1E
100
AcDbEntity
  8
NOTE
  6
CONTINUOUS
100
AcDbLine
 10
762.0
 20
-400.0
 30
0.0
 11
802.0
 21
-400.0
 31
0.0
  0
LINE
  5
191
330
1E
100
AcDbEntity
  8
NOTE
  6
CONTINUOUS
100
AcDbLine
 10
782.0
 20
-100.0
 30
0.0
 11
782.0
 21
-60.0
 31
0.0
  0
LINE
  5
192
330
1E
100
AcDbEntity
  8
NOTE
  6
CONTINUOUS
100
AcDbLine
 10
762.0
 20
-80.0
 30
0.0
 11
802.0
 21
-80.0
 31
0.0
  0
LINE
  5
193
330
1E
100
AcDbEntity
  8
NOTE
  6
CONTINUOUS
100
AcDbLine
 10
-782.0
 20
-420.0
 30
0.0
 11
-782.0
 21
-380.0
 31
0.0
  0
LINE
  5
194
330
1E
100
AcDbEntity
  8
NOTE
  6
CONTINUOUS
100
AcDbLine
 10
-802.0
 20
-400.0
 30
0.0
 11
-762.0
 21
-400.0
 31
0.0
  0
LINE
  5
195
330
1E
100
AcDbEntity
  8
NOTE
  6
CONTINUOUS
100
AcDbLine
 10
-782.0
 20
-100.0
 30
0.0
 11
-782.0
 21
-60.0
 31
0.0
  0
LINE
  5
196
330
1E
100
AcDbEntity
  8
NOTE
  6
CONTINUOUS
100
AcDbLine
 10
-802.0
 20
-80.0
 30
0.0
 11
-762.0
 21
-80.0
 31
0.0
  0
TEXT
  5
197
330
1E
100
AcDbEntity
  8
ETC
  6
CONTINUOUS
100
AcDbText
 10
1091.71414
 20
296.898928
 30
0.0
 40
64.0
  1
PAC
 41
0.9
100
AcDbText
  0
LINE
  5
198
330
1E
100
AcDbEntity
  8
OUTLINE
  6
CONTINUOUS
100
AcDbLine
 10
-760.0
 20
-649.9999999999992
 30
0.0
 11
-760.0
 21
0.0000000000009095
 31
0.0
  0
LINE
  5
199
330
1E
100
AcDbEntity
  8
OUTLINE
  6
CONTINUOUS
100
AcDbLine
 10
760.0
 20
-649.9999999999992
 30
0.0
 11
760.0
 21
0.0000000000009095
 31
0.0
  0
LINE
  5
19A
330
1E
100
AcDbEntity
  8
OUTLINE
  6
CONTINUOUS
100
AcDbLine
 10
-760.0
 20
-649.9999999999992
 30
0.0
 11
760.0
 21
-649.9999999999992
 31
0.0
  0
LINE
  5
19B
330
1E
100
AcDbEntity
  8
OUTLINE
  6
CONTINUOUS
100
AcDbLine
 10
-804.0
 20
-429.9999999999989
 30
0.0
 11
-804.0
 21
-369.9999999999989
 31
0.0
  0
LINE
  5
19C
330
1E
100
AcDbEntity
  8
OUTLINE
  6
CONTINUOUS
100
AcDbLine
 10
-804.0
 20
-429.9999999999989
 30
0.0
 11
-760.0
 21
-429.9999999999989
 31
0.0
  0
ARC
  5
19D
330
1E
100
AcDbEntity
  8
OUTLINE
  6
CONTINUOUS
100
AcDbCircle
 10
-782.0
 20
-399.9999999999991
 30
0.0
 40
5.0
100
AcDbArc
 50
180.0
 51
0.0
  0
LINE
  5
19E
330
1E
100
AcDbEntity
  8
OUTLINE
  6
CONTINUOUS
100
AcDbLine
 10
-787.0
 20
-399.9999999999991
 30
0.0
 11
-787.0
 21
-369.9999999999989
 31
0.0
  0
LINE
  5
19F
330
1E
100
AcDbEntity
  8
OUTLINE
  6
CONTINUOUS
100
AcDbLine
 10
-777.0
 20
-399.9999999999991
 30
0.0
 11
-777.0
 21
-369.9999999999989
 31
0.0
  0
LINE
  5
1A0
330
1E
100
AcDbEntity
  8
OUTLINE
  6
CONTINUOUS
100
AcDbLine
 10
-804.0
 20
-369.9999999999989
 30
0.0
 11
-787.0
 21
-369.9999999999989
 31
0.0
  0
LINE
  5
1A1
330
1E
100
AcDbEntity
  8
OUTLINE
  6
CONTINUOUS
100
AcDbLine
 10
-777.0
 20
-369.9999999999989
 30
0.0
 11
-760.0
 21
-369.9999999999989
 31
0.0
  0
LINE
  5
1A2
330
1E
100
AcDbEntity
  8
OUTLINE
  6
CONTINUOUS
100
AcDbLine
 10
804.0
 20
-429.9999999999989
 30
0.0
 11
804.0
 21
-369.9999999999989
 31
0.0
  0
LINE
  5
1A3
330
1E
100
AcDbEntity
  8
OUTLINE
  6
CONTINUOUS
100
AcDbLine
 10
760.0
 20
-429.9999999999989
 30
0.0
 11
804.0
 21
-429.9999999999989
 31
0.0
  0
ARC
  5
1A4
330
1E
100
AcDbEntity
  8
OUTLINE
  6
CONTINUOUS
100
AcDbCircle
 10
782.0
 20
-399.9999999999991
 30
0.0
 40
5.0
100
AcDbArc
 50
180.0
 51
0.0
  0
LINE
  5
1A5
330
1E
100
AcDbEntity
  8
OUTLINE
  6
CONTINUOUS
100
AcDbLine
 10
777.0
 20
-400.0000039999985
 30
0.0
 11
777.0
 21
-369.9999999999989
 31
0.0
  0
LINE
  5
1A6
330
1E
100
AcDbEntity
  8
OUTLINE
  6
CONTINUOUS
100
AcDbLine
 10
787.0
 20
-400.0000039999985
 30
0.0
 11
787.0
 21
-369.9999999999989
 31
0.0
  0
LINE
  5
1A7
330
1E
100
AcDbEntity
  8
OUTLINE
  6
CONTINUOUS
100
AcDbLine
 10
787.0
 20
-369.9999999999989
 30
0.0
 11
804.0
 21
-369.9999999999989
 31
0.0
  0
LINE
  5
1A8
330
1E
100
AcDbEntity
  8
OUTLINE
  6
CONTINUOUS
100
AcDbLine
 10
760.0
 20
-369.9999999999989
 30
0.0
 11
777.0
 21
-369.9999999999989
 31
0.0
  0
LINE
  5
1A9
330
1E
100
AcDbEntity
  8
OUTLINE
  6
CONTINUOUS
100
AcDbLine
 10
-760.0
 20
0.0000000000009095
 30
0.0
 11
760.0
 21
0.0000000000009095
 31
0.0
  0
ARC
  5
1AA
330
1E
100
AcDbEntity
  8
OUTLINE
  6
CONTINUOUS
100
AcDbCircle
 10
-782.0
 20
-79.99999999999909
 30
0.0
 40
5.0
100
AcDbArc
 50
180.0
 51
0.0
  0
LINE
  5
1AB
330
1E
100
AcDbEntity
  8
OUTLINE
  6
CONTINUOUS
100
AcDbLine
 10
-804.0
 20
-49.99999999999909
 30
0.0
 11
-787.0
 21
-49.99999999999909
 31
0.0
  0
LINE
  5
1AC
330
1E
100
AcDbEntity
  8
OUTLINE
  6
CONTINUOUS
100
AcDbLine
 10
-804.0
 20
-109.999999999999
 30
0.0
 11
-760.0
 21
-109.999999999999
 31
0.0
  0
LINE
  5
1AD
330
1E
100
AcDbEntity
  8
OUTLINE
  6
CONTINUOUS
100
AcDbLine
 10
-777.0
 20
-49.99999999999909
 30
0.0
 11
-760.0
 21
-49.99999999999909
 31
0.0
  0
LINE
  5
1AE
330
1E
100
AcDbEntity
  8
OUTLINE
  6
CONTINUOUS
100
AcDbLine
 10
-787.0
 20
-79.99999999999909
 30
0.0
 11
-787.0
 21
-49.99999999999909
 31
0.0
  0
LINE
  5
1AF
330
1E
100
AcDbEntity
  8
OUTLINE
  6
CONTINUOUS
100
AcDbLine
 10
-777.0
 20
-79.99999999999909
 30
0.0
 11
-777.0
 21
-49.99999999999909
 31
0.0
  0
LINE
  5
1B0
330
1E
100
AcDbEntity
  8
OUTLINE
  6
CONTINUOUS
100
AcDbLine
 10
-804.0
 20
-109.999999999999
 30
0.0
 11
-804.0
 21
-49.99999999999909
 31
0.0
  0
ARC
  5
1B1
330
1E
100
AcDbEntity
  8
OUTLINE
  6
CONTINUOUS
100
AcDbCircle
 10
782.0
 20
-79.99999999999909
 30
0.0
 40
5.0
100
AcDbArc
 50
180.0
 51
0.0
  0
LINE
  5
1B2
330
1E
100
AcDbEntity
  8
OUTLINE
  6
CONTINUOUS
100
AcDbLine
 10
787.0
 20
-49.99999999999909
 30
0.0
 11
804.0
 21
-49.99999999999909
 31
0.0
  0
LINE
  5
1B3
330
1E
100
AcDbEntity
  8
OUTLINE
  6
CONTINUOUS
100
AcDbLine
 10
777.0
 20
-79.99999999999909
 30
0.0
 11
777.0
 21
-49.99999999999909
 31
0.0
  0
LINE
  5
1B4
330
1E
100
AcDbEntity
  8
OUTLINE
  6
CONTINUOUS
100
AcDbLine
 10
787.0
 20
-79.99999999999909
 30
0.0
 11
787.0
 21
-49.99999999999909
 31
0.0
  0
LINE
  5
1B5
330
1E
100
AcDbEntity
  8
OUTLINE
  6
CONTINUOUS
100
AcDbLine
 10
804.0
 20
-109.999999999999
 30
0.0
 11
804.0
 21
-49.99999999999909
 31
0.0
  0
LINE
  5
1B6
330
1E
100
AcDbEntity
  8
OUTLINE
  6
CONTINUOUS
100
AcDbLine
 10
760.0
 20
-109.999999999999
 30
0.0
 11
804.0
 21
-109.999999999999
 31
0.0
  0
LINE
  5
1B7
330
1E
100
AcDbEntity
  8
OUTLINE
  6
CONTINUOUS
100
AcDbLine
 10
760.0
 20
-49.99999999999909
 30
0.0
 11
777.0
 21
-49.99999999999909
 31
0.0
  0
ENDSEC
  0
SECTION
  2
OBJECTS
  0
DICTIONARY
  5
C
330
0
100
AcDbDictionary
  3
ACAD_GROUP
350
D
  3
ACAD_PLOTSTYLENAME
350
E
  3
ACAD_MLINESTYLE
350
16
  3
ACAD_PLOTSETTINGS
350
18
  3
ACAD_LAYOUT
350
19
  3
ACDBHEADERROUNDTRIPXREC
350
1BB
  0
DICTIONARY
  5
1DD
330
1E
100
AcDbDictionary
280
     1
  3
ACAD_LAYOUTSELFREF
360
1DE
  0
DICTIONARY
  5
1DB
330
1A
100
AcDbDictionary
280
     1
  3
ACAD_LAYOUTSELFREF
360
1DC
  0
DICTIONARY
  5
D
102
{ACAD_REACTORS
330
C
102
}
330
C
100
AcDbDictionary
  0
ACDBDICTIONARYWDFLT
  5
E
102
{ACAD_REACTORS
330
C
102
}
330
C
100
AcDbDictionary
281
     1
  3
Normal
350
F
100
AcDbDictionaryWithDefault
340
F
  0
DICTIONARY
  5
16
102
{ACAD_REACTORS
330
C
102
}
330
C
100
AcDbDictionary
  3
STANDARD
350
17
  0
DICTIONARY
  5
18
102
{ACAD_REACTORS
330
C
102
}
330
C
100
AcDbDictionary
  0
DICTIONARY
  5
19
102
{ACAD_REACTORS
330
C
102
}
330
C
100
AcDbDictionary
  0
DICTIONARY
  5
1BB
102
{ACAD_REACTORS
330
C
102
}
330
C
100
AcDbDictionary
  3
TSTACKALIGN
350
1BC
  3
TSTACKSIZE
350
1BD
  3
HYPERLINKBASE
350
1BE
  3
STYLESHEET
350
1BF
  3
LAYOUTDICT
350
1C0
  3
PLOTSETDICT
350
1C1
  3
PLOTSTYLNAMDICT
350
1C2
  3
LWETCUNION
350
1C3
  3
INSUNITS
350
1C4
  3
CEPSNTYPE
350
1C5
  3
FINGERPRINTGUID
350
1C6
  3
VERSIONGUID
350
1C7
  3
PSVPSCALE
350
1C8
  3
PUCSORTHOREF
350
1C9
  3
PUCSORTHOVIEW
350
1CA
  3
PUCSBASE
350
1CB
  3
PUCSORGTOP
350
1CC
  3
PUCSORGBOTTOM
350
1CD
  3
PUCSORGLEFT
350
1CE
  3
PUCSORGRIGHT
350
1CF
  3
PUCSORGFRONT
350
1D0
  3
PUCSORGBACK
350
1D1
  3
UCSORTHOREF
350
1D2
  3
UCSORTHOVIEW
350
1D3
  3
UCSBASE
350
1D4
  3
UCSORGTOP
350
1D5
  3
UCSORGBOTTOM
350
1D6
  3
UCSORGLEFT
350
1D7
  3
UCSORGRIGHT
350
1D8
  3
UCSORGFRONT
350
1D9
  3
UCSORGBACK
350
1DA
  0
XRECORD
  5
1DE
102
{ACAD_REACTORS
330
1DD
102
}
330
1DD
100
AcDbXrecord
340
1E
  0
XRECORD
  5
1DC
102
{ACAD_REACTORS
330
1DB
102
}
330
1DB
100
AcDbXrecord
340
1A
  0
ACDBPLACEHOLDER
  5
F
102
{ACAD_REACTORS
330
E
102
}
330
E
100
AcDbPlaceHolder
280
     0
  0
MLINESTYLE
  5
17
102
{ACAD_REACTORS
330
16
102
}
330
16
100
AcDbMlineStyle
  2
STANDARD
 70
     0
  3

 62
   256
 51
90.0
 52
90.0
 71
     2
 49
0.5
 62
   256
  6
BYLAYER
 49
-0.5
 62
   256
  6
BYLAYER
  0
XRECORD
  5
1BC
102
{ACAD_REACTORS
330
1BB
102
}
330
1BB
100
AcDbXrecord
 90
        1
  0
XRECORD
  5
1BD
102
{ACAD_REACTORS
330
1BB
102
}
330
1BB
100
AcDbXrecord
 90
       70
  0
XRECORD
  5
1BE
102
{ACAD_REACTORS
330
1BB
102
}
330
1BB
100
AcDbXrecord
  1

  0
XRECORD
  5
1BF
102
{ACAD_REACTORS
330
1BB
102
}
330
1BB
100
AcDbXrecord
  1

  0
XRECORD
  5
1C0
102
{ACAD_REACTORS
330
1BB
102
}
330
1BB
100
AcDbXrecord
340
19
  0
XRECORD
  5
1C1
102
{ACAD_REACTORS
330
1BB
102
}
330
1BB
100
AcDbXrecord
340
18
  0
XRECORD
  5
1C2
102
{ACAD_REACTORS
330
1BB
102
}
330
1BB
100
AcDbXrecord
340
E
  0
XRECORD
  5
1C3
102
{ACAD_REACTORS
330
1BB
102
}
330
1BB
100
AcDbXrecord
 90
    10781
  0
XRECORD
  5
1C4
102
{ACAD_REACTORS
330
1BB
102
}
330
1BB
100
AcDbXrecord
 90
        0
  0
XRECORD
  5
1C5
102
{ACAD_REACTORS
330
1BB
102
}
330
1BB
100
AcDbXrecord
 90
        0
  0
XRECORD
  5
1C6
102
{ACAD_REACTORS
330
1BB
102
}
330
1BB
100
AcDbXrecord
  1
{9DC6B03F-5790-4204-ABF1-8BB4CDEDF39E}
  0
XRECORD
  5
1C7
102
{ACAD_REACTORS
330
1BB
102
}
330
1BB
100
AcDbXrecord
  1
{4A148356-B945-4CCC-8BDC-12C788BBA0FA}
  0
XRECORD
  5
1C8
102
{ACAD_REACTORS
330
1BB
102
}
330
1BB
100
AcDbXrecord
 40
0.0
  0
XRECORD
  5
1C9
102
{ACAD_REACTORS
330
1BB
102
}
330
1BB
100
AcDbXrecord
340
0
  0
XRECORD
  5
1CA
102
{ACAD_REACTORS
330
1BB
102
}
330
1BB
100
AcDbXrecord
 70
     0
  0
XRECORD
  5
1CB
102
{ACAD_REACTORS
330
1BB
102
}
330
1BB
100
AcDbXrecord
340
0
  0
XRECORD
  5
1CC
102
{ACAD_REACTORS
330
1BB
102
}
330
1BB
100
AcDbXrecord
 10
0.0
 20
0.0
 30
0.0
  0
XRECORD
  5
1CD
102
{ACAD_REACTORS
330
1BB
102
}
330
1BB
100
AcDbXrecord
 10
0.0
 20
0.0
 30
0.0
  0
XRECORD
  5
1CE
102
{ACAD_REACTORS
330
1BB
102
}
330
1BB
100
AcDbXrecord
 10
0.0
 20
0.0
 30
0.0
  0
XRECORD
  5
1CF
102
{ACAD_REACTORS
330
1BB
102
}
330
1BB
100
AcDbXrecord
 10
0.0
 20
0.0
 30
0.0
  0
XRECORD
  5
1D0
102
{ACAD_REACTORS
330
1BB
102
}
330
1BB
100
AcDbXrecord
 10
0.0
 20
0.0
 30
0.0
  0
XRECORD
  5
1D1
102
{ACAD_REACTORS
330
1BB
102
}
330
1BB
100
AcDbXrecord
 10
0.0
 20
0.0
 30
0.0
  0
XRECORD
  5
1D2
102
{ACAD_REACTORS
330
1BB
102
}
330
1BB
100
AcDbXrecord
340
0
  0
XRECORD
  5
1D3
102
{ACAD_REACTORS
330
1BB
102
}
330
1BB
100
AcDbXrecord
 70
     0
  0
XRECORD
  5
1D4
102
{ACAD_REACTORS
330
1BB
102
}
330
1BB
100
AcDbXrecord
340
0
  0
XRECORD
  5
1D5
102
{ACAD_REACTORS
330
1BB
102
}
330
1BB
100
AcDbXrecord
 10
0.0
 20
0.0
 30
0.0
  0
XRECORD
  5
1D6
102
{ACAD_REACTORS
330
1BB
102
}
330
1BB
100
AcDbXrecord
 10
0.0
 20
0.0
 30
0.0
  0
XRECORD
  5
1D7
102
{ACAD_REACTORS
330
1BB
102
}
330
1BB
100
AcDbXrecord
 10
0.0
 20
0.0
 30
0.0
  0
XRECORD
  5
1D8
102
{ACAD_REACTORS
330
1BB
102
}
330
1BB
100
AcDbXrecord
 10
0.0
 20
0.0
 30
0.0
  0
XRECORD
  5
1D9
102
{ACAD_REACTORS
330
1BB
102
}
330
1BB
100
AcDbXrecord
 10
0.0
 20
0.0
 30
0.0
  0
XRECORD
  5
1DA
102
{ACAD_REACTORS
330
1BB
102
}
330
1BB
100
AcDbXrecord
 10
0.0
 20
0.0
 30
0.0
  0
ENDSEC
  0
EOF
