  0
SECTION
  2
HEADER
  9
$ACADVER
  1
AC1014
  9
$ACADMAINTVER
 70
     9
  9
$DWGCODEPAGE
  3
ANSI_932
  9
$INSBASE
 10
0.0
 20
0.0
 30
0.0
  9
$EXTMIN
 10
-820.8239869999996
 20
-735.2748930000017
 30
0.0
  9
$EXTMAX
 10
1295.407808285714
 20
527.4876019999985
 30
0.0
  9
$LIMMIN
 10
-6425.768467696831
 20
-5966.642460987593
  9
$LIMMAX
 10
10113.08384347792
 20
5093.734920345017
  9
$ORTHOMODE
 70
     1
  9
$REGENMODE
 70
     0
  9
$FILLMODE
 70
     1
  9
$QTEXTMODE
 70
     0
  9
$MIRRTEXT
 70
     0
  9
$DRAGMODE
 70
     2
  9
$LTSCALE
 40
20.0
  9
$OSMODE
 70
    37
  9
$ATTMODE
 70
     1
  9
$TEXTSIZE
 40
64.0
  9
$TRACEWID
 40
0.05
  9
$TEXTSTYLE
  7
STANDARD
  9
$CLAYER
  8
0
  9
$CELTYPE
  6
CONTINUOUS
  9
$CECOLOR
 62
     1
  9
$CELTSCALE
 40
1.0
  9
$DELOBJ
 70
     1
  9
$DISPSILH
 70
     0
  9
$DIMSCALE
 40
1.0
  9
$DIMASZ
 40
2.0
  9
$DIMEXO
 40
20.0
  9
$DIMDLI
 40
200.0
  9
$DIMRND
 40
0.0
  9
$DIMDLE
 40
0.0
  9
$DIMEXE
 40
30.0
  9
$DIMTP
 40
0.0
  9
$DIMTM
 40
0.0
  9
$DIMTXT
 40
64.0
  9
$DIMCEN
 40
0.09
  9
$DIMTSZ
 40
0.0
  9
$DIMTOL
 70
     0
  9
$DIMLIM
 70
     0
  9
$DIMTIH
 70
     0
  9
$DIMTOH
 70
     0
  9
$DIMSE1
 70
     0
  9
$DIMSE2
 70
     0
  9
$DIMTAD
 70
     1
  9
$DIMZIN
 70
     8
  9
$DIMBLK
  1

  9
$DIMASO
 70
     1
  9
$DIMSHO
 70
     0
  9
$DIMPOST
  1

  9
$DIMAPOST
  1

  9
$DIMALT
 70
     0
  9
$DIMALTD
 70
     2
  9
$DIMALTF
 40
25.4
  9
$DIMLFAC
 40
1.0
  9
$DIMTOFL
 70
     1
  9
$DIMTVP
 40
0.0
  9
$DIMTIX
 70
     1
  9
$DIMSOXD
 70
     0
  9
$DIMSAH
 70
     0
  9
$DIMBLK1
  1

  9
$DIMBLK2
  1

  9
$DIMSTYLE
  2
STANDARD
  9
$DIMCLRD
 70
     0
  9
$DIMCLRE
 70
     0
  9
$DIMCLRT
 70
     0
  9
$DIMTFAC
 40
1.0
  9
$DIMGAP
 40
0.09
  9
$DIMJUST
 70
     0
  9
$DIMSD1
 70
     0
  9
$DIMSD2
 70
     0
  9
$DIMTOLJ
 70
     1
  9
$DIMTZIN
 70
     0
  9
$DIMALTZ
 70
     0
  9
$DIMALTTZ
 70
     0
  9
$DIMFIT
 70
     3
  9
$DIMUPT
 70
     0
  9
$DIMUNIT
 70
     2
  9
$DIMDEC
 70
     4
  9
$DIMTDEC
 70
     4
  9
$DIMALTU
 70
     2
  9
$DIMALTTD
 70
     2
  9
$DIMTXSTY
  7
STANDARD
  9
$DIMAUNIT
 70
     0
  9
$LUNITS
 70
     2
  9
$LUPREC
 70
     4
  9
$SKETCHINC
 40
0.1
  9
$FILLETRAD
 40
0.0
  9
$AUNITS
 70
     1
  9
$AUPREC
 70
     3
  9
$MENU
  1
ACAD
  9
$ELEVATION
 40
0.0
  9
$PELEVATION
 40
0.0
  9
$THICKNESS
 40
0.0
  9
$LIMCHECK
 70
     1
  9
$BLIPMODE
 70
     0
  9
$CHAMFERA
 40
0.0
  9
$CHAMFERB
 40
0.0
  9
$CHAMFERC
 40
0.0
  9
$CHAMFERD
 40
0.0
  9
$SKPOLY
 70
     0
  9
$TDCREATE
 40
2450737.648472002
  9
$TDUPDATE
 40
2454077.487790069
  9
$TDINDWG
 40
0.1547728009
  9
$TDUSRTIMER
 40
0.1547728009
  9
$USRTIMER
 70
     1
  9
$ANGBASE
 50
0.0
  9
$ANGDIR
 70
     0
  9
$PDMODE
 70
     3
  9
$PDSIZE
 40
-2.0
  9
$PLINEWID
 40
0.0
  9
$COORDS
 70
     2
  9
$SPLFRAME
 70
     0
  9
$SPLINETYPE
 70
     6
  9
$SPLINESEGS
 70
     8
  9
$ATTDIA
 70
     0
  9
$ATTREQ
 70
     1
  9
$HANDLING
 70
 10241
  9
$HANDSEED
  5
1C8
  9
$SURFTAB1
 70
     6
  9
$SURFTAB2
 70
     6
  9
$SURFTYPE
 70
     6
  9
$SURFU
 70
     6
  9
$SURFV
 70
     6
  9
$UCSNAME
  2

  9
$UCSORG
 10
0.0
 20
0.0
 30
0.0
  9
$UCSXDIR
 10
1.0
 20
0.0
 30
0.0
  9
$UCSYDIR
 10
0.0
 20
1.0
 30
0.0
  9
$PUCSNAME
  2

  9
$PUCSORG
 10
0.0
 20
0.0
 30
0.0
  9
$PUCSXDIR
 10
1.0
 20
0.0
 30
0.0
  9
$PUCSYDIR
 10
0.0
 20
1.0
 30
0.0
  9
$USERI1
 70
     0
  9
$USERI2
 70
     0
  9
$USERI3
 70
     0
  9
$USERI4
 70
     0
  9
$USERI5
 70
     0
  9
$USERR1
 40
20.0
  9
$USERR2
 40
0.0
  9
$USERR3
 40
0.0
  9
$USERR4
 40
0.0
  9
$USERR5
 40
0.0
  9
$WORLDVIEW
 70
     1
  9
$SHADEDGE
 70
     3
  9
$SHADEDIF
 70
    70
  9
$TILEMODE
 70
     1
  9
$MAXACTVP
 70
    64
  9
$PINSBASE
 10
0.0
 20
0.0
 30
0.0
  9
$PLIMCHECK
 70
     0
  9
$PEXTMIN
 10
1.000000000000000E+20
 20
1.000000000000000E+20
 30
1.000000000000000E+20
  9
$PEXTMAX
 10
-1.000000000000000E+20
 20
-1.000000000000000E+20
 30
-1.000000000000000E+20
  9
$PLIMMIN
 10
0.0
 20
0.0
  9
$PLIMMAX
 10
12.0
 20
9.0
  9
$UNITMODE
 70
     0
  9
$VISRETAIN
 70
     1
  9
$PLINEGEN
 70
     0
  9
$PSLTSCALE
 70
     1
  9
$TREEDEPTH
 70
  3020
  9
$PICKSTYLE
 70
     1
  9
$CMLSTYLE
  2
STANDARD
  9
$CMLJUST
 70
     0
  9
$CMLSCALE
 40
1.0
  9
$PROXYGRAPHICS
 70
     1
  9
$MEASUREMENT
 70
     0
  0
ENDSEC
  0
SECTION
  2
CLASSES
  0
CLASS
  1
ACDBDICTIONARYWDFLT
  2
AcDbDictionaryWithDefault
  3
AutoCAD 2000
 90
        0
280
     0
281
     0
  0
CLASS
  1
ACDBPLACEHOLDER
  2
AcDbPlaceHolder
  3
AutoCAD 2000
 90
        0
280
     0
281
     0
  0
CLASS
  1
LAYOUT
  2
AcDbLayout
  3
AutoCAD 2000
 90
        0
280
     0
281
     0
  0
CLASS
  1
LONG_TRANSACTION
  2
AcDbLongTransaction
  3
AutoCAD 2000
 90
        0
280
     0
281
     0
  0
CLASS
  1
LWPOLYLINE
  2
AcDbPolyline
  3
AutoCAD 2000
 90
        0
280
     0
281
     1
  0
CLASS
  1
HATCH
  2
AcDbHatch
  3
AutoCAD 2000
 90
        0
280
     0
281
     1
  0
CLASS
  1
XRECORD
  2
AcDbXrecord
  3
AutoCAD 2000
 90
        0
280
     0
281
     0
  0
ENDSEC
  0
SECTION
  2
TABLES
  0
TABLE
  2
VPORT
  5
8
330
0
100
AcDbSymbolTable
 70
     2
  0
VPORT
  5
1A3
330
8
100
AcDbSymbolTableRecord
100
AcDbViewportTableRecord
  2
*ACTIVE
 70
     0
 10
0.0
 20
0.0
 11
1.0
 21
1.0
 12
544.421733801578
 22
-63.05740223800853
 13
0.0
 23
0.0
 14
400.0
 24
400.0
 15
400.0
 25
400.0
 16
0.0
 26
0.0
 36
1.0
 17
0.0
 27
0.0
 37
0.0
 40
2215.165161168452
 41
1.635574837310195
 42
50.0
 43
0.0
 44
0.0
 50
0.0
 51
0.0
 71
     0
 72
  1000
 73
     1
 74
     0
 75
     0
 76
     0
 77
     0
 78
     0
  0
ENDTAB
  0
TABLE
  2
LTYPE
  5
5
330
0
100
AcDbSymbolTable
 70
     7
  0
LTYPE
  5
13
330
5
100
AcDbSymbolTableRecord
100
AcDbLinetypeTableRecord
  2
BYBLOCK
 70
     0
  3

 72
    65
 73
     0
 40
0.0
  0
LTYPE
  5
14
330
5
100
AcDbSymbolTableRecord
100
AcDbLinetypeTableRecord
  2
BYLAYER
 70
     0
  3

 72
    65
 73
     0
 40
0.0
  0
LTYPE
  5
15
330
5
100
AcDbSymbolTableRecord
100
AcDbLinetypeTableRecord
  2
CONTINUOUS
 70
     0
  3
実線
 72
    65
 73
     0
 40
0.0
  0
LTYPE
  5
22
330
5
100
AcDbSymbolTableRecord
100
AcDbLinetypeTableRecord
  2
DASHDOT
 70
     0
  3
____ _ ____ _ ____ _ ____ _ ____ _ ____ _ ____
 72
    65
 73
     4
 40
5.5
 49
4.0
 74
     0
 49
-0.6
 74
     0
 49
0.3
 74
     0
 49
-0.6
 74
     0
  0
LTYPE
  5
23
330
5
100
AcDbSymbolTableRecord
100
AcDbLinetypeTableRecord
  2
DASHED
 70
     0
  3
_ _ _ _ _ _ _ _ _ _ _ _ _ _ _ _ _ _ _ _ _ _ _
 72
    65
 73
     2
 40
2.0
 49
1.199999999999999
 74
     0
 49
-0.8
 74
     0
  0
LTYPE
  5
24
330
5
100
AcDbSymbolTableRecord
100
AcDbLinetypeTableRecord
  2
DOT
 70
     0
  3
...............................................
 72
    65
 73
     2
 40
0.8
 49
0.5
 74
     0
 49
-0.3
 74
     0
  0
LTYPE
  5
25
330
5
100
AcDbSymbolTableRecord
100
AcDbLinetypeTableRecord
  2
DASHDOT1
 70
     0
  3
____ _ ____ _ ____ _ ____ _ ____ _ ____ _ ____
 72
    65
 73
     4
 40
2.0
 49
1.5
 74
     0
 49
-0.2
 74
     0
 49
0.1
 74
     0
 49
-0.2
 74
     0
  0
LTYPE
  5
26
330
5
100
AcDbSymbolTableRecord
100
AcDbLinetypeTableRecord
  2
DIVIDE
 70
     0
  3
_____ _ _ _____ _ _ _____ _ _ _____ _ _ ____
 72
    65
 73
     6
 40
6.4
 49
4.0
 74
     0
 49
-0.6
 74
     0
 49
0.3
 74
     0
 49
-0.6
 74
     0
 49
0.3
 74
     0
 49
-0.6
 74
     0
  0
LTYPE
  5
27
330
5
100
AcDbSymbolTableRecord
100
AcDbLinetypeTableRecord
  2
DIVIDE1
 70
     0
  3
_____ _ _ _____ _ _ _____ _ _ _____ _ _ ____
 72
    65
 73
     6
 40
3.2
 49
2.0
 74
     0
 49
-0.3
 74
     0
 49
0.15
 74
     0
 49
-0.3
 74
     0
 49
0.15
 74
     0
 49
-0.3
 74
     0
  0
ENDTAB
  0
TABLE
  2
LAYER
  5
2
330
0
100
AcDbSymbolTable
 70
    12
  0
LAYER
  5
10
330
2
100
AcDbSymbolTableRecord
100
AcDbLayerTableRecord
  2
0
 70
     0
 62
     7
  6
CONTINUOUS
  0
LAYER
  5
28
330
2
100
AcDbSymbolTableRecord
100
AcDbLayerTableRecord
  2
OUTLINE
 70
     0
 62
     3
  6
CONTINUOUS
  0
LAYER
  5
29
330
2
100
AcDbSymbolTableRecord
100
AcDbLayerTableRecord
  2
DETAIL
 70
     0
 62
     5
  6
CONTINUOUS
  0
LAYER
  5
2A
330
2
100
AcDbSymbolTableRecord
100
AcDbLayerTableRecord
  2
BASIS
 70
     0
 62
     6
  6
CONTINUOUS
  0
LAYER
  5
2B
330
2
100
AcDbSymbolTableRecord
100
AcDbLayerTableRecord
  2
NOTE
 70
     0
 62
     4
  6
CONTINUOUS
  0
LAYER
  5
2C
330
2
100
AcDbSymbolTableRecord
100
AcDbLayerTableRecord
  2
DEFPOINTS
 70
     0
 62
     7
  6
CONTINUOUS
  0
LAYER
  5
2D
330
2
100
AcDbSymbolTableRecord
100
AcDbLayerTableRecord
  2
SIZE
 70
     0
 62
    32
  6
CONTINUOUS
  0
LAYER
  5
2E
330
2
100
AcDbSymbolTableRecord
100
AcDbLayerTableRecord
  2
ARRANGE
 70
     0
 62
     1
  6
CONTINUOUS
  0
LAYER
  5
2F
330
2
100
AcDbSymbolTableRecord
100
AcDbLayerTableRecord
  2
FIX
 70
     0
 62
   241
  6
CONTINUOUS
  0
LAYER
  5
30
330
2
100
AcDbSymbolTableRecord
100
AcDbLayerTableRecord
  2
ETC
 70
     0
 62
    83
  6
CONTINUOUS
  0
LAYER
  5
31
330
2
100
AcDbSymbolTableRecord
100
AcDbLayerTableRecord
  2
SERVICESPACE
 70
     0
 62
     2
  6
CONTINUOUS
  0
LAYER
  5
32
330
2
100
AcDbSymbolTableRecord
100
AcDbLayerTableRecord
  2
SYMBOLLINE
 70
     0
 62
    38
  6
CONTINUOUS
  0
ENDTAB
  0
TABLE
  2
STYLE
  5
3
330
0
100
AcDbSymbolTable
 70
     1
  0
STYLE
  5
11
330
3
100
AcDbSymbolTableRecord
100
AcDbTextStyleTableRecord
  2
STANDARD
 70
     0
 40
0.0
 41
0.9
 50
0.0
 71
     0
 42
64.0
  3
SIMPLEX
  4
BIGFONT
  0
ENDTAB
  0
TABLE
  2
VIEW
  5
6
330
0
100
AcDbSymbolTable
 70
     1
  0
VIEW
  5
33
330
6
100
AcDbSymbolTableRecord
100
AcDbViewTableRecord
  2
ALL
 70
     0
 40
4508.021
 10
0.0
 20
41.30990399999999
 41
6252.632
 11
0.0
 21
0.0
 31
1.0
 12
0.0
 22
0.0
 32
0.0
 42
50.0
 43
0.0
 44
0.0
 50
0.0
 71
     0
  0
ENDTAB
  0
TABLE
  2
UCS
  5
7
330
0
100
AcDbSymbolTable
 70
     0
  0
ENDTAB
  0
TABLE
  2
APPID
  5
9
330
0
100
AcDbSymbolTable
 70
     1
  0
APPID
  5
12
330
9
100
AcDbSymbolTableRecord
100
AcDbRegAppTableRecord
  2
ACAD
 70
     0
  0
ENDTAB
  0
TABLE
  2
DIMSTYLE
  5
A
330
0
100
AcDbSymbolTable
 70
     1
  0
DIMSTYLE
105
1A1
330
A
100
AcDbSymbolTableRecord
100
AcDbDimStyleTableRecord
  2
STANDARD
 70
     0
  3

  4

  5

  6

  7

 40
1.0
 41
0.18
 42
0.0625
 43
0.38
 44
0.18
 45
0.0
 46
0.0
 47
0.0
 48
0.0
140
0.18
141
0.09
142
0.0
143
25.4
144
1.0
145
0.0
146
1.0
147
0.09
 71
     0
 72
     0
 73
     1
 74
     1
 75
     0
 76
     0
 77
     0
 78
     0
170
     0
171
     2
172
     0
173
     0
174
     0
175
     0
176
     0
177
     0
178
     0
270
     2
271
     4
272
     4
273
     2
274
     2
340
11
275
     0
280
     0
281
     0
282
     0
283
     1
284
     0
285
     0
286
     0
287
     3
288
     0
  0
ENDTAB
  0
TABLE
  2
BLOCK_RECORD
  5
1
330
0
100
AcDbSymbolTable
 70
     3
  0
BLOCK_RECORD
  5
1E
102
{ACAD_XDICTIONARY
360
1C6
102
}
330
1
100
AcDbSymbolTableRecord
100
AcDbBlockTableRecord
  2
*MODEL_SPACE
  0
BLOCK_RECORD
  5
1A
102
{ACAD_XDICTIONARY
360
1C4
102
}
330
1
100
AcDbSymbolTableRecord
100
AcDbBlockTableRecord
  2
*PAPER_SPACE
  0
BLOCK_RECORD
  5
37
330
1
100
AcDbSymbolTableRecord
100
AcDbBlockTableRecord
  2
$MODEL_SPACE
  0
BLOCK_RECORD
  5
3A
330
1
100
AcDbSymbolTableRecord
100
AcDbBlockTableRecord
  2
$PAPER_SPACE
  0
BLOCK_RECORD
  5
3D
330
1
100
AcDbSymbolTableRecord
100
AcDbBlockTableRecord
  2
A$C4C9A7C4E
  0
ENDTAB
  0
ENDSEC
  0
SECTION
  2
BLOCKS
  0
BLOCK
  5
1F
330
1E
100
AcDbEntity
  8
0
100
AcDbBlockBegin
  2
*MODEL_SPACE
 70
     0
 10
0.0
 20
0.0
 30
0.0
  3
*MODEL_SPACE
  1

  0
ENDBLK
  5
20
330
1E
100
AcDbEntity
  8
0
100
AcDbBlockEnd
  0
BLOCK
  5
1B
330
1A
100
AcDbEntity
 67
     1
  8
0
100
AcDbBlockBegin
  2
*PAPER_SPACE
 70
     0
 10
0.0
 20
0.0
 30
0.0
  3
*PAPER_SPACE
  1

  0
ENDBLK
  5
1C
330
1A
100
AcDbEntity
 67
     1
  8
0
100
AcDbBlockEnd
  0
BLOCK
  5
38
330
37
100
AcDbEntity
  8
0
100
AcDbBlockBegin
  2
$MODEL_SPACE
 70
     0
 10
0.0
 20
0.0
 30
0.0
  3
$MODEL_SPACE
  1

  0
ENDBLK
  5
39
330
37
100
AcDbEntity
  8
0
100
AcDbBlockEnd
  0
BLOCK
  5
3B
330
3A
100
AcDbEntity
  8
0
100
AcDbBlockBegin
  2
$PAPER_SPACE
 70
     0
 10
0.0
 20
0.0
 30
0.0
  3
$PAPER_SPACE
  1

  0
ENDBLK
  5
3C
330
3A
100
AcDbEntity
  8
0
100
AcDbBlockEnd
  0
BLOCK
  5
3E
330
3D
100
AcDbEntity
  8
0
 62
     1
100
AcDbBlockBegin
  2
A$C4C9A7C4E
 70
     0
 10
0.0
 20
0.0
 30
0.0
  3
A$C4C9A7C4E
  1

  0
TEXT
  5
3F
330
3D
100
AcDbEntity
  8
SIZE
  6
BYBLOCK
100
AcDbText
 10
1057.612999041217
 20
195.6697495547124
 30
0.0
 40
64.0
  1
1370
 41
0.9
100
AcDbText
  0
LINE
  5
40
330
3D
100
AcDbEntity
  8
SIZE
  6
BYBLOCK
100
AcDbLine
 10
470.6129990412172
 20
163.6697495547124
 30
0.0
 11
1836.612999041216
 21
163.6697495547124
 31
0.0
  0
TEXT
  5
41
330
3D
100
AcDbEntity
  8
SIZE
  6
BYBLOCK
100
AcDbText
 10
1057.612999041217
 20
61.99999755471242
 30
0.0
 40
64.0
  1
1520
 41
0.9
100
AcDbText
  0
LINE
  5
42
330
3D
100
AcDbEntity
  8
SIZE
  6
BYBLOCK
100
AcDbLine
 10
395.6129990412172
 20
29.99999755471241
 30
0.0
 11
1911.612999041216
 21
29.99999755471241
 31
0.0
  0
TEXT
  5
43
330
3D
100
AcDbEntity
  8
SIZE
  6
BYBLOCK
100
AcDbText
 10
1056.241570041217
 20
914.7208305547124
 30
0.0
 40
64.0
  1
1564
 41
0.9
100
AcDbText
  0
LINE
  5
44
330
3D
100
AcDbEntity
  8
SIZE
  6
BYBLOCK
100
AcDbLine
 10
373.6129990412172
 20
882.7208305547125
 30
0.0
 11
1933.612999041216
 21
882.7208305547125
 31
0.0
  0
TEXT
  5
45
330
3D
100
AcDbEntity
  8
SIZE
  6
BYBLOCK
100
AcDbText
 10
1057.612999041217
 20
1043.781280554712
 30
0.0
 40
64.0
  1
1608
 41
0.9
100
AcDbText
  0
LINE
  5
46
330
3D
100
AcDbEntity
  8
SIZE
  6
BYBLOCK
100
AcDbLine
 10
351.6129990412173
 20
1011.781280554712
 30
0.0
 11
1955.612999041216
 21
1011.781280554712
 31
0.0
  0
LINE
  5
47
330
3D
100
AcDbEntity
  8
OUTLINE
  6
CONTINUOUS
100
AcDbLine
 10
393.6129990412172
 20
448.5372275547123
 30
0.0
 11
1913.612999041216
 21
448.5372275547123
 31
0.0
  0
LINE
  5
48
330
3D
100
AcDbEntity
  8
OUTLINE
  6
CONTINUOUS
100
AcDbLine
 10
393.6129990412172
 20
728.5372275547123
 30
0.0
 11
1913.612999041216
 21
728.5372275547123
 31
0.0
  0
LINE
  5
49
330
3D
100
AcDbEntity
  8
DETAIL
  6
CONTINUOUS
100
AcDbLine
 10
933.6129990412173
 20
596.5372275547125
 30
0.0
 11
1373.612999041217
 21
596.5372275547125
 31
0.0
  0
LINE
  5
4A
330
3D
100
AcDbEntity
  8
DETAIL
  6
CONTINUOUS
100
AcDbLine
 10
933.6129990412173
 20
546.5372275547125
 30
0.0
 11
1373.612999041217
 21
546.5372275547125
 31
0.0
  0
LINE
  5
4B
330
3D
100
AcDbEntity
  8
DETAIL
  6
CONTINUOUS
100
AcDbLine
 10
468.6129990412172
 20
516.5372275547126
 30
0.0
 11
1838.612999041217
 21
516.5372275547126
 31
0.0
  0
LINE
  5
4C
330
3D
100
AcDbEntity
  8
DETAIL
  6
CONTINUOUS
100
AcDbLine
 10
468.6129990412172
 20
626.5372275547125
 30
0.0
 11
1838.612999041217
 21
626.5372275547125
 31
0.0
  0
LINE
  5
4D
330
3D
100
AcDbEntity
  8
DETAIL
  6
CONTINUOUS
100
AcDbLine
 10
393.6129990412172
 20
485.5372275547123
 30
0.0
 11
1913.612999041216
 21
485.5372275547123
 31
0.0
  0
LINE
  5
4E
330
3D
100
AcDbEntity
  8
DETAIL
  6
CONTINUOUS
100
AcDbLine
 10
393.6129990412172
 20
485.5372275547123
 30
0.0
 11
1913.612999041216
 21
485.5372275547123
 31
0.0
  0
LINE
  5
4F
330
3D
100
AcDbEntity
  8
DETAIL
  6
CONTINUOUS
100
AcDbLine
 10
393.6129990412172
 20
653.5372275547125
 30
0.0
 11
1913.612999041216
 21
653.5372275547125
 31
0.0
  0
LINE
  5
50
330
3D
100
AcDbEntity
  8
DETAIL
  6
CONTINUOUS
100
AcDbLine
 10
393.6129990412172
 20
448.5372275547123
 30
0.0
 11
1913.612999041216
 21
448.5372275547123
 31
0.0
  0
CIRCLE
  5
51
330
3D
100
AcDbEntity
  8
ARRANGE
  6
CONTINUOUS
100
AcDbCircle
 10
1153.612999041217
 20
728.5372275547123
 30
0.0
 40
40.0
  0
LINE
  5
52
330
3D
100
AcDbEntity
  8
DETAIL
  6
CONTINUOUS
100
AcDbLine
 10
393.6129990412172
 20
728.5372275547123
 30
0.0
 11
1913.612999041216
 21
728.5372275547123
 31
0.0
  0
POINT
  5
53
330
3D
100
AcDbEntity
  8
ARRANGE
  6
CONTINUOUS
100
AcDbPoint
 10
1153.612999041217
 20
728.5372275547123
 30
0.0
  0
CIRCLE
  5
54
330
3D
100
AcDbEntity
  8
SIZE
  6
CONTINUOUS
100
AcDbCircle
 10
264.9994000412172
 20
728.5372275547123
 30
0.0
 40
6.0
  0
LINE
  5
55
330
3D
100
AcDbEntity
  8
SIZE
  6
BYBLOCK
100
AcDbLine
 10
371.6129990412172
 20
725.5372275547123
 30
0.0
 11
371.6129990412172
 21
912.7208305547124
 31
0.0
  0
LINE
  5
56
330
3D
100
AcDbEntity
  8
SIZE
  6
BYBLOCK
100
AcDbLine
 10
349.6129990412172
 20
703.0372275547125
 30
0.0
 11
349.6129990412172
 21
1041.781280554712
 31
0.0
  0
LINE
  5
57
330
3D
100
AcDbEntity
  8
NOTE
  6
CONTINUOUS
100
AcDbLine
 10
371.6129990412172
 20
685.5372275547125
 30
0.0
 11
221.5373830412172
 21
860.5098355547124
 31
0.0
  0
LINE
  5
58
330
3D
100
AcDbEntity
  8
BASIS
  6
DASHDOT
100
AcDbLine
 10
1153.612999041217
 20
343.4325195547124
 30
0.0
 11
1153.612999041217
 21
845.8464155547124
 31
0.0
  0
TEXT
  5
59
330
3D
100
AcDbEntity
  8
SIZE
  6
BYBLOCK
100
AcDbText
 10
232.9994000412172
 20
506.9800845547123
 30
0.0
 40
64.0
  1
295
 50
90.0
 41
0.9
100
AcDbText
  0
LINE
  5
5A
330
3D
100
AcDbEntity
  8
SIZE
  6
BYBLOCK
100
AcDbLine
 10
393.6129990412172
 20
415.5372275547123
 30
0.0
 11
393.6129990412172
 21
-0.0000024452875778
 31
0.0
  0
CIRCLE
  5
5B
330
3D
100
AcDbEntity
  8
SIZE
  6
CONTINUOUS
100
AcDbCircle
 10
393.6129990412172
 20
29.99999755471241
 30
0.0
 40
6.0
  0
LINE
  5
5C
330
3D
100
AcDbEntity
  8
DETAIL
  6
CONTINUOUS
100
AcDbLine
 10
468.6129990412172
 20
546.5372275547125
 30
0.0
 11
908.6129990412173
 21
546.5372275547125
 31
0.0
  0
LINE
  5
5D
330
3D
100
AcDbEntity
  8
DETAIL
  6
CONTINUOUS
100
AcDbLine
 10
468.6129990412172
 20
596.5372275547125
 30
0.0
 11
908.6129990412173
 21
596.5372275547125
 31
0.0
  0
LINE
  5
5E
330
3D
100
AcDbEntity
  8
DETAIL
  6
CONTINUOUS
100
AcDbLine
 10
393.6129990412172
 20
433.5372275547124
 30
0.0
 11
753.6129990412172
 21
433.5372275547124
 31
0.0
  0
LINE
  5
5F
330
3D
100
AcDbEntity
  8
SIZE
  6
BYBLOCK
100
AcDbLine
 10
468.6129990412172
 20
496.5372275547124
 30
0.0
 11
468.6129990412172
 21
133.6697495547124
 31
0.0
  0
CIRCLE
  5
60
330
3D
100
AcDbEntity
  8
SIZE
  6
CONTINUOUS
100
AcDbCircle
 10
468.6129990412172
 20
163.6697495547124
 30
0.0
 40
6.0
  0
LINE
  5
61
330
3D
100
AcDbEntity
  8
SIZE
  6
BYBLOCK
100
AcDbLine
 10
264.9994000412172
 20
726.5372275547123
 30
0.0
 11
264.9994000412172
 21
435.5372275547123
 31
0.0
  0
LINE
  5
62
330
3D
100
AcDbEntity
  8
OUTLINE
  6
CONTINUOUS
100
AcDbLine
 10
393.6129990412172
 20
448.5372275547123
 30
0.0
 11
393.6129990412172
 21
728.5372275547123
 31
0.0
  0
LINE
  5
63
330
3D
100
AcDbEntity
  8
DETAIL
  6
CONTINUOUS
100
AcDbLine
 10
393.6129990412172
 20
433.5372275547124
 30
0.0
 11
393.6129990412172
 21
728.5372275547123
 31
0.0
  0
LINE
  5
64
330
3D
100
AcDbEntity
  8
SIZE
  6
BYBLOCK
100
AcDbLine
 10
373.6129990412172
 20
433.5372275547124
 30
0.0
 11
234.9994000412172
 21
433.5372275547124
 31
0.0
  0
CIRCLE
  5
65
330
3D
100
AcDbEntity
  8
SIZE
  6
CONTINUOUS
100
AcDbCircle
 10
264.9994000412172
 20
433.5372275547124
 30
0.0
 40
6.0
  0
LWPOLYLINE
  5
66
330
3D
100
AcDbEntity
  8
NOTE
  6
CONTINUOUS
100
AcDbPolyline
 90
        3
 70
     0
 43
0.0
 10
339.6743450412172
 20
709.6188045547124
 10
371.6129990412172
 20
685.5372275547125
 10
355.9941020412172
 20
722.3618125547123
  0
LINE
  5
6B
330
3D
100
AcDbEntity
  8
SIZE
  6
BYBLOCK
100
AcDbLine
 10
373.6129990412172
 20
728.5372275547123
 30
0.0
 11
234.9994000412172
 21
728.5372275547123
 31
0.0
  0
LINE
  5
6C
330
3D
100
AcDbEntity
  8
NOTE
  6
CONTINUOUS
100
AcDbLine
 10
351.6129990412173
 20
685.5372275547125
 30
0.0
 11
391.6129990412173
 21
685.5372275547125
 31
0.0
  0
LINE
  5
6D
330
3D
100
AcDbEntity
  8
NOTE
  6
CONTINUOUS
100
AcDbLine
 10
371.6129990412172
 20
665.5372275547125
 30
0.0
 11
371.6129990412172
 21
705.5372275547125
 31
0.0
  0
CIRCLE
  5
6E
330
3D
100
AcDbEntity
  8
FIX
  6
CONTINUOUS
100
AcDbCircle
 10
371.6129990412172
 20
685.5372275547125
 30
0.0
 40
5.0
  0
LINE
  5
6F
330
3D
100
AcDbEntity
  8
DETAIL
  6
CONTINUOUS
100
AcDbLine
 10
349.6129990412172
 20
683.0372275547126
 30
0.0
 11
393.6129990412172
 21
683.0372275547126
 31
0.0
  0
LINE
  5
70
330
3D
100
AcDbEntity
  8
DETAIL
  6
CONTINUOUS
100
AcDbLine
 10
349.6129990412172
 20
688.0372275547125
 30
0.0
 11
393.6129990412172
 21
688.0372275547125
 31
0.0
  0
LINE
  5
71
330
3D
100
AcDbEntity
  8
DETAIL
  6
CONTINUOUS
100
AcDbLine
 10
349.6129990412172
 20
683.0372275547126
 30
0.0
 11
349.6129990412172
 21
688.0372275547125
 31
0.0
  0
LINE
  5
72
330
3D
100
AcDbEntity
  8
DETAIL
  6
CONTINUOUS
100
AcDbLine
 10
468.6129990412172
 20
516.5372275547126
 30
0.0
 11
468.6129990412172
 21
626.5372275547125
 31
0.0
  0
LINE
  5
73
330
3D
100
AcDbEntity
  8
DETAIL
  6
CONTINUOUS
100
AcDbLine
 10
780.6129990412172
 20
433.5372275547124
 30
0.0
 11
1140.612999041217
 21
433.5372275547124
 31
0.0
  0
LINE
  5
74
330
3D
100
AcDbEntity
  8
DETAIL
  6
CONTINUOUS
100
AcDbLine
 10
908.6129990412173
 20
546.5372275547125
 30
0.0
 11
908.6129990412173
 21
596.5372275547125
 31
0.0
  0
LINE
  5
75
330
3D
100
AcDbEntity
  8
DETAIL
  6
CONTINUOUS
100
AcDbLine
 10
780.6129990412172
 20
433.5372275547124
 30
0.0
 11
780.6129990412172
 21
448.5372275547123
 31
0.0
  0
LINE
  5
76
330
3D
100
AcDbEntity
  8
DETAIL
  6
CONTINUOUS
100
AcDbLine
 10
753.6129990412172
 20
433.5372275547124
 30
0.0
 11
753.6129990412172
 21
448.5372275547123
 31
0.0
  0
LINE
  5
77
330
3D
100
AcDbEntity
  8
DETAIL
  6
CONTINUOUS
100
AcDbLine
 10
933.6129990412173
 20
546.5372275547125
 30
0.0
 11
933.6129990412173
 21
596.5372275547125
 31
0.0
  0
LINE
  5
78
330
3D
100
AcDbEntity
  8
DETAIL
  6
CONTINUOUS
100
AcDbLine
 10
1140.612999041217
 20
433.5372275547124
 30
0.0
 11
1140.612999041217
 21
448.5372275547123
 31
0.0
  0
TEXT
  5
79
330
3D
100
AcDbEntity
  8
NOTE
  6
CONTINUOUS
100
AcDbText
 10
25.88099904121736
 20
869.8290275547124
 30
0.0
 40
64.0
  1
AH
 41
0.9
100
AcDbText
  0
LINE
  5
7A
330
3D
100
AcDbEntity
  8
NOTE
  6
CONTINUOUS
100
AcDbLine
 10
221.5373830412172
 20
860.5098355547124
 30
0.0
 11
-0.0000009587827208
 21
860.5098355547124
 31
0.0
  0
CIRCLE
  5
7B
330
3D
100
AcDbEntity
  8
SIZE
  6
CONTINUOUS
100
AcDbCircle
 10
371.6129990412172
 20
882.7208305547125
 30
0.0
 40
6.0
  0
CIRCLE
  5
7C
330
3D
100
AcDbEntity
  8
SIZE
  6
CONTINUOUS
100
AcDbCircle
 10
349.6129990412172
 20
1011.781280554712
 30
0.0
 40
6.0
  0
CIRCLE
  5
7D
330
3D
100
AcDbEntity
  8
SIZE
  6
CONTINUOUS
100
AcDbCircle
 10
2499.211999041217
 20
728.5372275547123
 30
0.0
 40
6.0
  0
CIRCLE
  5
7E
330
3D
100
AcDbEntity
  8
SIZE
  6
CONTINUOUS
100
AcDbCircle
 10
2367.712999041217
 20
728.5372275547123
 30
0.0
 40
6.0
  0
CIRCLE
  5
7F
330
3D
100
AcDbEntity
  8
SIZE
  6
CONTINUOUS
100
AcDbCircle
 10
2244.497999041216
 20
728.5372275547123
 30
0.0
 40
6.0
  0
CIRCLE
  5
80
330
3D
100
AcDbEntity
  8
SIZE
  6
CONTINUOUS
100
AcDbCircle
 10
2104.715411041216
 20
728.5372275547123
 30
0.0
 40
6.0
  0
LINE
  5
81
330
3D
100
AcDbEntity
  8
SIZE
  6
BYBLOCK
100
AcDbLine
 10
1935.612999041216
 20
725.5372275547123
 30
0.0
 11
1935.612999041216
 21
912.7208305547124
 31
0.0
  0
LINE
  5
82
330
3D
100
AcDbEntity
  8
SIZE
  6
BYBLOCK
100
AcDbLine
 10
1957.612999041216
 20
703.0372275547125
 30
0.0
 11
1957.612999041216
 21
1041.781280554712
 31
0.0
  0
TEXT
  5
83
330
3D
100
AcDbEntity
  8
SIZE
  6
BYBLOCK
100
AcDbText
 10
2212.497999041216
 20
644.4086565547125
 30
0.0
 40
64.0
  1
75
 50
90.0
 41
0.9
100
AcDbText
  0
LINE
  5
84
330
3D
100
AcDbEntity
  8
SIZE
  6
CONTINUOUS
100
AcDbLine
 10
2367.712999041217
 20
728.5372275547123
 30
0.0
 11
2367.712999041217
 21
892.0804115547124
 31
0.0
  0
LINE
  5
85
330
3D
100
AcDbEntity
  8
SIZE
  6
CONTINUOUS
100
AcDbLine
 10
2104.715411041216
 20
728.5372275547123
 30
0.0
 11
2104.715411041216
 21
841.3425895547124
 31
0.0
  0
LINE
  5
86
330
3D
100
AcDbEntity
  8
SIZE
  6
BYBLOCK
100
AcDbLine
 10
1975.612999041216
 20
685.5372275547125
 30
0.0
 11
2134.715411041216
 21
685.5372275547125
 31
0.0
  0
LINE
  5
87
330
3D
100
AcDbEntity
  8
SIZE
  6
BYBLOCK
100
AcDbLine
 10
1933.612999041216
 20
728.5372275547123
 30
0.0
 11
2134.715411041216
 21
728.5372275547123
 31
0.0
  0
LINE
  5
88
330
3D
100
AcDbEntity
  8
SIZE
  6
BYBLOCK
100
AcDbLine
 10
1933.612999041216
 20
653.5372275547125
 30
0.0
 11
2274.497999041217
 21
653.5372275547125
 31
0.0
  0
LINE
  5
89
330
3D
100
AcDbEntity
  8
SIZE
  6
BYBLOCK
100
AcDbLine
 10
1933.612999041216
 20
728.5372275547123
 30
0.0
 11
2274.497999041217
 21
728.5372275547123
 31
0.0
  0
LINE
  5
8A
330
3D
100
AcDbEntity
  8
SIZE
  6
BYBLOCK
100
AcDbLine
 10
1858.612999041216
 20
626.5372275547125
 30
0.0
 11
2397.712999041217
 21
626.5372275547125
 31
0.0
  0
LINE
  5
8B
330
3D
100
AcDbEntity
  8
SIZE
  6
BYBLOCK
100
AcDbLine
 10
1933.612999041216
 20
728.5372275547123
 30
0.0
 11
2397.712999041217
 21
728.5372275547123
 31
0.0
  0
LINE
  5
8C
330
3D
100
AcDbEntity
  8
SIZE
  6
BYBLOCK
100
AcDbLine
 10
1858.612999041216
 20
516.5372275547126
 30
0.0
 11
2397.712999041217
 21
516.5372275547126
 31
0.0
  0
LINE
  5
8D
330
3D
100
AcDbEntity
  8
SIZE
  6
BYBLOCK
100
AcDbLine
 10
1858.612999041216
 20
626.5372275547125
 30
0.0
 11
2397.712999041217
 21
626.5372275547125
 31
0.0
  0
LINE
  5
8E
330
3D
100
AcDbEntity
  8
SIZE
  6
BYBLOCK
100
AcDbLine
 10
1933.612999041216
 20
448.5372275547123
 30
0.0
 11
2529.211999041217
 21
448.5372275547123
 31
0.0
  0
LINE
  5
8F
330
3D
100
AcDbEntity
  8
SIZE
  6
BYBLOCK
100
AcDbLine
 10
1933.612999041216
 20
728.5372275547123
 30
0.0
 11
2529.211999041217
 21
728.5372275547123
 31
0.0
  0
LINE
  5
90
330
3D
100
AcDbEntity
  8
NOTE
  6
CONTINUOUS
100
AcDbLine
 10
2077.598899041217
 20
242.6303795547124
 30
0.0
 11
2548.635999041217
 21
242.6303795547124
 31
0.0
  0
LINE
  5
91
330
3D
100
AcDbEntity
  8
SIZE
  6
BYBLOCK
100
AcDbLine
 10
1913.612999041216
 20
415.5372275547123
 30
0.0
 11
1913.612999041216
 21
-0.0000024452875778
 31
0.0
  0
CIRCLE
  5
92
330
3D
100
AcDbEntity
  8
SIZE
  6
CONTINUOUS
100
AcDbCircle
 10
1913.612999041216
 20
29.99999755471241
 30
0.0
 40
6.0
  0
LINE
  5
93
330
3D
100
AcDbEntity
  8
SIZE
  6
BYBLOCK
100
AcDbLine
 10
1911.612999041216
 20
281.2069455547124
 30
0.0
 11
1555.612999041217
 21
281.2069455547124
 31
0.0
  0
LINE
  5
94
330
3D
100
AcDbEntity
  8
DETAIL
  6
CONTINUOUS
100
AcDbLine
 10
1398.612999041217
 20
596.5372275547125
 30
0.0
 11
1838.612999041217
 21
596.5372275547125
 31
0.0
  0
LINE
  5
95
330
3D
100
AcDbEntity
  8
DETAIL
  6
CONTINUOUS
100
AcDbLine
 10
1398.612999041217
 20
546.5372275547125
 30
0.0
 11
1838.612999041217
 21
546.5372275547125
 31
0.0
  0
LINE
  5
96
330
3D
100
AcDbEntity
  8
DETAIL
  6
CONTINUOUS
100
AcDbLine
 10
1553.612999041217
 20
433.5372275547124
 30
0.0
 11
1913.612999041216
 21
433.5372275547124
 31
0.0
  0
LINE
  5
97
330
3D
100
AcDbEntity
  8
SIZE
  6
BYBLOCK
100
AcDbLine
 10
1553.612999041217
 20
415.5372275547123
 30
0.0
 11
1553.612999041217
 21
251.2069455547123
 31
0.0
  0
CIRCLE
  5
98
330
3D
100
AcDbEntity
  8
SIZE
  6
CONTINUOUS
100
AcDbCircle
 10
1553.612999041217
 20
281.2069455547124
 30
0.0
 40
6.0
  0
LINE
  5
99
330
3D
100
AcDbEntity
  8
DETAIL
  6
CONTINUOUS
100
AcDbLine
 10
1166.612999041217
 20
433.5372275547124
 30
0.0
 11
1526.612999041217
 21
433.5372275547124
 31
0.0
  0
LINE
  5
9A
330
3D
100
AcDbEntity
  8
DETAIL
  6
CONTINUOUS
100
AcDbLine
 10
1373.612999041217
 20
546.5372275547125
 30
0.0
 11
1373.612999041217
 21
596.5372275547125
 31
0.0
  0
LINE
  5
9B
330
3D
100
AcDbEntity
  8
DETAIL
  6
CONTINUOUS
100
AcDbLine
 10
1166.612999041217
 20
433.5372275547124
 30
0.0
 11
1166.612999041217
 21
448.5372275547123
 31
0.0
  0
LINE
  5
9C
330
3D
100
AcDbEntity
  8
DETAIL
  6
CONTINUOUS
100
AcDbLine
 10
1398.612999041217
 20
546.5372275547125
 30
0.0
 11
1398.612999041217
 21
596.5372275547125
 31
0.0
  0
LINE
  5
9D
330
3D
100
AcDbEntity
  8
DETAIL
  6
CONTINUOUS
100
AcDbLine
 10
1526.612999041217
 20
433.5372275547124
 30
0.0
 11
1526.612999041217
 21
448.5372275547123
 31
0.0
  0
LINE
  5
9E
330
3D
100
AcDbEntity
  8
DETAIL
  6
CONTINUOUS
100
AcDbLine
 10
1553.612999041217
 20
433.5372275547124
 30
0.0
 11
1553.612999041217
 21
448.5372275547123
 31
0.0
  0
LINE
  5
9F
330
3D
100
AcDbEntity
  8
SIZE
  6
BYBLOCK
100
AcDbLine
 10
1838.612999041217
 20
496.5372275547124
 30
0.0
 11
1838.612999041217
 21
133.6697495547124
 31
0.0
  0
LINE
  5
A0
330
3D
100
AcDbEntity
  8
SIZE
  6
BYBLOCK
100
AcDbLine
 10
1913.612999041216
 20
415.5372275547123
 30
0.0
 11
1913.612999041216
 21
251.2069455547123
 31
0.0
  0
LINE
  5
A1
330
3D
100
AcDbEntity
  8
SIZE
  6
BYBLOCK
100
AcDbLine
 10
1913.612999041216
 20
413.5372275547124
 30
0.0
 11
1913.612999041216
 21
133.6697495547124
 31
0.0
  0
LINE
  5
A2
330
3D
100
AcDbEntity
  8
SIZE
  6
BYBLOCK
100
AcDbLine
 10
1838.612999041217
 20
496.5372275547124
 30
0.0
 11
1838.612999041217
 21
133.6697495547124
 31
0.0
  0
LINE
  5
A3
330
3D
100
AcDbEntity
  8
NOTE
  6
CONTINUOUS
100
AcDbLine
 10
1935.612999041216
 20
685.5372275547125
 30
0.0
 11
2077.598899041217
 21
242.6303795547124
 31
0.0
  0
TEXT
  5
A4
330
3D
100
AcDbEntity
  8
SIZE
  6
BYBLOCK
100
AcDbText
 10
1829.484428041216
 20
195.6697495547124
 30
0.0
 40
64.0
  1
75
 41
0.9
100
AcDbText
  0
LINE
  5
A5
330
3D
100
AcDbEntity
  8
SIZE
  6
BYBLOCK
100
AcDbLine
 10
1913.612999041216
 20
163.6697495547124
 30
0.0
 11
1838.612999041217
 21
163.6697495547124
 31
0.0
  0
CIRCLE
  5
A6
330
3D
100
AcDbEntity
  8
SIZE
  6
CONTINUOUS
100
AcDbCircle
 10
1838.612999041217
 20
163.6697495547124
 30
0.0
 40
6.0
  0
CIRCLE
  5
A7
330
3D
100
AcDbEntity
  8
SIZE
  6
CONTINUOUS
100
AcDbCircle
 10
1838.612999041217
 20
163.6697495547124
 30
0.0
 40
6.0
  0
LINE
  5
A8
330
3D
100
AcDbEntity
  8
SIZE
  6
BYBLOCK
100
AcDbLine
 10
1836.612999041216
 20
163.6697495547124
 30
0.0
 11
1834.612999041216
 21
163.6697495547124
 31
0.0
  0
TEXT
  5
A9
330
3D
100
AcDbEntity
  8
SIZE
  6
BYBLOCK
100
AcDbText
 10
1659.555856041217
 20
313.2069455547124
 30
0.0
 40
64.0
  1
360
 41
0.9
100
AcDbText
  0
CIRCLE
  5
AA
330
3D
100
AcDbEntity
  8
SIZE
  6
CONTINUOUS
100
AcDbCircle
 10
1913.612999041216
 20
163.6697495547124
 30
0.0
 40
6.0
  0
LINE
  5
AB
330
3D
100
AcDbEntity
  8
SIZE
  6
BYBLOCK
100
AcDbLine
 10
1915.612999041217
 20
163.6697495547124
 30
0.0
 11
1917.612999041216
 21
163.6697495547124
 31
0.0
  0
CIRCLE
  5
AC
330
3D
100
AcDbEntity
  8
SIZE
  6
CONTINUOUS
100
AcDbCircle
 10
1913.612999041216
 20
281.2069455547124
 30
0.0
 40
6.0
  0
LINE
  5
AD
330
3D
100
AcDbEntity
  8
DETAIL
  6
CONTINUOUS
100
AcDbLine
 10
1838.612999041217
 20
516.5372275547126
 30
0.0
 11
1838.612999041217
 21
626.5372275547125
 31
0.0
  0
LINE
  5
AE
330
3D
100
AcDbEntity
  8
OUTLINE
  6
CONTINUOUS
100
AcDbLine
 10
1913.612999041216
 20
448.5372275547123
 30
0.0
 11
1913.612999041216
 21
728.5372275547123
 31
0.0
  0
LINE
  5
AF
330
3D
100
AcDbEntity
  8
DETAIL
  6
CONTINUOUS
100
AcDbLine
 10
1913.612999041216
 20
433.5372275547124
 30
0.0
 11
1913.612999041216
 21
728.5372275547123
 31
0.0
  0
LWPOLYLINE
  5
B0
330
3D
100
AcDbEntity
  8
NOTE
  6
CONTINUOUS
100
AcDbPolyline
 90
        3
 70
     0
 43
0.0
 10
1957.792822041216
 20
652.2497605547125
 10
1935.612999041216
 20
685.5372275547125
 10
1938.177555041217
 20
645.6195245547124
  0
LINE
  5
B5
330
3D
100
AcDbEntity
  8
NOTE
  6
CONTINUOUS
100
AcDbLine
 10
1915.612999041217
 20
685.5372275547125
 30
0.0
 11
1955.612999041216
 21
685.5372275547125
 31
0.0
  0
LINE
  5
B6
330
3D
100
AcDbEntity
  8
NOTE
  6
CONTINUOUS
100
AcDbLine
 10
1935.612999041216
 20
665.5372275547125
 30
0.0
 11
1935.612999041216
 21
705.5372275547125
 31
0.0
  0
CIRCLE
  5
B7
330
3D
100
AcDbEntity
  8
FIX
  6
CONTINUOUS
100
AcDbCircle
 10
1935.612999041216
 20
685.5372275547125
 30
0.0
 40
5.0
  0
LINE
  5
B8
330
3D
100
AcDbEntity
  8
DETAIL
  6
CONTINUOUS
100
AcDbLine
 10
1913.612999041216
 20
688.0372275547125
 30
0.0
 11
1957.612999041216
 21
688.0372275547125
 31
0.0
  0
LINE
  5
B9
330
3D
100
AcDbEntity
  8
DETAIL
  6
CONTINUOUS
100
AcDbLine
 10
1913.612999041216
 20
683.0372275547126
 30
0.0
 11
1957.612999041216
 21
683.0372275547126
 31
0.0
  0
LINE
  5
BA
330
3D
100
AcDbEntity
  8
DETAIL
  6
CONTINUOUS
100
AcDbLine
 10
1957.612999041216
 20
683.0372275547126
 30
0.0
 11
1957.612999041216
 21
688.0372275547125
 31
0.0
  0
TEXT
  5
BB
330
3D
100
AcDbEntity
  8
NOTE
  6
CONTINUOUS
100
AcDbText
 10
2113.684311041216
 20
278.5846025547124
 30
0.0
 40
64.0
  1
AH 4-φ10
 41
0.9
100
AcDbText
  0
TEXT
  5
BC
330
3D
100
AcDbEntity
  8
SIZE
  6
BYBLOCK
100
AcDbText
 10
2335.712999041217
 20
508.4515135547124
 30
0.0
 40
64.0
  1
110
 50
90.0
 41
0.9
100
AcDbText
  0
CIRCLE
  5
BD
330
3D
100
AcDbEntity
  8
SIZE
  6
CONTINUOUS
100
AcDbCircle
 10
2104.715411041216
 20
685.5372275547125
 30
0.0
 40
6.0
  0
LINE
  5
BE
330
3D
100
AcDbEntity
  8
SIZE
  6
BYBLOCK
100
AcDbLine
 10
2104.715411041216
 20
685.5372275547125
 30
0.0
 11
2104.715411041216
 21
728.5372275547123
 31
0.0
  0
LINE
  5
BF
330
3D
100
AcDbEntity
  8
SIZE
  6
BYBLOCK
100
AcDbLine
 10
2104.715411041216
 20
683.5372275547126
 30
0.0
 11
2104.715411041216
 21
681.5372275547125
 31
0.0
  0
CIRCLE
  5
C0
330
3D
100
AcDbEntity
  8
SIZE
  6
CONTINUOUS
100
AcDbCircle
 10
2244.497999041216
 20
653.5372275547125
 30
0.0
 40
6.0
  0
LINE
  5
C1
330
3D
100
AcDbEntity
  8
SIZE
  6
BYBLOCK
100
AcDbLine
 10
2244.497999041216
 20
653.5372275547125
 30
0.0
 11
2244.497999041216
 21
728.5372275547123
 31
0.0
  0
LINE
  5
C2
330
3D
100
AcDbEntity
  8
SIZE
  6
BYBLOCK
100
AcDbLine
 10
2244.497999041216
 20
651.5372275547125
 30
0.0
 11
2244.497999041216
 21
649.5372275547126
 31
0.0
  0
LINE
  5
C3
330
3D
100
AcDbEntity
  8
SIZE
  6
BYBLOCK
100
AcDbLine
 10
2367.712999041217
 20
516.5372275547126
 30
0.0
 11
2367.712999041217
 21
626.5372275547125
 31
0.0
  0
TEXT
  5
C4
330
3D
100
AcDbEntity
  8
SIZE
  6
BYBLOCK
100
AcDbText
 10
2467.211999041217
 20
514.4800845547125
 30
0.0
 40
64.0
  1
280
 50
90.0
 41
0.9
100
AcDbText
  0
LINE
  5
C5
330
3D
100
AcDbEntity
  8
SIZE
  6
BYBLOCK
100
AcDbLine
 10
2499.211999041217
 20
450.5372275547124
 30
0.0
 11
2499.211999041217
 21
588.5372275547125
 31
0.0
  0
CIRCLE
  5
C6
330
3D
100
AcDbEntity
  8
SIZE
  6
CONTINUOUS
100
AcDbCircle
 10
2367.712999041217
 20
516.5372275547126
 30
0.0
 40
6.0
  0
LINE
  5
C7
330
3D
100
AcDbEntity
  8
SIZE
  6
BYBLOCK
100
AcDbLine
 10
2367.712999041217
 20
514.5372275547125
 30
0.0
 11
2367.712999041217
 21
512.5372275547126
 31
0.0
  0
CIRCLE
  5
C8
330
3D
100
AcDbEntity
  8
SIZE
  6
CONTINUOUS
100
AcDbCircle
 10
2499.211999041217
 20
448.5372275547123
 30
0.0
 40
6.0
  0
LINE
  5
C9
330
3D
100
AcDbEntity
  8
SIZE
  6
BYBLOCK
100
AcDbLine
 10
2367.712999041217
 20
626.5372275547125
 30
0.0
 11
2367.712999041217
 21
728.5372275547123
 31
0.0
  0
CIRCLE
  5
CA
330
3D
100
AcDbEntity
  8
SIZE
  6
CONTINUOUS
100
AcDbCircle
 10
2367.712999041217
 20
626.5372275547125
 30
0.0
 40
6.0
  0
CIRCLE
  5
CB
330
3D
100
AcDbEntity
  8
SIZE
  6
CONTINUOUS
100
AcDbCircle
 10
2367.712999041217
 20
626.5372275547125
 30
0.0
 40
6.0
  0
LINE
  5
CC
330
3D
100
AcDbEntity
  8
SIZE
  6
BYBLOCK
100
AcDbLine
 10
2367.712999041217
 20
624.5372275547126
 30
0.0
 11
2367.712999041217
 21
622.5372275547125
 31
0.0
  0
LINE
  5
CD
330
3D
100
AcDbEntity
  8
SIZE
  6
BYBLOCK
100
AcDbLine
 10
2367.712999041217
 20
628.5372275547125
 30
0.0
 11
2367.712999041217
 21
630.5372275547125
 31
0.0
  0
LINE
  5
CE
330
3D
100
AcDbEntity
  8
SIZE
  6
BYBLOCK
100
AcDbLine
 10
2499.211999041217
 20
726.5372275547123
 30
0.0
 11
2499.211999041217
 21
588.5372275547125
 31
0.0
  0
CIRCLE
  5
CF
330
3D
100
AcDbEntity
  8
SIZE
  6
CONTINUOUS
100
AcDbCircle
 10
1935.612999041216
 20
882.7208305547125
 30
0.0
 40
6.0
  0
TEXT
  5
D0
330
3D
100
AcDbEntity
  8
SIZE
  6
BYBLOCK
100
AcDbText
 10
2072.715411041216
 20
738.0685865547124
 30
0.0
 40
64.0
  1
43
 50
90.0
 41
0.9
100
AcDbText
  0
CIRCLE
  5
D1
330
3D
100
AcDbEntity
  8
SIZE
  6
CONTINUOUS
100
AcDbCircle
 10
1957.612999041216
 20
1011.781280554712
 30
0.0
 40
6.0
  0
TEXT
  5
D2
330
3D
100
AcDbEntity
  8
ETC
  6
CONTINUOUS
100
AcDbText
 10
2239.965999041217
 20
1297.936492554712
 30
0.0
 40
64.0
  1
PCA0022
 41
0.9
100
AcDbText
  0
TEXT
  5
D3
330
3D
100
AcDbEntity
  8
SIZE
  6
BYBLOCK
100
AcDbText
 10
2332.606999041217
 20
742.5408795547123
 30
0.0
 40
64.0
  1
102
 50
90.0
 41
0.9
100
AcDbText
  0
LINE
  5
D4
330
3D
100
AcDbEntity
  8
SIZE
  6
BYBLOCK
100
AcDbLine
 10
2104.715411041216
 20
730.5372275547123
 30
0.0
 11
2104.715411041216
 21
732.5372275547123
 31
0.0
  0
LINE
  5
D5
330
3D
100
AcDbEntity
  8
SIZE
  6
BYBLOCK
100
AcDbLine
 10
2244.497999041216
 20
730.5372275547123
 30
0.0
 11
2244.497999041216
 21
732.5372275547123
 31
0.0
  0
LINE
  5
D6
330
3D
100
AcDbEntity
  8
SIZE
  6
BYBLOCK
100
AcDbLine
 10
2367.712999041217
 20
730.5372275547123
 30
0.0
 11
2367.712999041217
 21
732.5372275547123
 31
0.0
  0
TEXT
  5
D7
330
3D
100
AcDbEntity
  8
ETC
  6
CONTINUOUS
100
AcDbText
 10
2245.327139041216
 20
1177.306846554712
 30
0.0
 40
64.0
  1
PAC
 41
0.9
100
AcDbText
  0
ENDBLK
  5
D8
330
3D
100
AcDbEntity
  8
0
 62
     1
100
AcDbBlockEnd
  0
ENDSEC
  0
SECTION
  2
ENTITIES
  0
LINE
  5
D9
330
1E
100
AcDbEntity
  8
NOTE
  6
CONTINUOUS
100
AcDbLine
 10
20.0
 20
-165.0000000000012
 30
0.0
 11
-20.0
 21
-165.0000000000012
 31
0.0
  0
LINE
  5
DA
330
1E
100
AcDbEntity
  8
NOTE
  6
CONTINUOUS
100
AcDbLine
 10
20.0
 20
-210.0000000000012
 30
0.0
 11
-20.0
 21
-210.0000000000012
 31
0.0
  0
LINE
  5
DB
330
1E
100
AcDbEntity
  8
NOTE
  6
CONTINUOUS
100
AcDbLine
 10
20.0
 20
-248.0000000000013
 30
0.0
 11
-20.0
 21
-248.0000000000013
 31
0.0
  0
LINE
  5
DC
330
1E
100
AcDbEntity
  8
NOTE
  6
CONTINUOUS
100
AcDbLine
 10
20.0
 20
-254.0000000000012
 30
0.0
 11
-20.0
 21
-254.0000000000012
 31
0.0
  0
CIRCLE
  5
DD
330
1E
100
AcDbEntity
  8
SIZE
  6
CONTINUOUS
100
AcDbCircle
 10
0.0
 20
204.4597179999985
 30
0.0
 40
6.0
  0
CIRCLE
  5
DE
330
1E
100
AcDbEntity
  8
SIZE
  6
CONTINUOUS
100
AcDbCircle
 10
0.0
 20
82.40493299999885
 30
0.0
 40
6.0
  0
CIRCLE
  5
DF
330
1E
100
AcDbEntity
  8
SIZE
  6
CONTINUOUS
100
AcDbCircle
 10
0.0
 20
-648.6510690000012
 30
0.0
 40
6.0
  0
CIRCLE
  5
E0
330
1E
100
AcDbEntity
  8
SIZE
  6
CONTINUOUS
100
AcDbCircle
 10
0.0
 20
-491.8530980000014
 30
0.0
 40
6.0
  0
TEXT
  5
E1
330
1E
100
AcDbEntity
  8
SIZE
  6
BYBLOCK
100
AcDbText
 10
-6.628571000000191
 20
114.4049329999987
 30
0.0
 40
64.0
  1
80
 41
0.9
100
AcDbText
  0
LINE
  5
E2
330
1E
100
AcDbEntity
  8
SIZE
  6
BYBLOCK
100
AcDbLine
 10
80.0
 20
82.40493299999885
 30
0.0
 11
0.0
 21
82.40493299999885
 31
0.0
  0
LINE
  5
E3
330
1E
100
AcDbEntity
  8
SIZE
  6
BYBLOCK
100
AcDbLine
 10
40.0
 20
-43.00000000000136
 30
0.0
 11
-101.8120549999997
 21
-43.00000000000136
 31
0.0
  0
LINE
  5
E4
330
1E
100
AcDbEntity
  8
DETAIL
  6
CONTINUOUS
100
AcDbLine
 10
0.0
 20
-282.0000000000012
 30
0.0
 11
289.0
 21
-282.0000000000012
 31
0.0
  0
LINE
  5
E5
330
1E
100
AcDbEntity
  8
BASIS
  6
DASHDOT
100
AcDbLine
 10
-104.6474769999999
 20
-147.5000000000013
 30
0.0
 11
760.5491309999997
 21
-147.5000000000013
 31
0.0
  0
LINE
  5
E6
330
1E
100
AcDbEntity
  8
DETAIL
  6
CONTINUOUS
100
AcDbLine
 10
0.0
 20
-295.0000000000012
 30
0.0
 11
289.0
 21
-295.0000000000012
 31
0.0
  0
LINE
  5
E7
330
1E
100
AcDbEntity
  8
DETAIL
  6
CONTINUOUS
100
AcDbLine
 10
0.0
 20
-0.0000000000013642
 30
0.0
 11
495.0
 21
-0.0000000000013642
 31
0.0
  0
CIRCLE
  5
E8
330
1E
100
AcDbEntity
  8
ARRANGE
  6
CONTINUOUS
100
AcDbCircle
 10
0.0
 20
-0.0000000000013642
 30
0.0
 40
40.0
  0
POINT
  5
E9
330
1E
100
AcDbEntity
  8
ARRANGE
  6
CONTINUOUS
100
AcDbPoint
 10
0.0
 20
-0.0000000000013642
 30
0.0
  0
CIRCLE
  5
EA
330
1E
100
AcDbEntity
  8
SIZE
  6
CONTINUOUS
100
AcDbCircle
 10
-559.5908090000001
 20
-0.0000000000013642
 30
0.0
 40
6.0
  0
CIRCLE
  5
EB
330
1E
100
AcDbEntity
  8
SIZE
  6
CONTINUOUS
100
AcDbCircle
 10
-435.8492690000002
 20
-0.0000000000013642
 30
0.0
 40
6.0
  0
CIRCLE
  5
EC
330
1E
100
AcDbEntity
  8
SIZE
  6
CONTINUOUS
100
AcDbCircle
 10
-308.2115299999999
 20
-0.0000000000013642
 30
0.0
 40
6.0
  0
CIRCLE
  5
ED
330
1E
100
AcDbEntity
  8
SIZE
  6
CONTINUOUS
100
AcDbCircle
 10
-190.4612209999999
 20
-0.0000000000013642
 30
0.0
 40
6.0
  0
CIRCLE
  5
EE
330
1E
100
AcDbEntity
  8
SIZE
  6
CONTINUOUS
100
AcDbCircle
 10
-71.81205499999987
 20
-0.0000000000013642
 30
0.0
 40
6.0
  0
TEXT
  5
EF
330
1E
100
AcDbEntity
  8
SIZE
  6
BYBLOCK
100
AcDbText
 10
-103.8120549999997
 20
-68.1285710000011
 30
0.0
 40
64.0
  1
43
 50
90.0
 41
0.9
100
AcDbText
  0
LINE
  5
F0
330
1E
100
AcDbEntity
  8
NOTE
  6
CONTINUOUS
100
AcDbLine
 10
0.0
 20
-165.0000000000012
 30
0.0
 11
-157.530661883829
 21
235.6621766993006
 31
0.0
  0
LINE
  5
F1
330
1E
100
AcDbEntity
  8
NOTE
  6
CONTINUOUS
100
AcDbLine
 10
0.0
 20
-165.0000000000012
 30
0.0
 11
-325.0195319999998
 21
81.67883899999877
 31
0.0
  0
LINE
  5
F2
330
1E
100
AcDbEntity
  8
SIZE
  6
BYBLOCK
100
AcDbLine
 10
0.0
 20
-315.0000000000012
 30
0.0
 11
0.0
 21
-678.6510690000014
 31
0.0
  0
LINE
  5
F3
330
1E
100
AcDbEntity
  8
NOTE
  6
CONTINUOUS
100
AcDbLine
 10
0.0
 20
-254.0000000000012
 30
0.0
 11
-160.882454
 21
-735.2748930000017
 31
0.0
  0
LINE
  5
F4
330
1E
100
AcDbEntity
  8
NOTE
  6
CONTINUOUS
100
AcDbLine
 10
-160.882454
 20
-735.2748930000017
 30
0.0
 11
-487.3160149999998
 21
-735.2748930000017
 31
0.0
  0
TEXT
  5
F5
330
1E
100
AcDbEntity
  8
NOTE
  6
CONTINUOUS
100
AcDbText
 10
-411.553805
 20
-723.7574150000014
 30
0.0
 40
64.0
  1
D %%c32
 41
0.9
100
AcDbText
  0
LINE
  5
F6
330
1E
100
AcDbEntity
  8
SIZE
  6
BYBLOCK
100
AcDbLine
 10
-40.0
 20
-254.0000000000012
 30
0.0
 11
-465.8492690000001
 21
-254.0000000000012
 31
0.0
  0
LINE
  5
F7
330
1E
100
AcDbEntity
  8
SIZE
  6
BYBLOCK
100
AcDbLine
 10
-20.0
 20
-0.0000000000013642
 30
0.0
 11
-465.8492690000001
 21
-0.0000000000013642
 31
0.0
  0
LINE
  5
F8
330
1E
100
AcDbEntity
  8
SIZE
  6
BYBLOCK
100
AcDbLine
 10
-20.0
 20
-295.0000000000012
 30
0.0
 11
-589.5908090000001
 21
-295.0000000000012
 31
0.0
  0
LINE
  5
F9
330
1E
100
AcDbEntity
  8
SIZE
  6
BYBLOCK
100
AcDbLine
 10
-20.0
 20
-0.0000000000013642
 30
0.0
 11
-589.5908090000001
 21
-0.0000000000013642
 31
0.0
  0
TEXT
  5
FA
330
1E
100
AcDbEntity
  8
NOTE
  6
CONTINUOUS
100
AcDbText
 10
-511.9598719999998
 20
-588.1311260000011
 30
0.0
 40
64.0
  1
EL %%c27
 41
0.9
100
AcDbText
  0
LINE
  5
FB
330
1E
100
AcDbEntity
  8
NOTE
  6
CONTINUOUS
100
AcDbLine
 10
0.0
 20
-210.0000000000012
 30
0.0
 11
-507.528619
 21
-485.6391770000014
 31
0.0
  0
LINE
  5
FC
330
1E
100
AcDbEntity
  8
NOTE
  6
CONTINUOUS
100
AcDbLine
 10
-218.488377
 20
-603.8876740000015
 30
0.0
 11
-535.8262650000001
 21
-603.8876740000015
 31
0.0
  0
TEXT
  5
FD
330
1E
100
AcDbEntity
  8
NOTE
  6
CONTINUOUS
100
AcDbText
 10
-802.5775349999999
 20
-467.3211540000012
 30
0.0
 40
64.0
  1
EL %%c27
 41
0.9
100
AcDbText
  0
LINE
  5
FE
330
1E
100
AcDbEntity
  8
NOTE
  6
CONTINUOUS
100
AcDbLine
 10
-507.528619
 20
-485.6391770000014
 30
0.0
 11
-820.8239869999996
 21
-485.6391770000014
 31
0.0
  0
TEXT
  5
FF
330
1E
100
AcDbEntity
  8
SIZE
  6
BYBLOCK
100
AcDbText
 10
-467.8492690000002
 20
-202.4285710000011
 30
0.0
 40
64.0
  1
254
 50
90.0
 41
0.9
100
AcDbText
  0
TEXT
  5
100
330
1E
100
AcDbEntity
  8
SIZE
  6
BYBLOCK
100
AcDbText
 10
-591.5908090000001
 20
-221.5571430000013
 30
0.0
 40
64.0
  1
295
 50
90.0
 41
0.9
100
AcDbText
  0
LINE
  5
101
330
1E
100
AcDbEntity
  8
SIZE
  6
BYBLOCK
100
AcDbLine
 10
-559.5908090000001
 20
-2.000000000001363
 30
0.0
 11
-559.5908090000001
 21
-293.0000000000012
 31
0.0
  0
CIRCLE
  5
102
330
1E
100
AcDbEntity
  8
SIZE
  6
CONTINUOUS
100
AcDbCircle
 10
-559.5908090000001
 20
-295.0000000000012
 30
0.0
 40
6.0
  0
LINE
  5
103
330
1E
100
AcDbEntity
  8
SIZE
  6
BYBLOCK
100
AcDbLine
 10
0.0
 20
-315.0000000000012
 30
0.0
 11
0.0
 21
-521.8530980000013
 31
0.0
  0
TEXT
  5
104
330
1E
100
AcDbEntity
  8
SIZE
  6
BYBLOCK
100
AcDbText
 10
-340.2115299999999
 20
-412.0023680000013
 30
0.0
 40
64.0
  1
38
 50
90.0
 41
0.9
100
AcDbText
  0
TEXT
  5
105
330
1E
100
AcDbEntity
  8
SIZE
  6
BYBLOCK
100
AcDbText
 10
-221.581873
 20
-400.4726590000012
 30
0.0
 40
64.0
  1
13
 50
90.0
 41
0.9
100
AcDbText
  0
LINE
  5
106
330
1E
100
AcDbEntity
  8
SIZE
  6
CONTINUOUS
100
AcDbLine
 10
-308.2115299999999
 20
-248.0000000000013
 30
0.0
 11
-308.2115299999999
 21
-424.6278440000013
 31
0.0
  0
LINE
  5
107
330
1E
100
AcDbEntity
  8
SIZE
  6
CONTINUOUS
100
AcDbLine
 10
-189.581873
 20
-297.0000000000012
 30
0.0
 11
-189.581873
 21
-405.5989420000013
 31
0.0
  0
LINE
  5
108
330
1E
100
AcDbEntity
  8
NOTE
  6
CONTINUOUS
100
AcDbLine
 10
0.0
 20
-248.0000000000013
 30
0.0
 11
-218.488377
 21
-603.8876740000015
 31
0.0
  0
TEXT
  5
109
330
1E
100
AcDbEntity
  8
SIZE
  6
BYBLOCK
100
AcDbText
 10
-222.461221
 20
-151.0714290000014
 30
0.0
 40
64.0
  1
165
 50
90.0
 41
0.9
100
AcDbText
  0
LINE
  5
10A
330
1E
100
AcDbEntity
  8
SIZE
  6
BYBLOCK
100
AcDbLine
 10
-40.0
 20
-210.0000000000012
 30
0.0
 11
-338.2115299999999
 21
-210.0000000000012
 31
0.0
  0
LINE
  5
10B
330
1E
100
AcDbEntity
  8
SIZE
  6
BYBLOCK
100
AcDbLine
 10
-20.0
 20
-0.0000000000013642
 30
0.0
 11
-338.2115299999999
 21
-0.0000000000013642
 31
0.0
  0
LINE
  5
10C
330
1E
100
AcDbEntity
  8
SIZE
  6
BYBLOCK
100
AcDbLine
 10
-40.0
 20
-248.0000000000013
 30
0.0
 11
-338.2115299999999
 21
-248.0000000000013
 31
0.0
  0
LINE
  5
10D
330
1E
100
AcDbEntity
  8
SIZE
  6
BYBLOCK
100
AcDbLine
 10
-40.0
 20
-210.0000000000012
 30
0.0
 11
-338.2115299999999
 21
-210.0000000000012
 31
0.0
  0
TEXT
  5
10E
330
1E
100
AcDbEntity
  8
SIZE
  6
BYBLOCK
100
AcDbText
 10
-340.2115299999999
 20
-173.5714290000014
 30
0.0
 40
64.0
  1
210
 50
90.0
 41
0.9
100
AcDbText
  0
LINE
  5
10F
330
1E
100
AcDbEntity
  8
SIZE
  6
BYBLOCK
100
AcDbLine
 10
-308.2115299999999
 20
-2.000000000001363
 30
0.0
 11
-308.2115299999999
 21
-208.0000000000012
 31
0.0
  0
LINE
  5
110
330
1E
100
AcDbEntity
  8
SIZE
  6
BYBLOCK
100
AcDbLine
 10
-435.8492690000002
 20
-2.000000000001363
 30
0.0
 11
-435.8492690000002
 21
-252.0000000000013
 31
0.0
  0
CIRCLE
  5
111
330
1E
100
AcDbEntity
  8
SIZE
  6
CONTINUOUS
100
AcDbCircle
 10
-435.8492690000002
 20
-254.0000000000012
 30
0.0
 40
6.0
  0
CIRCLE
  5
112
330
1E
100
AcDbEntity
  8
SIZE
  6
CONTINUOUS
100
AcDbCircle
 10
-308.2115299999999
 20
-248.0000000000013
 30
0.0
 40
6.0
  0
LINE
  5
113
330
1E
100
AcDbEntity
  8
SIZE
  6
BYBLOCK
100
AcDbLine
 10
-308.2115299999999
 20
-248.0000000000013
 30
0.0
 11
-308.2115299999999
 21
-210.0000000000012
 31
0.0
  0
LINE
  5
114
330
1E
100
AcDbEntity
  8
SIZE
  6
BYBLOCK
100
AcDbLine
 10
-308.2115299999999
 20
-250.0000000000013
 30
0.0
 11
-308.2115299999999
 21
-252.0000000000013
 31
0.0
  0
CIRCLE
  5
115
330
1E
100
AcDbEntity
  8
SIZE
  6
CONTINUOUS
100
AcDbCircle
 10
-308.2115299999999
 20
-210.0000000000012
 30
0.0
 40
6.0
  0
CIRCLE
  5
116
330
1E
100
AcDbEntity
  8
SIZE
  6
CONTINUOUS
100
AcDbCircle
 10
-308.2115299999999
 20
-210.0000000000012
 30
0.0
 40
6.0
  0
LINE
  5
117
330
1E
100
AcDbEntity
  8
SIZE
  6
BYBLOCK
100
AcDbLine
 10
-308.2115299999999
 20
-208.0000000000012
 30
0.0
 11
-308.2115299999999
 21
-206.0000000000012
 31
0.0
  0
LINE
  5
118
330
1E
100
AcDbEntity
  8
NOTE
  6
CONTINUOUS
100
AcDbLine
 10
0.0
 20
-185.0000000000013
 30
0.0
 11
0.0
 21
-145.0000000000013
 31
0.0
  0
LWPOLYLINE
  5
119
330
1E
100
AcDbEntity
  8
NOTE
  6
CONTINUOUS
100
AcDbPolyline
 90
        3
 70
     0
 43
0.0
 10
-24.48950999999988
 20
-133.3730510000014
 10
0.0
 20
-165.0000000000012
 10
-37.02201199999989
 20
-149.8550140000014
  0
LWPOLYLINE
  5
11E
330
1E
100
AcDbEntity
  8
NOTE
  6
CONTINUOUS
100
AcDbPolyline
 90
        3
 70
     0
 43
0.0
 10
-24.23939900000005
 20
-133.1809560000014
 10
0.0
 20
-165.0000000000012
 10
-5.082413000000086
 20
-125.3242000000013
  0
CIRCLE
  5
123
330
1E
100
AcDbEntity
  8
SIZE
  6
CONTINUOUS
100
AcDbCircle
 10
-190.4612209999999
 20
-165.0000000000012
 30
0.0
 40
6.0
  0
LINE
  5
124
330
1E
100
AcDbEntity
  8
DETAIL
  6
CONTINUOUS
100
AcDbLine
 10
0.0
 20
-0.0000000000013642
 30
0.0
 11
0.0
 21
-295.0000000000012
 31
0.0
  0
LINE
  5
125
330
1E
100
AcDbEntity
  8
SIZE
  6
BYBLOCK
100
AcDbLine
 10
-40.0
 20
-165.0000000000012
 30
0.0
 11
-220.461221
 21
-165.0000000000012
 31
0.0
  0
LINE
  5
126
330
1E
100
AcDbEntity
  8
SIZE
  6
BYBLOCK
100
AcDbLine
 10
-20.0
 20
-295.0000000000012
 30
0.0
 11
-219.581873
 21
-295.0000000000012
 31
0.0
  0
LINE
  5
127
330
1E
100
AcDbEntity
  8
SIZE
  6
BYBLOCK
100
AcDbLine
 10
-20.0
 20
-282.0000000000012
 30
0.0
 11
-219.581873
 21
-282.0000000000012
 31
0.0
  0
CIRCLE
  5
128
330
1E
100
AcDbEntity
  8
SIZE
  6
CONTINUOUS
100
AcDbCircle
 10
-189.581873
 20
-295.0000000000012
 30
0.0
 40
6.0
  0
CIRCLE
  5
129
330
1E
100
AcDbEntity
  8
SIZE
  6
CONTINUOUS
100
AcDbCircle
 10
-189.581873
 20
-282.0000000000012
 30
0.0
 40
6.0
  0
LINE
  5
12A
330
1E
100
AcDbEntity
  8
SIZE
  6
BYBLOCK
100
AcDbLine
 10
-189.581873
 20
-295.0000000000012
 30
0.0
 11
-189.581873
 21
-282.0000000000012
 31
0.0
  0
LINE
  5
12B
330
1E
100
AcDbEntity
  8
SIZE
  6
BYBLOCK
100
AcDbLine
 10
-189.581873
 20
-280.0000000000013
 30
0.0
 11
-189.581873
 21
-278.0000000000013
 31
0.0
  0
LINE
  5
12C
330
1E
100
AcDbEntity
  8
SIZE
  6
BYBLOCK
100
AcDbLine
 10
-189.581873
 20
-297.0000000000012
 30
0.0
 11
-189.581873
 21
-299.0000000000012
 31
0.0
  0
LINE
  5
12D
330
1E
100
AcDbEntity
  8
NOTE
  6
CONTINUOUS
100
AcDbLine
 10
0.0
 20
-268.0000000000013
 30
0.0
 11
0.0
 21
-228.0000000000013
 31
0.0
  0
LINE
  5
12E
330
1E
100
AcDbEntity
  8
NOTE
  6
CONTINUOUS
100
AcDbLine
 10
0.0
 20
-274.0000000000013
 30
0.0
 11
0.0
 21
-234.0000000000013
 31
0.0
  0
LWPOLYLINE
  5
12F
330
1E
100
AcDbEntity
  8
NOTE
  6
CONTINUOUS
100
AcDbPolyline
 90
        3
 70
     0
 43
0.0
 10
-30.20303199999989
 20
-274.2255000000013
 10
0.0
 20
-248.0000000000013
 10
-13.04384299999991
 20
-285.8134650000014
  0
LWPOLYLINE
  5
134
330
1E
100
AcDbEntity
  8
NOTE
  6
CONTINUOUS
100
AcDbPolyline
 90
        3
 70
     0
 43
0.0
 10
-22.61927999999989
 20
-286.9904250000012
 10
0.0
 20
-254.0000000000012
 10
-3.093659000000116
 20
-293.8801870000015
  0
LINE
  5
139
330
1E
100
AcDbEntity
  8
NOTE
  6
CONTINUOUS
100
AcDbLine
 10
0.0
 20
-230.0000000000013
 30
0.0
 11
0.0
 21
-190.0000000000012
 31
0.0
  0
LWPOLYLINE
  5
13A
330
1E
100
AcDbEntity
  8
NOTE
  6
CONTINUOUS
100
AcDbPolyline
 90
        3
 70
     0
 43
0.0
 10
-39.22733199999992
 20
-217.8240920000011
 10
0.0
 20
-210.0000000000012
 10
-30.05981999999995
 20
-236.3895290000014
  0
LINE
  5
13F
330
1E
100
AcDbEntity
  8
SIZE
  6
BYBLOCK
100
AcDbLine
 10
-20.0
 20
-0.0000000000013642
 30
0.0
 11
-220.461221
 21
-0.0000000000013642
 31
0.0
  0
LINE
  5
140
330
1E
100
AcDbEntity
  8
SIZE
  6
BYBLOCK
100
AcDbLine
 10
-190.4612209999999
 20
-2.000000000001363
 30
0.0
 11
-190.4612209999999
 21
-163.0000000000013
 31
0.0
  0
LINE
  5
141
330
1E
100
AcDbEntity
  8
SIZE
  6
BYBLOCK
100
AcDbLine
 10
-20.0
 20
-0.0000000000013642
 30
0.0
 11
-101.8120549999997
 21
-0.0000000000013642
 31
0.0
  0
CIRCLE
  5
142
330
1E
100
AcDbEntity
  8
SIZE
  6
CONTINUOUS
100
AcDbCircle
 10
-71.81205499999987
 20
-43.00000000000136
 30
0.0
 40
6.0
  0
LINE
  5
143
330
1E
100
AcDbEntity
  8
SIZE
  6
BYBLOCK
100
AcDbLine
 10
-71.81205499999987
 20
-0.0000000000013642
 30
0.0
 11
-71.81205499999987
 21
-43.00000000000136
 31
0.0
  0
LINE
  5
144
330
1E
100
AcDbEntity
  8
SIZE
  6
BYBLOCK
100
AcDbLine
 10
-71.81205499999987
 20
-45.00000000000136
 30
0.0
 11
-71.81205499999987
 21
-47.00000000000136
 31
0.0
  0
TEXT
  5
145
330
1E
100
AcDbEntity
  8
NOTE
  6
CONTINUOUS
100
AcDbText
 10
-543.4503445349896
 20
252.0002033641648
 30
0.0
 40
64.0
  1
RL %%c9.52
 41
0.9
100
AcDbText
  0
LINE
  5
146
330
1E
100
AcDbEntity
  8
NOTE
  6
CONTINUOUS
100
AcDbLine
 10
-157.530661883829
 20
235.6621766993006
 30
0.0
 11
-554.4071536835563
 21
235.6621766993011
 31
0.0
  0
TEXT
  5
147
330
1E
100
AcDbEntity
  8
NOTE
  6
CONTINUOUS
100
AcDbText
 10
-764.8174520000001
 20
98.71091199999865
 30
0.0
 40
64.0
  1
RG %%c15.88
 41
0.9
100
AcDbText
  0
LINE
  5
148
330
1E
100
AcDbEntity
  8
NOTE
  6
CONTINUOUS
100
AcDbLine
 10
-325.0195319999998
 20
81.67883899999877
 30
0.0
 11
-776.2772030000001
 21
81.67883899999877
 31
0.0
  0
LINE
  5
149
330
1E
100
AcDbEntity
  8
SIZE
  6
BYBLOCK
100
AcDbLine
 10
0.0
 20
19.99999999999863
 30
0.0
 11
0.0
 21
234.4597179999987
 31
0.0
  0
LINE
  5
14A
330
1E
100
AcDbEntity
  8
SIZE
  6
BYBLOCK
100
AcDbLine
 10
0.0
 20
19.99999999999863
 30
0.0
 11
0.0
 21
112.4049329999987
 31
0.0
  0
LINE
  5
14B
330
1E
100
AcDbEntity
  8
SIZE
  6
BYBLOCK
100
AcDbLine
 10
-71.81205499999987
 20
1.999999999998635
 30
0.0
 11
-71.81205499999987
 21
3.999999999998634
 31
0.0
  0
LINE
  5
14C
330
1E
100
AcDbEntity
  8
SIZE
  6
BYBLOCK
100
AcDbLine
 10
-2.0
 20
82.40493299999885
 30
0.0
 11
-4.0
 21
82.40493299999885
 31
0.0
  0
CIRCLE
  5
14D
330
1E
100
AcDbEntity
  8
SIZE
  6
CONTINUOUS
100
AcDbCircle
 10
1025.583
 20
-0.0000000000013642
 30
0.0
 40
6.0
  0
CIRCLE
  5
14E
330
1E
100
AcDbEntity
  8
SIZE
  6
CONTINUOUS
100
AcDbCircle
 10
903.991964
 20
-0.0000000000013642
 30
0.0
 40
6.0
  0
LINE
  5
14F
330
1E
100
AcDbEntity
  8
SIZE
  6
BYBLOCK
100
AcDbLine
 10
80.0
 20
-3.000000000001363
 30
0.0
 11
80.0
 21
112.4049329999987
 31
0.0
  0
LINE
  5
150
330
1E
100
AcDbEntity
  8
SIZE
  6
BYBLOCK
100
AcDbLine
 10
400.0
 20
-3.000000000001363
 30
0.0
 11
400.0
 21
112.4049329999987
 31
0.0
  0
LINE
  5
151
330
1E
100
AcDbEntity
  8
SIZE
  6
BYBLOCK
100
AcDbLine
 10
80.0
 20
-3.000000000001363
 30
0.0
 11
80.0
 21
112.4049329999987
 31
0.0
  0
LINE
  5
152
330
1E
100
AcDbEntity
  8
SIZE
  6
BYBLOCK
100
AcDbLine
 10
570.0
 20
-55.00000000000136
 30
0.0
 11
570.0
 21
234.4597179999987
 31
0.0
  0
TEXT
  5
153
330
1E
100
AcDbEntity
  8
SIZE
  6
BYBLOCK
100
AcDbText
 10
871.9919639999998
 20
-84.1285710000011
 30
0.0
 40
64.0
  1
75
 50
90.0
 41
0.9
100
AcDbText
  0
LINE
  5
154
330
1E
100
AcDbEntity
  8
NOTE
  6
CONTINUOUS
100
AcDbLine
 10
400.0
 20
-43.00000000000136
 30
0.0
 11
682.1229659999998
 21
169.0870809999986
 31
0.0
  0
LINE
  5
155
330
1E
100
AcDbEntity
  8
SIZE
  6
BYBLOCK
100
AcDbLine
 10
670.0
 20
-75.00000000000136
 30
0.0
 11
933.9919639999997
 21
-75.00000000000136
 31
0.0
  0
LINE
  5
156
330
1E
100
AcDbEntity
  8
SIZE
  6
BYBLOCK
100
AcDbLine
 10
515.0
 20
-0.0000000000013642
 30
0.0
 11
933.9919639999997
 21
-0.0000000000013642
 31
0.0
  0
LINE
  5
157
330
1E
100
AcDbEntity
  8
SIZE
  6
BYBLOCK
100
AcDbLine
 10
430.0
 20
-280.0000000000013
 30
0.0
 11
1055.583
 21
-280.0000000000013
 31
0.0
  0
LINE
  5
158
330
1E
100
AcDbEntity
  8
SIZE
  6
BYBLOCK
100
AcDbLine
 10
515.0
 20
-0.0000000000013642
 30
0.0
 11
1055.583
 21
-0.0000000000013642
 31
0.0
  0
LINE
  5
159
330
1E
100
AcDbEntity
  8
SIZE
  6
BYBLOCK
100
AcDbLine
 10
650.0
 20
-95.00000000000135
 30
0.0
 11
650.0
 21
-678.6510690000014
 31
0.0
  0
LINE
  5
15A
330
1E
100
AcDbEntity
  8
SIZE
  6
BYBLOCK
100
AcDbLine
 10
2.0
 20
-648.6510690000012
 30
0.0
 11
648.0
 21
-648.6510690000012
 31
0.0
  0
LINE
  5
15B
330
1E
100
AcDbEntity
  8
DETAIL
  6
CONTINUOUS
100
AcDbLine
 10
410.0
 20
-280.0000000000013
 30
0.0
 11
625.0
 21
-243.0000000000013
 31
0.0
  0
LINE
  5
15C
330
1E
100
AcDbEntity
  8
SIZE
  6
BYBLOCK
100
AcDbLine
 10
289.0
 20
-315.0000000000012
 30
0.0
 11
289.0
 21
-521.8530980000013
 31
0.0
  0
LINE
  5
15D
330
1E
100
AcDbEntity
  8
SIZE
  6
BYBLOCK
100
AcDbLine
 10
2.0
 20
-491.8530980000014
 30
0.0
 11
287.0
 21
-491.8530980000014
 31
0.0
  0
TEXT
  5
15E
330
1E
100
AcDbEntity
  8
SIZE
  6
BYBLOCK
100
AcDbText
 10
71.81428599999981
 20
-459.8530980000012
 30
0.0
 40
64.0
  1
289
 41
0.9
100
AcDbText
  0
CIRCLE
  5
15F
330
1E
100
AcDbEntity
  8
SIZE
  6
CONTINUOUS
100
AcDbCircle
 10
289.0
 20
-491.8530980000014
 30
0.0
 40
6.0
  0
TEXT
  5
160
330
1E
100
AcDbEntity
  8
SIZE
  6
BYBLOCK
100
AcDbText
 10
250.9428569999999
 20
-616.6510690000014
 30
0.0
 40
64.0
  1
650
 41
0.9
100
AcDbText
  0
LINE
  5
161
330
1E
100
AcDbEntity
  8
DETAIL
  6
CONTINUOUS
100
AcDbLine
 10
50.0
 20
-10.00000000000135
 30
0.0
 11
110.0
 21
-10.00000000000135
 31
0.0
  0
LINE
  5
162
330
1E
100
AcDbEntity
  8
DETAIL
  6
CONTINUOUS
100
AcDbLine
 10
50.0
 20
-45.50000000000136
 30
0.0
 11
110.0
 21
-45.50000000000136
 31
0.0
  0
LINE
  5
163
330
1E
100
AcDbEntity
  8
DETAIL
  6
CONTINUOUS
100
AcDbLine
 10
50.0
 20
-40.50000000000135
 30
0.0
 11
110.0
 21
-40.50000000000135
 31
0.0
  0
LINE
  5
164
330
1E
100
AcDbEntity
  8
DETAIL
  6
CONTINUOUS
100
AcDbLine
 10
50.0
 20
-10.00000000000135
 30
0.0
 11
50.0
 21
-45.50000000000136
 31
0.0
  0
LINE
  5
165
330
1E
100
AcDbEntity
  8
NOTE
  6
CONTINUOUS
100
AcDbLine
 10
100.0
 20
-43.00000000000136
 30
0.0
 11
60.0
 21
-43.00000000000136
 31
0.0
  0
LINE
  5
166
330
1E
100
AcDbEntity
  8
NOTE
  6
CONTINUOUS
100
AcDbLine
 10
80.0
 20
-63.00000000000136
 30
0.0
 11
80.0
 21
-23.00000000000136
 31
0.0
  0
CIRCLE
  5
167
330
1E
100
AcDbEntity
  8
FIX
  6
CONTINUOUS
100
AcDbCircle
 10
80.0
 20
-43.00000000000136
 30
0.0
 40
5.0
  0
LINE
  5
168
330
1E
100
AcDbEntity
  8
DETAIL
  6
CONTINUOUS
100
AcDbLine
 10
110.0
 20
-10.00000000000135
 30
0.0
 11
110.0
 21
-45.50000000000136
 31
0.0
  0
LINE
  5
169
330
1E
100
AcDbEntity
  8
DETAIL
  6
CONTINUOUS
100
AcDbLine
 10
289.0
 20
-280.0000000000013
 30
0.0
 11
410.0
 21
-280.0000000000013
 31
0.0
  0
LINE
  5
16A
330
1E
100
AcDbEntity
  8
DETAIL
  6
CONTINUOUS
100
AcDbLine
 10
289.0
 20
-295.0000000000012
 30
0.0
 11
289.0
 21
-280.0000000000013
 31
0.0
  0
LINE
  5
16B
330
1E
100
AcDbEntity
  8
NOTE
  6
CONTINUOUS
100
AcDbLine
 10
420.0
 20
-43.00000000000136
 30
0.0
 11
380.0
 21
-43.00000000000136
 31
0.0
  0
LWPOLYLINE
  5
16C
330
1E
100
AcDbEntity
  8
NOTE
  6
CONTINUOUS
100
AcDbPolyline
 90
        3
 70
     0
 43
0.0
 10
437.1597849999997
 20
-28.19627100000161
 10
400.0
 20
-43.00000000000136
 10
424.7794530000001
 20
-11.59970200000133
  0
LINE
  5
171
330
1E
100
AcDbEntity
  8
DETAIL
  6
CONTINUOUS
100
AcDbLine
 10
370.0
 20
-10.00000000000135
 30
0.0
 11
430.0
 21
-10.00000000000135
 31
0.0
  0
LINE
  5
172
330
1E
100
AcDbEntity
  8
DETAIL
  6
CONTINUOUS
100
AcDbLine
 10
370.0
 20
-40.50000000000135
 30
0.0
 11
430.0
 21
-40.50000000000135
 31
0.0
  0
LINE
  5
173
330
1E
100
AcDbEntity
  8
DETAIL
  6
CONTINUOUS
100
AcDbLine
 10
370.0
 20
-45.50000000000136
 30
0.0
 11
430.0
 21
-45.50000000000136
 31
0.0
  0
LINE
  5
174
330
1E
100
AcDbEntity
  8
NOTE
  6
CONTINUOUS
100
AcDbLine
 10
400.0
 20
-63.00000000000136
 30
0.0
 11
400.0
 21
-23.00000000000136
 31
0.0
  0
CIRCLE
  5
175
330
1E
100
AcDbEntity
  8
FIX
  6
CONTINUOUS
100
AcDbCircle
 10
400.0
 20
-43.00000000000136
 30
0.0
 40
5.0
  0
LINE
  5
176
330
1E
100
AcDbEntity
  8
DETAIL
  6
CONTINUOUS
100
AcDbLine
 10
370.0
 20
-10.00000000000135
 30
0.0
 11
370.0
 21
-45.50000000000136
 31
0.0
  0
LINE
  5
177
330
1E
100
AcDbEntity
  8
DETAIL
  6
CONTINUOUS
100
AcDbLine
 10
430.0
 20
-10.00000000000135
 30
0.0
 11
430.0
 21
-45.50000000000136
 31
0.0
  0
CIRCLE
  5
178
330
1E
100
AcDbEntity
  8
SIZE
  6
CONTINUOUS
100
AcDbCircle
 10
650.0
 20
-648.6510690000012
 30
0.0
 40
6.0
  0
LINE
  5
179
330
1E
100
AcDbEntity
  8
DETAIL
  6
CONTINUOUS
100
AcDbLine
 10
625.0
 20
-243.0000000000013
 30
0.0
 11
650.0
 21
-75.00000000000136
 31
0.0
  0
LINE
  5
17A
330
1E
100
AcDbEntity
  8
DETAIL
  6
CONTINUOUS
100
AcDbLine
 10
570.0
 20
-75.00000000000136
 30
0.0
 11
650.0
 21
-75.00000000000136
 31
0.0
  0
LINE
  5
17B
330
1E
100
AcDbEntity
  8
DETAIL
  6
CONTINUOUS
100
AcDbLine
 10
495.0
 20
-0.0000000000013642
 30
0.0
 11
570.0
 21
-75.00000000000136
 31
0.0
  0
CIRCLE
  5
17C
330
1E
100
AcDbEntity
  8
SIZE
  6
CONTINUOUS
100
AcDbCircle
 10
903.991964
 20
-75.00000000000136
 30
0.0
 40
6.0
  0
LINE
  5
17D
330
1E
100
AcDbEntity
  8
SIZE
  6
BYBLOCK
100
AcDbLine
 10
903.991964
 20
-75.00000000000136
 30
0.0
 11
903.991964
 21
-0.0000000000013642
 31
0.0
  0
LINE
  5
17E
330
1E
100
AcDbEntity
  8
SIZE
  6
BYBLOCK
100
AcDbLine
 10
903.991964
 20
-77.00000000000136
 30
0.0
 11
903.991964
 21
-79.00000000000137
 31
0.0
  0
TEXT
  5
17F
330
1E
100
AcDbEntity
  8
SIZE
  6
BYBLOCK
100
AcDbText
 10
993.5825869999996
 20
-214.0571430000012
 30
0.0
 40
64.0
  1
280
 50
90.0
 41
0.9
100
AcDbText
  0
LINE
  5
180
330
1E
100
AcDbEntity
  8
SIZE
  6
BYBLOCK
100
AcDbLine
 10
1025.583
 20
-2.000000000001363
 30
0.0
 11
1025.583
 21
-278.0000000000013
 31
0.0
  0
CIRCLE
  5
181
330
1E
100
AcDbEntity
  8
SIZE
  6
CONTINUOUS
100
AcDbCircle
 10
1025.583
 20
-280.0000000000013
 30
0.0
 40
6.0
  0
TEXT
  5
182
330
1E
100
AcDbEntity
  8
ETC
  6
CONTINUOUS
100
AcDbText
 10
872.8831279999997
 20
342.8579559999989
 30
0.0
 40
64.0
  1
PAC
 41
0.9
100
AcDbText
  0
TEXT
  5
183
330
1E
100
AcDbEntity
  8
NOTE
  6
CONTINUOUS
100
AcDbText
 10
701.4943258156254
 20
189.8793408610698
 30
0.0
 40
64.0
  1
AH 4-%%c10
 41
0.9
100
AcDbText
  0
LINE
  5
184
330
1E
100
AcDbEntity
  8
NOTE
  6
CONTINUOUS
100
AcDbLine
 10
682.1229659999998
 20
169.0870809999986
 30
0.0
 11
1128.67
 21
169.0870809999986
 31
0.0
  0
TEXT
  5
185
330
1E
100
AcDbEntity
  8
ETC
  6
CONTINUOUS
100
AcDbText
 10
867.5220939999999
 20
463.4876019999984
 30
0.0
 40
64.0
  1
SPCZ3625
 41
0.9
100
AcDbText
  0
LINE
  5
186
330
1E
100
AcDbEntity
  8
SIZE
  6
BYBLOCK
100
AcDbLine
 10
2.0
 20
204.4597179999985
 30
0.0
 11
493.0
 21
204.4597179999985
 31
0.0
  0
TEXT
  5
187
330
1E
100
AcDbEntity
  8
SIZE
  6
BYBLOCK
100
AcDbText
 10
165.942857
 20
114.4049329999987
 30
0.0
 40
64.0
  1
320
 41
0.9
100
AcDbText
  0
LINE
  5
188
330
1E
100
AcDbEntity
  8
SIZE
  6
BYBLOCK
100
AcDbLine
 10
82.0
 20
82.40493299999885
 30
0.0
 11
398.0
 21
82.40493299999885
 31
0.0
  0
TEXT
  5
189
330
1E
100
AcDbEntity
  8
SIZE
  6
BYBLOCK
100
AcDbText
 10
173.442857
 20
236.4597179999987
 30
0.0
 40
64.0
  1
495
 41
0.9
100
AcDbText
  0
CIRCLE
  5
18A
330
1E
100
AcDbEntity
  8
SIZE
  6
CONTINUOUS
100
AcDbCircle
 10
80.0
 20
82.40493299999885
 30
0.0
 40
6.0
  0
CIRCLE
  5
18B
330
1E
100
AcDbEntity
  8
SIZE
  6
CONTINUOUS
100
AcDbCircle
 10
80.0
 20
82.40493299999885
 30
0.0
 40
6.0
  0
LINE
  5
18C
330
1E
100
AcDbEntity
  8
SIZE
  6
BYBLOCK
100
AcDbLine
 10
82.0
 20
82.40493299999885
 30
0.0
 11
84.0
 21
82.40493299999885
 31
0.0
  0
CIRCLE
  5
18D
330
1E
100
AcDbEntity
  8
SIZE
  6
CONTINUOUS
100
AcDbCircle
 10
400.0
 20
82.40493299999885
 30
0.0
 40
6.0
  0
LINE
  5
18E
330
1E
100
AcDbEntity
  8
SIZE
  6
BYBLOCK
100
AcDbLine
 10
495.0
 20
19.99999999999863
 30
0.0
 11
495.0
 21
234.4597179999987
 31
0.0
  0
LINE
  5
18F
330
1E
100
AcDbEntity
  8
SIZE
  6
BYBLOCK
100
AcDbLine
 10
495.0
 20
19.99999999999863
 30
0.0
 11
495.0
 21
234.4597179999987
 31
0.0
  0
TEXT
  5
190
330
1E
100
AcDbEntity
  8
SIZE
  6
BYBLOCK
100
AcDbText
 10
485.8714289999999
 20
236.4597179999987
 30
0.0
 40
64.0
  1
75
 41
0.9
100
AcDbText
  0
LINE
  5
191
330
1E
100
AcDbEntity
  8
SIZE
  6
BYBLOCK
100
AcDbLine
 10
570.0
 20
204.4597179999985
 30
0.0
 11
495.0
 21
204.4597179999985
 31
0.0
  0
CIRCLE
  5
192
330
1E
100
AcDbEntity
  8
SIZE
  6
CONTINUOUS
100
AcDbCircle
 10
495.0
 20
204.4597179999985
 30
0.0
 40
6.0
  0
CIRCLE
  5
193
330
1E
100
AcDbEntity
  8
SIZE
  6
CONTINUOUS
100
AcDbCircle
 10
495.0
 20
204.4597179999985
 30
0.0
 40
6.0
  0
LINE
  5
194
330
1E
100
AcDbEntity
  8
SIZE
  6
BYBLOCK
100
AcDbLine
 10
493.0
 20
204.4597179999985
 30
0.0
 11
491.0
 21
204.4597179999985
 31
0.0
  0
CIRCLE
  5
195
330
1E
100
AcDbEntity
  8
SIZE
  6
CONTINUOUS
100
AcDbCircle
 10
570.0
 20
204.4597179999985
 30
0.0
 40
6.0
  0
LINE
  5
196
330
1E
100
AcDbEntity
  8
SIZE
  6
BYBLOCK
100
AcDbLine
 10
572.0
 20
204.4597179999985
 30
0.0
 11
574.0
 21
204.4597179999985
 31
0.0
  0
LINE
  5
197
330
1E
100
AcDbEntity
  8
SIZE
  6
BYBLOCK
100
AcDbLine
 10
903.991964
 20
1.999999999998635
 30
0.0
 11
903.991964
 21
3.999999999998634
 31
0.0
  0
LINE
  5
198
330
1E
100
AcDbEntity
  8
OUTLINE
  6
CONTINUOUS
100
AcDbLine
 10
0.0
 20
-295.0
 30
0.0
 11
289.0
 21
-295.0
 31
0.0
  0
LINE
  5
199
330
1E
100
AcDbEntity
  8
OUTLINE
  6
CONTINUOUS
100
AcDbLine
 10
0.0
 20
0.0
 30
0.0
 11
495.0
 21
0.0
 31
0.0
  0
LINE
  5
19A
330
1E
100
AcDbEntity
  8
OUTLINE
  6
CONTINUOUS
100
AcDbLine
 10
0.0
 20
0.0
 30
0.0
 11
0.0
 21
-295.0
 31
0.0
  0
LINE
  5
19B
330
1E
100
AcDbEntity
  8
OUTLINE
  6
CONTINUOUS
100
AcDbLine
 10
625.0
 20
-243.0
 30
0.0
 11
650.0
 21
-75.0
 31
0.0
  0
LINE
  5
19C
330
1E
100
AcDbEntity
  8
OUTLINE
  6
CONTINUOUS
100
AcDbLine
 10
410.0
 20
-280.0
 30
0.0
 11
625.0
 21
-243.0
 31
0.0
  0
LINE
  5
19D
330
1E
100
AcDbEntity
  8
OUTLINE
  6
CONTINUOUS
100
AcDbLine
 10
289.0
 20
-295.0
 30
0.0
 11
289.0
 21
-280.0
 31
0.0
  0
LINE
  5
19E
330
1E
100
AcDbEntity
  8
OUTLINE
  6
CONTINUOUS
100
AcDbLine
 10
289.0
 20
-280.0
 30
0.0
 11
410.0
 21
-280.0
 31
0.0
  0
LINE
  5
19F
330
1E
100
AcDbEntity
  8
OUTLINE
  6
CONTINUOUS
100
AcDbLine
 10
570.0
 20
-75.0
 30
0.0
 11
650.0
 21
-75.0
 31
0.0
  0
LINE
  5
1A0
330
1E
100
AcDbEntity
  8
OUTLINE
  6
CONTINUOUS
100
AcDbLine
 10
495.0
 20
0.0
 30
0.0
 11
570.0
 21
-75.0
 31
0.0
  0
ENDSEC
  0
SECTION
  2
OBJECTS
  0
DICTIONARY
  5
C
330
0
100
AcDbDictionary
  3
ACAD_GROUP
350
D
  3
ACAD_PLOTSTYLENAME
350
E
  3
ACAD_MLINESTYLE
350
16
  3
ACAD_PLOTSETTINGS
350
18
  3
ACAD_LAYOUT
350
19
  3
ACDBHEADERROUNDTRIPXREC
350
1A4
  0
DICTIONARY
  5
1C6
330
1E
100
AcDbDictionary
280
     1
  3
ACAD_LAYOUTSELFREF
360
1C7
  0
DICTIONARY
  5
1C4
330
1A
100
AcDbDictionary
280
     1
  3
ACAD_LAYOUTSELFREF
360
1C5
  0
DICTIONARY
  5
D
102
{ACAD_REACTORS
330
C
102
}
330
C
100
AcDbDictionary
  0
ACDBDICTIONARYWDFLT
  5
E
102
{ACAD_REACTORS
330
C
102
}
330
C
100
AcDbDictionary
281
     1
  3
Normal
350
F
100
AcDbDictionaryWithDefault
340
F
  0
DICTIONARY
  5
16
102
{ACAD_REACTORS
330
C
102
}
330
C
100
AcDbDictionary
  3
STANDARD
350
17
  0
DICTIONARY
  5
18
102
{ACAD_REACTORS
330
C
102
}
330
C
100
AcDbDictionary
  0
DICTIONARY
  5
19
102
{ACAD_REACTORS
330
C
102
}
330
C
100
AcDbDictionary
  0
DICTIONARY
  5
1A4
102
{ACAD_REACTORS
330
C
102
}
330
C
100
AcDbDictionary
  3
TSTACKALIGN
350
1A5
  3
TSTACKSIZE
350
1A6
  3
HYPERLINKBASE
350
1A7
  3
STYLESHEET
350
1A8
  3
LAYOUTDICT
350
1A9
  3
PLOTSETDICT
350
1AA
  3
PLOTSTYLNAMDICT
350
1AB
  3
LWETCUNION
350
1AC
  3
INSUNITS
350
1AD
  3
CEPSNTYPE
350
1AE
  3
FINGERPRINTGUID
350
1AF
  3
VERSIONGUID
350
1B0
  3
PSVPSCALE
350
1B1
  3
PUCSORTHOREF
350
1B2
  3
PUCSORTHOVIEW
350
1B3
  3
PUCSBASE
350
1B4
  3
PUCSORGTOP
350
1B5
  3
PUCSORGBOTTOM
350
1B6
  3
PUCSORGLEFT
350
1B7
  3
PUCSORGRIGHT
350
1B8
  3
PUCSORGFRONT
350
1B9
  3
PUCSORGBACK
350
1BA
  3
UCSORTHOREF
350
1BB
  3
UCSORTHOVIEW
350
1BC
  3
UCSBASE
350
1BD
  3
UCSORGTOP
350
1BE
  3
UCSORGBOTTOM
350
1BF
  3
UCSORGLEFT
350
1C0
  3
UCSORGRIGHT
350
1C1
  3
UCSORGFRONT
350
1C2
  3
UCSORGBACK
350
1C3
  0
XRECORD
  5
1C7
102
{ACAD_REACTORS
330
1C6
102
}
330
1C6
100
AcDbXrecord
340
1E
  0
XRECORD
  5
1C5
102
{ACAD_REACTORS
330
1C4
102
}
330
1C4
100
AcDbXrecord
340
1A
  0
ACDBPLACEHOLDER
  5
F
102
{ACAD_REACTORS
330
E
102
}
330
E
100
AcDbPlaceHolder
280
     0
  0
MLINESTYLE
  5
17
102
{ACAD_REACTORS
330
16
102
}
330
16
100
AcDbMlineStyle
  2
STANDARD
 70
     0
  3

 62
   256
 51
90.0
 52
90.0
 71
     2
 49
0.5
 62
   256
  6
BYLAYER
 49
-0.5
 62
   256
  6
BYLAYER
  0
XRECORD
  5
1A5
102
{ACAD_REACTORS
330
1A4
102
}
330
1A4
100
AcDbXrecord
 90
        1
  0
XRECORD
  5
1A6
102
{ACAD_REACTORS
330
1A4
102
}
330
1A4
100
AcDbXrecord
 90
       70
  0
XRECORD
  5
1A7
102
{ACAD_REACTORS
330
1A4
102
}
330
1A4
100
AcDbXrecord
  1

  0
XRECORD
  5
1A8
102
{ACAD_REACTORS
330
1A4
102
}
330
1A4
100
AcDbXrecord
  1

  0
XRECORD
  5
1A9
102
{ACAD_REACTORS
330
1A4
102
}
330
1A4
100
AcDbXrecord
340
19
  0
XRECORD
  5
1AA
102
{ACAD_REACTORS
330
1A4
102
}
330
1A4
100
AcDbXrecord
340
18
  0
XRECORD
  5
1AB
102
{ACAD_REACTORS
330
1A4
102
}
330
1A4
100
AcDbXrecord
340
E
  0
XRECORD
  5
1AC
102
{ACAD_REACTORS
330
1A4
102
}
330
1A4
100
AcDbXrecord
 90
    10781
  0
XRECORD
  5
1AD
102
{ACAD_REACTORS
330
1A4
102
}
330
1A4
100
AcDbXrecord
 90
        0
  0
XRECORD
  5
1AE
102
{ACAD_REACTORS
330
1A4
102
}
330
1A4
100
AcDbXrecord
 90
        0
  0
XRECORD
  5
1AF
102
{ACAD_REACTORS
330
1A4
102
}
330
1A4
100
AcDbXrecord
  1
{E6164A7A-3E16-4BD8-82D8-E6404A3781DE}
  0
XRECORD
  5
1B0
102
{ACAD_REACTORS
330
1A4
102
}
330
1A4
100
AcDbXrecord
  1
{321CB4ED-AFB1-4AA0-A7F2-05BA6B447734}
  0
XRECORD
  5
1B1
102
{ACAD_REACTORS
330
1A4
102
}
330
1A4
100
AcDbXrecord
 40
0.0
  0
XRECORD
  5
1B2
102
{ACAD_REACTORS
330
1A4
102
}
330
1A4
100
AcDbXrecord
340
0
  0
XRECORD
  5
1B3
102
{ACAD_REACTORS
330
1A4
102
}
330
1A4
100
AcDbXrecord
 70
     0
  0
XRECORD
  5
1B4
102
{ACAD_REACTORS
330
1A4
102
}
330
1A4
100
AcDbXrecord
340
0
  0
XRECORD
  5
1B5
102
{ACAD_REACTORS
330
1A4
102
}
330
1A4
100
AcDbXrecord
 10
0.0
 20
0.0
 30
0.0
  0
XRECORD
  5
1B6
102
{ACAD_REACTORS
330
1A4
102
}
330
1A4
100
AcDbXrecord
 10
0.0
 20
0.0
 30
0.0
  0
XRECORD
  5
1B7
102
{ACAD_REACTORS
330
1A4
102
}
330
1A4
100
AcDbXrecord
 10
0.0
 20
0.0
 30
0.0
  0
XRECORD
  5
1B8
102
{ACAD_REACTORS
330
1A4
102
}
330
1A4
100
AcDbXrecord
 10
0.0
 20
0.0
 30
0.0
  0
XRECORD
  5
1B9
102
{ACAD_REACTORS
330
1A4
102
}
330
1A4
100
AcDbXrecord
 10
0.0
 20
0.0
 30
0.0
  0
XRECORD
  5
1BA
102
{ACAD_REACTORS
330
1A4
102
}
330
1A4
100
AcDbXrecord
 10
0.0
 20
0.0
 30
0.0
  0
XRECORD
  5
1BB
102
{ACAD_REACTORS
330
1A4
102
}
330
1A4
100
AcDbXrecord
340
0
  0
XRECORD
  5
1BC
102
{ACAD_REACTORS
330
1A4
102
}
330
1A4
100
AcDbXrecord
 70
     0
  0
XRECORD
  5
1BD
102
{ACAD_REACTORS
330
1A4
102
}
330
1A4
100
AcDbXrecord
340
0
  0
XRECORD
  5
1BE
102
{ACAD_REACTORS
330
1A4
102
}
330
1A4
100
AcDbXrecord
 10
0.0
 20
0.0
 30
0.0
  0
XRECORD
  5
1BF
102
{ACAD_REACTORS
330
1A4
102
}
330
1A4
100
AcDbXrecord
 10
0.0
 20
0.0
 30
0.0
  0
XRECORD
  5
1C0
102
{ACAD_REACTORS
330
1A4
102
}
330
1A4
100
AcDbXrecord
 10
0.0
 20
0.0
 30
0.0
  0
XRECORD
  5
1C1
102
{ACAD_REACTORS
330
1A4
102
}
330
1A4
100
AcDbXrecord
 10
0.0
 20
0.0
 30
0.0
  0
XRECORD
  5
1C2
102
{ACAD_REACTORS
330
1A4
102
}
330
1A4
100
AcDbXrecord
 10
0.0
 20
0.0
 30
0.0
  0
XRECORD
  5
1C3
102
{ACAD_REACTORS
330
1A4
102
}
330
1A4
100
AcDbXrecord
 10
0.0
 20
0.0
 30
0.0
  0
ENDSEC
  0
EOF
