  0
SECTION
  2
HEADER
  9
$ACADVER
  1
AC1014
  9
$ACADMAINTVER
 70
     9
  9
$DWGCODEPAGE
  3
ANSI_932
  9
$INSBASE
 10
0.0
 20
0.0
 30
0.0
  9
$EXTMIN
 10
-1045.0554661091
 20
-531.0681240842463
 30
-0.0000000000000058
  9
$EXTMAX
 10
1557.403494999633
 20
883.9581839999747
 30
0.0000000000000104
  9
$LIMMIN
 10
-1209.988033179066
 20
-692.6557137327518
  9
$LIMMAX
 10
1658.647918305749
 20
1110.477946703136
  9
$ORTHOMODE
 70
     1
  9
$REGENMODE
 70
     0
  9
$FILLMODE
 70
     1
  9
$QTEXTMODE
 70
     0
  9
$MIRRTEXT
 70
     0
  9
$DRAGMODE
 70
     2
  9
$LTSCALE
 40
20.0
  9
$OSMODE
 70
    39
  9
$ATTMODE
 70
     1
  9
$TEXTSIZE
 40
64.0
  9
$TRACEWID
 40
0.05
  9
$TEXTSTYLE
  7
STANDARD
  9
$CLAYER
  8
SIZE
  9
$CELTYPE
  6
CONTINUOUS
  9
$CECOLOR
 62
   256
  9
$CELTSCALE
 40
1.0
  9
$DELOBJ
 70
     1
  9
$DISPSILH
 70
     0
  9
$DIMSCALE
 40
1.0
  9
$DIMASZ
 40
10.0
  9
$DIMEXO
 40
20.0
  9
$DIMDLI
 40
200.0
  9
$DIMRND
 40
0.0
  9
$DIMDLE
 40
0.0
  9
$DIMEXE
 40
30.0
  9
$DIMTP
 40
0.0
  9
$DIMTM
 40
0.0
  9
$DIMTXT
 40
64.0
  9
$DIMCEN
 40
0.09
  9
$DIMTSZ
 40
0.0
  9
$DIMTOL
 70
     0
  9
$DIMLIM
 70
     0
  9
$DIMTIH
 70
     0
  9
$DIMTOH
 70
     0
  9
$DIMSE1
 70
     0
  9
$DIMSE2
 70
     0
  9
$DIMTAD
 70
     1
  9
$DIMZIN
 70
     8
  9
$DIMBLK
  1
ORIGIN
  9
$DIMASO
 70
     1
  9
$DIMSHO
 70
     0
  9
$DIMPOST
  1

  9
$DIMAPOST
  1

  9
$DIMALT
 70
     0
  9
$DIMALTD
 70
     2
  9
$DIMALTF
 40
25.4
  9
$DIMLFAC
 40
1.0
  9
$DIMTOFL
 70
     1
  9
$DIMTVP
 40
0.0
  9
$DIMTIX
 70
     1
  9
$DIMSOXD
 70
     0
  9
$DIMSAH
 70
     0
  9
$DIMBLK1
  1

  9
$DIMBLK2
  1

  9
$DIMSTYLE
  2
STANDARD
  9
$DIMCLRD
 70
     0
  9
$DIMCLRE
 70
     0
  9
$DIMCLRT
 70
     0
  9
$DIMTFAC
 40
1.0
  9
$DIMGAP
 40
10.0
  9
$DIMJUST
 70
     0
  9
$DIMSD1
 70
     0
  9
$DIMSD2
 70
     0
  9
$DIMTOLJ
 70
     1
  9
$DIMTZIN
 70
     0
  9
$DIMALTZ
 70
     0
  9
$DIMALTTZ
 70
     0
  9
$DIMFIT
 70
     3
  9
$DIMUPT
 70
     0
  9
$DIMUNIT
 70
     2
  9
$DIMDEC
 70
     0
  9
$DIMTDEC
 70
     0
  9
$DIMALTU
 70
     2
  9
$DIMALTTD
 70
     2
  9
$DIMTXSTY
  7
STANDARD
  9
$DIMAUNIT
 70
     0
  9
$LUNITS
 70
     2
  9
$LUPREC
 70
     4
  9
$SKETCHINC
 40
0.1
  9
$FILLETRAD
 40
20.0
  9
$AUNITS
 70
     1
  9
$AUPREC
 70
     3
  9
$MENU
  1
ACAD
  9
$ELEVATION
 40
0.0
  9
$PELEVATION
 40
0.0
  9
$THICKNESS
 40
0.0
  9
$LIMCHECK
 70
     1
  9
$BLIPMODE
 70
     0
  9
$CHAMFERA
 40
0.0
  9
$CHAMFERB
 40
0.0
  9
$CHAMFERC
 40
0.0
  9
$CHAMFERD
 40
0.0
  9
$SKPOLY
 70
     0
  9
$TDCREATE
 40
2450332.775890995
  9
$TDUPDATE
 40
2454859.723052905
  9
$TDINDWG
 40
0.6389612847
  9
$TDUSRTIMER
 40
0.6389390394
  9
$USRTIMER
 70
     1
  9
$ANGBASE
 50
0.0
  9
$ANGDIR
 70
     0
  9
$PDMODE
 70
     3
  9
$PDSIZE
 40
-2.0
  9
$PLINEWID
 40
0.0
  9
$COORDS
 70
     2
  9
$SPLFRAME
 70
     0
  9
$SPLINETYPE
 70
     6
  9
$SPLINESEGS
 70
     8
  9
$ATTDIA
 70
     0
  9
$ATTREQ
 70
     1
  9
$HANDLING
 70
-16383
  9
$HANDSEED
  5
17F0
  9
$SURFTAB1
 70
     6
  9
$SURFTAB2
 70
     6
  9
$SURFTYPE
 70
     6
  9
$SURFU
 70
     6
  9
$SURFV
 70
     6
  9
$UCSNAME
  2

  9
$UCSORG
 10
0.0
 20
0.0
 30
0.0
  9
$UCSXDIR
 10
1.0
 20
0.0
 30
0.0
  9
$UCSYDIR
 10
0.0
 20
1.0
 30
0.0
  9
$PUCSNAME
  2

  9
$PUCSORG
 10
0.0
 20
0.0
 30
0.0
  9
$PUCSXDIR
 10
1.0
 20
0.0
 30
0.0
  9
$PUCSYDIR
 10
0.0
 20
1.0
 30
0.0
  9
$USERI1
 70
     0
  9
$USERI2
 70
     0
  9
$USERI3
 70
     0
  9
$USERI4
 70
     0
  9
$USERI5
 70
     0
  9
$USERR1
 40
20.0
  9
$USERR2
 40
0.0
  9
$USERR3
 40
0.0
  9
$USERR4
 40
0.0
  9
$USERR5
 40
0.0
  9
$WORLDVIEW
 70
     1
  9
$SHADEDGE
 70
     3
  9
$SHADEDIF
 70
    70
  9
$TILEMODE
 70
     1
  9
$MAXACTVP
 70
    64
  9
$PINSBASE
 10
0.0
 20
0.0
 30
0.0
  9
$PLIMCHECK
 70
     0
  9
$PEXTMIN
 10
1.000000000000000E+20
 20
1.000000000000000E+20
 30
1.000000000000000E+20
  9
$PEXTMAX
 10
-1.000000000000000E+20
 20
-1.000000000000000E+20
 30
-1.000000000000000E+20
  9
$PLIMMIN
 10
0.0
 20
0.0
  9
$PLIMMAX
 10
12.0
 20
9.0
  9
$UNITMODE
 70
     0
  9
$VISRETAIN
 70
     1
  9
$PLINEGEN
 70
     0
  9
$PSLTSCALE
 70
     1
  9
$TREEDEPTH
 70
  3020
  9
$PICKSTYLE
 70
     1
  9
$CMLSTYLE
  2
STANDARD
  9
$CMLJUST
 70
     0
  9
$CMLSCALE
 40
1.0
  9
$PROXYGRAPHICS
 70
     1
  9
$MEASUREMENT
 70
     0
  0
ENDSEC
  0
SECTION
  2
CLASSES
  0
CLASS
  1
ACDBDICTIONARYWDFLT
  2
AcDbDictionaryWithDefault
  3
AutoCAD 2000
 90
        0
280
     0
281
     0
  0
CLASS
  1
ACDBPLACEHOLDER
  2
AcDbPlaceHolder
  3
AutoCAD 2000
 90
        0
280
     0
281
     0
  0
CLASS
  1
LAYOUT
  2
AcDbLayout
  3
AutoCAD 2000
 90
        0
280
     0
281
     0
  0
CLASS
  1
LONG_TRANSACTION
  2
AcDbLongTransaction
  3
AutoCAD 2000
 90
        0
280
     0
281
     0
  0
CLASS
  1
LWPOLYLINE
  2
AcDbPolyline
  3
AutoCAD 2000
 90
        0
280
     0
281
     1
  0
CLASS
  1
HATCH
  2
AcDbHatch
  3
AutoCAD 2000
 90
        0
280
     0
281
     1
  0
CLASS
  1
XRECORD
  2
AcDbXrecord
  3
AutoCAD 2000
 90
        0
280
     0
281
     0
  0
ENDSEC
  0
SECTION
  2
TABLES
  0
TABLE
  2
VPORT
  5
8
330
0
100
AcDbSymbolTable
 70
     4
  0
VPORT
  5
17CA
330
8
100
AcDbSymbolTableRecord
100
AcDbViewportTableRecord
  2
*ACTIVE
 70
     0
 10
0.0
 20
0.0
 11
1.0
 21
1.0
 12
872.8368710182721
 22
127.3623577429934
 13
0.0
 23
0.0
 14
400.0
 24
400.0
 15
400.0
 25
400.0
 16
0.0
 26
0.0
 36
1.0
 17
0.0
 27
0.0
 37
0.0
 40
3575.140431606897
 41
1.299492385786801
 42
50.0
 43
0.0
 44
0.0
 50
0.0
 51
0.0
 71
     0
 72
   500
 73
     1
 74
     0
 75
     0
 76
     0
 77
     0
 78
     1
  0
ENDTAB
  0
TABLE
  2
LTYPE
  5
5
330
0
100
AcDbSymbolTable
 70
     7
  0
LTYPE
  5
13
330
5
100
AcDbSymbolTableRecord
100
AcDbLinetypeTableRecord
  2
BYBLOCK
 70
     0
  3

 72
    65
 73
     0
 40
0.0
  0
LTYPE
  5
14
330
5
100
AcDbSymbolTableRecord
100
AcDbLinetypeTableRecord
  2
BYLAYER
 70
     0
  3

 72
    65
 73
     0
 40
0.0
  0
LTYPE
  5
15
330
5
100
AcDbSymbolTableRecord
100
AcDbLinetypeTableRecord
  2
CONTINUOUS
 70
     0
  3
実線
 72
    65
 73
     0
 40
0.0
  0
LTYPE
  5
23
330
5
100
AcDbSymbolTableRecord
100
AcDbLinetypeTableRecord
  2
DOT
 70
     0
  3
...............................................
 72
    65
 73
     2
 40
0.8
 49
0.5
 74
     0
 49
-0.3
 74
     0
  0
LTYPE
  5
24
330
5
100
AcDbSymbolTableRecord
100
AcDbLinetypeTableRecord
  2
DASHED
 70
     0
  3
_ _ _ _ _ _ _ _ _ _ _ _ _ _ _ _ _ _ _ _ _ _ _
 72
    65
 73
     2
 40
2.0
 49
1.199999999999999
 74
     0
 49
-0.8
 74
     0
  0
LTYPE
  5
25
330
5
100
AcDbSymbolTableRecord
100
AcDbLinetypeTableRecord
  2
DASHDOT
 70
     0
  3
____ _ ____ _ ____ _ ____ _ ____ _ ____ _ ____
 72
    65
 73
     4
 40
5.5
 49
4.0
 74
     0
 49
-0.6
 74
     0
 49
0.3
 74
     0
 49
-0.6
 74
     0
  0
LTYPE
  5
26
330
5
100
AcDbSymbolTableRecord
100
AcDbLinetypeTableRecord
  2
DASHDOT1
 70
     0
  3
____ _ ____ _ ____ _ ____ _ ____ _ ____ _ ____
 72
    65
 73
     4
 40
2.0
 49
1.5
 74
     0
 49
-0.2
 74
     0
 49
0.1
 74
     0
 49
-0.2
 74
     0
  0
LTYPE
  5
27
330
5
100
AcDbSymbolTableRecord
100
AcDbLinetypeTableRecord
  2
DIVIDE
 70
     0
  3
_____ _ _ _____ _ _ _____ _ _ _____ _ _ ____
 72
    65
 73
     6
 40
6.4
 49
4.0
 74
     0
 49
-0.6
 74
     0
 49
0.3
 74
     0
 49
-0.6
 74
     0
 49
0.3
 74
     0
 49
-0.6
 74
     0
  0
LTYPE
  5
28
330
5
100
AcDbSymbolTableRecord
100
AcDbLinetypeTableRecord
  2
DIVIDE1
 70
     0
  3
_____ _ _ _____ _ _ _____ _ _ _____ _ _ ____
 72
    65
 73
     6
 40
3.2
 49
2.0
 74
     0
 49
-0.3
 74
     0
 49
0.15
 74
     0
 49
-0.3
 74
     0
 49
0.15
 74
     0
 49
-0.3
 74
     0
  0
ENDTAB
  0
TABLE
  2
LAYER
  5
2
330
0
100
AcDbSymbolTable
 70
    14
  0
LAYER
  5
10
330
2
100
AcDbSymbolTableRecord
100
AcDbLayerTableRecord
  2
0
 70
     0
 62
     7
  6
CONTINUOUS
  0
LAYER
  5
22
330
2
100
AcDbSymbolTableRecord
100
AcDbLayerTableRecord
  2
BASIS
 70
     0
 62
     6
  6
CONTINUOUS
  0
LAYER
  5
29
330
2
100
AcDbSymbolTableRecord
100
AcDbLayerTableRecord
  2
OUTLINE
 70
     0
 62
     3
  6
CONTINUOUS
  0
LAYER
  5
2A
330
2
100
AcDbSymbolTableRecord
100
AcDbLayerTableRecord
  2
DETAIL
 70
     0
 62
     5
  6
CONTINUOUS
  0
LAYER
  5
2B
330
2
100
AcDbSymbolTableRecord
100
AcDbLayerTableRecord
  2
SIZE
 70
     0
 62
    32
  6
CONTINUOUS
  0
LAYER
  5
2C
330
2
100
AcDbSymbolTableRecord
100
AcDbLayerTableRecord
  2
NOTE
 70
     0
 62
     4
  6
CONTINUOUS
  0
LAYER
  5
2D
330
2
100
AcDbSymbolTableRecord
100
AcDbLayerTableRecord
  2
ARRANGE
 70
     0
 62
     1
  6
CONTINUOUS
  0
LAYER
  5
2E
330
2
100
AcDbSymbolTableRecord
100
AcDbLayerTableRecord
  2
DEFPOINTS
 70
     0
 62
     7
  6
CONTINUOUS
  0
LAYER
  5
2F
330
2
100
AcDbSymbolTableRecord
100
AcDbLayerTableRecord
  2
FIX
 70
     0
 62
   241
  6
CONTINUOUS
  0
LAYER
  5
30
330
2
100
AcDbSymbolTableRecord
100
AcDbLayerTableRecord
  2
SERVICESPACE
 70
     0
 62
     2
  6
CONTINUOUS
  0
LAYER
  5
31
330
2
100
AcDbSymbolTableRecord
100
AcDbLayerTableRecord
  2
ETC
 70
     0
 62
    83
  6
CONTINUOUS
  0
LAYER
  5
32
330
2
100
AcDbSymbolTableRecord
100
AcDbLayerTableRecord
  2
SYMBOLLINE
 70
     0
 62
    38
  6
CONTINUOUS
  0
LAYER
  5
33
330
2
100
AcDbSymbolTableRecord
100
AcDbLayerTableRecord
  2
SERVICE_SPACE
 70
     0
 62
     2
  6
CONTINUOUS
  0
LAYER
  5
34
330
2
100
AcDbSymbolTableRecord
100
AcDbLayerTableRecord
  2
SYMBOL_LINE
 70
     0
 62
    38
  6
CONTINUOUS
  0
ENDTAB
  0
TABLE
  2
STYLE
  5
3
330
0
100
AcDbSymbolTable
 70
     1
  0
STYLE
  5
11
330
3
100
AcDbSymbolTableRecord
100
AcDbTextStyleTableRecord
  2
STANDARD
 70
     0
 40
0.0
 41
0.9
 50
0.0
 71
     0
 42
64.0
  3
SIMPLEX
  4
BIGFONT
  0
ENDTAB
  0
TABLE
  2
VIEW
  5
6
330
0
100
AcDbSymbolTable
 70
     1
  0
VIEW
  5
35
330
6
100
AcDbSymbolTableRecord
100
AcDbViewTableRecord
  2
ALL
 70
     0
 40
4508.021
 10
0.0
 20
41.30990399999999
 41
6252.632
 11
0.0
 21
0.0
 31
1.0
 12
0.0
 22
0.0
 32
0.0
 42
50.0
 43
0.0
 44
0.0
 50
0.0
 71
     0
  0
ENDTAB
  0
TABLE
  2
UCS
  5
7
330
0
100
AcDbSymbolTable
 70
     0
  0
ENDTAB
  0
TABLE
  2
APPID
  5
9
330
0
100
AcDbSymbolTable
 70
     1
  0
APPID
  5
12
330
9
100
AcDbSymbolTableRecord
100
AcDbRegAppTableRecord
  2
ACAD
 70
     0
  0
ENDTAB
  0
TABLE
  2
DIMSTYLE
  5
A
330
0
100
AcDbSymbolTable
 70
     1
  0
DIMSTYLE
105
18F
330
A
100
AcDbSymbolTableRecord
100
AcDbDimStyleTableRecord
  2
STANDARD
 70
     0
  3

  4

  5

  6

  7

 40
1.0
 41
0.18
 42
0.0625
 43
0.38
 44
0.18
 45
0.0
 46
0.0
 47
0.0
 48
0.0
140
0.18
141
0.09
142
0.0
143
25.4
144
1.0
145
0.0
146
1.0
147
0.09
 71
     0
 72
     0
 73
     1
 74
     1
 75
     0
 76
     0
 77
     0
 78
     0
170
     0
171
     2
172
     0
173
     0
174
     0
175
     0
176
     0
177
     0
178
     0
270
     2
271
     4
272
     4
273
     2
274
     2
340
11
275
     0
280
     0
281
     0
282
     0
283
     1
284
     0
285
     0
286
     0
287
     3
288
     0
  0
ENDTAB
  0
TABLE
  2
BLOCK_RECORD
  5
1
330
0
100
AcDbSymbolTable
 70
     1
  0
BLOCK_RECORD
  5
1E
102
{ACAD_XDICTIONARY
360
17EE
102
}
330
1
100
AcDbSymbolTableRecord
100
AcDbBlockTableRecord
  2
*MODEL_SPACE
  0
BLOCK_RECORD
  5
1A
102
{ACAD_XDICTIONARY
360
17EC
102
}
330
1
100
AcDbSymbolTableRecord
100
AcDbBlockTableRecord
  2
*PAPER_SPACE
  0
BLOCK_RECORD
  5
13CC
330
1
100
AcDbSymbolTableRecord
100
AcDbBlockTableRecord
  2
_ORIGIN
  0
ENDTAB
  0
ENDSEC
  0
SECTION
  2
BLOCKS
  0
BLOCK
  5
1F
330
1E
100
AcDbEntity
  8
0
100
AcDbBlockBegin
  2
*MODEL_SPACE
 70
     0
 10
0.0
 20
0.0
 30
0.0
  3
*MODEL_SPACE
  1

  0
ENDBLK
  5
20
330
1E
100
AcDbEntity
  8
0
100
AcDbBlockEnd
  0
BLOCK
  5
1B
330
1A
100
AcDbEntity
 67
     1
  8
0
100
AcDbBlockBegin
  2
*PAPER_SPACE
 70
     0
 10
0.0
 20
0.0
 30
0.0
  3
*PAPER_SPACE
  1

  0
ENDBLK
  5
1C
330
1A
100
AcDbEntity
 67
     1
  8
0
100
AcDbBlockEnd
  0
BLOCK
  5
13CF
330
13CC
100
AcDbEntity
  8
0
100
AcDbBlockBegin
  2
_ORIGIN
 70
     0
 10
0.0
 20
0.0
 30
0.0
  3
_ORIGIN
  1

  0
CIRCLE
  5
13CD
330
13CC
100
AcDbEntity
  8
0
  6
BYBLOCK
 62
     0
100
AcDbCircle
 10
0.0
 20
0.0
 30
0.0
 40
0.5
  0
LINE
  5
13CE
330
13CC
100
AcDbEntity
  8
0
  6
BYBLOCK
 62
     0
100
AcDbLine
 10
0.0
 20
0.0
 30
0.0
 11
-1.0
 21
0.0
 31
0.0
  0
ENDBLK
  5
13D0
330
13CC
100
AcDbEntity
  8
0
100
AcDbBlockEnd
  0
ENDSEC
  0
SECTION
  2
ENTITIES
  0
LINE
  5
364
330
1E
100
AcDbEntity
  8
DETAIL
  6
CONTINUOUS
100
AcDbLine
 10
-475.0
 20
-35.0
 30
0.0
 11
475.0
 21
-35.0
 31
0.0
  0
CIRCLE
  5
366
330
1E
100
AcDbEntity
  8
SIZE
  6
CONTINUOUS
100
AcDbCircle
 10
0.0
 20
462.6273919999999
 30
0.0
 40
6.0
  0
CIRCLE
  5
367
330
1E
100
AcDbEntity
  8
SIZE
  6
CONTINUOUS
100
AcDbCircle
 10
0.0
 20
463.4247709999999
 30
0.0
 40
6.0
  0
LINE
  5
368
330
1E
100
AcDbEntity
  8
SIZE
  6
BYBLOCK
100
AcDbLine
 10
-0.0899999999999182
 20
156.0
 30
0.0
 11
0.0899999999999182
 21
156.0
 31
0.0
  0
LINE
  5
369
330
1E
100
AcDbEntity
  8
SIZE
  6
BYBLOCK
100
AcDbLine
 10
19.02748724946991
 20
111.9290392941425
 30
0.0
 11
-19.16799104003098
 21
200.0034715268402
 31
0.0
  0
TEXT
  5
36A
330
1E
100
AcDbEntity
  8
SIZE
  6
BYBLOCK
100
AcDbText
 10
-68.57142900000008
 20
-283.2840919999998
 30
0.0
 40
64.0
  1
810
 41
0.9
100
AcDbText
  0
LINE
  5
36B
330
1E
100
AcDbEntity
  8
SIZE
  6
BYBLOCK
100
AcDbLine
 10
-403.0
 20
-315.2840919999998
 30
0.0
 11
403.0
 21
-315.2840919999998
 31
0.0
  0
TEXT
  5
36C
330
1E
100
AcDbEntity
  8
SIZE
  6
BYBLOCK
100
AcDbText
 10
-74.05714299999999
 20
-468.9925189999999
 30
0.0
 40
64.0
  1
950
 41
0.9
100
AcDbText
  0
LINE
  5
36D
330
1E
100
AcDbEntity
  8
SIZE
  6
BYBLOCK
100
AcDbLine
 10
-473.0
 20
-500.9925189999998
 30
0.0
 11
473.0
 21
-500.9925189999998
 31
0.0
  0
TEXT
  5
36E
330
1E
100
AcDbEntity
  8
SIZE
  6
BYBLOCK
100
AcDbText
 10
-74.05714299999999
 20
743.5472919999997
 30
0.0
 40
64.0
  1
840
 41
0.9
100
AcDbText
  0
LINE
  5
36F
330
1E
100
AcDbEntity
  8
SIZE
  6
BYBLOCK
100
AcDbLine
 10
-418.0
 20
711.547292
 30
0.0
 11
418.0
 21
711.547292
 31
0.0
  0
LINE
  5
370
330
1E
100
AcDbEntity
  8
NOTE
  6
CONTINUOUS
100
AcDbLine
 10
-20.0
 20
156.0
 30
0.0
 11
20.0
 21
156.0
 31
0.0
  0
CIRCLE
  5
371
330
1E
100
AcDbEntity
  8
ARRANGE
  6
CONTINUOUS
100
AcDbCircle
 10
0.0
 20
0.0
 30
0.0
 40
40.0
  0
LINE
  5
372
330
1E
100
AcDbEntity
  8
DETAIL
  6
CONTINUOUS
100
AcDbLine
 10
-420.0
 20
17.0
 30
0.0
 11
420.0
 21
17.0
 31
0.0
  0
CIRCLE
  5
373
330
1E
100
AcDbEntity
  8
DETAIL
  6
CONTINUOUS
100
AcDbCircle
 10
0.0
 20
156.0
 30
0.0
 40
50.0
  0
LINE
  5
374
330
1E
100
AcDbEntity
  8
BASIS
  6
DASHDOT
100
AcDbLine
 10
-475.0
 20
156.0
 30
0.0
 11
135.74412
 21
156.0
 31
0.0
  0
POINT
  5
375
330
1E
100
AcDbEntity
  8
ARRANGE
  6
CONTINUOUS
100
AcDbPoint
 10
0.0
 20
0.0
 30
0.0
  0
LINE
  5
376
330
1E
100
AcDbEntity
  8
DETAIL
  6
CONTINUOUS
100
AcDbLine
 10
-420.0
 20
258.0
 30
0.0
 11
420.0
 21
258.0
 31
0.0
  0
LINE
  5
377
330
1E
100
AcDbEntity
  8
DETAIL
  6
CONTINUOUS
100
AcDbLine
 10
-475.0
 20
0.0
 30
0.0
 11
475.0
 21
0.0
 31
0.0
  0
LINE
  5
378
330
1E
100
AcDbEntity
  8
DETAIL
  6
CONTINUOUS
100
AcDbLine
 10
-260.0
 20
258.0
 30
0.0
 11
-260.0
 21
0.0
 31
0.0
  0
CIRCLE
  5
379
330
1E
100
AcDbEntity
  8
SIZE
  6
CONTINUOUS
100
AcDbCircle
 10
-599.7229689999998
 20
0.0
 30
0.0
 40
6.0
  0
CIRCLE
  5
37A
330
1E
100
AcDbEntity
  8
SIZE
  6
CONTINUOUS
100
AcDbCircle
 10
-758.1738549999999
 20
0.0
 30
0.0
 40
6.0
  0
CIRCLE
  5
37B
330
1E
100
AcDbEntity
  8
SIZE
  6
CONTINUOUS
100
AcDbCircle
 10
-948.9616559999999
 20
0.0
 30
0.0
 40
6.0
  0
LINE
  5
37C
330
1E
100
AcDbEntity
  8
SIZE
  6
BYBLOCK
100
AcDbLine
 10
-405.0
 20
65.0
 30
0.0
 11
-405.0
 21
-345.2840919999998
 31
0.0
  0
LINE
  5
37E
330
1E
100
AcDbEntity
  8
NOTE
  6
CONTINUOUS
100
AcDbLine
 10
-405.0
 20
105.0
 30
0.0
 11
-584.3168030000001
 21
-100.1772769999997
 31
0.0
  0
LINE
  5
37F
330
1E
100
AcDbEntity
  8
NOTE
  6
CONTINUOUS
100
AcDbLine
 10
-284.0
 20
170.0
 30
0.0
 11
-569.1654009999999
 21
-353.2036560000001
 31
0.0
  0
LINE
  5
380
330
1E
100
AcDbEntity
  8
NOTE
  6
CONTINUOUS
100
AcDbLine
 10
-344.0
 20
140.0
 30
0.0
 11
-569.1654009999999
 21
-204.054325
 31
0.0
  0
LINE
  5
381
330
1E
100
AcDbEntity
  8
BASIS
  6
DASHDOT
100
AcDbLine
 10
0.0
 20
337.9592889999999
 30
0.0
 11
0.0
 21
-114.8043769999999
 31
0.0
  0
LINE
  5
382
330
1E
100
AcDbEntity
  8
DETAIL
  6
CONTINUOUS
100
AcDbLine
 10
-420.0
 20
258.0
 30
0.0
 11
-420.0
 21
0.0
 31
0.0
  0
LINE
  5
383
330
1E
100
AcDbEntity
  8
SIZE
  6
BYBLOCK
100
AcDbLine
 10
-495.0
 20
0.0
 30
0.0
 11
-978.9616559999998
 21
0.0
 31
0.0
  0
TEXT
  5
384
330
1E
100
AcDbEntity
  8
NOTE
  6
CONTINUOUS
100
AcDbText
 10
-1027.208
 20
-189.4389019999998
 30
0.0
 40
64.0
  1
RGφ12.7
 41
0.9
100
AcDbText
  0
TEXT
  5
385
330
1E
100
AcDbEntity
  8
NOTE
  6
CONTINUOUS
100
AcDbText
 10
-940.5734050000003
 20
-336.0504249999999
 30
0.0
 40
64.0
  1
RLφ6.35
 41
0.9
100
AcDbText
  0
LINE
  5
386
330
1E
100
AcDbEntity
  8
NOTE
  6
CONTINUOUS
100
AcDbLine
 10
-571.165401
 20
-353.2036560000001
 30
0.0
 11
-957.0273909999999
 21
-353.2036560000001
 31
0.0
  0
LINE
  5
387
330
1E
100
AcDbEntity
  8
NOTE
  6
CONTINUOUS
100
AcDbLine
 10
-571.165401
 20
-204.054325
 30
0.0
 11
-1041.819999999999
 21
-204.054325
 31
0.0
  0
LINE
  5
389
330
1E
100
AcDbEntity
  8
SIZE
  6
BYBLOCK
100
AcDbLine
 10
-475.0
 20
-50.0
 30
0.0
 11
-475.0
 21
-530.9925189999999
 31
0.0
  0
CIRCLE
  5
38A
330
1E
100
AcDbEntity
  8
SIZE
  6
CONTINUOUS
100
AcDbCircle
 10
-475.0
 20
-500.9925189999998
 30
0.0
 40
6.0
  0
LINE
  5
38B
330
1E
100
AcDbEntity
  8
SIZE
  6
BYBLOCK
100
AcDbLine
 10
-495.0
 20
0.0
 30
0.0
 11
-788.173855
 21
0.0
 31
0.0
  0
LINE
  5
38C
330
1E
100
AcDbEntity
  8
NOTE
  6
CONTINUOUS
100
AcDbLine
 10
-584.3168030000001
 20
-100.1772769999997
 30
0.0
 11
-724.459694
 21
-100.1772769999997
 31
0.0
  0
TEXT
  5
38D
330
1E
100
AcDbEntity
  8
NOTE
  6
CONTINUOUS
100
AcDbText
 10
-707.6425469999998
 20
-80.55667999999968
 30
0.0
 40
64.0
  1
AH
 41
0.9
100
AcDbText
  0
LINE
  5
38E
330
1E
100
AcDbEntity
  8
SIZE
  6
BYBLOCK
100
AcDbLine
 10
-495.0
 20
0.0
 30
0.0
 11
-629.7229689999998
 21
0.0
 31
0.0
  0
LINE
  5
390
330
1E
100
AcDbEntity
  8
DETAIL
  6
CONTINUOUS
100
AcDbLine
 10
-475.0
 20
0.0
 30
0.0
 11
-475.0
 21
-35.0
 31
0.0
  0
CIRCLE
  5
391
330
1E
100
AcDbEntity
  8
SIZE
  6
CONTINUOUS
100
AcDbCircle
 10
-405.0
 20
-315.2840919999998
 30
0.0
 40
6.0
  0
LINE
  5
392
330
1E
100
AcDbEntity
  8
SIZE
  6
BYBLOCK
100
AcDbLine
 10
-326.0
 20
170.0
 30
0.0
 11
-978.9616559999998
 21
170.0
 31
0.0
  0
CIRCLE
  5
393
330
1E
100
AcDbEntity
  8
SIZE
  6
CONTINUOUS
100
AcDbCircle
 10
-948.9616559999999
 20
170.0
 30
0.0
 40
6.0
  0
LINE
  5
394
330
1E
100
AcDbEntity
  8
SIZE
  6
BYBLOCK
100
AcDbLine
 10
-948.9616559999999
 20
2.0
 30
0.0
 11
-948.9616559999999
 21
170.0
 31
0.0
  0
TEXT
  5
395
330
1E
100
AcDbEntity
  8
SIZE
  6
BYBLOCK
100
AcDbText
 10
-980.961656
 20
26.42857099999992
 30
0.0
 40
64.0
  1
170
 50
90.0
 41
0.9
100
AcDbText
  0
LINE
  5
396
330
1E
100
AcDbEntity
  8
SIZE
  6
BYBLOCK
100
AcDbLine
 10
-420.0
 20
290.0
 30
0.0
 11
-420.0
 21
741.5472919999997
 31
0.0
  0
TEXT
  5
397
330
1E
100
AcDbEntity
  8
SIZE
  6
BYBLOCK
100
AcDbText
 10
-486.884266
 20
495.4247709999999
 30
0.0
 40
64.0
  1
60
 41
0.9
100
AcDbText
  0
LINE
  5
398
330
1E
100
AcDbEntity
  8
SIZE
  6
BYBLOCK
100
AcDbLine
 10
-386.0
 20
140.0
 30
0.0
 11
-629.7229689999998
 21
140.0
 31
0.0
  0
LINE
  5
399
330
1E
100
AcDbEntity
  8
SIZE
  6
CONTINUOUS
100
AcDbLine
 10
-349.0032049999999
 20
463.4247709999999
 30
0.0
 11
-551.601892
 21
463.4247709999999
 31
0.0
  0
LINE
  5
39A
330
1E
100
AcDbEntity
  8
SIZE
  6
BYBLOCK
100
AcDbLine
 10
-495.0
 20
156.0
 30
0.0
 11
-788.173855
 21
156.0
 31
0.0
  0
TEXT
  5
39B
330
1E
100
AcDbEntity
  8
SIZE
  6
BYBLOCK
100
AcDbText
 10
-790.173855
 20
16.42857099999992
 30
0.0
 40
64.0
  1
156
 50
90.0
 41
0.9
100
AcDbText
  0
LINE
  5
39C
330
1E
100
AcDbEntity
  8
SIZE
  6
BYBLOCK
100
AcDbLine
 10
-758.1738549999999
 20
2.0
 30
0.0
 11
-758.1738549999999
 21
85.0
 31
0.0
  0
CIRCLE
  5
39D
330
1E
100
AcDbEntity
  8
SIZE
  6
CONTINUOUS
100
AcDbCircle
 10
-758.1738549999999
 20
156.0
 30
0.0
 40
6.0
  0
LINE
  5
39E
330
1E
100
AcDbEntity
  8
SIZE
  6
BYBLOCK
100
AcDbLine
 10
-758.1738549999999
 20
156.0
 30
0.0
 11
-758.1738549999999
 21
85.0
 31
0.0
  0
TEXT
  5
39F
330
1E
100
AcDbEntity
  8
SIZE
  6
BYBLOCK
100
AcDbText
 10
-631.7229689999997
 20
1.428570999999919
 30
0.0
 40
64.0
  1
140
 50
90.0
 41
0.9
100
AcDbText
  0
LINE
  5
3A0
330
1E
100
AcDbEntity
  8
SIZE
  6
BYBLOCK
100
AcDbLine
 10
-599.7229689999998
 20
138.0
 30
0.0
 11
-599.7229689999998
 21
70.0
 31
0.0
  0
LINE
  5
3A1
330
1E
100
AcDbEntity
  8
SIZE
  6
BYBLOCK
100
AcDbLine
 10
-599.7229689999998
 20
2.0
 30
0.0
 11
-599.7229689999998
 21
70.0
 31
0.0
  0
CIRCLE
  5
3A2
330
1E
100
AcDbEntity
  8
SIZE
  6
CONTINUOUS
100
AcDbCircle
 10
-599.7229689999998
 20
140.0
 30
0.0
 40
6.0
  0
LINE
  5
3A3
330
1E
100
AcDbEntity
  8
SIZE
  6
BYBLOCK
100
AcDbLine
 10
-284.0
 20
190.0
 30
0.0
 11
-284.0
 21
493.424771
 31
0.0
  0
LINE
  5
3A4
330
1E
100
AcDbEntity
  8
SIZE
  6
BYBLOCK
100
AcDbLine
 10
-344.0
 20
160.0
 30
0.0
 11
-344.0
 21
493.424771
 31
0.0
  0
LINE
  5
3A5
330
1E
100
AcDbEntity
  8
SIZE
  6
BYBLOCK
100
AcDbLine
 10
-284.0
 20
190.0
 30
0.0
 11
-284.0
 21
493.424771
 31
0.0
  0
LWPOLYLINE
  5
3A6
330
1E
100
AcDbEntity
  8
NOTE
  6
CONTINUOUS
100
AcDbPolyline
 90
        3
 70
     0
 43
0.0
 10
-292.88246
 20
130.9986929999999
 10
-284.0
 20
170.0
 10
-311.193089
 20
140.6651080000001
  0
LINE
  5
3A7
330
1E
100
AcDbEntity
  8
NOTE
  6
CONTINUOUS
100
AcDbLine
 10
-284.0
 20
190.0
 30
0.0
 11
-284.0
 21
150.0
 31
0.0
  0
CIRCLE
  5
3A8
330
1E
100
AcDbEntity
  8
DETAIL
  6
CONTINUOUS
100
AcDbCircle
 10
-344.0
 20
140.0
 30
0.0
 40
6.349999999999999
  0
LWPOLYLINE
  5
3A9
330
1E
100
AcDbEntity
  8
NOTE
  6
CONTINUOUS
100
AcDbPolyline
 90
        3
 70
     0
 43
0.0
 10
-356.6407359999998
 20
102.0498779999998
 10
-344.0
 20
140.0
 10
-373.92226
 20
113.4545980000002
  0
LINE
  5
3AA
330
1E
100
AcDbEntity
  8
NOTE
  6
CONTINUOUS
100
AcDbLine
 10
-364.0
 20
140.0
 30
0.0
 11
-324.0
 21
140.0
 31
0.0
  0
LINE
  5
3AB
330
1E
100
AcDbEntity
  8
NOTE
  6
CONTINUOUS
100
AcDbLine
 10
-420.0
 20
110.0
 30
0.0
 11
-420.0
 21
70.0
 31
0.0
  0
LWPOLYLINE
  5
3AC
330
1E
100
AcDbEntity
  8
NOTE
  6
CONTINUOUS
100
AcDbPolyline
 90
        3
 70
     0
 43
0.0
 10
-425.2287179999998
 20
70.49204499999996
 10
-405.0
 20
105.0
 10
-439.772561
 20
85.22959300000001
  0
CIRCLE
  5
3AD
330
1E
100
AcDbEntity
  8
FIX
  6
CONTINUOUS
100
AcDbCircle
 10
-405.0
 20
105.0
 30
0.0
 40
40.0
  0
LINE
  5
3AE
330
1E
100
AcDbEntity
  8
NOTE
  6
CONTINUOUS
100
AcDbLine
 10
-440.0
 20
90.0
 30
0.0
 11
-400.0
 21
90.0
 31
0.0
  0
LINE
  5
3AF
330
1E
100
AcDbEntity
  8
NOTE
  6
CONTINUOUS
100
AcDbLine
 10
-425.0
 20
105.0
 30
0.0
 11
-385.0
 21
105.0
 31
0.0
  0
LINE
  5
3B0
330
1E
100
AcDbEntity
  8
NOTE
  6
CONTINUOUS
100
AcDbLine
 10
-405.0
 20
125.0
 30
0.0
 11
-405.0
 21
85.0
 31
0.0
  0
LINE
  5
3B1
330
1E
100
AcDbEntity
  8
NOTE
  6
CONTINUOUS
100
AcDbLine
 10
-344.0
 20
160.0
 30
0.0
 11
-344.0
 21
120.0
 31
0.0
  0
LINE
  5
3B2
330
1E
100
AcDbEntity
  8
NOTE
  6
CONTINUOUS
100
AcDbLine
 10
-440.0
 20
220.0
 30
0.0
 11
-400.0
 21
220.0
 31
0.0
  0
LINE
  5
3B3
330
1E
100
AcDbEntity
  8
NOTE
  6
CONTINUOUS
100
AcDbLine
 10
-420.0
 20
240.0
 30
0.0
 11
-420.0
 21
200.0
 31
0.0
  0
LINE
  5
3B4
330
1E
100
AcDbEntity
  8
NOTE
  6
CONTINUOUS
100
AcDbLine
 10
-304.0
 20
170.0
 30
0.0
 11
-264.0
 21
170.0
 31
0.0
  0
CIRCLE
  5
3B5
330
1E
100
AcDbEntity
  8
DETAIL
  6
CONTINUOUS
100
AcDbCircle
 10
-284.0
 20
170.0
 30
0.0
 40
3.174999999999999
  0
LINE
  5
3B6
330
1E
100
AcDbEntity
  8
NOTE
  6
CONTINUOUS
100
AcDbLine
 10
0.0
 20
176.0
 30
0.0
 11
0.0
 21
136.0
 31
0.0
  0
CIRCLE
  5
3B7
330
1E
100
AcDbEntity
  8
SIZE
  6
CONTINUOUS
100
AcDbCircle
 10
19.82322609414063
 20
110.0941551983273
 30
0.0
 40
6.0
  0
LINE
  5
3B8
330
1E
100
AcDbEntity
  8
SIZE
  6
BYBLOCK
100
AcDbLine
 10
0.0
 20
155.9099999999998
 30
0.0
 11
0.0
 21
156.0900000000001
 31
0.0
  0
LINE
  5
3B9
330
1E
100
AcDbEntity
  8
SIZE
  6
BYBLOCK
100
AcDbLine
 10
-284.0
 20
463.4247709999999
 30
0.0
 11
-143.0
 21
463.4247709999999
 31
0.0
  0
CIRCLE
  5
3BA
330
1E
100
AcDbEntity
  8
SIZE
  6
CONTINUOUS
100
AcDbCircle
 10
-344.0
 20
463.4247709999999
 30
0.0
 40
6.0
  0
LINE
  5
3BB
330
1E
100
AcDbEntity
  8
SIZE
  6
BYBLOCK
100
AcDbLine
 10
-286.0
 20
463.4247709999999
 30
0.0
 11
-314.0
 21
463.4247709999999
 31
0.0
  0
LINE
  5
3BC
330
1E
100
AcDbEntity
  8
SIZE
  6
BYBLOCK
100
AcDbLine
 10
-342.0
 20
463.4247709999999
 30
0.0
 11
-314.0
 21
463.4247709999999
 31
0.0
  0
CIRCLE
  5
3BD
330
1E
100
AcDbEntity
  8
SIZE
  6
CONTINUOUS
100
AcDbCircle
 10
-284.0
 20
463.4247709999999
 30
0.0
 40
6.0
  0
CIRCLE
  5
3BE
330
1E
100
AcDbEntity
  8
SIZE
  6
CONTINUOUS
100
AcDbCircle
 10
-284.0
 20
463.4247709999999
 30
0.0
 40
6.0
  0
LINE
  5
3BF
330
1E
100
AcDbEntity
  8
SIZE
  6
BYBLOCK
100
AcDbLine
 10
0.0
 20
357.9592889999998
 30
0.0
 11
0.0
 21
493.424771
 31
0.0
  0
LINE
  5
3C0
330
1E
100
AcDbEntity
  8
SIZE
  6
BYBLOCK
100
AcDbLine
 10
0.0
 20
357.9592889999998
 30
0.0
 11
0.0
 21
492.6273919999998
 31
0.0
  0
LINE
  5
3C1
330
1E
100
AcDbEntity
  8
SIZE
  6
BYBLOCK
100
AcDbLine
 10
-2.0
 20
463.4247709999999
 30
0.0
 11
-143.0
 21
463.4247709999999
 31
0.0
  0
TEXT
  5
3C2
330
1E
100
AcDbEntity
  8
SIZE
  6
BYBLOCK
100
AcDbText
 10
-215.6857139999999
 20
495.4247709999999
 30
0.0
 40
64.0
  1
284
 41
0.9
100
AcDbText
  0
CIRCLE
  5
3C3
330
1E
100
AcDbEntity
  8
SIZE
  6
CONTINUOUS
100
AcDbCircle
 10
-420.0
 20
711.547292
 30
0.0
 40
6.0
  0
LINE
  5
3C4
330
1E
100
AcDbEntity
  8
DETAIL
  6
CONTINUOUS
100
AcDbLine
 10
260.0
 20
258.0
 30
0.0
 11
260.0
 21
0.0
 31
0.0
  0
CIRCLE
  5
3C5
330
1E
100
AcDbEntity
  8
SIZE
  6
CONTINUOUS
100
AcDbCircle
 10
1229.4697714342
 20
0.0
 30
0.0
 40
6.0
  0
CIRCLE
  5
3C6
330
1E
100
AcDbEntity
  8
SIZE
  6
CONTINUOUS
100
AcDbCircle
 10
1376.311463434199
 20
0.0
 30
0.0
 40
6.0
  0
CIRCLE
  5
3C7
330
1E
100
AcDbEntity
  8
SIZE
  6
CONTINUOUS
100
AcDbCircle
 10
574.4238849999996
 20
0.0
 30
0.0
 40
6.0
  0
CIRCLE
  5
3C8
330
1E
100
AcDbEntity
  8
SIZE
  6
CONTINUOUS
100
AcDbCircle
 10
927.2152206588152
 20
0.0
 30
0.0
 40
6.0
  0
CIRCLE
  5
3C9
330
1E
100
AcDbEntity
  8
SIZE
  6
CONTINUOUS
100
AcDbCircle
 10
1376.648463434199
 20
0.0
 30
0.0
 40
6.0
  0
LINE
  5
3CA
330
1E
100
AcDbEntity
  8
SIZE
  6
BYBLOCK
100
AcDbLine
 10
1229.4697714342
 20
15.0
 30
0.0
 11
1229.4697714342
 21
-1.5
 31
0.0
  0
LINE
  5
3CB
330
1E
100
AcDbEntity
  8
SIZE
  6
BYBLOCK
100
AcDbLine
 10
405.0
 20
65.0
 30
0.0
 11
405.0
 21
-345.2840919999998
 31
0.0
  0
LINE
  5
3CD
330
1E
100
AcDbEntity
  8
NOTE
  6
CONTINUOUS
100
AcDbLine
 10
405.0
 20
105.0
 30
0.0
 11
323.8091329999999
 21
-170.2508360000001
 31
0.0
  0
LINE
  5
3CE
330
1E
100
AcDbEntity
  8
SIZE
  6
CONTINUOUS
100
AcDbLine
 10
574.4238849999996
 20
5.122997999999824
 30
0.0
 11
574.4238849999996
 21
-188.9635739999998
 31
0.0
  0
LINE
  5
3CF
330
1E
100
AcDbEntity
  8
DETAIL
  6
CONTINUOUS
100
AcDbLine
 10
420.0
 20
258.0
 30
0.0
 11
420.0
 21
127.2723805470768
 31
0.0
  0
LINE
  5
3D0
330
1E
100
AcDbEntity
  8
SIZE
  6
BYBLOCK
100
AcDbLine
 10
495.0
 20
0.0
 30
0.0
 11
1065.203999999999
 21
0.0
 31
0.0
  0
LINE
  5
3D1
330
1E
100
AcDbEntity
  8
SIZE
  6
BYBLOCK
100
AcDbLine
 10
495.0
 20
0.0
 30
0.0
 11
1403.06282352313
 21
0.0
 31
0.0
  0
LINE
  5
3D2
330
1E
100
AcDbEntity
  8
SIZE
  6
BYBLOCK
100
AcDbLine
 10
495.0
 20
-35.0
 30
0.0
 11
1400.480084541053
 21
-35.0
 31
0.0
  0
LINE
  5
3D4
330
1E
100
AcDbEntity
  8
NOTE
  6
CONTINUOUS
100
AcDbLine
 10
323.8091329999999
 20
-170.2508360000001
 30
0.0
 11
166.849095
 21
-170.2508360000001
 31
0.0
  0
TEXT
  5
3D5
330
1E
100
AcDbEntity
  8
NOTE
  6
CONTINUOUS
100
AcDbText
 10
192.0748149999999
 20
-153.4331819999997
 30
0.0
 40
64.0
  1
AH
 41
0.9
100
AcDbText
  0
CIRCLE
  5
3D6
330
1E
100
AcDbEntity
  8
SIZE
  6
CONTINUOUS
100
AcDbCircle
 10
405.0
 20
-315.2840919999998
 30
0.0
 40
6.0
  0
LINE
  5
3D7
330
1E
100
AcDbEntity
  8
SIZE
  6
BYBLOCK
100
AcDbLine
 10
475.0
 20
-50.0
 30
0.0
 11
475.0
 21
-530.9925189999999
 31
0.0
  0
CIRCLE
  5
3D8
330
1E
100
AcDbEntity
  8
SIZE
  6
CONTINUOUS
100
AcDbCircle
 10
475.0
 20
-500.9925189999998
 30
0.0
 40
6.0
  0
LINE
  5
3D9
330
1E
100
AcDbEntity
  8
SIZE
  6
BYBLOCK
100
AcDbLine
 10
495.0
 20
0.0
 30
0.0
 11
763.9246229999998
 21
0.0
 31
0.0
  0
LINE
  5
3DA
330
1E
100
AcDbEntity
  8
SIZE
  6
BYBLOCK
100
AcDbLine
 10
495.0
 20
0.0
 30
0.0
 11
918.0253079999999
 21
0.0
 31
0.0
  0
TEXT
  5
3DB
330
1E
100
AcDbEntity
  8
SIZE
  6
BYBLOCK
100
AcDbText
 10
560.0676120000001
 20
-189.8459510000002
 30
0.0
 40
64.0
  1
105
 50
90.0
 41
0.9
100
AcDbText
  0
LINE
  5
3DC
330
1E
100
AcDbEntity
  8
SIZE
  6
BYBLOCK
100
AcDbLine
 10
495.0
 20
0.0
 30
0.0
 11
604.4238849999997
 21
0.0
 31
0.0
  0
LINE
  5
3DE
330
1E
100
AcDbEntity
  8
DETAIL
  6
CONTINUOUS
100
AcDbLine
 10
475.0
 20
0.0
 30
0.0
 11
475.0
 21
-35.0
 31
0.0
  0
LINE
  5
3DF
330
1E
100
AcDbEntity
  8
SIZE
  6
CONTINUOUS
100
AcDbLine
 10
1229.4697714342
 20
-3.006720999999743
 30
0.0
 11
1229.4697714342
 21
-199.3542969999998
 31
0.0
  0
TEXT
  5
3E0
330
1E
100
AcDbEntity
  8
SIZE
  6
BYBLOCK
100
AcDbText
 10
1197.469771434199
 20
-152.2788009999999
 30
0.0
 40
64.0
  1
17
 50
90.0
 41
0.9
100
AcDbText
  0
LINE
  5
3E1
330
1E
100
AcDbEntity
  8
SIZE
  6
CONTINUOUS
100
AcDbLine
 10
1376.311463434199
 20
-37.18792800000028
 30
0.0
 11
1376.311463434199
 21
-201.7745079999999
 31
0.0
  0
TEXT
  5
3E2
330
1E
100
AcDbEntity
  8
SIZE
  6
BYBLOCK
100
AcDbText
 10
1344.311463434199
 20
-150.9781359999997
 30
0.0
 40
64.0
  1
35
 50
90.0
 41
0.9
100
AcDbText
  0
CIRCLE
  5
3E3
330
1E
100
AcDbEntity
  8
SIZE
  6
CONTINUOUS
100
AcDbCircle
 10
1376.311463434199
 20
-35.0
 30
0.0
 40
6.0
  0
LINE
  5
3E4
330
1E
100
AcDbEntity
  8
SIZE
  6
BYBLOCK
100
AcDbLine
 10
1376.311463434199
 20
-2.0
 30
0.0
 11
1376.311463434199
 21
-15.0
 31
0.0
  0
LINE
  5
3E5
330
1E
100
AcDbEntity
  8
SIZE
  6
BYBLOCK
100
AcDbLine
 10
1376.311463434199
 20
-28.0
 30
0.0
 11
1376.311463434199
 21
-15.0
 31
0.0
  0
LINE
  5
3E6
330
1E
100
AcDbEntity
  8
SIZE
  6
BYBLOCK
100
AcDbLine
 10
440.0
 20
258.0
 30
0.0
 11
1401.823819080036
 21
258.0
 31
0.0
  0
LINE
  5
3E7
330
1E
100
AcDbEntity
  8
SIZE
  6
BYBLOCK
100
AcDbLine
 10
420.0
 20
290.0
 30
0.0
 11
420.0
 21
741.5472919999997
 31
0.0
  0
LINE
  5
3E8
330
1E
100
AcDbEntity
  8
SIZE
  6
BYBLOCK
100
AcDbLine
 10
440.0
 20
17.0
 30
0.0
 11
918.3618459999999
 21
17.0
 31
0.0
  0
LINE
  5
3E9
330
1E
100
AcDbEntity
  8
SIZE
  6
BYBLOCK
100
AcDbLine
 10
387.0
 20
190.0
 30
0.0
 11
958.1992005449247
 21
190.0
 31
0.0
  0
LINE
  5
3EA
330
1E
100
AcDbEntity
  8
SIZE
  6
BYBLOCK
100
AcDbLine
 10
445.0
 20
105.0
 30
0.0
 11
604.4238849999997
 21
105.0
 31
0.0
  0
LINE
  5
3EB
330
1E
100
AcDbEntity
  8
SIZE
  6
BYBLOCK
100
AcDbLine
 10
440.0
 20
17.0
 30
0.0
 11
1261.581773314264
 21
17.0
 31
0.0
  0
LINE
  5
3EC
330
1E
100
AcDbEntity
  8
NOTE
  6
CONTINUOUS
100
AcDbLine
 10
377.0
 20
190.0
 30
0.0
 11
260.5232994001081
 21
353.1737475445597
 31
0.0
  0
LINE
  5
3ED
330
1E
100
AcDbEntity
  8
SIZE
  6
BYBLOCK
100
AcDbLine
 10
-19.96372988470125
 20
201.8383556226554
 30
0.0
 11
-87.99769365387238
 21
358.7169426729346
 31
0.0
  0
LINE
  5
3EE
330
1E
100
AcDbEntity
  8
SIZE
  6
BYBLOCK
100
AcDbLine
 10
377.0
 20
238.0
 30
0.0
 11
377.0
 21
492.6273919999998
 31
0.0
  0
CIRCLE
  5
3EF
330
1E
100
AcDbEntity
  8
SIZE
  6
CONTINUOUS
100
AcDbCircle
 10
-19.96372988470079
 20
201.8383556226554
 30
0.0
 40
6.0
  0
LWPOLYLINE
  5
3F0
330
1E
100
AcDbEntity
  8
NOTE
  6
CONTINUOUS
100
AcDbPolyline
 90
        3
 70
     0
 43
0.0
 10
403.7633619999999
 20
65.01911999999993
 10
405.0
 20
105.0
 10
383.9385999999999
 20
70.99386200000026
  0
CIRCLE
  5
3F1
330
1E
100
AcDbEntity
  8
FIX
  6
CONTINUOUS
100
AcDbCircle
 10
405.0
 20
105.0
 30
0.0
 40
40.0
  0
LINE
  5
3F3
330
1E
100
AcDbEntity
  8
NOTE
  6
CONTINUOUS
100
AcDbLine
 10
385.0
 20
105.0
 30
0.0
 11
425.0
 21
105.0
 31
0.0
  0
LINE
  5
3F5
330
1E
100
AcDbEntity
  8
NOTE
  6
CONTINUOUS
100
AcDbLine
 10
405.0
 20
125.0
 30
0.0
 11
405.0
 21
85.0
 31
0.0
  0
LWPOLYLINE
  5
3F6
330
1E
100
AcDbEntity
  8
NOTE
  6
CONTINUOUS
100
AcDbPolyline
 90
        3
 70
     0
 43
0.0
 10
345.4001134385884
 20
214.5244198955442
 10
377.0
 20
190.0
 10
361.8959050765038
 20
227.0387137547404
  0
LINE
  5
3F8
330
1E
100
AcDbEntity
  8
NOTE
  6
CONTINUOUS
100
AcDbLine
 10
357.0
 20
190.0
 30
0.0
 11
397.0
 21
190.0
 31
0.0
  0
LINE
  5
3F9
330
1E
100
AcDbEntity
  8
NOTE
  6
CONTINUOUS
100
AcDbLine
 10
377.0
 20
210.0
 30
0.0
 11
377.0
 21
170.0
 31
0.0
  0
CIRCLE
  5
3FA
330
1E
100
AcDbEntity
  8
DETAIL
  6
CONTINUOUS
100
AcDbCircle
 10
377.0
 20
190.0
 30
0.0
 40
16.0
  0
TEXT
  5
3FC
330
1E
100
AcDbEntity
  8
SIZE
  6
BYBLOCK
100
AcDbText
 10
-238.3129715742404
 20
360.0382194543838
 30
0.0
 40
64.0
  1
φ100
 41
0.9
100
AcDbText
  0
TEXT
  5
3FD
330
1E
100
AcDbEntity
  8
SIZE
  6
BYBLOCK
100
AcDbText
 10
111.5714289999998
 20
494.6273919999998
 30
0.0
 40
64.0
  1
377
 41
0.9
100
AcDbText
  0
LINE
  5
3FE
330
1E
100
AcDbEntity
  8
SIZE
  6
BYBLOCK
100
AcDbLine
 10
2.0
 20
462.6273919999999
 30
0.0
 11
372.0
 21
462.6273919999999
 31
0.0
  0
CIRCLE
  5
400
330
1E
100
AcDbEntity
  8
SIZE
  6
CONTINUOUS
100
AcDbCircle
 10
377.0
 20
462.6273919999999
 30
0.0
 40
6.0
  0
TEXT
  5
401
330
1E
100
AcDbEntity
  8
SIZE
  6
BYBLOCK
100
AcDbText
 10
895.2152206588152
 20
42.19794600000023
 30
0.0
 40
64.0
  1
190
 50
90.0
 41
0.9
100
AcDbText
  0
CIRCLE
  5
402
330
1E
100
AcDbEntity
  8
SIZE
  6
CONTINUOUS
100
AcDbCircle
 10
574.4238849999996
 20
105.0
 30
0.0
 40
6.0
  0
LINE
  5
403
330
1E
100
AcDbEntity
  8
SIZE
  6
BYBLOCK
100
AcDbLine
 10
574.4238849999996
 20
105.0
 30
0.0
 11
574.4238849999996
 21
49.0
 31
0.0
  0
LINE
  5
404
330
1E
100
AcDbEntity
  8
SIZE
  6
BYBLOCK
100
AcDbLine
 10
574.4238849999996
 20
2.0
 30
0.0
 11
574.4238849999996
 21
49.0
 31
0.0
  0
TEXT
  5
405
330
1E
100
AcDbEntity
  8
SIZE
  6
BYBLOCK
100
AcDbText
 10
1197.806309434199
 20
69.442857
 30
0.0
 40
64.0
  1
241
 50
90.0
 41
0.9
100
AcDbText
  0
LINE
  5
406
330
1E
100
AcDbEntity
  8
SIZE
  6
BYBLOCK
100
AcDbLine
 10
1229.806309434199
 20
258.0
 30
0.0
 11
1229.806309434199
 21
143.5
 31
0.0
  0
LINE
  5
407
330
1E
100
AcDbEntity
  8
SIZE
  6
BYBLOCK
100
AcDbLine
 10
927.2152206588152
 20
190.0
 30
0.0
 11
927.2152206588152
 21
109.0
 31
0.0
  0
LINE
  5
408
330
1E
100
AcDbEntity
  8
SIZE
  6
BYBLOCK
100
AcDbLine
 10
927.2152206588152
 20
2.0
 30
0.0
 11
927.2152206588152
 21
109.0
 31
0.0
  0
LINE
  5
409
330
1E
100
AcDbEntity
  8
SIZE
  6
BYBLOCK
100
AcDbLine
 10
1229.806309434199
 20
19.0
 30
0.0
 11
1229.806309434199
 21
143.5
 31
0.0
  0
CIRCLE
  5
40A
330
1E
100
AcDbEntity
  8
SIZE
  6
CONTINUOUS
100
AcDbCircle
 10
1229.4697714342
 20
17.0
 30
0.0
 40
6.0
  0
CIRCLE
  5
40B
330
1E
100
AcDbEntity
  8
SIZE
  6
CONTINUOUS
100
AcDbCircle
 10
1229.806309434199
 20
17.0
 30
0.0
 40
6.0
  0
LINE
  5
40C
330
1E
100
AcDbEntity
  8
SIZE
  6
BYBLOCK
100
AcDbLine
 10
1229.4697714342
 20
2.0
 30
0.0
 11
1229.4697714342
 21
18.5
 31
0.0
  0
CIRCLE
  5
40D
330
1E
100
AcDbEntity
  8
SIZE
  6
CONTINUOUS
100
AcDbCircle
 10
927.2152206588152
 20
190.0
 30
0.0
 40
6.0
  0
CIRCLE
  5
40E
330
1E
100
AcDbEntity
  8
SIZE
  6
CONTINUOUS
100
AcDbCircle
 10
1229.806309434199
 20
258.0
 30
0.0
 40
6.0
  0
TEXT
  5
40F
330
1E
100
AcDbEntity
  8
NOTE
  6
CONTINUOUS
100
AcDbText
 10
29.49227178586898
 20
375.7106414437494
 30
0.0
 40
64.0
  1
Dφ32
 41
0.9
100
AcDbText
  0
LINE
  5
410
330
1E
100
AcDbEntity
  8
NOTE
  6
CONTINUOUS
100
AcDbLine
 10
27.82664401160264
 20
353.1737475445595
 30
0.0
 11
260.5232994001081
 21
353.1737475445597
 31
0.0
  0
CIRCLE
  5
411
330
1E
100
AcDbEntity
  8
SIZE
  6
CONTINUOUS
100
AcDbCircle
 10
420.0
 20
711.547292
 30
0.0
 40
6.0
  0
TEXT
  5
412
330
1E
100
AcDbEntity
  8
ETC
  6
CONTINUOUS
100
AcDbText
 10
1145.827055020738
 20
715.6480976274861
 30
0.0
 40
64.0
  1
SPLF4992
 41
0.9
100
AcDbText
  0
TEXT
  5
413
330
1E
100
AcDbEntity
  8
ETC
  6
CONTINUOUS
100
AcDbText
 10
1152.486195020737
 20
819.8325602656662
 30
0.0
 40
64.0
  1
PAC
 41
0.9
100
AcDbText
  0
TEXT
  5
414
330
1E
100
AcDbEntity
  8
SIZE
  6
BYBLOCK
100
AcDbText
 10
1344.648463434198
 20
50.942857
 30
0.0
 40
64.0
  1
258
 50
90.0
 41
0.9
100
AcDbText
  0
LINE
  5
415
330
1E
100
AcDbEntity
  8
SIZE
  6
BYBLOCK
100
AcDbLine
 10
1376.648463434199
 20
258.0
 30
0.0
 11
1376.648463434199
 21
125.0
 31
0.0
  0
LINE
  5
416
330
1E
100
AcDbEntity
  8
SIZE
  6
BYBLOCK
100
AcDbLine
 10
1376.648463434199
 20
2.0
 30
0.0
 11
1376.648463434199
 21
145.0
 31
0.0
  0
CIRCLE
  5
417
330
1E
100
AcDbEntity
  8
SIZE
  6
CONTINUOUS
100
AcDbCircle
 10
1376.648463434199
 20
258.0
 30
0.0
 40
6.0
  0
LINE
  5
F8C
330
1E
100
AcDbEntity
  8
DETAIL
100
AcDbLine
 10
616.1999781600006
 20
205.000035999999
 30
0.0
 11
434.7999237400017
 21
205.000035999999
 31
0.0
  0
LINE
  5
F8D
330
1E
100
AcDbEntity
  8
DETAIL
100
AcDbLine
 10
628.1999817600008
 20
90.00000149999868
 30
0.0
 11
434.7999237400017
 21
90.00000149999868
 31
0.0
  0
LINE
  5
F8E
330
1E
100
AcDbEntity
  8
DETAIL
100
AcDbLine
 10
628.0
 20
85.0
 30
0.0
 11
434.7999237400017
 21
85.0
 31
0.0
  0
LINE
  5
F8F
330
1E
100
AcDbEntity
  8
DETAIL
100
AcDbLine
 10
555.5999599799998
 20
90.00000149999868
 30
0.0
 11
434.7999237400017
 21
90.00000149999868
 31
0.0
  0
ARC
  5
F90
330
1E
100
AcDbEntity
  8
DETAIL
100
AcDbCircle
 10
558.9999609999995
 20
158.2000219599995
 30
0.0
 40
13.0000039
100
AcDbArc
 50
10.03323300000267
 51
330.482711999997
  0
ARC
  5
F93
330
1E
100
AcDbEntity
  8
DETAIL
100
AcDbCircle
 10
558.9999609999995
 20
158.2000219599995
 30
0.0
 40
15.0000045
100
AcDbArc
 50
7.172651000000811
 51
332.8948660000032
  0
ARC
  5
F94
330
1E
100
AcDbEntity
  8
DETAIL
100
AcDbCircle
 10
558.9999609999995
 20
158.2000219599995
 30
0.0
 40
10.000003
100
AcDbArc
 50
16.68838799999885
 51
324.9264209999992
  0
ARC
  5
F95
330
1E
100
AcDbEntity
  8
DETAIL
100
AcDbCircle
 10
558.9999609999995
 20
158.2000219599995
 30
0.0
 40
8.000002400000001
100
AcDbArc
 50
24.38874300000267
 51
318.6309939999984
  0
LINE
  5
F96
330
1E
100
AcDbEntity
  8
DETAIL
100
AcDbLine
 10
577.6432512083702
 20
93.23022554598901
 30
0.0
 11
448.3756124280916
 21
93.23022554598901
 31
0.0
  0
LINE
  5
F97
330
1E
100
AcDbEntity
  8
DETAIL
100
AcDbLine
 10
576.6005893571109
 20
129.2302363459894
 30
0.0
 11
446.4889272467007
 21
129.2302363459894
 31
0.0
  0
LINE
  5
F98
330
1E
100
AcDbEntity
  8
DETAIL
100
AcDbLine
 10
427.7999216399994
 20
212.8000383399994
 30
0.0
 11
623.9999804999979
 21
212.8000383399994
 31
0.0
  0
LINE
  5
F9F
330
1E
100
AcDbEntity
  8
DETAIL
100
AcDbLine
 10
427.7999216399994
 20
240.0000464999989
 30
0.0
 11
427.7999216399994
 21
128.092189850729
 31
0.0
  0
LINE
  5
FA0
330
1E
100
AcDbEntity
  8
DETAIL
100
AcDbLine
 10
423.9999204999985
 20
127.6927897309092
 30
0.0
 11
423.9999204999985
 21
240.0000464999989
 31
0.0
  0
LINE
  5
FA1
330
1E
100
AcDbEntity
  8
DETAIL
100
AcDbLine
 10
424.7999207400007
 20
240.0000464999989
 30
0.0
 11
424.7999207400007
 21
127.7768743715196
 31
0.0
  0
LINE
  5
FAA
330
1E
100
AcDbEntity
  8
DETAIL
100
AcDbLine
 10
304.4002307739483
 20
78.92405202336931
 30
0.0
 11
432.6963384935407
 21
92.40850991485922
 31
0.0
  0
LINE
  5
FAB
330
1E
100
AcDbEntity
  8
DETAIL
100
AcDbLine
 10
300.6372065681189
 20
114.7268473795893
 30
0.0
 11
430.8096533121506
 21
128.4085207148587
 31
0.0
  0
LINE
  5
FB0
330
1E
100
AcDbEntity
  8
DETAIL
100
AcDbLine
 10
279.0572847095318
 20
76.99999759999946
 30
0.0
 11
321.0572973095286
 21
76.99999759999946
 31
0.0
  0
LINE
  5
FB1
330
1E
100
AcDbEntity
  8
DETAIL
100
AcDbLine
 10
279.0572847095318
 20
117.0000095999994
 30
0.0
 11
321.0572973095286
 21
117.0000095999994
 31
0.0
  0
ARC
  5
FB2
330
1E
100
AcDbEntity
  8
DETAIL
100
AcDbCircle
 10
302.5187225171921
 20
96.82544970147956
 30
0.0
 40
18.0000054
100
AcDbArc
 50
96.00000000000818
 51
276.0000000000081
  0
ARC
  5
FB3
330
1E
100
AcDbEntity
  8
DETAIL
100
AcDbCircle
 10
279.0572847095318
 20
81.99999909999906
 30
0.0
 40
5.0000015
100
AcDbArc
 50
180.0
 51
270.0
  0
ARC
  5
FB4
330
1E
100
AcDbEntity
  8
DETAIL
100
AcDbCircle
 10
279.0572847095318
 20
112.0000080999998
 30
0.0
 40
5.0000015
100
AcDbArc
 50
90.0
 51
180.0
  0
LINE
  5
FB5
330
1E
100
AcDbEntity
  8
DETAIL
100
AcDbLine
 10
274.0572832095313
 20
81.99999909999906
 30
0.0
 11
274.0572832095313
 21
112.0000080999998
 31
0.0
  0
ARC
  5
FB8
330
1E
100
AcDbEntity
  8
DETAIL
100
AcDbCircle
 10
321.0572973095286
 20
81.99999909999906
 30
0.0
 40
5.0000015
100
AcDbArc
 50
270.0
 51
350.7166369999969
  0
ARC
  5
FB9
330
1E
100
AcDbEntity
  8
DETAIL
100
AcDbCircle
 10
321.0572973095286
 20
112.0000080999998
 30
0.0
 40
5.0000015
100
AcDbArc
 50
81.76042100000938
 51
90.0
  0
LINE
  5
FC8
330
1E
100
AcDbEntity
  8
DETAIL
100
AcDbLine
 10
423.9999204999985
 20
79.99999849999904
 30
0.0
 11
431.7999228399994
 21
79.99999849999904
 31
0.0
  0
LINE
  5
FC9
330
1E
100
AcDbEntity
  8
DETAIL
100
AcDbLine
 10
426.1999211599986
 20
88.96448580472952
 30
0.0
 11
428.4999218499979
 21
88.96448580472952
 31
0.0
  0
LINE
  5
FCA
330
1E
100
AcDbEntity
  8
DETAIL
100
AcDbLine
 10
426.1999211599986
 20
91.7257097100196
 30
0.0
 11
426.1999211599986
 21
88.96448580472952
 31
0.0
  0
LINE
  5
FCB
330
1E
100
AcDbEntity
  8
DETAIL
100
AcDbLine
 10
428.4999218499979
 20
91.96745593638979
 30
0.0
 11
428.4999218499979
 21
88.96448580472952
 31
0.0
  0
LINE
  5
FCC
330
1E
100
AcDbEntity
  8
DETAIL
100
AcDbLine
 10
427.7999216399994
 20
88.96448580472952
 30
0.0
 11
427.7999216399994
 21
79.99999849999904
 31
0.0
  0
LINE
  5
FCD
330
1E
100
AcDbEntity
  8
DETAIL
100
AcDbLine
 10
420.0000000000001
 20
79.99999849999858
 30
0.0
 11
423.9999204999985
 21
79.99999849999904
 31
0.0
  0
LINE
  5
FCE
330
1E
100
AcDbEntity
  8
DETAIL
100
AcDbLine
 10
424.7999207400007
 20
91.57856351202918
 30
0.0
 11
424.7999207400007
 21
79.99999849999904
 31
0.0
  0
LINE
  5
FCF
330
1E
100
AcDbEntity
  8
DETAIL
100
AcDbLine
 10
423.9999204999985
 20
79.99999849999904
 30
0.0
 11
423.9999204999985
 21
91.49448656372896
 31
0.0
  0
LINE
  5
FD5
330
1E
100
AcDbEntity
  8
DETAIL
100
AcDbLine
 10
434.7999237400017
 20
90.00000149999868
 30
0.0
 11
434.7999237400017
 21
82.99999939999906
 31
0.0
  0
LINE
  5
FD6
330
1E
100
AcDbEntity
  8
DETAIL
100
AcDbLine
 10
434.7999237400017
 20
82.99999939999906
 30
0.0
 11
431.7999228399994
 21
79.99999849999904
 31
0.0
  0
ARC
  5
FD7
330
1E
100
AcDbEntity
  8
DETAIL
100
AcDbCircle
 10
448.3756124280916
 20
-56.76981945401076
 30
0.0
 40
150.000045
100
AcDbArc
 50
90.0
 51
96.00000000000818
  0
ARC
  5
FD8
330
1E
100
AcDbEntity
  8
DETAIL
100
AcDbCircle
 10
446.4889272467007
 20
-20.76980865401128
 30
0.0
 40
150.000045
100
AcDbArc
 50
90.0
 51
96.00000000000818
  0
LINE
  5
FDF
330
1E
100
AcDbEntity
  8
DETAIL
100
AcDbLine
 10
424.249920575
 20
222.80004134
 30
0.0
 11
424.249920575
 21
202.8000353399998
 31
0.0
  0
LINE
  5
FE0
330
1E
100
AcDbEntity
  8
DETAIL
100
AcDbLine
 10
429.7999222400012
 20
214.5000388499993
 30
0.0
 11
429.7999222400012
 21
212.8000383399994
 31
0.0
  0
LINE
  5
FE1
330
1E
100
AcDbEntity
  8
DETAIL
100
AcDbLine
 10
423.9999204999985
 20
240.0000464999989
 30
0.0
 11
423.9999204999985
 21
212.0000380999999
 31
0.0
  0
LINE
  5
FE2
330
1E
100
AcDbEntity
  8
DETAIL
100
AcDbLine
 10
424.7999207400007
 20
240.0000464999989
 30
0.0
 11
424.7999207400007
 21
212.8000383399994
 31
0.0
  0
LINE
  5
FE3
330
1E
100
AcDbEntity
  8
DETAIL
100
AcDbLine
 10
431.7999228399994
 20
212.0000380999999
 30
0.0
 11
427.7999216399994
 21
212.0000380999999
 31
0.0
  0
LINE
  5
FE4
330
1E
100
AcDbEntity
  8
DETAIL
100
AcDbLine
 10
431.7999228399994
 20
208.000036899999
 30
0.0
 11
431.7999228399994
 21
212.0000380999999
 31
0.0
  0
LINE
  5
FE5
330
1E
100
AcDbEntity
  8
DETAIL
100
AcDbLine
 10
431.7999228399994
 20
208.000036899999
 30
0.0
 11
434.7999237400017
 21
205.000035999999
 31
0.0
  0
LINE
  5
FE6
330
1E
100
AcDbEntity
  8
DETAIL
100
AcDbLine
 10
431.7999228399994
 20
212.8000383399994
 30
0.0
 11
431.7999228399994
 21
208.000036899999
 31
0.0
  0
LINE
  5
FE7
330
1E
100
AcDbEntity
  8
DETAIL
100
AcDbLine
 10
431.7999228399994
 20
208.000036899999
 30
0.0
 11
434.7999237400017
 21
205.000035999999
 31
0.0
  0
LINE
  5
FE8
330
1E
100
AcDbEntity
  8
DETAIL
100
AcDbLine
 10
423.9999204999985
 20
240.0000464999989
 30
0.0
 11
443.7999264399986
 21
240.0000464999989
 31
0.0
  0
LINE
  5
FE9
330
1E
100
AcDbEntity
  8
DETAIL
100
AcDbLine
 10
420.0000000000001
 20
240.0000464999989
 30
0.0
 11
423.9999204999985
 21
240.0000464999989
 31
0.0
  0
LINE
  5
FEA
330
1E
100
AcDbEntity
  8
DETAIL
100
AcDbLine
 10
424.7999207400007
 20
240.0000464999989
 30
0.0
 11
423.9999204999985
 21
240.0000464999989
 31
0.0
  0
LINE
  5
FEC
330
1E
100
AcDbEntity
  8
DETAIL
100
AcDbLine
 10
446.799927340001
 20
237.0000455999997
 30
0.0
 11
446.799927340001
 21
217.0
 31
0.0
  0
LINE
  5
FED
330
1E
100
AcDbEntity
  8
DETAIL
100
AcDbLine
 10
429.7999222400012
 20
214.5000388499993
 30
0.0
 11
446.799927340001
 21
217.5000397499993
 31
0.0
  0
LINE
  5
FEE
330
1E
100
AcDbEntity
  8
DETAIL
100
AcDbLine
 10
443.7999264399986
 20
240.0000464999989
 30
0.0
 11
446.799927340001
 21
237.0000455999997
 31
0.0
  0
LINE
  5
FEF
330
1E
100
AcDbEntity
  8
DETAIL
100
AcDbLine
 10
686.3999992199987
 20
150.7000197099992
 30
0.0
 11
686.3999992199987
 21
121.7000110099993
 31
0.0
  0
LINE
  5
FF0
330
1E
100
AcDbEntity
  8
DETAIL
100
AcDbLine
 10
684.3999986200006
 20
147.2000186599989
 30
0.0
 11
684.3999986200006
 21
125.2000120599991
 31
0.0
  0
LINE
  5
FF2
330
1E
100
AcDbEntity
  8
DETAIL
100
AcDbLine
 10
683.3999983200001
 20
144.7000179099996
 30
0.0
 11
683.3999983200001
 21
127.7000128099994
 31
0.0
  0
LINE
  5
FF3
330
1E
100
AcDbEntity
  8
DETAIL
100
AcDbLine
 10
558.2622300094481
 20
156.8818600260892
 30
0.0
 11
665.6948449916259
 21
136.9343849027723
 31
0.0
  0
LINE
  5
FF4
330
1E
100
AcDbEntity
  8
DETAIL
100
AcDbLine
 10
557.800377610351
 20
154.4292641990937
 30
0.0
 11
664.7493889095624
 21
131.9136864155261
 31
0.0
  0
LINE
  5
FF5
330
1E
100
AcDbEntity
  8
DETAIL
100
AcDbLine
 10
559.1760873852641
 20
158.4096371418413
 30
0.0
 11
665.7058715801906
 21
136.9929398981617
 31
0.0
  0
LINE
  5
FF6
330
1E
100
AcDbEntity
  8
DETAIL
100
AcDbLine
 10
559.982227321979
 20
162.6905187581919
 30
0.0
 11
666.7585983402683
 21
142.5832827518129
 31
0.0
  0
LINE
  5
FF7
330
1E
100
AcDbEntity
  8
DETAIL
100
AcDbLine
 10
688.3999998200006
 20
90.80000173999906
 30
0.0
 11
688.3999998200006
 21
178.8000281399995
 31
0.0
  0
LINE
  5
FF8
330
1E
100
AcDbEntity
  8
DETAIL
100
AcDbLine
 10
689.0
 20
178.8000281399995
 30
0.0
 11
689.0
 21
91.60000197999943
 31
0.0
  0
LINE
  5
FF9
330
1E
100
AcDbEntity
  8
DETAIL
100
AcDbLine
 10
688.3999998200006
 20
178.8000281399995
 30
0.0
 11
688.3999998200006
 21
91.60000197999943
 31
0.0
  0
LINE
  5
FFA
330
1E
100
AcDbEntity
  8
DETAIL
100
AcDbLine
 10
658.7999909400005
 20
110.0000074999998
 30
0.0
 11
628.0
 21
110.0000074999998
 31
0.0
  0
LINE
  5
FFB
330
1E
100
AcDbEntity
  8
DETAIL
100
AcDbLine
 10
658.7999909400005
 20
90.00000149999868
 30
0.0
 11
628.1999817600008
 21
90.00000149999868
 31
0.0
  0
LINE
  5
FFC
330
1E
100
AcDbEntity
  8
DETAIL
100
AcDbLine
 10
650.3999884200002
 20
132.2000141599996
 30
0.0
 11
628.0000000000001
 21
132.2000141599996
 31
0.0
  0
LINE
  5
FFD
330
1E
100
AcDbEntity
  8
DETAIL
100
AcDbLine
 10
619.3999791199985
 20
90.00000149999868
 30
0.0
 11
555.5999599799998
 21
90.00000149999868
 31
0.0
  0
ARC
  5
1000
330
1E
100
AcDbEntity
  8
DETAIL
100
AcDbCircle
 10
576.6005893571109
 20
111.2000078599994
 30
0.0
 40
18.0000054
100
AcDbArc
 50
273.3207429999956
 51
90.0
  0
LINE
  5
1002
330
1E
100
AcDbEntity
  8
DETAIL
100
AcDbLine
 10
622.3999800200008
 20
113.0000083999989
 30
0.0
 11
622.3999800200008
 21
93.00000239999963
 31
0.0
  0
LINE
  5
1003
330
1E
100
AcDbEntity
  8
DETAIL
100
AcDbLine
 10
622.3999800200008
 20
93.00000239999963
 30
0.0
 11
619.3999791199985
 21
90.00000149999868
 31
0.0
  0
LINE
  5
1004
330
1E
100
AcDbEntity
  8
DETAIL
100
AcDbLine
 10
622.3999800200008
 20
90.00000149999868
 30
0.0
 11
622.3999800200008
 21
140.8293475180293
 31
0.0
  0
LINE
  5
1006
330
1E
100
AcDbEntity
  8
DETAIL
100
AcDbLine
 10
665.399992919999
 20
125.2000120599991
 30
0.0
 11
684.3999986200006
 21
125.2000120599991
 31
0.0
  0
LINE
  5
1007
330
1E
100
AcDbEntity
  8
DETAIL
100
AcDbLine
 10
665.399992919999
 20
121.7000110099993
 30
0.0
 11
686.3999992199987
 21
121.7000110099993
 31
0.0
  0
LINE
  5
1008
330
1E
100
AcDbEntity
  8
DETAIL
100
AcDbLine
 10
665.399992919999
 20
126.7000125099994
 30
0.0
 11
682.3999980199987
 21
126.7000125099994
 31
0.0
  0
LINE
  5
1009
330
1E
100
AcDbEntity
  8
DETAIL
100
AcDbLine
 10
685.3999989200019
 20
90.00000149999868
 30
0.0
 11
650.3999884200002
 21
90.00000149999868
 31
0.0
  0
LINE
  5
100A
330
1E
100
AcDbEntity
  8
DETAIL
100
AcDbLine
 10
688.3999998200006
 20
91.60000197999943
 30
0.0
 11
669.7999942399992
 21
91.60000197999943
 31
0.0
  0
LINE
  5
100B
330
1E
100
AcDbEntity
  8
DETAIL
100
AcDbLine
 10
685.3999989200019
 20
90.80000173999906
 30
0.0
 11
668.9999940000006
 21
90.80000173999906
 31
0.0
  0
ARC
  5
100C
330
1E
100
AcDbEntity
  8
DETAIL
100
AcDbCircle
 10
665.399992919999
 20
136.2000153599992
 30
0.0
 40
14.50000435
100
AcDbArc
 50
185.479576999999
 51
270.0
  0
ARC
  5
100D
330
1E
100
AcDbEntity
  8
DETAIL
100
AcDbCircle
 10
665.399992919999
 20
136.2000153599992
 30
0.0
 40
11.0000033
100
AcDbArc
 50
191.2833439999996
 51
270.0
  0
ARC
  5
100E
330
1E
100
AcDbEntity
  8
DETAIL
100
AcDbCircle
 10
665.399992919999
 20
136.2000153599992
 30
0.0
 40
9.500002850000001
100
AcDbArc
 50
195.2163780000018
 51
270.0
  0
CIRCLE
  5
100F
330
1E
100
AcDbEntity
  8
DETAIL
100
AcDbCircle
 10
671.1999946600017
 20
100.0000044999992
 30
0.0
 40
1.76927745386
  0
CIRCLE
  5
1010
330
1E
100
AcDbEntity
  8
DETAIL
100
AcDbCircle
 10
671.1999946600017
 20
100.0000044999992
 30
0.0
 40
1.03570031071
  0
CIRCLE
  5
1011
330
1E
100
AcDbEntity
  8
DETAIL
100
AcDbCircle
 10
660.7999915399987
 20
110.0000074999998
 30
0.0
 40
1.03570031071
  0
CIRCLE
  5
1012
330
1E
100
AcDbEntity
  8
DETAIL
100
AcDbCircle
 10
660.7999915399987
 20
110.0000074999998
 30
0.0
 40
1.76927745386
  0
ARC
  5
1013
330
1E
100
AcDbEntity
  8
DETAIL
100
AcDbCircle
 10
671.1999946600017
 20
100.0000044999992
 30
0.0
 40
2.0000006
100
AcDbArc
 50
90.0
 51
270.0
  0
ARC
  5
1014
330
1E
100
AcDbEntity
  8
DETAIL
100
AcDbCircle
 10
660.7999915399987
 20
90.00000149999868
 30
0.0
 40
2.0000006
100
AcDbArc
 50
0.0
 51
180.0
  0
LINE
  5
1015
330
1E
100
AcDbEntity
  8
DETAIL
100
AcDbLine
 10
668.1999937599994
 20
110.0000074999998
 30
0.0
 11
662.7999921400005
 21
110.0000074999998
 31
0.0
  0
LINE
  5
1016
330
1E
100
AcDbEntity
  8
DETAIL
100
AcDbLine
 10
671.1999946600017
 20
93.00000239999963
 30
0.0
 11
671.1999946600017
 21
98.00000389999922
 31
0.0
  0
LINE
  5
1017
330
1E
100
AcDbEntity
  8
DETAIL
100
AcDbLine
 10
668.1999937599994
 20
90.00000149999868
 30
0.0
 11
662.7999921400005
 21
90.00000149999868
 31
0.0
  0
LINE
  5
1018
330
1E
100
AcDbEntity
  8
DETAIL
100
AcDbLine
 10
671.1999946600017
 20
102.0000050999992
 30
0.0
 11
671.1999946600017
 21
107.0000065999993
 31
0.0
  0
LINE
  5
1019
330
1E
100
AcDbEntity
  8
DETAIL
100
AcDbLine
 10
668.1999937599994
 20
110.0000074999998
 30
0.0
 11
671.1999946600017
 21
107.0000065999993
 31
0.0
  0
LINE
  5
101A
330
1E
100
AcDbEntity
  8
DETAIL
100
AcDbLine
 10
668.1999937599994
 20
90.00000149999868
 30
0.0
 11
671.1999946600017
 21
93.00000239999963
 31
0.0
  0
ARC
  5
101B
330
1E
100
AcDbEntity
  8
DETAIL
100
AcDbCircle
 10
660.7999915399987
 20
110.0000074999998
 30
0.0
 40
2.0000006
100
AcDbArc
 50
180.0
 51
0.0
  0
LINE
  5
101C
330
1E
100
AcDbEntity
  8
DETAIL
100
AcDbLine
 10
654.7578666504387
 20
94.78729524387972
 30
0.0
 11
666.3484393583785
 21
105.2431291498592
 31
0.0
  0
LINE
  5
101D
330
1E
100
AcDbEntity
  8
DETAIL
100
AcDbLine
 10
655.2441821809516
 20
106.0536601622493
 30
0.0
 11
665.5379083459893
 21
95.19256459622875
 31
0.0
  0
LINE
  5
101E
330
1E
100
AcDbEntity
  8
DETAIL
100
AcDbLine
 10
651.1999886599987
 20
110.0000074999998
 30
0.0
 11
651.1999886599987
 21
134.7661918529288
 31
0.0
  0
LINE
  5
101F
330
1E
100
AcDbEntity
  8
DETAIL
100
AcDbLine
 10
650.3999884200002
 20
110.0000074999998
 30
0.0
 11
650.3999884200002
 21
134.9346149803786
 31
0.0
  0
ARC
  5
1020
330
1E
100
AcDbEntity
  8
DETAIL
100
AcDbCircle
 10
682.3999980199987
 20
127.7000128099994
 30
0.0
 40
1.0000003
100
AcDbArc
 50
270.0
 51
0.0
  0
LINE
  5
1021
330
1E
100
AcDbEntity
  8
DETAIL
100
AcDbLine
 10
689.9898772200385
 20
98.80000413999869
 30
0.0
 11
689.18987698004
 21
98.80000413999869
 31
0.0
  0
LINE
  5
1022
330
1E
100
AcDbEntity
  8
DETAIL
100
AcDbLine
 10
689.18987698004
 20
91.60000197999943
 30
0.0
 11
689.18987698004
 21
98.80000413999869
 31
0.0
  0
LINE
  5
1023
330
1E
100
AcDbEntity
  8
DETAIL
100
AcDbLine
 10
689.9898772200385
 20
90.80000173999906
 30
0.0
 11
689.9898772200385
 21
98.80000413999869
 31
0.0
  0
LINE
  5
1024
330
1E
100
AcDbEntity
  8
DETAIL
100
AcDbLine
 10
688.3999998200006
 20
91.60000197999943
 30
0.0
 11
689.18987698004
 21
91.60000197999943
 31
0.0
  0
LINE
  5
1025
330
1E
100
AcDbEntity
  8
DETAIL
100
AcDbLine
 10
685.3999989200019
 20
90.00000149999868
 30
0.0
 11
685.3999989200019
 21
90.80000173999906
 31
0.0
  0
LINE
  5
1026
330
1E
100
AcDbEntity
  8
DETAIL
100
AcDbLine
 10
689.9898772200385
 20
90.80000173999906
 30
0.0
 11
688.3999998200006
 21
90.80000173999906
 31
0.0
  0
LINE
  5
1027
330
1E
100
AcDbEntity
  8
DETAIL
100
AcDbLine
 10
688.3999998200006
 20
90.80000173999906
 30
0.0
 11
685.3999989200019
 21
90.80000173999906
 31
0.0
  0
LINE
  5
1028
330
1E
100
AcDbEntity
  8
DETAIL
100
AcDbLine
 10
689.0
 20
91.60000197999943
 30
0.0
 11
688.3999998200006
 21
91.60000197999943
 31
0.0
  0
LINE
  5
1029
330
1E
100
AcDbEntity
  8
DETAIL
100
AcDbLine
 10
650.3999884200002
 20
152.2000201599989
 30
0.0
 11
627.1999997600014
 21
152.2000201599989
 31
0.0
  0
CIRCLE
  5
102B
330
1E
100
AcDbEntity
  8
DETAIL
100
AcDbCircle
 10
593.0
 20
181.0
 30
0.0
 40
11.0000033
  0
CIRCLE
  5
102C
330
1E
100
AcDbEntity
  8
DETAIL
100
AcDbCircle
 10
593.0
 20
180.9831615334096
 30
0.0
 40
11.0000033
  0
LINE
  5
102D
330
1E
100
AcDbEntity
  8
DETAIL
100
AcDbLine
 10
593.0
 20
190.80000294
 30
0.0
 11
584.4999974499996
 21
185.9074783953196
 31
0.0
  0
LINE
  5
102E
330
1E
100
AcDbEntity
  8
DETAIL
100
AcDbLine
 10
593.0
 20
171.1999970599999
 30
0.0
 11
584.4999974499996
 21
176.0925216046798
 31
0.0
  0
CIRCLE
  5
102F
330
1E
100
AcDbEntity
  8
DETAIL
100
AcDbCircle
 10
593.0
 20
181.0
 30
0.0
 40
6.0000018
  0
CIRCLE
  5
1030
330
1E
100
AcDbEntity
  8
DETAIL
100
AcDbCircle
 10
593.0
 20
181.0
 30
0.0
 40
8.49352562498
  0
LINE
  5
1031
330
1E
100
AcDbEntity
  8
DETAIL
100
AcDbLine
 10
584.4999974499996
 20
176.0925216046798
 30
0.0
 11
584.4999974499996
 21
185.9074783953196
 31
0.0
  0
LINE
  5
1032
330
1E
100
AcDbEntity
  8
DETAIL
100
AcDbLine
 10
616.1999781600006
 20
160.0000224999998
 30
0.0
 11
616.1999781600006
 21
212.8000383399994
 31
0.0
  0
LINE
  5
1033
330
1E
100
AcDbEntity
  8
DETAIL
100
AcDbLine
 10
628.0
 20
157.0000215999989
 30
0.0
 11
623.9999804999979
 21
157.0000215999989
 31
0.0
  0
LINE
  5
1034
330
1E
100
AcDbEntity
  8
DETAIL
100
AcDbLine
 10
627.1999997600014
 20
157.0000215999989
 30
0.0
 11
627.1999997600014
 21
150.0326282404207
 31
0.0
  0
LINE
  5
1035
330
1E
100
AcDbEntity
  8
DETAIL
100
AcDbLine
 10
619.1999790600002
 20
157.0000215999989
 30
0.0
 11
623.9999804999979
 21
157.0000215999989
 31
0.0
  0
LINE
  5
1036
330
1E
100
AcDbEntity
  8
DETAIL
100
AcDbLine
 10
616.1999781600006
 20
160.0000224999998
 30
0.0
 11
619.1999790600002
 21
157.0000215999989
 31
0.0
  0
LINE
  5
1037
330
1E
100
AcDbEntity
  8
DETAIL
100
AcDbLine
 10
622.3999800200008
 20
150.9365274732594
 30
0.0
 11
622.3999800200008
 21
157.0000215999989
 31
0.0
  0
LINE
  5
1038
330
1E
100
AcDbEntity
  8
DETAIL
100
AcDbLine
 10
623.9999804999979
 20
212.8000383399994
 30
0.0
 11
628.0
 21
212.8000383399994
 31
0.0
  0
CIRCLE
  5
1039
330
1E
100
AcDbEntity
  8
DETAIL
100
AcDbCircle
 10
593.0
 20
180.9831615334096
 30
0.0
 40
4.50000135
  0
CIRCLE
  5
103A
330
1E
100
AcDbEntity
  8
DETAIL
100
AcDbCircle
 10
593.0
 20
180.9831615334096
 30
0.0
 40
3.1750009525
  0
CIRCLE
  5
103B
330
1E
100
AcDbEntity
  8
DETAIL
100
AcDbCircle
 10
593.0
 20
180.9831615334096
 30
0.0
 40
3.1750009525
  0
LINE
  5
103D
330
1E
100
AcDbEntity
  8
DETAIL
100
AcDbLine
 10
593.0
 20
190.80000294
 30
0.0
 11
601.5000025499967
 21
185.9074783953196
 31
0.0
  0
LINE
  5
103E
330
1E
100
AcDbEntity
  8
DETAIL
100
AcDbLine
 10
601.5000025499967
 20
176.0925216046798
 30
0.0
 11
593.0
 21
171.1999970599999
 31
0.0
  0
LINE
  5
103F
330
1E
100
AcDbEntity
  8
DETAIL
100
AcDbLine
 10
601.5000025499967
 20
176.0925216046798
 30
0.0
 11
601.5000025499967
 21
185.9074783953196
 31
0.0
  0
LINE
  5
1040
330
1E
100
AcDbEntity
  8
DETAIL
100
AcDbLine
 10
616.1999781600006
 20
205.000035999999
 30
0.0
 11
616.1999781600006
 21
212.0000380999999
 31
0.0
  0
LINE
  5
1041
330
1E
100
AcDbEntity
  8
DETAIL
100
AcDbLine
 10
616.1999781600006
 20
160.0000224999998
 30
0.0
 11
616.1999781600006
 21
205.000035999999
 31
0.0
  0
LINE
  5
1042
330
1E
100
AcDbEntity
  8
DETAIL
100
AcDbLine
 10
623.9999804999979
 20
157.0000215999989
 30
0.0
 11
619.1999790600002
 21
157.0000215999989
 31
0.0
  0
LINE
  5
1043
330
1E
100
AcDbEntity
  8
DETAIL
100
AcDbLine
 10
616.1999781600006
 20
160.0000224999998
 30
0.0
 11
619.1999790600002
 21
157.0000215999989
 31
0.0
  0
LINE
  5
1044
330
1E
100
AcDbEntity
  8
DETAIL
100
AcDbLine
 10
623.9999804999979
 20
157.0000215999989
 30
0.0
 11
623.9999804999979
 21
212.8000383399994
 31
0.0
  0
LINE
  5
1045
330
1E
100
AcDbEntity
  8
DETAIL
100
AcDbLine
 10
665.399992919999
 20
147.2000186599989
 30
0.0
 11
684.3999986200006
 21
147.2000186599989
 31
0.0
  0
LINE
  5
1046
330
1E
100
AcDbEntity
  8
DETAIL
100
AcDbLine
 10
665.399992919999
 20
150.7000197099992
 30
0.0
 11
686.3999992199987
 21
150.7000197099992
 31
0.0
  0
LINE
  5
1047
330
1E
100
AcDbEntity
  8
DETAIL
100
AcDbLine
 10
665.399992919999
 20
145.7000182099996
 30
0.0
 11
682.3999980199987
 21
145.7000182099996
 31
0.0
  0
LINE
  5
1048
330
1E
100
AcDbEntity
  8
DETAIL
100
AcDbLine
 10
685.3999989200019
 20
172.4000262199997
 30
0.0
 11
650.3999884200002
 21
172.4000262199997
 31
0.0
  0
LINE
  5
1049
330
1E
100
AcDbEntity
  8
DETAIL
100
AcDbLine
 10
685.3999989200019
 20
171.6000259799993
 30
0.0
 11
650.3999884200002
 21
171.6000259799993
 31
0.0
  0
LINE
  5
104A
330
1E
100
AcDbEntity
  8
DETAIL
100
AcDbLine
 10
688.3999998200006
 20
170.8000257399999
 30
0.0
 11
651.1898655800396
 21
170.8000257399999
 31
0.0
  0
ARC
  5
104B
330
1E
100
AcDbEntity
  8
DETAIL
100
AcDbCircle
 10
665.399992919999
 20
136.2000153599992
 30
0.0
 40
11.0000033
100
AcDbArc
 50
90.0
 51
132.9560050000087
  0
ARC
  5
104C
330
1E
100
AcDbEntity
  8
DETAIL
100
AcDbCircle
 10
665.399992919999
 20
136.2000153599992
 30
0.0
 40
14.50000435
100
AcDbArc
 50
90.0
 51
142.5942749999952
  0
ARC
  5
104D
330
1E
100
AcDbEntity
  8
DETAIL
100
AcDbCircle
 10
665.399992919999
 20
136.2000153599992
 30
0.0
 40
9.500002850000001
100
AcDbArc
 50
90.0
 51
125.9595269999981
  0
LINE
  5
104E
330
1E
100
AcDbEntity
  8
DETAIL
100
AcDbLine
 10
651.1999886599987
 20
145.5131489231689
 30
0.0
 11
651.1999886599987
 21
170.8000257399999
 31
0.0
  0
LINE
  5
104F
330
1E
100
AcDbEntity
  8
DETAIL
100
AcDbLine
 10
650.3999884200002
 20
145.6637951222091
 30
0.0
 11
650.3999884200002
 21
172.4000262199997
 31
0.0
  0
ARC
  5
1050
330
1E
100
AcDbEntity
  8
DETAIL
100
AcDbCircle
 10
682.3999980199987
 20
144.7000179099996
 30
0.0
 40
1.0000003
100
AcDbArc
 50
0.0
 51
90.0
  0
LINE
  5
1051
330
1E
100
AcDbEntity
  8
DETAIL
100
AcDbLine
 10
688.3999998200006
 20
178.8000281399995
 30
0.0
 11
687.5999995799984
 21
178.8000281399995
 31
0.0
  0
LINE
  5
1052
330
1E
100
AcDbEntity
  8
DETAIL
100
AcDbLine
 10
685.3999989200019
 20
172.4000262199997
 30
0.0
 11
685.3999989200019
 21
171.6000259799993
 31
0.0
  0
LINE
  5
1053
330
1E
100
AcDbEntity
  8
DETAIL
100
AcDbLine
 10
688.3999998200006
 20
171.6000259799993
 30
0.0
 11
685.3999989200019
 21
171.6000259799993
 31
0.0
  0
LINE
  5
1054
330
1E
100
AcDbEntity
  8
DETAIL
100
AcDbLine
 10
687.5999995799984
 20
171.6000259799993
 30
0.0
 11
687.5999995799984
 21
178.8000281399995
 31
0.0
  0
LINE
  5
1055
330
1E
100
AcDbEntity
  8
DETAIL
100
AcDbLine
 10
688.3999998200006
 20
178.8000281399995
 30
0.0
 11
689.0
 21
178.8000281399995
 31
0.0
  0
LINE
  5
11AD
330
1E
100
AcDbEntity
  8
DETAIL
  6
CONTINUOUS
100
AcDbLine
 10
419.9999999999999
 20
91.07407159996956
 30
0.0
 11
420.0
 21
0.0
 31
0.0
  0
LINE
  5
11DD
330
1E
100
AcDbEntity
  8
DETAIL
  6
CONTINUOUS
100
AcDbLine
 10
560.2738229206197
 20
162.6356079060587
 30
0.0
 11
560.2738229206197
 21
162.6356079060587
 31
0.0
  0
ARC
  5
11E1
330
1E
100
AcDbEntity
  8
DETAIL
  6
CONTINUOUS
100
AcDbCircle
 10
559.5791573536216
 20
160.5500779500166
 30
0.0
 40
2.178061581474178
100
AcDbArc
 50
79.3354258775277
 51
259.3354258775277
  0
ARC
  5
11E2
330
1E
100
AcDbEntity
  8
DETAIL
  6
CONTINUOUS
100
AcDbCircle
 10
558.0313038098995
 20
155.6555621125917
 30
0.0
 40
1.247851546573699
100
AcDbArc
 50
79.33542587752154
 51
259.335425877524
  0
LINE
  5
11E4
330
1E
100
AcDbEntity
  8
DETAIL
  6
CONTINUOUS
100
AcDbLine
 10
446.799927340001
 20
217.0
 30
0.0
 11
628.0
 21
217.0
 31
0.0
  0
LINE
  5
11E6
330
1E
100
AcDbEntity
  8
DETAIL
  6
CONTINUOUS
100
AcDbLine
 10
628.0
 20
217.0
 30
0.0
 11
628.0
 21
157.0000215999989
 31
0.0
  0
LINE
  5
11E7
330
1E
100
AcDbEntity
  8
DETAIL
  6
CONTINUOUS
100
AcDbLine
 10
628.0
 20
155.6659229210872
 30
0.0
 11
628.0
 21
85.0
 31
0.0
  0
ARC
  5
11EB
330
1E
100
AcDbEntity
  8
DETAIL
  6
CONTINUOUS
100
AcDbCircle
 10
666.2322349602296
 20
139.7881113249873
 30
0.0
 40
2.844299863444116
100
AcDbArc
 50
259.3354258776267
 51
79.33542587753109
  0
ARC
  5
11EC
330
1E
100
AcDbEntity
  8
DETAIL
  6
CONTINUOUS
100
AcDbCircle
 10
665.2221169505942
 20
134.424035659149
 30
0.0
 40
2.554471594231911
100
AcDbArc
 50
259.3354258778314
 51
79.33542587752882
  0
LINE
  5
11EE
330
1E
100
AcDbEntity
  8
BASIS
  6
CONTINUOUS
100
AcDbLine
 10
578.2014492775524
 20
181.0
 30
0.0
 11
607.7985507224475
 21
181.0
 31
0.0
  0
LINE
  5
11EF
330
1E
100
AcDbEntity
  8
BASIS
  6
CONTINUOUS
100
AcDbLine
 10
593.0
 20
195.7308827130546
 30
0.0
 11
593.0
 21
166.2691172869454
 31
0.0
  0
LINE
  5
126E
330
1E
100
AcDbEntity
  8
NOTE
  6
CONTINUOUS
100
AcDbLine
 10
1212.177446840851
 20
434.3737154160999
 30
0.0
 11
816.0038916403916
 21
434.3737154160999
 31
0.0
  0
TEXT
  5
126F
330
1E
100
AcDbEntity
  8
NOTE
  6
CONTINUOUS
100
AcDbText
 10
842.5229362166957
 20
461.2439824161001
 30
0.0
 40
64.0
  1
SW%%C6.35
 41
0.9
100
AcDbText
  0
LINE
  5
1270
330
1E
100
AcDbEntity
  8
NOTE
  6
CONTINUOUS
100
AcDbLine
 10
592.9861630730946
 20
180.9812325242955
 30
0.0
 11
816.0038916403916
 21
434.3737154160999
 31
0.0
  0
LWPOLYLINE
  5
1271
330
1E
100
AcDbEntity
  8
NOTE
  6
CONTINUOUS
100
AcDbPolyline
 90
        3
 70
     0
 43
0.0
 10
610.1197070932736
 20
217.1259645747968
 10
592.9861630730946
 20
180.9812325242955
 10
625.8966132186024
 20
203.7167177267001
  0
LINE
  5
1272
330
1E
100
AcDbEntity
  8
NOTE
  6
CONTINUOUS
100
AcDbLine
 10
573.0
 20
181.0
 30
0.0
 11
613.0
 21
181.0
 31
0.0
  0
LINE
  5
1273
330
1E
100
AcDbEntity
  8
NOTE
  6
CONTINUOUS
100
AcDbLine
 10
593.0
 20
201.0
 30
0.0
 11
593.0
 21
161.0
 31
0.0
  0
LINE
  5
16A1
330
1E
100
AcDbEntity
  8
SIZE
  6
CONTINUOUS
100
AcDbLine
 10
495.0
 20
-0.0000000000000057
 30
0.0
 11
1085.718737082203
 21
-0.000000000000173
 31
0.0
  0
LINE
  5
16A2
330
1E
100
AcDbEntity
  8
SIZE
  6
CONTINUOUS
100
AcDbLine
 10
648.0
 20
217.0
 30
0.0
 11
1085.718737082203
 21
216.9999999999999
 31
0.0
  0
LINE
  5
16A3
330
1E
100
AcDbEntity
  8
SIZE
  6
CONTINUOUS
100
AcDbLine
 10
1055.718737082202
 20
9.999999999999834
 30
0.0
 11
1055.718737082202
 21
206.9999999999998
 31
0.0
  0
LINE
  5
16A7
330
1E
100
AcDbEntity
  8
SIZE
  6
CONTINUOUS
100
AcDbLine
 10
420.0
 20
278.0
 30
0.0
 11
420.0
 21
374.0359245825075
 31
0.0
  0
LINE
  5
16A8
330
1E
100
AcDbEntity
  8
SIZE
  6
CONTINUOUS
100
AcDbLine
 10
593.0
 20
221.0
 30
0.0
 11
593.0
 21
374.0359245825075
 31
0.0
  0
LINE
  5
16A9
330
1E
100
AcDbEntity
  8
SIZE
  6
CONTINUOUS
100
AcDbLine
 10
430.0
 20
344.0359245825074
 30
0.0
 11
583.0
 21
344.0359245825074
 31
0.0
  0
LINE
  5
16AD
330
1E
100
AcDbEntity
  8
SIZE
  6
CONTINUOUS
100
AcDbLine
 10
420.0
 20
278.0
 30
0.0
 11
420.0
 21
502.9937353069926
 31
0.0
  0
LINE
  5
16AE
330
1E
100
AcDbEntity
  8
SIZE
  6
CONTINUOUS
100
AcDbLine
 10
628.0
 20
237.0
 30
0.0
 11
628.0
 21
502.9937353069926
 31
0.0
  0
LINE
  5
16AF
330
1E
100
AcDbEntity
  8
SIZE
  6
CONTINUOUS
100
AcDbLine
 10
430.0
 20
472.9937353069926
 30
0.0
 11
618.0
 21
472.9937353069926
 31
0.0
  0
LINE
  5
16B3
330
1E
100
AcDbEntity
  8
SIZE
  6
CONTINUOUS
100
AcDbLine
 10
420.0
 20
278.0
 30
0.0
 11
420.0
 21
623.0975709520116
 31
0.0
  0
LINE
  5
16B4
330
1E
100
AcDbEntity
  8
SIZE
  6
CONTINUOUS
100
AcDbLine
 10
689.0
 20
198.8000281399995
 30
0.0
 11
689.0
 21
623.0975709520116
 31
0.0
  0
LINE
  5
16B5
330
1E
100
AcDbEntity
  8
SIZE
  6
CONTINUOUS
100
AcDbLine
 10
430.0
 20
593.0975709520116
 30
0.0
 11
679.0
 21
593.0975709520116
 31
0.0
  0
LINE
  5
16B9
330
1E
100
AcDbEntity
  8
SIZE
  6
CONTINUOUS
100
AcDbLine
 10
633.0
 20
181.0
 30
0.0
 11
820.3906850820894
 21
180.9999999999999
 31
0.0
  0
LINE
  5
16BA
330
1E
100
AcDbEntity
  8
SIZE
  6
CONTINUOUS
100
AcDbLine
 10
495.0
 20
-0.0000000000000057
 30
0.0
 11
820.3906850820894
 21
-0.0000000000000978
 31
0.0
  0
LINE
  5
16BB
330
1E
100
AcDbEntity
  8
SIZE
  6
CONTINUOUS
100
AcDbLine
 10
790.3906850820893
 20
170.9999999999999
 30
0.0
 11
790.3906850820893
 21
9.999999999999911
 31
0.0
  0
LINE
  5
16BF
330
1E
100
AcDbEntity
  8
SIZE
  6
CONTINUOUS
100
AcDbLine
 10
495.0
 20
-0.0000000000000057
 30
0.0
 11
702.1571791994323
 21
-0.0000000000000643
 31
0.0
  0
LINE
  5
16C0
330
1E
100
AcDbEntity
  8
SIZE
  6
CONTINUOUS
100
AcDbLine
 10
648.0
 20
85.0
 30
0.0
 11
702.1571791994323
 21
84.99999999999998
 31
0.0
  0
LINE
  5
16C1
330
1E
100
AcDbEntity
  8
SIZE
  6
CONTINUOUS
100
AcDbLine
 10
672.1571791994323
 20
74.99999999999999
 30
0.0
 11
672.1571791994323
 21
9.999999999999944
 31
0.0
  0
LINE
  5
16C2
330
1E
100
AcDbEntity
  8
SIZE
  6
CONTINUOUS
100
AcDbLine
 10
672.1571791994323
 20
-0.0000000000000558
 30
0.0
 11
672.1571791994323
 21
-145.7110635895771
 31
0.0
  0
TEXT
  5
16C6
330
1E
100
AcDbEntity
  8
SIZE
  6
CONTINUOUS
100
AcDbText
 10
780.3906850820894
 20
34.27142857142864
 30
0.0
 40
64.0
  1
181
 50
90.0
 41
0.9
100
AcDbText
  0
TEXT
  5
16C7
330
1E
100
AcDbEntity
  8
SIZE
  6
CONTINUOUS
100
AcDbText
 10
662.1571791994323
 20
-135.711063589577
 30
0.0
 40
64.0
  1
85
 50
90.0
 41
0.9
100
AcDbText
  0
CIRCLE
  5
16C8
330
1E
100
AcDbEntity
  8
SIZE
  6
BYBLOCK
100
AcDbCircle
 10
672.1571791994323
 20
-0.0000000000000558
 30
0.0
 40
5.0
  0
LINE
  5
16C9
330
1E
100
AcDbEntity
  8
SIZE
  6
BYBLOCK
100
AcDbLine
 10
672.1571791994323
 20
-0.0000000000000558
 30
0.0
 11
672.1571791994323
 21
9.999999999999944
 31
0.0
  0
CIRCLE
  5
16CA
330
1E
100
AcDbEntity
  8
SIZE
  6
BYBLOCK
100
AcDbCircle
 10
790.3906850820893
 20
-0.0000000000000893
 30
0.0
 40
5.0
  0
LINE
  5
16CB
330
1E
100
AcDbEntity
  8
SIZE
  6
BYBLOCK
100
AcDbLine
 10
790.3906850820893
 20
-0.0000000000000893
 30
0.0
 11
790.3906850820893
 21
9.999999999999911
 31
0.0
  0
CIRCLE
  5
16CC
330
1E
100
AcDbEntity
  8
SIZE
  6
BYBLOCK
100
AcDbCircle
 10
672.1571791994323
 20
84.99999999999998
 30
0.0
 40
5.0
  0
LINE
  5
16CD
330
1E
100
AcDbEntity
  8
SIZE
  6
BYBLOCK
100
AcDbLine
 10
672.1571791994323
 20
84.99999999999998
 30
0.0
 11
672.1571791994323
 21
74.99999999999999
 31
0.0
  0
CIRCLE
  5
16CE
330
1E
100
AcDbEntity
  8
SIZE
  6
BYBLOCK
100
AcDbCircle
 10
790.3906850820893
 20
180.9999999999999
 30
0.0
 40
5.0
  0
LINE
  5
16CF
330
1E
100
AcDbEntity
  8
SIZE
  6
BYBLOCK
100
AcDbLine
 10
790.3906850820893
 20
180.9999999999999
 30
0.0
 11
790.3906850820893
 21
170.9999999999999
 31
0.0
  0
CIRCLE
  5
16D0
330
1E
100
AcDbEntity
  8
SIZE
  6
BYBLOCK
100
AcDbCircle
 10
420.0
 20
593.0975709520116
 30
0.0
 40
5.0
  0
LINE
  5
16D1
330
1E
100
AcDbEntity
  8
SIZE
  6
BYBLOCK
100
AcDbLine
 10
420.0
 20
593.0975709520116
 30
0.0
 11
430.0
 21
593.0975709520116
 31
0.0
  0
CIRCLE
  5
16D2
330
1E
100
AcDbEntity
  8
SIZE
  6
BYBLOCK
100
AcDbCircle
 10
420.0
 20
472.9937353069926
 30
0.0
 40
5.0
  0
LINE
  5
16D3
330
1E
100
AcDbEntity
  8
SIZE
  6
BYBLOCK
100
AcDbLine
 10
420.0
 20
472.9937353069926
 30
0.0
 11
430.0
 21
472.9937353069926
 31
0.0
  0
CIRCLE
  5
16D4
330
1E
100
AcDbEntity
  8
SIZE
  6
BYBLOCK
100
AcDbCircle
 10
420.0
 20
344.0359245825074
 30
0.0
 40
5.0
  0
LINE
  5
16D5
330
1E
100
AcDbEntity
  8
SIZE
  6
BYBLOCK
100
AcDbLine
 10
420.0
 20
344.0359245825074
 30
0.0
 11
430.0
 21
344.0359245825074
 31
0.0
  0
CIRCLE
  5
16D6
330
1E
100
AcDbEntity
  8
SIZE
  6
BYBLOCK
100
AcDbCircle
 10
628.0
 20
472.9937353069926
 30
0.0
 40
5.0
  0
LINE
  5
16D7
330
1E
100
AcDbEntity
  8
SIZE
  6
BYBLOCK
100
AcDbLine
 10
628.0
 20
472.9937353069926
 30
0.0
 11
618.0
 21
472.9937353069926
 31
0.0
  0
TEXT
  5
16D8
330
1E
100
AcDbEntity
  8
SIZE
  6
CONTINUOUS
100
AcDbText
 10
437.9285714285714
 20
354.0359245825074
 30
0.0
 40
64.0
  1
173
 41
0.9
100
AcDbText
  0
CIRCLE
  5
16D9
330
1E
100
AcDbEntity
  8
SIZE
  6
BYBLOCK
100
AcDbCircle
 10
593.0
 20
344.0359245825074
 30
0.0
 40
5.0
  0
LINE
  5
16DA
330
1E
100
AcDbEntity
  8
SIZE
  6
BYBLOCK
100
AcDbLine
 10
593.0
 20
344.0359245825074
 30
0.0
 11
583.0
 21
344.0359245825074
 31
0.0
  0
TEXT
  5
16DB
330
1E
100
AcDbEntity
  8
SIZE
  6
CONTINUOUS
100
AcDbText
 10
449.9428571428571
 20
482.9937353069927
 30
0.0
 40
64.0
  1
208
 41
0.9
100
AcDbText
  0
TEXT
  5
16DC
330
1E
100
AcDbEntity
  8
SIZE
  6
CONTINUOUS
100
AcDbText
 10
481.8142857142857
 20
603.0975709520117
 30
0.0
 40
64.0
  1
269
 41
0.9
100
AcDbText
  0
CIRCLE
  5
16DD
330
1E
100
AcDbEntity
  8
SIZE
  6
BYBLOCK
100
AcDbCircle
 10
689.0
 20
593.0975709520116
 30
0.0
 40
5.0
  0
LINE
  5
16DE
330
1E
100
AcDbEntity
  8
SIZE
  6
BYBLOCK
100
AcDbLine
 10
689.0
 20
593.0975709520116
 30
0.0
 11
679.0
 21
593.0975709520116
 31
0.0
  0
CIRCLE
  5
16DF
330
1E
100
AcDbEntity
  8
SIZE
  6
BYBLOCK
100
AcDbCircle
 10
1055.718737082202
 20
-0.0000000000001645
 30
0.0
 40
5.0
  0
LINE
  5
16E0
330
1E
100
AcDbEntity
  8
SIZE
  6
BYBLOCK
100
AcDbLine
 10
1055.718737082202
 20
-0.0000000000001645
 30
0.0
 11
1055.718737082202
 21
9.999999999999834
 31
0.0
  0
CIRCLE
  5
16E1
330
1E
100
AcDbEntity
  8
SIZE
  6
BYBLOCK
100
AcDbCircle
 10
1055.718737082202
 20
216.9999999999999
 30
0.0
 40
5.0
  0
LINE
  5
16E2
330
1E
100
AcDbEntity
  8
SIZE
  6
BYBLOCK
100
AcDbLine
 10
1055.718737082202
 20
216.9999999999999
 30
0.0
 11
1055.718737082202
 21
206.9999999999998
 31
0.0
  0
TEXT
  5
16E3
330
1E
100
AcDbEntity
  8
SIZE
  6
CONTINUOUS
100
AcDbText
 10
1045.718737082202
 20
39.92857142857147
 30
0.0
 40
64.0
  1
217
 50
90.0
 41
0.9
100
AcDbText
  0
LINE
  5
16E5
330
1E
100
AcDbEntity
  8
OUTLINE
  6
CONTINUOUS
100
AcDbLine
 10
-475.0
 20
-35.0
 30
0.0
 11
475.0
 21
-35.0
 31
0.0
  0
LINE
  5
16E7
330
1E
100
AcDbEntity
  8
OUTLINE
  6
CONTINUOUS
100
AcDbLine
 10
-420.0
 20
258.0
 30
0.0
 11
420.0
 21
258.0
 31
0.0
  0
LINE
  5
16E8
330
1E
100
AcDbEntity
  8
OUTLINE
  6
CONTINUOUS
100
AcDbLine
 10
-475.0
 20
0.0
 30
0.0
 11
-419.9999999999997
 21
0.0
 31
0.0
  0
LINE
  5
16E9
330
1E
100
AcDbEntity
  8
OUTLINE
  6
CONTINUOUS
100
AcDbLine
 10
-475.0
 20
0.0
 30
0.0
 11
-475.0
 21
-35.0
 31
0.0
  0
LINE
  5
16EB
330
1E
100
AcDbEntity
  8
OUTLINE
  6
CONTINUOUS
100
AcDbLine
 10
-420.0
 20
258.0
 30
0.0
 11
-419.9999999999997
 21
0.0
 31
0.0
  0
LINE
  5
16FA
330
1E
100
AcDbEntity
  8
OUTLINE
  6
CONTINUOUS
100
AcDbLine
 10
420.0
 20
79.99999849999859
 30
0.0
 11
420.0
 21
0.0
 31
0.0
  0
LINE
  5
16FB
330
1E
100
AcDbEntity
  8
OUTLINE
  6
CONTINUOUS
100
AcDbLine
 10
475.0
 20
0.0
 30
0.0
 11
475.0
 21
-35.0
 31
0.0
  0
LINE
  5
16FE
330
1E
100
AcDbEntity
  8
OUTLINE
100
AcDbLine
 10
650.3999884200002
 20
152.2000201599989
 30
0.0
 11
627.1999997600009
 21
152.2000201599989
 31
0.0
  0
LINE
  5
1703
330
1E
100
AcDbEntity
  8
OUTLINE
100
AcDbLine
 10
658.7999909400005
 20
90.00000149999868
 30
0.0
 11
628.0000000000004
 21
90.0000014999987
 31
0.0
  0
LINE
  5
1707
330
1E
100
AcDbEntity
  8
OUTLINE
  6
CONTINUOUS
100
AcDbLine
 10
628.0
 20
217.0
 30
0.0
 11
628.0
 21
157.0000215999989
 31
0.0
  0
LINE
  5
170B
330
1E
100
AcDbEntity
  8
OUTLINE
  6
CONTINUOUS
100
AcDbLine
 10
420.0
 20
258.0
 30
0.0
 11
420.0
 21
240.0000464999989
 31
0.0
  0
LINE
  5
1710
330
1E
100
AcDbEntity
  8
OUTLINE
100
AcDbLine
 10
628.0
 20
85.0
 30
0.0
 11
434.7999237400013
 21
85.0
 31
0.0
  0
LINE
  5
1715
330
1E
100
AcDbEntity
  8
OUTLINE
100
AcDbLine
 10
423.9999204999985
 20
79.99999849999904
 30
0.0
 11
431.7999228399994
 21
79.99999849999904
 31
0.0
  0
LINE
  5
171A
330
1E
100
AcDbEntity
  8
OUTLINE
100
AcDbLine
 10
420.0
 20
79.99999849999859
 30
0.0
 11
423.9999204999985
 21
79.99999849999904
 31
0.0
  0
LINE
  5
171D
330
1E
100
AcDbEntity
  8
OUTLINE
100
AcDbLine
 10
434.7999237400013
 20
85.0
 30
0.0
 11
434.7999237400017
 21
82.99999939999906
 31
0.0
  0
LINE
  5
171E
330
1E
100
AcDbEntity
  8
OUTLINE
100
AcDbLine
 10
434.7999237400017
 20
82.99999939999906
 30
0.0
 11
431.7999228399994
 21
79.99999849999904
 31
0.0
  0
LINE
  5
1720
330
1E
100
AcDbEntity
  8
OUTLINE
100
AcDbLine
 10
628.0
 20
157.0000215999989
 30
0.0
 11
627.1999997600009
 21
157.0000215999989
 31
0.0
  0
LINE
  5
1721
330
1E
100
AcDbEntity
  8
OUTLINE
100
AcDbLine
 10
627.1999997600009
 20
157.0000215999989
 30
0.0
 11
627.1999997600009
 21
152.2000201599989
 31
0.0
  0
LINE
  5
1730
330
1E
100
AcDbEntity
  8
OUTLINE
  6
CONTINUOUS
100
AcDbLine
 10
628.0000000000004
 20
90.0000014999987
 30
0.0
 11
628.0
 21
85.0
 31
0.0
  0
LINE
  5
1733
330
1E
100
AcDbEntity
  8
OUTLINE
  6
CONTINUOUS
100
AcDbLine
 10
446.799927340001
 20
217.0
 30
0.0
 11
628.0
 21
217.0
 31
0.0
  0
LINE
  5
1734
330
1E
100
AcDbEntity
  8
OUTLINE
100
AcDbLine
 10
420.0
 20
240.0000464999989
 30
0.0
 11
443.7999264399986
 21
240.0000464999989
 31
0.0
  0
LINE
  5
1735
330
1E
100
AcDbEntity
  8
OUTLINE
100
AcDbLine
 10
420.0
 20
240.0000464999989
 30
0.0
 11
423.9999204999985
 21
240.0000464999989
 31
0.0
  0
LINE
  5
1736
330
1E
100
AcDbEntity
  8
OUTLINE
100
AcDbLine
 10
424.7999207400007
 20
240.0000464999989
 30
0.0
 11
423.9999204999985
 21
240.0000464999989
 31
0.0
  0
LINE
  5
173E
330
1E
100
AcDbEntity
  8
OUTLINE
100
AcDbLine
 10
446.799927340001
 20
237.0000455999997
 30
0.0
 11
446.799927340001
 21
217.0
 31
0.0
  0
LINE
  5
1742
330
1E
100
AcDbEntity
  8
OUTLINE
100
AcDbLine
 10
443.7999264399986
 20
240.0000464999989
 30
0.0
 11
446.799927340001
 21
237.0000455999997
 31
0.0
  0
LINE
  5
1753
330
1E
100
AcDbEntity
  8
OUTLINE
100
AcDbLine
 10
650.3999884200002
 20
152.2000201599989
 30
0.0
 11
650.3999884200002
 21
172.4000262199997
 31
0.0
  0
LINE
  5
1755
330
1E
100
AcDbEntity
  8
OUTLINE
100
AcDbLine
 10
689.0
 20
178.8000281399995
 30
0.0
 11
688.9999999999995
 21
91.60000197999941
 31
0.0
  0
LINE
  5
1757
330
1E
100
AcDbEntity
  8
OUTLINE
100
AcDbLine
 10
689.9898772200385
 20
90.80000173999906
 30
0.0
 11
689.9898772200385
 21
98.80000413999869
 31
0.0
  0
LINE
  5
1771
330
1E
100
AcDbEntity
  8
OUTLINE
100
AcDbLine
 10
685.3999989200019
 20
90.00000149999868
 30
0.0
 11
650.3999884200002
 21
90.00000149999868
 31
0.0
  0
LINE
  5
1779
330
1E
100
AcDbEntity
  8
OUTLINE
100
AcDbLine
 10
668.1999937599994
 20
90.00000149999868
 30
0.0
 11
662.7999921400005
 21
90.00000149999868
 31
0.0
  0
LINE
  5
177E
330
1E
100
AcDbEntity
  8
OUTLINE
100
AcDbLine
 10
689.18987698004
 20
91.60000197999943
 30
0.0
 11
689.18987698004
 21
98.80000413999869
 31
0.0
  0
LINE
  5
177F
330
1E
100
AcDbEntity
  8
OUTLINE
100
AcDbLine
 10
688.9999999999995
 20
91.60000197999941
 30
0.0
 11
689.18987698004
 21
91.60000197999943
 31
0.0
  0
LINE
  5
1780
330
1E
100
AcDbEntity
  8
OUTLINE
100
AcDbLine
 10
685.3999989200019
 20
90.00000149999868
 30
0.0
 11
685.3999989200024
 21
90.80000173999907
 31
0.0
  0
LINE
  5
1781
330
1E
100
AcDbEntity
  8
OUTLINE
100
AcDbLine
 10
688.3999998200006
 20
90.80000173999906
 30
0.0
 11
685.3999989200024
 21
90.80000173999907
 31
0.0
  0
LINE
  5
1784
330
1E
100
AcDbEntity
  8
OUTLINE
100
AcDbLine
 10
689.9898772200385
 20
98.80000413999869
 30
0.0
 11
689.18987698004
 21
98.80000413999869
 31
0.0
  0
LINE
  5
1785
330
1E
100
AcDbEntity
  8
OUTLINE
100
AcDbLine
 10
689.9898772200385
 20
90.80000173999906
 30
0.0
 11
688.3999998200006
 21
90.80000173999906
 31
0.0
  0
LINE
  5
1786
330
1E
100
AcDbEntity
  8
OUTLINE
100
AcDbLine
 10
685.3999989200019
 20
172.4000262199997
 30
0.0
 11
650.3999884200002
 21
172.4000262199997
 31
0.0
  0
LINE
  5
1789
330
1E
100
AcDbEntity
  8
OUTLINE
100
AcDbLine
 10
688.3999998200006
 20
178.8000281399995
 30
0.0
 11
687.5999995799984
 21
178.8000281399995
 31
0.0
  0
LINE
  5
178A
330
1E
100
AcDbEntity
  8
OUTLINE
100
AcDbLine
 10
685.3999989200019
 20
172.4000262199997
 30
0.0
 11
685.3999989200024
 21
171.6000259799993
 31
0.0
  0
LINE
  5
178B
330
1E
100
AcDbEntity
  8
OUTLINE
100
AcDbLine
 10
687.5999995799984
 20
171.6000259799993
 30
0.0
 11
685.3999989200024
 21
171.6000259799993
 31
0.0
  0
LINE
  5
178C
330
1E
100
AcDbEntity
  8
OUTLINE
100
AcDbLine
 10
687.5999995799984
 20
171.6000259799993
 30
0.0
 11
687.5999995799984
 21
178.8000281399995
 31
0.0
  0
LINE
  5
178D
330
1E
100
AcDbEntity
  8
OUTLINE
100
AcDbLine
 10
688.3999998200006
 20
178.8000281399995
 30
0.0
 11
689.0
 21
178.8000281399995
 31
0.0
  0
LINE
  5
178E
330
1E
100
AcDbEntity
  8
OUTLINE
  6
CONTINUOUS
100
AcDbLine
 10
420.0
 20
0.0
 30
0.0
 11
475.0
 21
0.0
 31
0.0
  0
ENDSEC
  0
SECTION
  2
OBJECTS
  0
DICTIONARY
  5
C
330
0
100
AcDbDictionary
  3
ACAD_GROUP
350
D
  3
ACAD_LAYOUT
350
19
  3
ACAD_MLINESTYLE
350
16
  3
ACAD_PLOTSETTINGS
350
18
  3
ACAD_PLOTSTYLENAME
350
E
  3
ACDBHEADERROUNDTRIPXREC
350
17CB
  0
DICTIONARY
  5
17EE
330
1E
100
AcDbDictionary
280
     1
  3
ACAD_LAYOUTSELFREF
360
17EF
  0
DICTIONARY
  5
17EC
330
1A
100
AcDbDictionary
280
     1
  3
ACAD_LAYOUTSELFREF
360
17ED
  0
DICTIONARY
  5
D
102
{ACAD_REACTORS
330
C
102
}
330
C
100
AcDbDictionary
  0
DICTIONARY
  5
19
102
{ACAD_REACTORS
330
C
102
}
330
C
100
AcDbDictionary
  0
DICTIONARY
  5
16
102
{ACAD_REACTORS
330
C
102
}
330
C
100
AcDbDictionary
  3
STANDARD
350
17
  0
DICTIONARY
  5
18
102
{ACAD_REACTORS
330
C
102
}
330
C
100
AcDbDictionary
  0
ACDBDICTIONARYWDFLT
  5
E
102
{ACAD_REACTORS
330
C
102
}
330
C
100
AcDbDictionary
281
     1
  3
Normal
350
F
100
AcDbDictionaryWithDefault
340
F
  0
DICTIONARY
  5
17CB
102
{ACAD_REACTORS
330
C
102
}
330
C
100
AcDbDictionary
  3
CEPSNTYPE
350
17D5
  3
DIMSTYLEDATA
350
17D9
  3
FINGERPRINTGUID
350
17D6
  3
HYPERLINKBASE
350
17CE
  3
INSUNITS
350
17D4
  3
LAYOUTDICT
350
17D0
  3
LWETCUNION
350
17D3
  3
PLOTSETDICT
350
17D1
  3
PLOTSTYLNAMDICT
350
17D2
  3
PSVPSCALE
350
17D8
  3
PUCSBASE
350
17DC
  3
PUCSORGBACK
350
17E2
  3
PUCSORGBOTTOM
350
17DE
  3
PUCSORGFRONT
350
17E1
  3
PUCSORGLEFT
350
17DF
  3
PUCSORGRIGHT
350
17E0
  3
PUCSORGTOP
350
17DD
  3
PUCSORTHOREF
350
17DA
  3
PUCSORTHOVIEW
350
17DB
  3
STYLESHEET
350
17CF
  3
TSTACKALIGN
350
17CC
  3
TSTACKSIZE
350
17CD
  3
UCSBASE
350
17E5
  3
UCSORGBACK
350
17EB
  3
UCSORGBOTTOM
350
17E7
  3
UCSORGFRONT
350
17EA
  3
UCSORGLEFT
350
17E8
  3
UCSORGRIGHT
350
17E9
  3
UCSORGTOP
350
17E6
  3
UCSORTHOREF
350
17E3
  3
UCSORTHOVIEW
350
17E4
  3
VERSIONGUID
350
17D7
  0
XRECORD
  5
17EF
102
{ACAD_REACTORS
330
17EE
102
}
330
17EE
100
AcDbXrecord
340
1E
  0
XRECORD
  5
17ED
102
{ACAD_REACTORS
330
17EC
102
}
330
17EC
100
AcDbXrecord
340
1A
  0
MLINESTYLE
  5
17
102
{ACAD_REACTORS
330
16
102
}
330
16
100
AcDbMlineStyle
  2
STANDARD
 70
     0
  3

 62
   256
 51
90.0
 52
90.0
 71
     2
 49
0.5
 62
   256
  6
BYLAYER
 49
-0.5
 62
   256
  6
BYLAYER
  0
ACDBPLACEHOLDER
  5
F
102
{ACAD_REACTORS
330
E
102
}
330
E
100
AcDbPlaceHolder
280
     0
  0
XRECORD
  5
17D5
102
{ACAD_REACTORS
330
17CB
102
}
330
17CB
100
AcDbXrecord
 90
        0
  0
XRECORD
  5
17D9
102
{ACAD_REACTORS
330
17CB
102
}
330
17CB
100
AcDbXrecord
1000
DSTYLE
1002
{
1070
   341
340
13CC
1070
   342
340
13CC
1002
}
  0
XRECORD
  5
17D6
102
{ACAD_REACTORS
330
17CB
102
}
330
17CB
100
AcDbXrecord
  1
{8E873859-7981-469D-9774-FECD588D52BD}
  0
XRECORD
  5
17CE
102
{ACAD_REACTORS
330
17CB
102
}
330
17CB
100
AcDbXrecord
  1

  0
XRECORD
  5
17D4
102
{ACAD_REACTORS
330
17CB
102
}
330
17CB
100
AcDbXrecord
 90
        0
  0
XRECORD
  5
17D0
102
{ACAD_REACTORS
330
17CB
102
}
330
17CB
100
AcDbXrecord
340
19
  0
XRECORD
  5
17D3
102
{ACAD_REACTORS
330
17CB
102
}
330
17CB
100
AcDbXrecord
 90
     2589
  0
XRECORD
  5
17D1
102
{ACAD_REACTORS
330
17CB
102
}
330
17CB
100
AcDbXrecord
340
18
  0
XRECORD
  5
17D2
102
{ACAD_REACTORS
330
17CB
102
}
330
17CB
100
AcDbXrecord
340
E
  0
XRECORD
  5
17D8
102
{ACAD_REACTORS
330
17CB
102
}
330
17CB
100
AcDbXrecord
 40
0.0
  0
XRECORD
  5
17DC
102
{ACAD_REACTORS
330
17CB
102
}
330
17CB
100
AcDbXrecord
340
0
  0
XRECORD
  5
17E2
102
{ACAD_REACTORS
330
17CB
102
}
330
17CB
100
AcDbXrecord
 10
0.0
 20
0.0
 30
0.0
  0
XRECORD
  5
17DE
102
{ACAD_REACTORS
330
17CB
102
}
330
17CB
100
AcDbXrecord
 10
0.0
 20
0.0
 30
0.0
  0
XRECORD
  5
17E1
102
{ACAD_REACTORS
330
17CB
102
}
330
17CB
100
AcDbXrecord
 10
0.0
 20
0.0
 30
0.0
  0
XRECORD
  5
17DF
102
{ACAD_REACTORS
330
17CB
102
}
330
17CB
100
AcDbXrecord
 10
0.0
 20
0.0
 30
0.0
  0
XRECORD
  5
17E0
102
{ACAD_REACTORS
330
17CB
102
}
330
17CB
100
AcDbXrecord
 10
0.0
 20
0.0
 30
0.0
  0
XRECORD
  5
17DD
102
{ACAD_REACTORS
330
17CB
102
}
330
17CB
100
AcDbXrecord
 10
0.0
 20
0.0
 30
0.0
  0
XRECORD
  5
17DA
102
{ACAD_REACTORS
330
17CB
102
}
330
17CB
100
AcDbXrecord
340
0
  0
XRECORD
  5
17DB
102
{ACAD_REACTORS
330
17CB
102
}
330
17CB
100
AcDbXrecord
 70
     0
  0
XRECORD
  5
17CF
102
{ACAD_REACTORS
330
17CB
102
}
330
17CB
100
AcDbXrecord
  1

  0
XRECORD
  5
17CC
102
{ACAD_REACTORS
330
17CB
102
}
330
17CB
100
AcDbXrecord
 90
        1
  0
XRECORD
  5
17CD
102
{ACAD_REACTORS
330
17CB
102
}
330
17CB
100
AcDbXrecord
 90
       70
  0
XRECORD
  5
17E5
102
{ACAD_REACTORS
330
17CB
102
}
330
17CB
100
AcDbXrecord
340
0
  0
XRECORD
  5
17EB
102
{ACAD_REACTORS
330
17CB
102
}
330
17CB
100
AcDbXrecord
 10
0.0
 20
0.0
 30
0.0
  0
XRECORD
  5
17E7
102
{ACAD_REACTORS
330
17CB
102
}
330
17CB
100
AcDbXrecord
 10
0.0
 20
0.0
 30
0.0
  0
XRECORD
  5
17EA
102
{ACAD_REACTORS
330
17CB
102
}
330
17CB
100
AcDbXrecord
 10
0.0
 20
0.0
 30
0.0
  0
XRECORD
  5
17E8
102
{ACAD_REACTORS
330
17CB
102
}
330
17CB
100
AcDbXrecord
 10
0.0
 20
0.0
 30
0.0
  0
XRECORD
  5
17E9
102
{ACAD_REACTORS
330
17CB
102
}
330
17CB
100
AcDbXrecord
 10
0.0
 20
0.0
 30
0.0
  0
XRECORD
  5
17E6
102
{ACAD_REACTORS
330
17CB
102
}
330
17CB
100
AcDbXrecord
 10
0.0
 20
0.0
 30
0.0
  0
XRECORD
  5
17E3
102
{ACAD_REACTORS
330
17CB
102
}
330
17CB
100
AcDbXrecord
340
0
  0
XRECORD
  5
17E4
102
{ACAD_REACTORS
330
17CB
102
}
330
17CB
100
AcDbXrecord
 70
     0
  0
XRECORD
  5
17D7
102
{ACAD_REACTORS
330
17CB
102
}
330
17CB
100
AcDbXrecord
  1
{070B8346-F218-4CC9-8412-1205D114DE30}
  0
ENDSEC
  0
EOF
