  0
SECTION
  2
HEADER
  9
$ACADVER
  1
AC1014
  9
$ACADMAINTVER
 70
     9
  9
$DWGCODEPAGE
  3
ANSI_932
  9
$INSBASE
 10
0.0
 20
0.0
 30
0.0
  9
$EXTMIN
 10
-1232.231211429494
 20
-363.7533490635869
 30
-0.0000000349181948
  9
$EXTMAX
 10
1243.258207088667
 20
1290.818912780629
 30
0.0000000814935746
  9
$LIMMIN
 10
-1399.588164330103
 20
-592.7147569603039
  9
$LIMMAX
 10
1521.800227446641
 20
1420.798458004414
  9
$ORTHOMODE
 70
     1
  9
$REGENMODE
 70
     0
  9
$FILLMODE
 70
     1
  9
$QTEXTMODE
 70
     0
  9
$MIRRTEXT
 70
     0
  9
$DRAGMODE
 70
     2
  9
$LTSCALE
 40
20.0
  9
$OSMODE
 70
    39
  9
$ATTMODE
 70
     1
  9
$TEXTSIZE
 40
64.0
  9
$TRACEWID
 40
0.05
  9
$TEXTSTYLE
  7
STANDARD
  9
$CLAYER
  8
SIZE
  9
$CELTYPE
  6
CONTINUOUS
  9
$CECOLOR
 62
   256
  9
$CELTSCALE
 40
1.0
  9
$DELOBJ
 70
     1
  9
$DISPSILH
 70
     0
  9
$DIMSCALE
 40
1.0
  9
$DIMASZ
 40
10.0
  9
$DIMEXO
 40
20.0
  9
$DIMDLI
 40
200.0
  9
$DIMRND
 40
0.0
  9
$DIMDLE
 40
0.0
  9
$DIMEXE
 40
30.0
  9
$DIMTP
 40
0.0
  9
$DIMTM
 40
0.0
  9
$DIMTXT
 40
64.0
  9
$DIMCEN
 40
0.09
  9
$DIMTSZ
 40
0.0
  9
$DIMTOL
 70
     0
  9
$DIMLIM
 70
     0
  9
$DIMTIH
 70
     0
  9
$DIMTOH
 70
     0
  9
$DIMSE1
 70
     0
  9
$DIMSE2
 70
     0
  9
$DIMTAD
 70
     1
  9
$DIMZIN
 70
     8
  9
$DIMBLK
  1
ORIGIN
  9
$DIMASO
 70
     1
  9
$DIMSHO
 70
     0
  9
$DIMPOST
  1

  9
$DIMAPOST
  1

  9
$DIMALT
 70
     0
  9
$DIMALTD
 70
     2
  9
$DIMALTF
 40
25.4
  9
$DIMLFAC
 40
1.0
  9
$DIMTOFL
 70
     1
  9
$DIMTVP
 40
0.0
  9
$DIMTIX
 70
     1
  9
$DIMSOXD
 70
     0
  9
$DIMSAH
 70
     0
  9
$DIMBLK1
  1

  9
$DIMBLK2
  1

  9
$DIMSTYLE
  2
STANDARD
  9
$DIMCLRD
 70
     0
  9
$DIMCLRE
 70
     0
  9
$DIMCLRT
 70
     0
  9
$DIMTFAC
 40
1.0
  9
$DIMGAP
 40
10.0
  9
$DIMJUST
 70
     0
  9
$DIMSD1
 70
     0
  9
$DIMSD2
 70
     0
  9
$DIMTOLJ
 70
     1
  9
$DIMTZIN
 70
     0
  9
$DIMALTZ
 70
     0
  9
$DIMALTTZ
 70
     0
  9
$DIMFIT
 70
     3
  9
$DIMUPT
 70
     0
  9
$DIMUNIT
 70
     2
  9
$DIMDEC
 70
     0
  9
$DIMTDEC
 70
     0
  9
$DIMALTU
 70
     2
  9
$DIMALTTD
 70
     2
  9
$DIMTXSTY
  7
STANDARD
  9
$DIMAUNIT
 70
     0
  9
$LUNITS
 70
     2
  9
$LUPREC
 70
     4
  9
$SKETCHINC
 40
0.1
  9
$FILLETRAD
 40
20.0
  9
$AUNITS
 70
     1
  9
$AUPREC
 70
     3
  9
$MENU
  1
ACAD
  9
$ELEVATION
 40
0.0
  9
$PELEVATION
 40
0.0
  9
$THICKNESS
 40
0.0
  9
$LIMCHECK
 70
     1
  9
$BLIPMODE
 70
     0
  9
$CHAMFERA
 40
0.0
  9
$CHAMFERB
 40
0.0
  9
$CHAMFERC
 40
0.0
  9
$CHAMFERD
 40
0.0
  9
$SKPOLY
 70
     0
  9
$TDCREATE
 40
2450332.775890995
  9
$TDUPDATE
 40
2454859.615477673
  9
$TDINDWG
 40
0.6365368866
  9
$TDUSRTIMER
 40
0.6365146412
  9
$USRTIMER
 70
     1
  9
$ANGBASE
 50
0.0
  9
$ANGDIR
 70
     0
  9
$PDMODE
 70
     3
  9
$PDSIZE
 40
-2.0
  9
$PLINEWID
 40
0.0
  9
$COORDS
 70
     2
  9
$SPLFRAME
 70
     0
  9
$SPLINETYPE
 70
     6
  9
$SPLINESEGS
 70
     8
  9
$ATTDIA
 70
     0
  9
$ATTREQ
 70
     1
  9
$HANDLING
 70
-16383
  9
$HANDSEED
  5
16CB
  9
$SURFTAB1
 70
     6
  9
$SURFTAB2
 70
     6
  9
$SURFTYPE
 70
     6
  9
$SURFU
 70
     6
  9
$SURFV
 70
     6
  9
$UCSNAME
  2

  9
$UCSORG
 10
0.0
 20
0.0
 30
0.0
  9
$UCSXDIR
 10
1.0
 20
0.0
 30
0.0
  9
$UCSYDIR
 10
0.0
 20
1.0
 30
0.0
  9
$PUCSNAME
  2

  9
$PUCSORG
 10
0.0
 20
0.0
 30
0.0
  9
$PUCSXDIR
 10
1.0
 20
0.0
 30
0.0
  9
$PUCSYDIR
 10
0.0
 20
1.0
 30
0.0
  9
$USERI1
 70
     0
  9
$USERI2
 70
     0
  9
$USERI3
 70
     0
  9
$USERI4
 70
     0
  9
$USERI5
 70
     0
  9
$USERR1
 40
20.0
  9
$USERR2
 40
0.0
  9
$USERR3
 40
0.0
  9
$USERR4
 40
0.0
  9
$USERR5
 40
0.0
  9
$WORLDVIEW
 70
     1
  9
$SHADEDGE
 70
     3
  9
$SHADEDIF
 70
    70
  9
$TILEMODE
 70
     1
  9
$MAXACTVP
 70
    64
  9
$PINSBASE
 10
0.0
 20
0.0
 30
0.0
  9
$PLIMCHECK
 70
     0
  9
$PEXTMIN
 10
1.000000000000000E+20
 20
1.000000000000000E+20
 30
1.000000000000000E+20
  9
$PEXTMAX
 10
-1.000000000000000E+20
 20
-1.000000000000000E+20
 30
-1.000000000000000E+20
  9
$PLIMMIN
 10
0.0
 20
0.0
  9
$PLIMMAX
 10
12.0
 20
9.0
  9
$UNITMODE
 70
     0
  9
$VISRETAIN
 70
     1
  9
$PLINEGEN
 70
     0
  9
$PSLTSCALE
 70
     1
  9
$TREEDEPTH
 70
  3020
  9
$PICKSTYLE
 70
     1
  9
$CMLSTYLE
  2
STANDARD
  9
$CMLJUST
 70
     0
  9
$CMLSCALE
 40
1.0
  9
$PROXYGRAPHICS
 70
     1
  9
$MEASUREMENT
 70
     0
  0
ENDSEC
  0
SECTION
  2
CLASSES
  0
CLASS
  1
ACDBDICTIONARYWDFLT
  2
AcDbDictionaryWithDefault
  3
AutoCAD 2000
 90
        0
280
     0
281
     0
  0
CLASS
  1
ACDBPLACEHOLDER
  2
AcDbPlaceHolder
  3
AutoCAD 2000
 90
        0
280
     0
281
     0
  0
CLASS
  1
LAYOUT
  2
AcDbLayout
  3
AutoCAD 2000
 90
        0
280
     0
281
     0
  0
CLASS
  1
LONG_TRANSACTION
  2
AcDbLongTransaction
  3
AutoCAD 2000
 90
        0
280
     0
281
     0
  0
CLASS
  1
LWPOLYLINE
  2
AcDbPolyline
  3
AutoCAD 2000
 90
        0
280
     0
281
     1
  0
CLASS
  1
HATCH
  2
AcDbHatch
  3
AutoCAD 2000
 90
        0
280
     0
281
     1
  0
CLASS
  1
XRECORD
  2
AcDbXrecord
  3
AutoCAD 2000
 90
        0
280
     0
281
     0
  0
ENDSEC
  0
SECTION
  2
TABLES
  0
TABLE
  2
VPORT
  5
8
330
0
100
AcDbSymbolTable
 70
     5
  0
VPORT
  5
16A5
330
8
100
AcDbSymbolTableRecord
100
AcDbViewportTableRecord
  2
*ACTIVE
 70
     0
 10
0.0
 20
0.0
 11
1.0
 21
1.0
 12
0.8712252319410254
 22
269.1441741188155
 13
0.0
 23
0.0
 14
400.0
 24
400.0
 15
400.0
 25
400.0
 16
0.0
 26
0.0
 36
1.0
 17
0.0
 27
0.0
 37
0.0
 40
2969.461505804135
 41
1.299492385786801
 42
50.0
 43
0.0
 44
0.0
 50
0.0
 51
0.0
 71
     0
 72
   500
 73
     1
 74
     0
 75
     0
 76
     0
 77
     0
 78
     1
  0
ENDTAB
  0
TABLE
  2
LTYPE
  5
5
330
0
100
AcDbSymbolTable
 70
     7
  0
LTYPE
  5
13
330
5
100
AcDbSymbolTableRecord
100
AcDbLinetypeTableRecord
  2
BYBLOCK
 70
     0
  3

 72
    65
 73
     0
 40
0.0
  0
LTYPE
  5
14
330
5
100
AcDbSymbolTableRecord
100
AcDbLinetypeTableRecord
  2
BYLAYER
 70
     0
  3

 72
    65
 73
     0
 40
0.0
  0
LTYPE
  5
15
330
5
100
AcDbSymbolTableRecord
100
AcDbLinetypeTableRecord
  2
CONTINUOUS
 70
     0
  3
実線
 72
    65
 73
     0
 40
0.0
  0
LTYPE
  5
23
330
5
100
AcDbSymbolTableRecord
100
AcDbLinetypeTableRecord
  2
DOT
 70
     0
  3
...............................................
 72
    65
 73
     2
 40
0.8
 49
0.5
 74
     0
 49
-0.3
 74
     0
  0
LTYPE
  5
24
330
5
100
AcDbSymbolTableRecord
100
AcDbLinetypeTableRecord
  2
DASHED
 70
     0
  3
_ _ _ _ _ _ _ _ _ _ _ _ _ _ _ _ _ _ _ _ _ _ _
 72
    65
 73
     2
 40
2.0
 49
1.199999999999999
 74
     0
 49
-0.8
 74
     0
  0
LTYPE
  5
25
330
5
100
AcDbSymbolTableRecord
100
AcDbLinetypeTableRecord
  2
DASHDOT
 70
     0
  3
____ _ ____ _ ____ _ ____ _ ____ _ ____ _ ____
 72
    65
 73
     4
 40
5.5
 49
4.0
 74
     0
 49
-0.6
 74
     0
 49
0.3
 74
     0
 49
-0.6
 74
     0
  0
LTYPE
  5
26
330
5
100
AcDbSymbolTableRecord
100
AcDbLinetypeTableRecord
  2
DASHDOT1
 70
     0
  3
____ _ ____ _ ____ _ ____ _ ____ _ ____ _ ____
 72
    65
 73
     4
 40
2.0
 49
1.5
 74
     0
 49
-0.2
 74
     0
 49
0.1
 74
     0
 49
-0.2
 74
     0
  0
LTYPE
  5
27
330
5
100
AcDbSymbolTableRecord
100
AcDbLinetypeTableRecord
  2
DIVIDE
 70
     0
  3
_____ _ _ _____ _ _ _____ _ _ _____ _ _ ____
 72
    65
 73
     6
 40
6.4
 49
4.0
 74
     0
 49
-0.6
 74
     0
 49
0.3
 74
     0
 49
-0.6
 74
     0
 49
0.3
 74
     0
 49
-0.6
 74
     0
  0
LTYPE
  5
28
330
5
100
AcDbSymbolTableRecord
100
AcDbLinetypeTableRecord
  2
DIVIDE1
 70
     0
  3
_____ _ _ _____ _ _ _____ _ _ _____ _ _ ____
 72
    65
 73
     6
 40
3.2
 49
2.0
 74
     0
 49
-0.3
 74
     0
 49
0.15
 74
     0
 49
-0.3
 74
     0
 49
0.15
 74
     0
 49
-0.3
 74
     0
  0
ENDTAB
  0
TABLE
  2
LAYER
  5
2
330
0
100
AcDbSymbolTable
 70
    14
  0
LAYER
  5
10
330
2
100
AcDbSymbolTableRecord
100
AcDbLayerTableRecord
  2
0
 70
     0
 62
     7
  6
CONTINUOUS
  0
LAYER
  5
22
330
2
100
AcDbSymbolTableRecord
100
AcDbLayerTableRecord
  2
BASIS
 70
     0
 62
     6
  6
CONTINUOUS
  0
LAYER
  5
29
330
2
100
AcDbSymbolTableRecord
100
AcDbLayerTableRecord
  2
OUTLINE
 70
     0
 62
     3
  6
CONTINUOUS
  0
LAYER
  5
2A
330
2
100
AcDbSymbolTableRecord
100
AcDbLayerTableRecord
  2
DETAIL
 70
     0
 62
     5
  6
CONTINUOUS
  0
LAYER
  5
2B
330
2
100
AcDbSymbolTableRecord
100
AcDbLayerTableRecord
  2
SIZE
 70
     0
 62
    32
  6
CONTINUOUS
  0
LAYER
  5
2C
330
2
100
AcDbSymbolTableRecord
100
AcDbLayerTableRecord
  2
NOTE
 70
     0
 62
     4
  6
CONTINUOUS
  0
LAYER
  5
2D
330
2
100
AcDbSymbolTableRecord
100
AcDbLayerTableRecord
  2
ARRANGE
 70
     0
 62
     1
  6
CONTINUOUS
  0
LAYER
  5
2E
330
2
100
AcDbSymbolTableRecord
100
AcDbLayerTableRecord
  2
DEFPOINTS
 70
     0
 62
     7
  6
CONTINUOUS
  0
LAYER
  5
2F
330
2
100
AcDbSymbolTableRecord
100
AcDbLayerTableRecord
  2
FIX
 70
     0
 62
   241
  6
CONTINUOUS
  0
LAYER
  5
30
330
2
100
AcDbSymbolTableRecord
100
AcDbLayerTableRecord
  2
SERVICESPACE
 70
     0
 62
     2
  6
CONTINUOUS
  0
LAYER
  5
31
330
2
100
AcDbSymbolTableRecord
100
AcDbLayerTableRecord
  2
ETC
 70
     0
 62
    83
  6
CONTINUOUS
  0
LAYER
  5
32
330
2
100
AcDbSymbolTableRecord
100
AcDbLayerTableRecord
  2
SYMBOLLINE
 70
     0
 62
    38
  6
CONTINUOUS
  0
LAYER
  5
33
330
2
100
AcDbSymbolTableRecord
100
AcDbLayerTableRecord
  2
SERVICE_SPACE
 70
     0
 62
     2
  6
CONTINUOUS
  0
LAYER
  5
34
330
2
100
AcDbSymbolTableRecord
100
AcDbLayerTableRecord
  2
SYMBOL_LINE
 70
     0
 62
    38
  6
CONTINUOUS
  0
ENDTAB
  0
TABLE
  2
STYLE
  5
3
330
0
100
AcDbSymbolTable
 70
     1
  0
STYLE
  5
11
330
3
100
AcDbSymbolTableRecord
100
AcDbTextStyleTableRecord
  2
STANDARD
 70
     0
 40
0.0
 41
0.9
 50
0.0
 71
     0
 42
64.0
  3
SIMPLEX
  4
BIGFONT
  0
ENDTAB
  0
TABLE
  2
VIEW
  5
6
330
0
100
AcDbSymbolTable
 70
     1
  0
VIEW
  5
35
330
6
100
AcDbSymbolTableRecord
100
AcDbViewTableRecord
  2
ALL
 70
     0
 40
4508.021
 10
0.0
 20
41.30990399999999
 41
6252.632
 11
0.0
 21
0.0
 31
1.0
 12
0.0
 22
0.0
 32
0.0
 42
50.0
 43
0.0
 44
0.0
 50
0.0
 71
     0
  0
ENDTAB
  0
TABLE
  2
UCS
  5
7
330
0
100
AcDbSymbolTable
 70
     0
  0
ENDTAB
  0
TABLE
  2
APPID
  5
9
330
0
100
AcDbSymbolTable
 70
     1
  0
APPID
  5
12
330
9
100
AcDbSymbolTableRecord
100
AcDbRegAppTableRecord
  2
ACAD
 70
     0
  0
ENDTAB
  0
TABLE
  2
DIMSTYLE
  5
A
330
0
100
AcDbSymbolTable
 70
     1
  0
DIMSTYLE
105
18F
330
A
100
AcDbSymbolTableRecord
100
AcDbDimStyleTableRecord
  2
STANDARD
 70
     0
  3

  4

  5

  6

  7

 40
1.0
 41
0.18
 42
0.0625
 43
0.38
 44
0.18
 45
0.0
 46
0.0
 47
0.0
 48
0.0
140
0.18
141
0.09
142
0.0
143
25.4
144
1.0
145
0.0
146
1.0
147
0.09
 71
     0
 72
     0
 73
     1
 74
     1
 75
     0
 76
     0
 77
     0
 78
     0
170
     0
171
     2
172
     0
173
     0
174
     0
175
     0
176
     0
177
     0
178
     0
270
     2
271
     4
272
     4
273
     2
274
     2
340
11
275
     0
280
     0
281
     0
282
     0
283
     1
284
     0
285
     0
286
     0
287
     3
288
     0
  0
ENDTAB
  0
TABLE
  2
BLOCK_RECORD
  5
1
330
0
100
AcDbSymbolTable
 70
    30
  0
BLOCK_RECORD
  5
1E
102
{ACAD_XDICTIONARY
360
16C9
102
}
330
1
100
AcDbSymbolTableRecord
100
AcDbBlockTableRecord
  2
*MODEL_SPACE
  0
BLOCK_RECORD
  5
1A
102
{ACAD_XDICTIONARY
360
16C7
102
}
330
1
100
AcDbSymbolTableRecord
100
AcDbBlockTableRecord
  2
*PAPER_SPACE
  0
BLOCK_RECORD
  5
13CC
330
1
100
AcDbSymbolTableRecord
100
AcDbBlockTableRecord
  2
_ORIGIN
  0
BLOCK_RECORD
  5
13D2
330
1
100
AcDbSymbolTableRecord
100
AcDbBlockTableRecord
  2
*D1
  0
BLOCK_RECORD
  5
13DF
330
1
100
AcDbSymbolTableRecord
100
AcDbBlockTableRecord
  2
*D2
  0
BLOCK_RECORD
  5
13EC
330
1
100
AcDbSymbolTableRecord
100
AcDbBlockTableRecord
  2
*D3
  0
BLOCK_RECORD
  5
144D
330
1
100
AcDbSymbolTableRecord
100
AcDbBlockTableRecord
  2
*D4
  0
BLOCK_RECORD
  5
147A
330
1
100
AcDbSymbolTableRecord
100
AcDbBlockTableRecord
  2
*D5
  0
BLOCK_RECORD
  5
148B
330
1
100
AcDbSymbolTableRecord
100
AcDbBlockTableRecord
  2
*D6
  0
BLOCK_RECORD
  5
1498
330
1
100
AcDbSymbolTableRecord
100
AcDbBlockTableRecord
  2
*D7
  0
BLOCK_RECORD
  5
14B8
330
1
100
AcDbSymbolTableRecord
100
AcDbBlockTableRecord
  2
*D8
  0
BLOCK_RECORD
  5
14CF
330
1
100
AcDbSymbolTableRecord
100
AcDbBlockTableRecord
  2
*D9
  0
BLOCK_RECORD
  5
14EA
330
1
100
AcDbSymbolTableRecord
100
AcDbBlockTableRecord
  2
*D10
  0
BLOCK_RECORD
  5
14F7
330
1
100
AcDbSymbolTableRecord
100
AcDbBlockTableRecord
  2
*D11
  0
BLOCK_RECORD
  5
1504
330
1
100
AcDbSymbolTableRecord
100
AcDbBlockTableRecord
  2
*D12
  0
BLOCK_RECORD
  5
1511
330
1
100
AcDbSymbolTableRecord
100
AcDbBlockTableRecord
  2
*D13
  0
BLOCK_RECORD
  5
151E
330
1
100
AcDbSymbolTableRecord
100
AcDbBlockTableRecord
  2
*D14
  0
BLOCK_RECORD
  5
152F
330
1
100
AcDbSymbolTableRecord
100
AcDbBlockTableRecord
  2
*D15
  0
BLOCK_RECORD
  5
1546
330
1
100
AcDbSymbolTableRecord
100
AcDbBlockTableRecord
  2
*D16
  0
BLOCK_RECORD
  5
1554
330
1
100
AcDbSymbolTableRecord
100
AcDbBlockTableRecord
  2
*D17
  0
BLOCK_RECORD
  5
1561
330
1
100
AcDbSymbolTableRecord
100
AcDbBlockTableRecord
  2
*D18
  0
BLOCK_RECORD
  5
157F
330
1
100
AcDbSymbolTableRecord
100
AcDbBlockTableRecord
  2
*D19
  0
BLOCK_RECORD
  5
158E
330
1
100
AcDbSymbolTableRecord
100
AcDbBlockTableRecord
  2
*D20
  0
BLOCK_RECORD
  5
159F
330
1
100
AcDbSymbolTableRecord
100
AcDbBlockTableRecord
  2
*D21
  0
BLOCK_RECORD
  5
15AC
330
1
100
AcDbSymbolTableRecord
100
AcDbBlockTableRecord
  2
*D22
  0
BLOCK_RECORD
  5
15B9
330
1
100
AcDbSymbolTableRecord
100
AcDbBlockTableRecord
  2
*D23
  0
BLOCK_RECORD
  5
15C8
330
1
100
AcDbSymbolTableRecord
100
AcDbBlockTableRecord
  2
*D24
  0
BLOCK_RECORD
  5
15D8
330
1
100
AcDbSymbolTableRecord
100
AcDbBlockTableRecord
  2
*D25
  0
BLOCK_RECORD
  5
15E5
330
1
100
AcDbSymbolTableRecord
100
AcDbBlockTableRecord
  2
*D26
  0
BLOCK_RECORD
  5
15F6
330
1
100
AcDbSymbolTableRecord
100
AcDbBlockTableRecord
  2
*D27
  0
BLOCK_RECORD
  5
1603
330
1
100
AcDbSymbolTableRecord
100
AcDbBlockTableRecord
  2
*D28
  0
BLOCK_RECORD
  5
1650
330
1
100
AcDbSymbolTableRecord
100
AcDbBlockTableRecord
  2
*D29
  0
ENDTAB
  0
ENDSEC
  0
SECTION
  2
BLOCKS
  0
BLOCK
  5
1F
330
1E
100
AcDbEntity
  8
0
100
AcDbBlockBegin
  2
*MODEL_SPACE
 70
     0
 10
0.0
 20
0.0
 30
0.0
  3
*MODEL_SPACE
  1

  0
ENDBLK
  5
20
330
1E
100
AcDbEntity
  8
0
100
AcDbBlockEnd
  0
BLOCK
  5
1B
330
1A
100
AcDbEntity
 67
     1
  8
0
100
AcDbBlockBegin
  2
*PAPER_SPACE
 70
     0
 10
0.0
 20
0.0
 30
0.0
  3
*PAPER_SPACE
  1

  0
ENDBLK
  5
1C
330
1A
100
AcDbEntity
 67
     1
  8
0
100
AcDbBlockEnd
  0
BLOCK
  5
13CF
330
13CC
100
AcDbEntity
  8
0
100
AcDbBlockBegin
  2
_ORIGIN
 70
     0
 10
0.0
 20
0.0
 30
0.0
  3
_ORIGIN
  1

  0
CIRCLE
  5
13CD
330
13CC
100
AcDbEntity
  8
0
  6
BYBLOCK
 62
     0
100
AcDbCircle
 10
0.0
 20
0.0
 30
0.0
 40
0.5
  0
LINE
  5
13CE
330
13CC
100
AcDbEntity
  8
0
  6
BYBLOCK
 62
     0
100
AcDbLine
 10
0.0
 20
0.0
 30
0.0
 11
-1.0
 21
0.0
 31
0.0
  0
ENDBLK
  5
13D0
330
13CC
100
AcDbEntity
  8
0
100
AcDbBlockEnd
  0
BLOCK
  5
13DC
330
13D2
100
AcDbEntity
  8
0
100
AcDbBlockBegin
  2
*D1
 70
     1
 10
0.0
 20
0.0
 30
0.0
  3
*D1
  1

  0
LINE
  5
13D3
330
13D2
100
AcDbEntity
  8
SIZE
  6
CONTINUOUS
 62
     0
100
AcDbLine
 10
1160.292232415424
 20
222.3131853065142
 30
0.0
 11
1453.772144632115
 21
222.3131853065141
 31
0.0
  0
LINE
  5
13D4
330
13D2
100
AcDbEntity
  8
SIZE
  6
CONTINUOUS
 62
     0
100
AcDbLine
 10
1160.292232415424
 20
-227.6868146934858
 30
0.0
 11
1453.772144632115
 21
-227.6868146934858
 31
0.0
  0
LINE
  5
13D5
330
13D2
100
AcDbEntity
  8
SIZE
  6
CONTINUOUS
 62
     0
100
AcDbLine
 10
1423.772144632115
 20
212.3131853065141
 30
0.0
 11
1423.772144632115
 21
-217.6868146934859
 31
0.0
  0
INSERT
  5
13D6
330
13D2
100
AcDbEntity
  8
SIZE
  6
CONTINUOUS
 62
     0
100
AcDbBlockReference
  2
_ORIGIN
 10
1423.772144632115
 20
222.3131853065141
 30
0.0
 41
10.0
 42
10.0
 43
10.0
 50
90.0
  0
INSERT
  5
13D7
330
13D2
100
AcDbEntity
  8
SIZE
  6
CONTINUOUS
 62
     0
100
AcDbBlockReference
  2
_ORIGIN
 10
1423.772144632115
 20
-227.6868146934858
 30
0.0
 41
10.0
 42
10.0
 43
10.0
 50
270.0
  0
MTEXT
  5
13D8
330
13D2
100
AcDbEntity
  8
SIZE
  6
CONTINUOUS
 62
     0
100
AcDbMText
 10
1381.772144632115
 20
-2.68681469348564
 30
0.0
 40
64.0
 41
0.0
 71
     5
 72
     1
  1
\A1;450
 11
0.0000000000000001
 21
1.0
 31
0.0
1001
ACAD
1000
MTEXTBEGIN
1070
    73
1070
     1
1070
    44
1040
1.0
1070
    74
1070
     0
1000
MTEXTEND
  0
POINT
  5
13D9
330
13D2
100
AcDbEntity
  8
DEFPOINTS
  6
CONTINUOUS
 62
     0
100
AcDbPoint
 10
1140.292232415424
 20
222.3131853065142
 30
0.0
  0
POINT
  5
13DA
330
13D2
100
AcDbEntity
  8
DEFPOINTS
  6
CONTINUOUS
 62
     0
100
AcDbPoint
 10
1140.292232415424
 20
-227.6868146934858
 30
0.0
  0
POINT
  5
13DB
330
13D2
100
AcDbEntity
  8
DEFPOINTS
  6
CONTINUOUS
 62
     0
100
AcDbPoint
 10
1423.772144632115
 20
-227.6868146934858
 30
0.0
  0
ENDBLK
  5
13DD
330
13D2
100
AcDbEntity
  8
0
100
AcDbBlockEnd
  0
BLOCK
  5
13E9
330
13DF
100
AcDbEntity
  8
0
100
AcDbBlockBegin
  2
*D2
 70
     1
 10
0.0
 20
0.0
 30
0.0
  3
*D2
  1

  0
LINE
  5
1440
330
13DF
100
AcDbEntity
  8
SIZE
  6
CONTINUOUS
 62
     0
100
AcDbLine
 10
690.2922324154242
 20
242.3131853065142
 30
0.0
 11
690.2922324154242
 21
831.7674551836827
 31
0.0
  0
LINE
  5
1441
330
13DF
100
AcDbEntity
  8
SIZE
  6
CONTINUOUS
 62
     0
100
AcDbLine
 10
370.2922324154242
 20
447.3131853065142
 30
0.0
 11
370.2922324154242
 21
831.7674551836827
 31
0.0
  0
LINE
  5
1442
330
13DF
100
AcDbEntity
  8
SIZE
  6
CONTINUOUS
 62
     0
100
AcDbLine
 10
700.2922324154241
 20
801.7674551836826
 30
0.0
 11
710.2922324154242
 21
801.7674551836826
 31
0.0
  0
LINE
  5
1443
330
13DF
100
AcDbEntity
  8
SIZE
  6
CONTINUOUS
 62
     0
100
AcDbLine
 10
360.2922324154242
 20
801.7674551836826
 30
0.0
 11
350.2922324154242
 21
801.7674551836826
 31
0.0
  0
LINE
  5
1444
330
13DF
100
AcDbEntity
  8
SIZE
  6
CONTINUOUS
 62
     0
100
AcDbLine
 10
690.2922324154242
 20
801.7674551836826
 30
0.0
 11
370.2922324154242
 21
801.7674551836826
 31
0.0
  0
INSERT
  5
1445
330
13DF
100
AcDbEntity
  8
SIZE
  6
CONTINUOUS
 62
     0
100
AcDbBlockReference
  2
_ORIGIN
 10
690.2922324154242
 20
801.7674551836826
 30
0.0
 41
10.0
 42
10.0
 43
10.0
 50
180.0
  0
INSERT
  5
1446
330
13DF
100
AcDbEntity
  8
SIZE
  6
CONTINUOUS
 62
     0
100
AcDbBlockReference
  2
_ORIGIN
 10
370.2922324154242
 20
801.7674551836826
 30
0.0
 41
10.0
 42
10.0
 43
10.0
  0
MTEXT
  5
1447
330
13DF
100
AcDbEntity
  8
SIZE
  6
CONTINUOUS
 62
     0
100
AcDbMText
 10
612.189871594579
 20
843.7674551836826
 30
0.0
 40
64.0
 41
0.0
 71
     5
 72
     1
  1
\A1;320～400
1001
ACAD
1000
MTEXTBEGIN
1070
    73
1070
     1
1070
    44
1040
1.0
1070
    74
1070
     0
1000
MTEXTEND
  0
POINT
  5
1448
330
13DF
100
AcDbEntity
  8
DEFPOINTS
  6
CONTINUOUS
 62
     0
100
AcDbPoint
 10
690.2922324154242
 20
222.3131853065142
 30
0.0
  0
POINT
  5
1449
330
13DF
100
AcDbEntity
  8
DEFPOINTS
  6
CONTINUOUS
 62
     0
100
AcDbPoint
 10
370.2922324154242
 20
427.3131853065142
 30
0.0
  0
POINT
  5
144A
330
13DF
100
AcDbEntity
  8
DEFPOINTS
  6
CONTINUOUS
 62
     0
100
AcDbPoint
 10
370.2922324154242
 20
801.7674551836826
 30
0.0
  0
ENDBLK
  5
13EA
330
13DF
100
AcDbEntity
  8
0
100
AcDbBlockEnd
  0
BLOCK
  5
13F6
330
13EC
100
AcDbEntity
  8
0
100
AcDbBlockBegin
  2
*D3
 70
     1
 10
0.0
 20
0.0
 30
0.0
  3
*D3
  1

  0
LINE
  5
140C
330
13EC
100
AcDbEntity
  8
SIZE
  6
CONTINUOUS
 62
     0
100
AcDbLine
 10
690.2922324154242
 20
242.3131853065142
 30
0.0
 11
690.2922324154242
 21
831.7674551836827
 31
0.0
  0
LINE
  5
140D
330
13EC
100
AcDbEntity
  8
SIZE
  6
CONTINUOUS
 62
     0
100
AcDbLine
 10
1140.292232415424
 20
242.3131853065142
 30
0.0
 11
1140.292232415424
 21
831.7674551836827
 31
0.0
  0
LINE
  5
140E
330
13EC
100
AcDbEntity
  8
SIZE
  6
CONTINUOUS
 62
     0
100
AcDbLine
 10
700.2922324154241
 20
801.7674551836826
 30
0.0
 11
1130.292232415424
 21
801.7674551836826
 31
0.0
  0
INSERT
  5
140F
330
13EC
100
AcDbEntity
  8
SIZE
  6
CONTINUOUS
 62
     0
100
AcDbBlockReference
  2
_ORIGIN
 10
690.2922324154242
 20
801.7674551836826
 30
0.0
 41
10.0
 42
10.0
 43
10.0
 50
180.0
  0
INSERT
  5
1410
330
13EC
100
AcDbEntity
  8
SIZE
  6
CONTINUOUS
 62
     0
100
AcDbBlockReference
  2
_ORIGIN
 10
1140.292232415424
 20
801.7674551836826
 30
0.0
 41
10.0
 42
10.0
 43
10.0
  0
MTEXT
  5
1411
330
13EC
100
AcDbEntity
  8
SIZE
  6
CONTINUOUS
 62
     0
100
AcDbMText
 10
992.6184344587527
 20
843.7674551836826
 30
0.0
 40
64.0
 41
0.0
 71
     5
 72
     1
  1
\A1;450
1001
ACAD
1000
MTEXTBEGIN
1070
    73
1070
     1
1070
    44
1040
1.0
1070
    74
1070
     0
1000
MTEXTEND
  0
POINT
  5
1412
330
13EC
100
AcDbEntity
  8
DEFPOINTS
  6
CONTINUOUS
 62
     0
100
AcDbPoint
 10
690.2922324154242
 20
222.3131853065142
 30
0.0
  0
POINT
  5
1413
330
13EC
100
AcDbEntity
  8
DEFPOINTS
  6
CONTINUOUS
 62
     0
100
AcDbPoint
 10
1140.292232415424
 20
222.3131853065142
 30
0.0
  0
POINT
  5
1414
330
13EC
100
AcDbEntity
  8
DEFPOINTS
  6
CONTINUOUS
 62
     0
100
AcDbPoint
 10
1140.292232415424
 20
801.7674551836826
 30
0.0
  0
ENDBLK
  5
13F7
330
13EC
100
AcDbEntity
  8
0
100
AcDbBlockEnd
  0
BLOCK
  5
1457
330
144D
100
AcDbEntity
  8
0
100
AcDbBlockBegin
  2
*D4
 70
     1
 10
0.0
 20
0.0
 30
0.0
  3
*D4
  1

  0
LINE
  5
146F
330
144D
100
AcDbEntity
  8
SIZE
  6
CONTINUOUS
 62
     0
100
AcDbLine
 10
220.2922324154242
 20
-422.6868146934857
 30
0.0
 11
865.3109295759204
 21
-422.6868146934859
 31
0.0
  0
LINE
  5
1470
330
144D
100
AcDbEntity
  8
SIZE
  6
CONTINUOUS
 62
     0
100
AcDbLine
 10
573.2922324154242
 20
-248.6868146934861
 30
0.0
 11
865.3109295759204
 21
-248.6868146934862
 31
0.0
  0
LINE
  5
1471
330
144D
100
AcDbEntity
  8
SIZE
  6
CONTINUOUS
 62
     0
100
AcDbLine
 10
835.3109295759203
 20
-412.6868146934858
 30
0.0
 11
835.3109295759203
 21
-258.6868146934862
 31
0.0
  0
INSERT
  5
1472
330
144D
100
AcDbEntity
  8
SIZE
  6
CONTINUOUS
 62
     0
100
AcDbBlockReference
  2
_ORIGIN
 10
835.3109295759203
 20
-422.6868146934859
 30
0.0
 41
10.0
 42
10.0
 43
10.0
 50
270.0
  0
INSERT
  5
1473
330
144D
100
AcDbEntity
  8
SIZE
  6
CONTINUOUS
 62
     0
100
AcDbBlockReference
  2
_ORIGIN
 10
835.3109295759205
 20
-248.6868146934862
 30
0.0
 41
10.0
 42
10.0
 43
10.0
 50
90.0
  0
MTEXT
  5
1474
330
144D
100
AcDbEntity
  8
SIZE
  6
CONTINUOUS
 62
     0
100
AcDbMText
 10
793.3109295759204
 20
-335.6868146934859
 30
0.0
 40
64.0
 41
0.0
 71
     5
 72
     1
  1
\A1;174
 11
0.0000000000000001
 21
1.0
 31
0.0
1001
ACAD
1000
MTEXTBEGIN
1070
    73
1070
     1
1070
    44
1040
1.0
1070
    74
1070
     0
1000
MTEXTEND
  0
POINT
  5
1475
330
144D
100
AcDbEntity
  8
DEFPOINTS
  6
CONTINUOUS
 62
     0
100
AcDbPoint
 10
200.2922324154242
 20
-422.6868146934857
 30
0.0
  0
POINT
  5
1476
330
144D
100
AcDbEntity
  8
DEFPOINTS
  6
CONTINUOUS
 62
     0
100
AcDbPoint
 10
553.2922324154242
 20
-248.6868146934861
 30
0.0
  0
POINT
  5
1477
330
144D
100
AcDbEntity
  8
DEFPOINTS
  6
CONTINUOUS
 62
     0
100
AcDbPoint
 10
835.3109295759205
 20
-248.6868146934862
 30
0.0
  0
ENDBLK
  5
1458
330
144D
100
AcDbEntity
  8
0
100
AcDbBlockEnd
  0
BLOCK
  5
1484
330
147A
100
AcDbEntity
  8
0
100
AcDbBlockBegin
  2
*D5
 70
     1
 10
0.0
 20
0.0
 30
0.0
  3
*D5
  1

  0
LINE
  5
147B
330
147A
100
AcDbEntity
  8
SIZE
  6
CONTINUOUS
 62
     0
100
AcDbLine
 10
533.2922324154242
 20
-167.0662129635165
 30
0.0
 11
533.2922324154242
 21
-125.494341692618
 31
0.0
  0
LINE
  5
147C
330
147A
100
AcDbEntity
  8
SIZE
  6
CONTINUOUS
 62
     0
100
AcDbLine
 10
360.2922324154242
 20
-242.6868146934857
 30
0.0
 11
360.2922324154242
 21
-125.494341692618
 31
0.0
  0
LINE
  5
147D
330
147A
100
AcDbEntity
  8
SIZE
  6
CONTINUOUS
 62
     0
100
AcDbLine
 10
523.2922324154242
 20
-155.494341692618
 30
0.0
 11
370.2922324154242
 21
-155.494341692618
 31
0.0
  0
INSERT
  5
147E
330
147A
100
AcDbEntity
  8
SIZE
  6
CONTINUOUS
 62
     0
100
AcDbBlockReference
  2
_ORIGIN
 10
533.2922324154242
 20
-155.494341692618
 30
0.0
 41
10.0
 42
10.0
 43
10.0
  0
INSERT
  5
147F
330
147A
100
AcDbEntity
  8
SIZE
  6
CONTINUOUS
 62
     0
100
AcDbBlockReference
  2
_ORIGIN
 10
360.2922324154242
 20
-155.494341692618
 30
0.0
 41
10.0
 42
10.0
 43
10.0
 50
180.0
  0
MTEXT
  5
1480
330
147A
100
AcDbEntity
  8
SIZE
  6
CONTINUOUS
 62
     0
100
AcDbMText
 10
446.7922324154242
 20
-113.494341692618
 30
0.0
 40
64.0
 41
0.0
 71
     5
 72
     1
  1
\A1;173
1001
ACAD
1000
MTEXTBEGIN
1070
    73
1070
     1
1070
    44
1040
1.0
1070
    74
1070
     0
1000
MTEXTEND
  0
POINT
  5
1481
330
147A
100
AcDbEntity
  8
DEFPOINTS
  6
CONTINUOUS
 62
     0
100
AcDbPoint
 10
533.2922324154242
 20
-187.0662129635165
 30
0.0
  0
POINT
  5
1482
330
147A
100
AcDbEntity
  8
DEFPOINTS
  6
CONTINUOUS
 62
     0
100
AcDbPoint
 10
360.2922324154242
 20
-262.6868146934857
 30
0.0
  0
POINT
  5
1483
330
147A
100
AcDbEntity
  8
DEFPOINTS
  6
CONTINUOUS
 62
     0
100
AcDbPoint
 10
360.2922324154242
 20
-155.494341692618
 30
0.0
  0
ENDBLK
  5
1485
330
147A
100
AcDbEntity
  8
0
100
AcDbBlockEnd
  0
BLOCK
  5
1495
330
148B
100
AcDbEntity
  8
0
100
AcDbBlockBegin
  2
*D6
 70
     1
 10
0.0
 20
0.0
 30
0.0
  3
*D6
  1

  0
LINE
  5
14AD
330
148B
100
AcDbEntity
  8
SIZE
  6
CONTINUOUS
 62
     0
100
AcDbLine
 10
344.0922335554259
 20
187.3131853065138
 30
0.0
 11
209.7423366568328
 21
187.3131853065139
 31
0.0
  0
LINE
  5
14AE
330
148B
100
AcDbEntity
  8
SIZE
  6
CONTINUOUS
 62
     0
100
AcDbLine
 10
344.0922335554259
 20
-192.6868146934861
 30
0.0
 11
209.7423366568327
 21
-192.6868146934861
 31
0.0
  0
LINE
  5
14AF
330
148B
100
AcDbEntity
  8
SIZE
  6
CONTINUOUS
 62
     0
100
AcDbLine
 10
239.7423366568327
 20
177.3131853065138
 30
0.0
 11
239.7423366568327
 21
-182.6868146934861
 31
0.0
  0
INSERT
  5
14B0
330
148B
100
AcDbEntity
  8
SIZE
  6
CONTINUOUS
 62
     0
100
AcDbBlockReference
  2
_ORIGIN
 10
239.7423366568327
 20
187.3131853065139
 30
0.0
 41
10.0
 42
10.0
 43
10.0
 50
90.0
  0
INSERT
  5
14B1
330
148B
100
AcDbEntity
  8
SIZE
  6
CONTINUOUS
 62
     0
100
AcDbBlockReference
  2
_ORIGIN
 10
239.7423366568327
 20
-192.6868146934861
 30
0.0
 41
10.0
 42
10.0
 43
10.0
 50
270.0
  0
MTEXT
  5
14B2
330
148B
100
AcDbEntity
  8
SIZE
  6
CONTINUOUS
 62
     0
100
AcDbMText
 10
197.7423366568327
 20
-2.686814693486093
 30
0.0
 40
64.0
 41
0.0
 71
     5
 72
     1
  1
\A1;380
 11
0.0000000000000001
 21
1.0
 31
0.0
1001
ACAD
1000
MTEXTBEGIN
1070
    73
1070
     1
1070
    44
1040
1.0
1070
    74
1070
     0
1000
MTEXTEND
  0
POINT
  5
14B3
330
148B
100
AcDbEntity
  8
DEFPOINTS
  6
CONTINUOUS
 62
     0
100
AcDbPoint
 10
364.092233555426
 20
187.3131853065138
 30
0.0
  0
POINT
  5
14B4
330
148B
100
AcDbEntity
  8
DEFPOINTS
  6
CONTINUOUS
 62
     0
100
AcDbPoint
 10
364.092233555426
 20
-192.6868146934861
 30
0.0
  0
POINT
  5
14B5
330
148B
100
AcDbEntity
  8
DEFPOINTS
  6
CONTINUOUS
 62
     0
100
AcDbPoint
 10
239.7423366568327
 20
-192.6868146934861
 30
0.0
  0
ENDBLK
  5
1496
330
148B
100
AcDbEntity
  8
0
100
AcDbBlockEnd
  0
BLOCK
  5
14A2
330
1498
100
AcDbEntity
  8
0
100
AcDbBlockBegin
  2
*D7
 70
     1
 10
0.0
 20
0.0
 30
0.0
  3
*D7
  1

  0
LINE
  5
1499
330
1498
100
AcDbEntity
  8
SIZE
  6
CONTINUOUS
 62
     0
100
AcDbLine
 10
360.2922324154242
 20
219.3132459065142
 30
0.0
 11
360.2922324154242
 21
253.5597597758678
 31
0.0
  0
LINE
  5
149A
330
1498
100
AcDbEntity
  8
SIZE
  6
CONTINUOUS
 62
     0
100
AcDbLine
 10
568.2922324154242
 20
207.3131853065138
 30
0.0
 11
568.2922324154242
 21
253.5597597758678
 31
0.0
  0
LINE
  5
149B
330
1498
100
AcDbEntity
  8
SIZE
  6
CONTINUOUS
 62
     0
100
AcDbLine
 10
370.2922324154242
 20
223.5597597758678
 30
0.0
 11
558.2922324154242
 21
223.5597597758678
 31
0.0
  0
INSERT
  5
149C
330
1498
100
AcDbEntity
  8
SIZE
  6
CONTINUOUS
 62
     0
100
AcDbBlockReference
  2
_ORIGIN
 10
360.2922324154242
 20
223.5597597758678
 30
0.0
 41
10.0
 42
10.0
 43
10.0
 50
180.0
  0
INSERT
  5
149D
330
1498
100
AcDbEntity
  8
SIZE
  6
CONTINUOUS
 62
     0
100
AcDbBlockReference
  2
_ORIGIN
 10
568.2922324154242
 20
223.5597597758678
 30
0.0
 41
10.0
 42
10.0
 43
10.0
  0
MTEXT
  5
149E
330
1498
100
AcDbEntity
  8
SIZE
  6
CONTINUOUS
 62
     0
100
AcDbMText
 10
464.2922324154242
 20
265.5597597758678
 30
0.0
 40
64.0
 41
0.0
 71
     5
 72
     1
  1
\A1;208
1001
ACAD
1000
MTEXTBEGIN
1070
    73
1070
     1
1070
    44
1040
1.0
1070
    74
1070
     0
1000
MTEXTEND
  0
POINT
  5
149F
330
1498
100
AcDbEntity
  8
DEFPOINTS
  6
CONTINUOUS
 62
     0
100
AcDbPoint
 10
360.2922324154242
 20
199.3132459065142
 30
0.0
  0
POINT
  5
14A0
330
1498
100
AcDbEntity
  8
DEFPOINTS
  6
CONTINUOUS
 62
     0
100
AcDbPoint
 10
568.2922324154242
 20
187.3131853065138
 30
0.0
  0
POINT
  5
14A1
330
1498
100
AcDbEntity
  8
DEFPOINTS
  6
CONTINUOUS
 62
     0
100
AcDbPoint
 10
568.2922324154242
 20
223.5597597758678
 30
0.0
  0
ENDBLK
  5
14A3
330
1498
100
AcDbEntity
  8
0
100
AcDbBlockEnd
  0
BLOCK
  5
14C2
330
14B8
100
AcDbEntity
  8
0
100
AcDbBlockBegin
  2
*D8
 70
     1
 10
0.0
 20
0.0
 30
0.0
  3
*D8
  1

  0
LINE
  5
14C4
330
14B8
100
AcDbEntity
  8
SIZE
  6
CONTINUOUS
 62
     0
100
AcDbLine
 10
360.2922324154242
 20
179.3132459065142
 30
0.0
 11
360.2922324154242
 21
55.62155018310296
 31
0.0
  0
LINE
  5
14C5
330
14B8
100
AcDbEntity
  8
SIZE
  6
CONTINUOUS
 62
     0
100
AcDbLine
 10
629.2821900354638
 20
-17.08682501348596
 30
0.0
 11
629.2821900354638
 21
115.6215501831029
 31
0.0
  0
LINE
  5
14C6
330
14B8
100
AcDbEntity
  8
SIZE
  6
CONTINUOUS
 62
     0
100
AcDbLine
 10
370.2922324154242
 20
85.62155018310296
 30
0.0
 11
619.2821900354638
 21
85.62155018310296
 31
0.0
  0
INSERT
  5
14C7
330
14B8
100
AcDbEntity
  8
SIZE
  6
CONTINUOUS
 62
     0
100
AcDbBlockReference
  2
_ORIGIN
 10
360.2922324154242
 20
85.62155018310296
 30
0.0
 41
10.0
 42
10.0
 43
10.0
 50
180.0
  0
INSERT
  5
14C8
330
14B8
100
AcDbEntity
  8
SIZE
  6
CONTINUOUS
 62
     0
100
AcDbBlockReference
  2
_ORIGIN
 10
629.2821900354638
 20
85.62155018310296
 30
0.0
 41
10.0
 42
10.0
 43
10.0
  0
MTEXT
  5
14C9
330
14B8
100
AcDbEntity
  8
SIZE
  6
CONTINUOUS
 62
     0
100
AcDbMText
 10
483.4705637420702
 20
127.6215501831029
 30
0.0
 40
64.0
 41
0.0
 71
     5
 72
     1
  1
\A1;269
1001
ACAD
1000
MTEXTBEGIN
1070
    73
1070
     1
1070
    44
1040
1.0
1070
    74
1070
     0
1000
MTEXTEND
  0
POINT
  5
14CA
330
14B8
100
AcDbEntity
  8
DEFPOINTS
  6
CONTINUOUS
 62
     0
100
AcDbPoint
 10
360.2922324154242
 20
199.3132459065142
 30
0.0
  0
POINT
  5
14CB
330
14B8
100
AcDbEntity
  8
DEFPOINTS
  6
CONTINUOUS
 62
     0
100
AcDbPoint
 10
629.2821900354638
 20
-37.08682501348596
 30
0.0
  0
POINT
  5
14CC
330
14B8
100
AcDbEntity
  8
DEFPOINTS
  6
CONTINUOUS
 62
     0
100
AcDbPoint
 10
629.2821900354638
 20
85.62155018310296
 30
0.0
  0
ENDBLK
  5
14C3
330
14B8
100
AcDbEntity
  8
0
100
AcDbBlockEnd
  0
BLOCK
  5
14DB
330
14CF
100
AcDbEntity
  8
0
100
AcDbBlockBegin
  2
*D9
 70
     1
 10
0.0
 20
0.0
 30
0.0
  3
*D9
  1

  0
LINE
  5
14D0
330
14CF
100
AcDbEntity
  8
SIZE
  6
CONTINUOUS
 62
     0
100
AcDbLine
 10
493.2922324154241
 20
-248.6868146934861
 30
0.0
 11
209.7423366568327
 21
-248.686814693486
 31
0.0
  0
LINE
  5
14D1
330
14CF
100
AcDbEntity
  8
SIZE
  6
CONTINUOUS
 62
     0
100
AcDbLine
 10
344.0922335554259
 20
-192.6868146934861
 30
0.0
 11
209.7423366568327
 21
-192.6868146934861
 31
0.0
  0
LINE
  5
14D2
330
14CF
100
AcDbEntity
  8
SIZE
  6
CONTINUOUS
 62
     0
100
AcDbLine
 10
239.7423366568327
 20
-258.686814693486
 30
0.0
 11
239.7423366568327
 21
-268.686814693486
 31
0.0
  0
LINE
  5
14D3
330
14CF
100
AcDbEntity
  8
SIZE
  6
CONTINUOUS
 62
     0
100
AcDbLine
 10
239.7423366568327
 20
-182.6868146934861
 30
0.0
 11
239.7423366568327
 21
-172.6868146934861
 31
0.0
  0
LINE
  5
14D4
330
14CF
100
AcDbEntity
  8
SIZE
  6
CONTINUOUS
 62
     0
100
AcDbLine
 10
239.7423366568327
 20
-248.686814693486
 30
0.0
 11
239.7423366568327
 21
-192.6868146934861
 31
0.0
  0
INSERT
  5
14D5
330
14CF
100
AcDbEntity
  8
SIZE
  6
CONTINUOUS
 62
     0
100
AcDbBlockReference
  2
_ORIGIN
 10
239.7423366568327
 20
-248.686814693486
 30
0.0
 41
10.0
 42
10.0
 43
10.0
 50
90.0
  0
INSERT
  5
14D6
330
14CF
100
AcDbEntity
  8
SIZE
  6
CONTINUOUS
 62
     0
100
AcDbBlockReference
  2
_ORIGIN
 10
239.7423366568327
 20
-192.6868146934861
 30
0.0
 41
10.0
 42
10.0
 43
10.0
 50
270.0
  0
MTEXT
  5
14D7
330
14CF
100
AcDbEntity
  8
SIZE
  6
CONTINUOUS
 62
     0
100
AcDbMText
 10
197.7423366568327
 20
-220.686814693486
 30
0.0
 40
64.0
 41
0.0
 71
     5
 72
     1
  1
\A1;56
 11
0.0000000000000001
 21
1.0
 31
0.0
1001
ACAD
1000
MTEXTBEGIN
1070
    73
1070
     1
1070
    44
1040
1.0
1070
    74
1070
     0
1000
MTEXTEND
  0
POINT
  5
14D8
330
14CF
100
AcDbEntity
  8
DEFPOINTS
  6
CONTINUOUS
 62
     0
100
AcDbPoint
 10
513.2922324154242
 20
-248.6868146934861
 30
0.0
  0
POINT
  5
14D9
330
14CF
100
AcDbEntity
  8
DEFPOINTS
  6
CONTINUOUS
 62
     0
100
AcDbPoint
 10
364.092233555426
 20
-192.6868146934861
 30
0.0
  0
POINT
  5
14DA
330
14CF
100
AcDbEntity
  8
DEFPOINTS
  6
CONTINUOUS
 62
     0
100
AcDbPoint
 10
239.7423366568327
 20
-192.6868146934861
 30
0.0
  0
ENDBLK
  5
14DC
330
14CF
100
AcDbEntity
  8
0
100
AcDbBlockEnd
  0
BLOCK
  5
14F4
330
14EA
100
AcDbEntity
  8
0
100
AcDbBlockBegin
  2
*D10
 70
     1
 10
0.0
 20
0.0
 30
0.0
  3
*D10
  1

  0
LINE
  5
14EB
330
14EA
100
AcDbEntity
  8
SIZE
  6
CONTINUOUS
 62
     0
100
AcDbLine
 10
573.2922324154242
 20
-2140.972667774936
 30
0.0
 11
760.6829174975136
 21
-2140.972667774936
 31
0.0
  0
LINE
  5
14EC
330
14EA
100
AcDbEntity
  8
SIZE
  6
CONTINUOUS
 62
     0
100
AcDbLine
 10
435.2922324154242
 20
-2321.972667774936
 30
0.0
 11
760.6829174975135
 21
-2321.972667774936
 31
0.0
  0
LINE
  5
14ED
330
14EA
100
AcDbEntity
  8
SIZE
  6
CONTINUOUS
 62
     0
100
AcDbLine
 10
730.6829174975137
 20
-2150.972667774936
 30
0.0
 11
730.6829174975136
 21
-2311.972667774937
 31
0.0
  0
INSERT
  5
14EE
330
14EA
100
AcDbEntity
  8
SIZE
  6
CONTINUOUS
 62
     0
100
AcDbBlockReference
  2
_ORIGIN
 10
730.6829174975137
 20
-2140.972667774936
 30
0.0
 41
10.0
 42
10.0
 43
10.0
 50
90.0
  0
INSERT
  5
14EF
330
14EA
100
AcDbEntity
  8
SIZE
  6
CONTINUOUS
 62
     0
100
AcDbBlockReference
  2
_ORIGIN
 10
730.6829174975136
 20
-2321.972667774936
 30
0.0
 41
10.0
 42
10.0
 43
10.0
 50
270.0
  0
MTEXT
  5
14F0
330
14EA
100
AcDbEntity
  8
SIZE
  6
CONTINUOUS
 62
     0
100
AcDbMText
 10
688.682917497514
 20
-2231.472667774937
 30
0.0
 40
64.0
 41
0.0
 71
     5
 72
     1
  1
\A1;181
 11
0.0000000000000001
 21
1.0
 31
0.0
1001
ACAD
1000
MTEXTBEGIN
1070
    73
1070
     1
1070
    44
1040
1.0
1070
    74
1070
     0
1000
MTEXTEND
  0
POINT
  5
14F1
330
14EA
100
AcDbEntity
  8
DEFPOINTS
  6
CONTINUOUS
 62
     0
100
AcDbPoint
 10
553.2922324154242
 20
-2140.972667774936
 30
0.0
  0
POINT
  5
14F2
330
14EA
100
AcDbEntity
  8
DEFPOINTS
  6
CONTINUOUS
 62
     0
100
AcDbPoint
 10
415.2922324154242
 20
-2321.972667774936
 30
0.0
  0
POINT
  5
14F3
330
14EA
100
AcDbEntity
  8
DEFPOINTS
  6
CONTINUOUS
 62
     0
100
AcDbPoint
 10
730.6829174975136
 20
-2321.972667774936
 30
0.0
  0
ENDBLK
  5
14F5
330
14EA
100
AcDbEntity
  8
0
100
AcDbBlockEnd
  0
BLOCK
  5
1501
330
14F7
100
AcDbEntity
  8
0
100
AcDbBlockBegin
  2
*D11
 70
     1
 10
0.0
 20
0.0
 30
0.0
  3
*D11
  1

  0
LINE
  5
14F8
330
14F7
100
AcDbEntity
  8
SIZE
  6
CONTINUOUS
 62
     0
100
AcDbLine
 10
360.2922324154242
 20
-2043.972667774937
 30
0.0
 11
360.2922324154242
 21
-1947.936743192429
 31
0.0
  0
LINE
  5
14F9
330
14F7
100
AcDbEntity
  8
SIZE
  6
CONTINUOUS
 62
     0
100
AcDbLine
 10
533.2922324154242
 20
-2100.972667774936
 30
0.0
 11
533.2922324154242
 21
-1947.936743192429
 31
0.0
  0
LINE
  5
14FA
330
14F7
100
AcDbEntity
  8
SIZE
  6
CONTINUOUS
 62
     0
100
AcDbLine
 10
370.2922324154242
 20
-1977.936743192429
 30
0.0
 11
523.2922324154242
 21
-1977.936743192429
 31
0.0
  0
INSERT
  5
14FB
330
14F7
100
AcDbEntity
  8
SIZE
  6
CONTINUOUS
 62
     0
100
AcDbBlockReference
  2
_ORIGIN
 10
360.2922324154242
 20
-1977.936743192429
 30
0.0
 41
10.0
 42
10.0
 43
10.0
 50
180.0
  0
INSERT
  5
14FC
330
14F7
100
AcDbEntity
  8
SIZE
  6
CONTINUOUS
 62
     0
100
AcDbBlockReference
  2
_ORIGIN
 10
533.2922324154242
 20
-1977.936743192429
 30
0.0
 41
10.0
 42
10.0
 43
10.0
  0
MTEXT
  5
14FD
330
14F7
100
AcDbEntity
  8
SIZE
  6
CONTINUOUS
 62
     0
100
AcDbMText
 10
446.7922324154242
 20
-1935.936743192429
 30
0.0
 40
64.0
 41
0.0
 71
     5
 72
     1
  1
\A1;173
1001
ACAD
1000
MTEXTBEGIN
1070
    73
1070
     1
1070
    44
1040
1.0
1070
    74
1070
     0
1000
MTEXTEND
  0
POINT
  5
14FE
330
14F7
100
AcDbEntity
  8
DEFPOINTS
  6
CONTINUOUS
 62
     0
100
AcDbPoint
 10
360.2922324154242
 20
-2063.972667774936
 30
0.0
  0
POINT
  5
14FF
330
14F7
100
AcDbEntity
  8
DEFPOINTS
  6
CONTINUOUS
 62
     0
100
AcDbPoint
 10
533.2922324154242
 20
-2120.972667774937
 30
0.0
  0
POINT
  5
1500
330
14F7
100
AcDbEntity
  8
DEFPOINTS
  6
CONTINUOUS
 62
     0
100
AcDbPoint
 10
533.2922324154242
 20
-1977.936743192429
 30
0.0
  0
ENDBLK
  5
1502
330
14F7
100
AcDbEntity
  8
0
100
AcDbBlockEnd
  0
BLOCK
  5
150E
330
1504
100
AcDbEntity
  8
0
100
AcDbBlockBegin
  2
*D12
 70
     1
 10
0.0
 20
0.0
 30
0.0
  3
*D12
  1

  0
LINE
  5
1505
330
1504
100
AcDbEntity
  8
SIZE
  6
CONTINUOUS
 62
     0
100
AcDbLine
 10
360.2922324154242
 20
-2043.972667774937
 30
0.0
 11
360.2922324154242
 21
-1818.978932467944
 31
0.0
  0
LINE
  5
1506
330
1504
100
AcDbEntity
  8
SIZE
  6
CONTINUOUS
 62
     0
100
AcDbLine
 10
568.2922324154242
 20
-2084.972667774937
 30
0.0
 11
568.2922324154242
 21
-1818.978932467944
 31
0.0
  0
LINE
  5
1507
330
1504
100
AcDbEntity
  8
SIZE
  6
CONTINUOUS
 62
     0
100
AcDbLine
 10
370.2922324154242
 20
-1848.978932467944
 30
0.0
 11
558.2922324154242
 21
-1848.978932467944
 31
0.0
  0
INSERT
  5
1508
330
1504
100
AcDbEntity
  8
SIZE
  6
CONTINUOUS
 62
     0
100
AcDbBlockReference
  2
_ORIGIN
 10
360.2922324154242
 20
-1848.978932467944
 30
0.0
 41
10.0
 42
10.0
 43
10.0
 50
180.0
  0
INSERT
  5
1509
330
1504
100
AcDbEntity
  8
SIZE
  6
CONTINUOUS
 62
     0
100
AcDbBlockReference
  2
_ORIGIN
 10
568.2922324154242
 20
-1848.978932467944
 30
0.0
 41
10.0
 42
10.0
 43
10.0
  0
MTEXT
  5
150A
330
1504
100
AcDbEntity
  8
SIZE
  6
CONTINUOUS
 62
     0
100
AcDbMText
 10
464.2922324154242
 20
-1806.978932467944
 30
0.0
 40
64.0
 41
0.0
 71
     5
 72
     1
  1
\A1;208
1001
ACAD
1000
MTEXTBEGIN
1070
    73
1070
     1
1070
    44
1040
1.0
1070
    74
1070
     0
1000
MTEXTEND
  0
POINT
  5
150B
330
1504
100
AcDbEntity
  8
DEFPOINTS
  6
CONTINUOUS
 62
     0
100
AcDbPoint
 10
360.2922324154242
 20
-2063.972667774936
 30
0.0
  0
POINT
  5
150C
330
1504
100
AcDbEntity
  8
DEFPOINTS
  6
CONTINUOUS
 62
     0
100
AcDbPoint
 10
568.2922324154242
 20
-2104.972667774937
 30
0.0
  0
POINT
  5
150D
330
1504
100
AcDbEntity
  8
DEFPOINTS
  6
CONTINUOUS
 62
     0
100
AcDbPoint
 10
568.2922324154242
 20
-1848.978932467944
 30
0.0
  0
ENDBLK
  5
150F
330
1504
100
AcDbEntity
  8
0
100
AcDbBlockEnd
  0
BLOCK
  5
151B
330
1511
100
AcDbEntity
  8
0
100
AcDbBlockBegin
  2
*D13
 70
     1
 10
0.0
 20
0.0
 30
0.0
  3
*D13
  1

  0
LINE
  5
1512
330
1511
100
AcDbEntity
  8
SIZE
  6
CONTINUOUS
 62
     0
100
AcDbLine
 10
360.2922324154242
 20
-2043.972667774937
 30
0.0
 11
360.2922324154242
 21
-1698.875096822925
 31
0.0
  0
LINE
  5
1513
330
1511
100
AcDbEntity
  8
SIZE
  6
CONTINUOUS
 62
     0
100
AcDbLine
 10
629.2922324154242
 20
-2123.172639634937
 30
0.0
 11
629.2922324154242
 21
-1698.875096822925
 31
0.0
  0
LINE
  5
1514
330
1511
100
AcDbEntity
  8
SIZE
  6
CONTINUOUS
 62
     0
100
AcDbLine
 10
370.2922324154242
 20
-1728.875096822925
 30
0.0
 11
619.2922324154242
 21
-1728.875096822925
 31
0.0
  0
INSERT
  5
1515
330
1511
100
AcDbEntity
  8
SIZE
  6
CONTINUOUS
 62
     0
100
AcDbBlockReference
  2
_ORIGIN
 10
360.2922324154242
 20
-1728.875096822925
 30
0.0
 41
10.0
 42
10.0
 43
10.0
 50
180.0
  0
INSERT
  5
1516
330
1511
100
AcDbEntity
  8
SIZE
  6
CONTINUOUS
 62
     0
100
AcDbBlockReference
  2
_ORIGIN
 10
629.2922324154242
 20
-1728.875096822925
 30
0.0
 41
10.0
 42
10.0
 43
10.0
  0
MTEXT
  5
1517
330
1511
100
AcDbEntity
  8
SIZE
  6
CONTINUOUS
 62
     0
100
AcDbMText
 10
494.7922324154242
 20
-1686.875096822925
 30
0.0
 40
64.0
 41
0.0
 71
     5
 72
     1
  1
\A1;269
1001
ACAD
1000
MTEXTBEGIN
1070
    73
1070
     1
1070
    44
1040
1.0
1070
    74
1070
     0
1000
MTEXTEND
  0
POINT
  5
1518
330
1511
100
AcDbEntity
  8
DEFPOINTS
  6
CONTINUOUS
 62
     0
100
AcDbPoint
 10
360.2922324154242
 20
-2063.972667774936
 30
0.0
  0
POINT
  5
1519
330
1511
100
AcDbEntity
  8
DEFPOINTS
  6
CONTINUOUS
 62
     0
100
AcDbPoint
 10
629.2922324154242
 20
-2143.172639634937
 30
0.0
  0
POINT
  5
151A
330
1511
100
AcDbEntity
  8
DEFPOINTS
  6
CONTINUOUS
 62
     0
100
AcDbPoint
 10
629.2922324154242
 20
-1728.875096822925
 30
0.0
  0
ENDBLK
  5
151C
330
1511
100
AcDbEntity
  8
0
100
AcDbBlockEnd
  0
BLOCK
  5
1528
330
151E
100
AcDbEntity
  8
0
100
AcDbBlockBegin
  2
*D14
 70
     1
 10
0.0
 20
0.0
 30
0.0
  3
*D14
  1

  0
LINE
  5
151F
330
151E
100
AcDbEntity
  8
SIZE
  6
CONTINUOUS
 62
     0
100
AcDbLine
 10
435.2922324154242
 20
-2321.972667774936
 30
0.0
 11
1026.010969497627
 21
-2321.972667774937
 31
0.0
  0
LINE
  5
1520
330
151E
100
AcDbEntity
  8
SIZE
  6
CONTINUOUS
 62
     0
100
AcDbLine
 10
588.2922324154242
 20
-2104.972667774937
 30
0.0
 11
1026.010969497627
 21
-2104.972667774937
 31
0.0
  0
LINE
  5
1521
330
151E
100
AcDbEntity
  8
SIZE
  6
CONTINUOUS
 62
     0
100
AcDbLine
 10
996.0109694976271
 20
-2311.972667774937
 30
0.0
 11
996.0109694976273
 21
-2114.972667774936
 31
0.0
  0
INSERT
  5
1522
330
151E
100
AcDbEntity
  8
SIZE
  6
CONTINUOUS
 62
     0
100
AcDbBlockReference
  2
_ORIGIN
 10
996.0109694976271
 20
-2321.972667774936
 30
0.0
 41
10.0
 42
10.0
 43
10.0
 50
270.0
  0
INSERT
  5
1523
330
151E
100
AcDbEntity
  8
SIZE
  6
CONTINUOUS
 62
     0
100
AcDbBlockReference
  2
_ORIGIN
 10
996.0109694976273
 20
-2104.972667774937
 30
0.0
 41
10.0
 42
10.0
 43
10.0
 50
90.0
  0
MTEXT
  5
1524
330
151E
100
AcDbEntity
  8
SIZE
  6
CONTINUOUS
 62
     0
100
AcDbMText
 10
954.0109694976276
 20
-2213.472667774936
 30
0.0
 40
64.0
 41
0.0
 71
     5
 72
     1
  1
\A1;217
 11
0.0000000000000001
 21
1.0
 31
0.0
1001
ACAD
1000
MTEXTBEGIN
1070
    73
1070
     1
1070
    44
1040
1.0
1070
    74
1070
     0
1000
MTEXTEND
  0
POINT
  5
1525
330
151E
100
AcDbEntity
  8
DEFPOINTS
  6
CONTINUOUS
 62
     0
100
AcDbPoint
 10
415.2922324154242
 20
-2321.972667774936
 30
0.0
  0
POINT
  5
1526
330
151E
100
AcDbEntity
  8
DEFPOINTS
  6
CONTINUOUS
 62
     0
100
AcDbPoint
 10
568.2922324154242
 20
-2104.972667774937
 30
0.0
  0
POINT
  5
1527
330
151E
100
AcDbEntity
  8
DEFPOINTS
  6
CONTINUOUS
 62
     0
100
AcDbPoint
 10
996.0109694976273
 20
-2104.972667774937
 30
0.0
  0
ENDBLK
  5
1529
330
151E
100
AcDbEntity
  8
0
100
AcDbBlockEnd
  0
BLOCK
  5
1539
330
152F
100
AcDbEntity
  8
0
100
AcDbBlockBegin
  2
*D15
 70
     1
 10
0.0
 20
0.0
 30
0.0
  3
*D15
  1

  0
LINE
  5
153C
330
152F
100
AcDbEntity
  8
SIZE
  6
CONTINUOUS
 62
     0
100
AcDbLine
 10
2238.833197721665
 20
-2140.972667774936
 30
0.0
 11
1813.645638357884
 21
-2140.972667774936
 31
0.0
  0
LINE
  5
153D
330
152F
100
AcDbEntity
  8
SIZE
  6
CONTINUOUS
 62
     0
100
AcDbLine
 10
2029.833197721666
 20
-2321.972667774936
 30
0.0
 11
1813.645638357884
 21
-2321.972667774936
 31
0.0
  0
LINE
  5
153E
330
152F
100
AcDbEntity
  8
SIZE
  6
CONTINUOUS
 62
     0
100
AcDbLine
 10
1843.645638357884
 20
-2150.972667774936
 30
0.0
 11
1843.645638357884
 21
-2311.972667774937
 31
0.0
  0
INSERT
  5
153F
330
152F
100
AcDbEntity
  8
SIZE
  6
CONTINUOUS
 62
     0
100
AcDbBlockReference
  2
_ORIGIN
 10
1843.645638357884
 20
-2140.972667774936
 30
0.0
 41
10.0
 42
10.0
 43
10.0
 50
90.0
  0
INSERT
  5
1540
330
152F
100
AcDbEntity
  8
SIZE
  6
CONTINUOUS
 62
     0
100
AcDbBlockReference
  2
_ORIGIN
 10
1843.645638357884
 20
-2321.972667774936
 30
0.0
 41
10.0
 42
10.0
 43
10.0
 50
270.0
  0
MTEXT
  5
1541
330
152F
100
AcDbEntity
  8
SIZE
  6
CONTINUOUS
 62
     0
100
AcDbMText
 10
1801.645638357884
 20
-2231.472667774936
 30
0.0
 40
64.0
 41
0.0
 71
     5
 72
     1
  1
\A1;181
 11
0.0000000000000001
 21
1.0
 31
0.0
1001
ACAD
1000
MTEXTBEGIN
1070
    73
1070
     1
1070
    44
1040
1.0
1070
    74
1070
     0
1000
MTEXTEND
  0
POINT
  5
1542
330
152F
100
AcDbEntity
  8
DEFPOINTS
  6
CONTINUOUS
 62
     0
100
AcDbPoint
 10
2258.833197721665
 20
-2140.972667774936
 30
0.0
  0
POINT
  5
1543
330
152F
100
AcDbEntity
  8
DEFPOINTS
  6
CONTINUOUS
 62
     0
100
AcDbPoint
 10
2049.833197721665
 20
-2321.972667774936
 30
0.0
  0
POINT
  5
1544
330
152F
100
AcDbEntity
  8
DEFPOINTS
  6
CONTINUOUS
 62
     0
100
AcDbPoint
 10
1843.645638357884
 20
-2321.972667774936
 30
0.0
  0
ENDBLK
  5
153A
330
152F
100
AcDbEntity
  8
0
100
AcDbBlockEnd
  0
BLOCK
  5
1550
330
1546
100
AcDbEntity
  8
0
100
AcDbBlockBegin
  2
*D16
 70
     1
 10
0.0
 20
0.0
 30
0.0
  3
*D16
  1

  0
LINE
  5
1547
330
1546
100
AcDbEntity
  8
SIZE
  6
CONTINUOUS
 62
     0
100
AcDbLine
 10
2104.833197721665
 20
-2043.972667774937
 30
0.0
 11
2104.833197721665
 21
-1941.106657601052
 31
0.0
  0
LINE
  5
1548
330
1546
100
AcDbEntity
  8
SIZE
  6
CONTINUOUS
 62
     0
100
AcDbLine
 10
2278.833197721665
 20
-2100.972667774936
 30
0.0
 11
2278.833197721665
 21
-1941.106657601052
 31
0.0
  0
LINE
  5
1549
330
1546
100
AcDbEntity
  8
SIZE
  6
CONTINUOUS
 62
     0
100
AcDbLine
 10
2114.833197721665
 20
-1971.106657601052
 30
0.0
 11
2268.833197721665
 21
-1971.106657601052
 31
0.0
  0
INSERT
  5
154A
330
1546
100
AcDbEntity
  8
SIZE
  6
CONTINUOUS
 62
     0
100
AcDbBlockReference
  2
_ORIGIN
 10
2104.833197721665
 20
-1971.106657601052
 30
0.0
 41
10.0
 42
10.0
 43
10.0
 50
180.0
  0
INSERT
  5
154B
330
1546
100
AcDbEntity
  8
SIZE
  6
CONTINUOUS
 62
     0
100
AcDbBlockReference
  2
_ORIGIN
 10
2278.833197721665
 20
-1971.106657601052
 30
0.0
 41
10.0
 42
10.0
 43
10.0
  0
MTEXT
  5
154C
330
1546
100
AcDbEntity
  8
SIZE
  6
CONTINUOUS
 62
     0
100
AcDbMText
 10
2191.833197721666
 20
-1929.106657601052
 30
0.0
 40
64.0
 41
0.0
 71
     5
 72
     1
  1
\A1;174
1001
ACAD
1000
MTEXTBEGIN
1070
    73
1070
     1
1070
    44
1040
1.0
1070
    74
1070
     0
1000
MTEXTEND
  0
POINT
  5
154D
330
1546
100
AcDbEntity
  8
DEFPOINTS
  6
CONTINUOUS
 62
     0
100
AcDbPoint
 10
2104.833197721665
 20
-2063.972667774936
 30
0.0
  0
POINT
  5
154E
330
1546
100
AcDbEntity
  8
DEFPOINTS
  6
CONTINUOUS
 62
     0
100
AcDbPoint
 10
2278.833197721665
 20
-2120.972667774937
 30
0.0
  0
POINT
  5
154F
330
1546
100
AcDbEntity
  8
DEFPOINTS
  6
CONTINUOUS
 62
     0
100
AcDbPoint
 10
2278.833197721665
 20
-1971.106657601052
 30
0.0
  0
ENDBLK
  5
1551
330
1546
100
AcDbEntity
  8
0
100
AcDbBlockEnd
  0
BLOCK
  5
155E
330
1554
100
AcDbEntity
  8
0
100
AcDbBlockBegin
  2
*D17
 70
     1
 10
0.0
 20
0.0
 30
0.0
  3
*D17
  1

  0
LINE
  5
1555
330
1554
100
AcDbEntity
  8
SIZE
  6
CONTINUOUS
 62
     0
100
AcDbLine
 10
2334.833197721665
 20
-2084.972667774936
 30
0.0
 11
2334.833197721665
 21
-1834.295095998371
 31
0.0
  0
LINE
  5
1556
330
1554
100
AcDbEntity
  8
SIZE
  6
CONTINUOUS
 62
     0
100
AcDbLine
 10
2714.833197721667
 20
-2084.972667774937
 30
0.0
 11
2714.833197721667
 21
-1834.295095998371
 31
0.0
  0
LINE
  5
1557
330
1554
100
AcDbEntity
  8
SIZE
  6
CONTINUOUS
 62
     0
100
AcDbLine
 10
2344.833197721665
 20
-1864.295095998371
 30
0.0
 11
2704.833197721666
 21
-1864.295095998371
 31
0.0
  0
INSERT
  5
1558
330
1554
100
AcDbEntity
  8
SIZE
  6
CONTINUOUS
 62
     0
100
AcDbBlockReference
  2
_ORIGIN
 10
2334.833197721665
 20
-1864.295095998371
 30
0.0
 41
10.0
 42
10.0
 43
10.0
 50
180.0
  0
INSERT
  5
1559
330
1554
100
AcDbEntity
  8
SIZE
  6
CONTINUOUS
 62
     0
100
AcDbBlockReference
  2
_ORIGIN
 10
2714.833197721667
 20
-1864.295095998371
 30
0.0
 41
10.0
 42
10.0
 43
10.0
  0
MTEXT
  5
155A
330
1554
100
AcDbEntity
  8
SIZE
  6
CONTINUOUS
 62
     0
100
AcDbMText
 10
2524.833197721665
 20
-1822.295095998372
 30
0.0
 40
64.0
 41
0.0
 71
     5
 72
     1
  1
\A1;380
1001
ACAD
1000
MTEXTBEGIN
1070
    73
1070
     1
1070
    44
1040
1.0
1070
    74
1070
     0
1000
MTEXTEND
  0
POINT
  5
155B
330
1554
100
AcDbEntity
  8
DEFPOINTS
  6
CONTINUOUS
 62
     0
100
AcDbPoint
 10
2334.833197721665
 20
-2104.972667774936
 30
0.0
  0
POINT
  5
155C
330
1554
100
AcDbEntity
  8
DEFPOINTS
  6
CONTINUOUS
 62
     0
100
AcDbPoint
 10
2714.833197721667
 20
-2104.972667774937
 30
0.0
  0
POINT
  5
155D
330
1554
100
AcDbEntity
  8
DEFPOINTS
  6
CONTINUOUS
 62
     0
100
AcDbPoint
 10
2714.833197721667
 20
-1864.295095998371
 30
0.0
  0
ENDBLK
  5
155F
330
1554
100
AcDbEntity
  8
0
100
AcDbBlockEnd
  0
BLOCK
  5
156B
330
1561
100
AcDbEntity
  8
0
100
AcDbBlockBegin
  2
*D18
 70
     1
 10
0.0
 20
0.0
 30
0.0
  3
*D18
  1

  0
LINE
  5
1562
330
1561
100
AcDbEntity
  8
SIZE
  6
CONTINUOUS
 62
     0
100
AcDbLine
 10
2334.833197721665
 20
-2084.972667774936
 30
0.0
 11
2334.833197721665
 21
-1834.295095998371
 31
0.0
  0
LINE
  5
1563
330
1561
100
AcDbEntity
  8
SIZE
  6
CONTINUOUS
 62
     0
100
AcDbLine
 10
2104.833197721665
 20
-2043.972667774937
 30
0.0
 11
2104.833197721665
 21
-1834.295095998371
 31
0.0
  0
LINE
  5
1564
330
1561
100
AcDbEntity
  8
SIZE
  6
CONTINUOUS
 62
     0
100
AcDbLine
 10
2324.833197721665
 20
-1864.295095998371
 30
0.0
 11
2114.833197721665
 21
-1864.295095998371
 31
0.0
  0
INSERT
  5
1565
330
1561
100
AcDbEntity
  8
SIZE
  6
CONTINUOUS
 62
     0
100
AcDbBlockReference
  2
_ORIGIN
 10
2334.833197721665
 20
-1864.295095998371
 30
0.0
 41
10.0
 42
10.0
 43
10.0
  0
INSERT
  5
1566
330
1561
100
AcDbEntity
  8
SIZE
  6
CONTINUOUS
 62
     0
100
AcDbBlockReference
  2
_ORIGIN
 10
2104.833197721665
 20
-1864.295095998371
 30
0.0
 41
10.0
 42
10.0
 43
10.0
 50
180.0
  0
MTEXT
  5
1567
330
1561
100
AcDbEntity
  8
SIZE
  6
CONTINUOUS
 62
     0
100
AcDbMText
 10
2219.833197721665
 20
-1822.295095998372
 30
0.0
 40
64.0
 41
0.0
 71
     5
 72
     1
  1
\A1;230
1001
ACAD
1000
MTEXTBEGIN
1070
    73
1070
     1
1070
    44
1040
1.0
1070
    74
1070
     0
1000
MTEXTEND
  0
POINT
  5
1568
330
1561
100
AcDbEntity
  8
DEFPOINTS
  6
CONTINUOUS
 62
     0
100
AcDbPoint
 10
2334.833197721665
 20
-2104.972667774936
 30
0.0
  0
POINT
  5
1569
330
1561
100
AcDbEntity
  8
DEFPOINTS
  6
CONTINUOUS
 62
     0
100
AcDbPoint
 10
2104.833197721665
 20
-2063.972667774936
 30
0.0
  0
POINT
  5
156A
330
1561
100
AcDbEntity
  8
DEFPOINTS
  6
CONTINUOUS
 62
     0
100
AcDbPoint
 10
2104.833197721665
 20
-1864.295095998371
 30
0.0
  0
ENDBLK
  5
156C
330
1561
100
AcDbEntity
  8
0
100
AcDbBlockEnd
  0
BLOCK
  5
158B
330
157F
100
AcDbEntity
  8
0
100
AcDbBlockBegin
  2
*D19
 70
     1
 10
0.0
 20
0.0
 30
0.0
  3
*D19
  1

  0
LINE
  5
1580
330
157F
100
AcDbEntity
  8
SIZE
  6
CONTINUOUS
 62
     0
100
AcDbLine
 10
3019.833197721665
 20
-2321.972667774936
 30
0.0
 11
3187.118480783669
 21
-2321.972667774937
 31
0.0
  0
LINE
  5
1581
330
157F
100
AcDbEntity
  8
SIZE
  6
CONTINUOUS
 62
     0
100
AcDbLine
 10
2734.833197721666
 20
-2236.972708274936
 30
0.0
 11
3187.118480783669
 21
-2236.972708274936
 31
0.0
  0
LINE
  5
1582
330
157F
100
AcDbEntity
  8
SIZE
  6
CONTINUOUS
 62
     0
100
AcDbLine
 10
3157.118480783669
 20
-2331.972667774937
 30
0.0
 11
3157.118480783669
 21
-2341.972667774937
 31
0.0
  0
LINE
  5
1583
330
157F
100
AcDbEntity
  8
SIZE
  6
CONTINUOUS
 62
     0
100
AcDbLine
 10
3157.118480783669
 20
-2226.972708274936
 30
0.0
 11
3157.118480783669
 21
-2216.972708274937
 31
0.0
  0
LINE
  5
1584
330
157F
100
AcDbEntity
  8
SIZE
  6
CONTINUOUS
 62
     0
100
AcDbLine
 10
3157.118480783669
 20
-2321.972667774937
 30
0.0
 11
3157.118480783669
 21
-2236.972708274936
 31
0.0
  0
INSERT
  5
1585
330
157F
100
AcDbEntity
  8
SIZE
  6
CONTINUOUS
 62
     0
100
AcDbBlockReference
  2
_ORIGIN
 10
3157.118480783669
 20
-2321.972667774937
 30
0.0
 41
10.0
 42
10.0
 43
10.0
 50
90.0
  0
INSERT
  5
1586
330
157F
100
AcDbEntity
  8
SIZE
  6
CONTINUOUS
 62
     0
100
AcDbBlockReference
  2
_ORIGIN
 10
3157.118480783669
 20
-2236.972708274936
 30
0.0
 41
10.0
 42
10.0
 43
10.0
 50
270.0
  0
MTEXT
  5
1587
330
157F
100
AcDbEntity
  8
SIZE
  6
CONTINUOUS
 62
     0
100
AcDbMText
 10
3115.118480783669
 20
-2279.472688024936
 30
0.0
 40
64.0
 41
0.0
 71
     5
 72
     1
  1
\A1;85
 11
0.0000000000000001
 21
1.0
 31
0.0
1001
ACAD
1000
MTEXTBEGIN
1070
    73
1070
     1
1070
    44
1040
1.0
1070
    74
1070
     0
1000
MTEXTEND
  0
POINT
  5
1588
330
157F
100
AcDbEntity
  8
DEFPOINTS
  6
CONTINUOUS
 62
     0
100
AcDbPoint
 10
2999.833197721665
 20
-2321.972667774936
 30
0.0
  0
POINT
  5
1589
330
157F
100
AcDbEntity
  8
DEFPOINTS
  6
CONTINUOUS
 62
     0
100
AcDbPoint
 10
2714.833197721667
 20
-2236.972708274936
 30
0.0
  0
POINT
  5
158A
330
157F
100
AcDbEntity
  8
DEFPOINTS
  6
CONTINUOUS
 62
     0
100
AcDbPoint
 10
3157.118480783669
 20
-2236.972708274936
 30
0.0
  0
ENDBLK
  5
158C
330
157F
100
AcDbEntity
  8
0
100
AcDbBlockEnd
  0
BLOCK
  5
1598
330
158E
100
AcDbEntity
  8
0
100
AcDbBlockBegin
  2
*D20
 70
     1
 10
0.0
 20
0.0
 30
0.0
  3
*D20
  1

  0
LINE
  5
158F
330
158E
100
AcDbEntity
  8
SIZE
  6
CONTINUOUS
 62
     0
100
AcDbLine
 10
3019.833197721665
 20
-2321.972667774936
 30
0.0
 11
3311.124258572155
 21
-2321.972667774937
 31
0.0
  0
LINE
  5
1590
330
158E
100
AcDbEntity
  8
SIZE
  6
CONTINUOUS
 62
     0
100
AcDbLine
 10
2734.833197721666
 20
-2104.972667774937
 30
0.0
 11
3311.124258572155
 21
-2104.972667774937
 31
0.0
  0
LINE
  5
1591
330
158E
100
AcDbEntity
  8
SIZE
  6
CONTINUOUS
 62
     0
100
AcDbLine
 10
3281.124258572155
 20
-2311.972667774937
 30
0.0
 11
3281.124258572155
 21
-2114.972667774937
 31
0.0
  0
INSERT
  5
1592
330
158E
100
AcDbEntity
  8
SIZE
  6
CONTINUOUS
 62
     0
100
AcDbBlockReference
  2
_ORIGIN
 10
3281.124258572155
 20
-2321.972667774937
 30
0.0
 41
10.0
 42
10.0
 43
10.0
 50
270.0
  0
INSERT
  5
1593
330
158E
100
AcDbEntity
  8
SIZE
  6
CONTINUOUS
 62
     0
100
AcDbBlockReference
  2
_ORIGIN
 10
3281.124258572155
 20
-2104.972667774937
 30
0.0
 41
10.0
 42
10.0
 43
10.0
 50
90.0
  0
MTEXT
  5
1594
330
158E
100
AcDbEntity
  8
SIZE
  6
CONTINUOUS
 62
     0
100
AcDbMText
 10
3239.124258572156
 20
-2213.472667774936
 30
0.0
 40
64.0
 41
0.0
 71
     5
 72
     1
  1
\A1;217
 11
0.0000000000000001
 21
1.0
 31
0.0
1001
ACAD
1000
MTEXTBEGIN
1070
    73
1070
     1
1070
    44
1040
1.0
1070
    74
1070
     0
1000
MTEXTEND
  0
POINT
  5
1595
330
158E
100
AcDbEntity
  8
DEFPOINTS
  6
CONTINUOUS
 62
     0
100
AcDbPoint
 10
2999.833197721665
 20
-2321.972667774936
 30
0.0
  0
POINT
  5
1596
330
158E
100
AcDbEntity
  8
DEFPOINTS
  6
CONTINUOUS
 62
     0
100
AcDbPoint
 10
2714.833197721667
 20
-2104.972667774937
 30
0.0
  0
POINT
  5
1597
330
158E
100
AcDbEntity
  8
DEFPOINTS
  6
CONTINUOUS
 62
     0
100
AcDbPoint
 10
3281.124258572155
 20
-2104.972667774937
 30
0.0
  0
ENDBLK
  5
1599
330
158E
100
AcDbEntity
  8
0
100
AcDbBlockEnd
  0
BLOCK
  5
15A9
330
159F
100
AcDbEntity
  8
0
100
AcDbBlockBegin
  2
*D21
 70
     1
 10
0.0
 20
0.0
 30
0.0
  3
*D21
  1

  0
LINE
  5
15A0
330
159F
100
AcDbEntity
  8
SIZE
  6
CONTINUOUS
 62
     0
100
AcDbLine
 10
4325.66028081101
 20
-2043.972667774937
 30
0.0
 11
4325.66028081101
 21
-1974.825816859098
 31
0.0
  0
LINE
  5
15A1
330
159F
100
AcDbEntity
  8
SIZE
  6
CONTINUOUS
 62
     0
100
AcDbLine
 10
4117.660280811011
 20
-2084.972667774937
 30
0.0
 11
4117.660280811011
 21
-1974.825816859098
 31
0.0
  0
LINE
  5
15A2
330
159F
100
AcDbEntity
  8
SIZE
  6
CONTINUOUS
 62
     0
100
AcDbLine
 10
4315.660280811011
 20
-2004.825816859098
 30
0.0
 11
4127.660280811011
 21
-2004.825816859098
 31
0.0
  0
INSERT
  5
15A3
330
159F
100
AcDbEntity
  8
SIZE
  6
CONTINUOUS
 62
     0
100
AcDbBlockReference
  2
_ORIGIN
 10
4325.66028081101
 20
-2004.825816859098
 30
0.0
 41
10.0
 42
10.0
 43
10.0
  0
INSERT
  5
15A4
330
159F
100
AcDbEntity
  8
SIZE
  6
CONTINUOUS
 62
     0
100
AcDbBlockReference
  2
_ORIGIN
 10
4117.660280811011
 20
-2004.825816859098
 30
0.0
 41
10.0
 42
10.0
 43
10.0
 50
180.0
  0
MTEXT
  5
15A5
330
159F
100
AcDbEntity
  8
SIZE
  6
CONTINUOUS
 62
     0
100
AcDbMText
 10
4221.66028081101
 20
-1962.825816859098
 30
0.0
 40
64.0
 41
0.0
 71
     5
 72
     1
  1
\A1;208
1001
ACAD
1000
MTEXTBEGIN
1070
    73
1070
     1
1070
    44
1040
1.0
1070
    74
1070
     0
1000
MTEXTEND
  0
POINT
  5
15A6
330
159F
100
AcDbEntity
  8
DEFPOINTS
  6
CONTINUOUS
 62
     0
100
AcDbPoint
 10
4325.66028081101
 20
-2063.972667774936
 30
0.0
  0
POINT
  5
15A7
330
159F
100
AcDbEntity
  8
DEFPOINTS
  6
CONTINUOUS
 62
     0
100
AcDbPoint
 10
4117.660280811011
 20
-2104.972667774937
 30
0.0
  0
POINT
  5
15A8
330
159F
100
AcDbEntity
  8
DEFPOINTS
  6
CONTINUOUS
 62
     0
100
AcDbPoint
 10
4117.660280811011
 20
-2004.825816859098
 30
0.0
  0
ENDBLK
  5
15AA
330
159F
100
AcDbEntity
  8
0
100
AcDbBlockEnd
  0
BLOCK
  5
15B6
330
15AC
100
AcDbEntity
  8
0
100
AcDbBlockBegin
  2
*D22
 70
     1
 10
0.0
 20
0.0
 30
0.0
  3
*D22
  1

  0
LINE
  5
15AD
330
15AC
100
AcDbEntity
  8
SIZE
  6
CONTINUOUS
 62
     0
100
AcDbLine
 10
4325.66028081101
 20
-2043.972667774937
 30
0.0
 11
4325.66028081101
 21
-1845.565273827018
 31
0.0
  0
LINE
  5
15AE
330
15AC
100
AcDbEntity
  8
SIZE
  6
CONTINUOUS
 62
     0
100
AcDbLine
 10
4056.660280811011
 20
-2123.172639634937
 30
0.0
 11
4056.660280811011
 21
-1845.565273827018
 31
0.0
  0
LINE
  5
15AF
330
15AC
100
AcDbEntity
  8
SIZE
  6
CONTINUOUS
 62
     0
100
AcDbLine
 10
4315.660280811011
 20
-1875.565273827018
 30
0.0
 11
4066.660280811011
 21
-1875.565273827018
 31
0.0
  0
INSERT
  5
15B0
330
15AC
100
AcDbEntity
  8
SIZE
  6
CONTINUOUS
 62
     0
100
AcDbBlockReference
  2
_ORIGIN
 10
4325.66028081101
 20
-1875.565273827018
 30
0.0
 41
10.0
 42
10.0
 43
10.0
  0
INSERT
  5
15B1
330
15AC
100
AcDbEntity
  8
SIZE
  6
CONTINUOUS
 62
     0
100
AcDbBlockReference
  2
_ORIGIN
 10
4056.660280811011
 20
-1875.565273827018
 30
0.0
 41
10.0
 42
10.0
 43
10.0
 50
180.0
  0
MTEXT
  5
15B2
330
15AC
100
AcDbEntity
  8
SIZE
  6
CONTINUOUS
 62
     0
100
AcDbMText
 10
4191.16028081101
 20
-1833.565273827018
 30
0.0
 40
64.0
 41
0.0
 71
     5
 72
     1
  1
\A1;269
1001
ACAD
1000
MTEXTBEGIN
1070
    73
1070
     1
1070
    44
1040
1.0
1070
    74
1070
     0
1000
MTEXTEND
  0
POINT
  5
15B3
330
15AC
100
AcDbEntity
  8
DEFPOINTS
  6
CONTINUOUS
 62
     0
100
AcDbPoint
 10
4325.66028081101
 20
-2063.972667774936
 30
0.0
  0
POINT
  5
15B4
330
15AC
100
AcDbEntity
  8
DEFPOINTS
  6
CONTINUOUS
 62
     0
100
AcDbPoint
 10
4056.660280811011
 20
-2143.172639634937
 30
0.0
  0
POINT
  5
15B5
330
15AC
100
AcDbEntity
  8
DEFPOINTS
  6
CONTINUOUS
 62
     0
100
AcDbPoint
 10
4056.660280811011
 20
-1875.565273827018
 30
0.0
  0
ENDBLK
  5
15B7
330
15AC
100
AcDbEntity
  8
0
100
AcDbBlockEnd
  0
BLOCK
  5
15C5
330
15B9
100
AcDbEntity
  8
0
100
AcDbBlockBegin
  2
*D23
 70
     1
 10
0.0
 20
0.0
 30
0.0
  3
*D23
  1

  0
LINE
  5
15BA
330
15B9
100
AcDbEntity
  8
SIZE
  6
CONTINUOUS
 62
     0
100
AcDbLine
 10
4250.66028081101
 20
-2321.972667774936
 30
0.0
 11
3961.463977945292
 21
-2321.972667774936
 31
0.0
  0
LINE
  5
15BB
330
15B9
100
AcDbEntity
  8
SIZE
  6
CONTINUOUS
 62
     0
100
AcDbLine
 10
4097.660280811011
 20
-2236.972667774936
 30
0.0
 11
3961.463977945292
 21
-2236.972667774936
 31
0.0
  0
LINE
  5
15BC
330
15B9
100
AcDbEntity
  8
SIZE
  6
CONTINUOUS
 62
     0
100
AcDbLine
 10
3991.463977945292
 20
-2331.972667774937
 30
0.0
 11
3991.463977945292
 21
-2341.972667774936
 31
0.0
  0
LINE
  5
15BD
330
15B9
100
AcDbEntity
  8
SIZE
  6
CONTINUOUS
 62
     0
100
AcDbLine
 10
3991.463977945292
 20
-2226.972667774937
 30
0.0
 11
3991.463977945292
 21
-2216.972667774936
 31
0.0
  0
LINE
  5
15BE
330
15B9
100
AcDbEntity
  8
SIZE
  6
CONTINUOUS
 62
     0
100
AcDbLine
 10
3991.463977945292
 20
-2321.972667774936
 30
0.0
 11
3991.463977945292
 21
-2236.972667774936
 31
0.0
  0
INSERT
  5
15BF
330
15B9
100
AcDbEntity
  8
SIZE
  6
CONTINUOUS
 62
     0
100
AcDbBlockReference
  2
_ORIGIN
 10
3991.463977945292
 20
-2321.972667774936
 30
0.0
 41
10.0
 42
10.0
 43
10.0
 50
90.0
  0
INSERT
  5
15C0
330
15B9
100
AcDbEntity
  8
SIZE
  6
CONTINUOUS
 62
     0
100
AcDbBlockReference
  2
_ORIGIN
 10
3991.463977945292
 20
-2236.972667774936
 30
0.0
 41
10.0
 42
10.0
 43
10.0
 50
270.0
  0
MTEXT
  5
15C1
330
15B9
100
AcDbEntity
  8
SIZE
  6
CONTINUOUS
 62
     0
100
AcDbMText
 10
3949.463977945292
 20
-2279.472667774936
 30
0.0
 40
64.0
 41
0.0
 71
     5
 72
     1
  1
\A1;85
 11
0.0000000000000001
 21
1.0
 31
0.0
1001
ACAD
1000
MTEXTBEGIN
1070
    73
1070
     1
1070
    44
1040
1.0
1070
    74
1070
     0
1000
MTEXTEND
  0
POINT
  5
15C2
330
15B9
100
AcDbEntity
  8
DEFPOINTS
  6
CONTINUOUS
 62
     0
100
AcDbPoint
 10
4270.660280811011
 20
-2321.972667774936
 30
0.0
  0
POINT
  5
15C3
330
15B9
100
AcDbEntity
  8
DEFPOINTS
  6
CONTINUOUS
 62
     0
100
AcDbPoint
 10
4117.660280811011
 20
-2236.972667774936
 30
0.0
  0
POINT
  5
15C4
330
15B9
100
AcDbEntity
  8
DEFPOINTS
  6
CONTINUOUS
 62
     0
100
AcDbPoint
 10
3991.463977945292
 20
-2236.972667774936
 30
0.0
  0
ENDBLK
  5
15C6
330
15B9
100
AcDbEntity
  8
0
100
AcDbBlockEnd
  0
BLOCK
  5
15D2
330
15C8
100
AcDbEntity
  8
0
100
AcDbBlockBegin
  2
*D24
 70
     1
 10
0.0
 20
0.0
 30
0.0
  3
*D24
  1

  0
LINE
  5
15C9
330
15C8
100
AcDbEntity
  8
SIZE
  6
CONTINUOUS
 62
     0
100
AcDbLine
 10
4250.66028081101
 20
-2321.972667774936
 30
0.0
 11
3824.355861777388
 21
-2321.972667774936
 31
0.0
  0
LINE
  5
15CA
330
15C8
100
AcDbEntity
  8
SIZE
  6
CONTINUOUS
 62
     0
100
AcDbLine
 10
4097.660280811011
 20
-2104.972667774937
 30
0.0
 11
3824.355861777388
 21
-2104.972667774937
 31
0.0
  0
LINE
  5
15CB
330
15C8
100
AcDbEntity
  8
SIZE
  6
CONTINUOUS
 62
     0
100
AcDbLine
 10
3854.355861777388
 20
-2311.972667774937
 30
0.0
 11
3854.355861777388
 21
-2114.972667774936
 31
0.0
  0
INSERT
  5
15CC
330
15C8
100
AcDbEntity
  8
SIZE
  6
CONTINUOUS
 62
     0
100
AcDbBlockReference
  2
_ORIGIN
 10
3854.355861777388
 20
-2321.972667774936
 30
0.0
 41
10.0
 42
10.0
 43
10.0
 50
270.0
  0
INSERT
  5
15CD
330
15C8
100
AcDbEntity
  8
SIZE
  6
CONTINUOUS
 62
     0
100
AcDbBlockReference
  2
_ORIGIN
 10
3854.355861777388
 20
-2104.972667774937
 30
0.0
 41
10.0
 42
10.0
 43
10.0
 50
90.0
  0
MTEXT
  5
15CE
330
15C8
100
AcDbEntity
  8
SIZE
  6
CONTINUOUS
 62
     0
100
AcDbMText
 10
3812.355861777389
 20
-2213.472667774936
 30
0.0
 40
64.0
 41
0.0
 71
     5
 72
     1
  1
\A1;217
 11
0.0000000000000001
 21
1.0
 31
0.0
1001
ACAD
1000
MTEXTBEGIN
1070
    73
1070
     1
1070
    44
1040
1.0
1070
    74
1070
     0
1000
MTEXTEND
  0
POINT
  5
15CF
330
15C8
100
AcDbEntity
  8
DEFPOINTS
  6
CONTINUOUS
 62
     0
100
AcDbPoint
 10
4270.660280811011
 20
-2321.972667774936
 30
0.0
  0
POINT
  5
15D0
330
15C8
100
AcDbEntity
  8
DEFPOINTS
  6
CONTINUOUS
 62
     0
100
AcDbPoint
 10
4117.660280811011
 20
-2104.972667774937
 30
0.0
  0
POINT
  5
15D1
330
15C8
100
AcDbEntity
  8
DEFPOINTS
  6
CONTINUOUS
 62
     0
100
AcDbPoint
 10
3854.355861777388
 20
-2104.972667774937
 30
0.0
  0
ENDBLK
  5
15D3
330
15C8
100
AcDbEntity
  8
0
100
AcDbBlockEnd
  0
BLOCK
  5
15E2
330
15D8
100
AcDbEntity
  8
0
100
AcDbBlockBegin
  2
*D25
 70
     1
 10
0.0
 20
0.0
 30
0.0
  3
*D25
  1

  0
LINE
  5
15D9
330
15D8
100
AcDbEntity
  8
SIZE
  6
CONTINUOUS
 62
     0
100
AcDbLine
 10
415.2922324154242
 20
-4319.604974414746
 30
0.0
 11
415.2922324154242
 21
-4629.47699625831
 31
0.0
  0
LINE
  5
15DA
330
15D8
100
AcDbEntity
  8
SIZE
  6
CONTINUOUS
 62
     0
100
AcDbLine
 10
629.2821900354638
 20
-4017.405020254746
 30
0.0
 11
629.2821900354638
 21
-4629.47699625831
 31
0.0
  0
LINE
  5
15DB
330
15D8
100
AcDbEntity
  8
SIZE
  6
CONTINUOUS
 62
     0
100
AcDbLine
 10
425.2922324154241
 20
-4599.47699625831
 30
0.0
 11
619.2821900354638
 21
-4599.47699625831
 31
0.0
  0
INSERT
  5
15DC
330
15D8
100
AcDbEntity
  8
SIZE
  6
CONTINUOUS
 62
     0
100
AcDbBlockReference
  2
_ORIGIN
 10
415.2922324154242
 20
-4599.47699625831
 30
0.0
 41
10.0
 42
10.0
 43
10.0
 50
180.0
  0
INSERT
  5
15DD
330
15D8
100
AcDbEntity
  8
SIZE
  6
CONTINUOUS
 62
     0
100
AcDbBlockReference
  2
_ORIGIN
 10
629.2821900354638
 20
-4599.47699625831
 30
0.0
 41
10.0
 42
10.0
 43
10.0
  0
MTEXT
  5
15DE
330
15D8
100
AcDbEntity
  8
SIZE
  6
CONTINUOUS
 62
     0
100
AcDbMText
 10
522.287211225444
 20
-4557.47699625831
 30
0.0
 40
64.0
 41
0.0
 71
     5
 72
     1
  1
\A1;214
1001
ACAD
1000
MTEXTBEGIN
1070
    73
1070
     1
1070
    44
1040
1.0
1070
    74
1070
     0
1000
MTEXTEND
  0
POINT
  5
15DF
330
15D8
100
AcDbEntity
  8
DEFPOINTS
  6
CONTINUOUS
 62
     0
100
AcDbPoint
 10
415.2922324154242
 20
-4299.604974414745
 30
0.0
  0
POINT
  5
15E0
330
15D8
100
AcDbEntity
  8
DEFPOINTS
  6
CONTINUOUS
 62
     0
100
AcDbPoint
 10
629.2821900354638
 20
-3997.405020254745
 30
0.0
  0
POINT
  5
15E1
330
15D8
100
AcDbEntity
  8
DEFPOINTS
  6
CONTINUOUS
 62
     0
100
AcDbPoint
 10
629.2821900354638
 20
-4599.47699625831
 30
0.0
  0
ENDBLK
  5
15E3
330
15D8
100
AcDbEntity
  8
0
100
AcDbBlockEnd
  0
BLOCK
  5
15F1
330
15E5
100
AcDbEntity
  8
0
100
AcDbBlockBegin
  2
*D26
 70
     1
 10
0.0
 20
0.0
 30
0.0
  3
*D26
  1

  0
LINE
  5
15E6
330
15E5
100
AcDbEntity
  8
SIZE
  6
CONTINUOUS
 62
     0
100
AcDbLine
 10
415.2922324154242
 20
-4319.604974414746
 30
0.0
 11
415.2922324154242
 21
-4482.68562527337
 31
0.0
  0
LINE
  5
15E7
330
15E5
100
AcDbEntity
  8
SIZE
  6
CONTINUOUS
 62
     0
100
AcDbLine
 10
568.2922324154242
 20
-4054.604974414746
 30
0.0
 11
568.2922324154242
 21
-4482.68562527337
 31
0.0
  0
LINE
  5
15E8
330
15E5
100
AcDbEntity
  8
SIZE
  6
CONTINUOUS
 62
     0
100
AcDbLine
 10
405.2922324154242
 20
-4452.68562527337
 30
0.0
 11
395.2922324154242
 21
-4452.68562527337
 31
0.0
  0
LINE
  5
15E9
330
15E5
100
AcDbEntity
  8
SIZE
  6
CONTINUOUS
 62
     0
100
AcDbLine
 10
578.2922324154242
 20
-4452.68562527337
 30
0.0
 11
588.2922324154242
 21
-4452.68562527337
 31
0.0
  0
LINE
  5
15EA
330
15E5
100
AcDbEntity
  8
SIZE
  6
CONTINUOUS
 62
     0
100
AcDbLine
 10
415.2922324154242
 20
-4452.68562527337
 30
0.0
 11
568.2922324154242
 21
-4452.68562527337
 31
0.0
  0
INSERT
  5
15EB
330
15E5
100
AcDbEntity
  8
SIZE
  6
CONTINUOUS
 62
     0
100
AcDbBlockReference
  2
_ORIGIN
 10
415.2922324154242
 20
-4452.68562527337
 30
0.0
 41
10.0
 42
10.0
 43
10.0
  0
INSERT
  5
15EC
330
15E5
100
AcDbEntity
  8
SIZE
  6
CONTINUOUS
 62
     0
100
AcDbBlockReference
  2
_ORIGIN
 10
568.2922324154242
 20
-4452.68562527337
 30
0.0
 41
10.0
 42
10.0
 43
10.0
 50
180.0
  0
MTEXT
  5
15ED
330
15E5
100
AcDbEntity
  8
SIZE
  6
CONTINUOUS
 62
     0
100
AcDbMText
 10
491.7922324154242
 20
-4410.68562527337
 30
0.0
 40
64.0
 41
0.0
 71
     5
 72
     1
  1
\A1;153
1001
ACAD
1000
MTEXTBEGIN
1070
    73
1070
     1
1070
    44
1040
1.0
1070
    74
1070
     0
1000
MTEXTEND
  0
POINT
  5
15EE
330
15E5
100
AcDbEntity
  8
DEFPOINTS
  6
CONTINUOUS
 62
     0
100
AcDbPoint
 10
415.2922324154242
 20
-4299.604974414745
 30
0.0
  0
POINT
  5
15EF
330
15E5
100
AcDbEntity
  8
DEFPOINTS
  6
CONTINUOUS
 62
     0
100
AcDbPoint
 10
568.2922324154242
 20
-4034.604974414746
 30
0.0
  0
POINT
  5
15F0
330
15E5
100
AcDbEntity
  8
DEFPOINTS
  6
CONTINUOUS
 62
     0
100
AcDbPoint
 10
568.2922324154242
 20
-4452.68562527337
 30
0.0
  0
ENDBLK
  5
15F2
330
15E5
100
AcDbEntity
  8
0
100
AcDbBlockEnd
  0
BLOCK
  5
1600
330
15F6
100
AcDbEntity
  8
0
100
AcDbBlockBegin
  2
*D27
 70
     1
 10
0.0
 20
0.0
 30
0.0
  3
*D27
  1

  0
LINE
  5
15F7
330
15F6
100
AcDbEntity
  8
SIZE
  6
CONTINUOUS
 62
     0
100
AcDbLine
 10
588.2922324154242
 20
-3654.604974414746
 30
0.0
 11
776.3661416103933
 21
-3654.604974414746
 31
0.0
  0
LINE
  5
15F8
330
15F6
100
AcDbEntity
  8
SIZE
  6
CONTINUOUS
 62
     0
100
AcDbLine
 10
588.2922324154242
 20
-4034.604974414746
 30
0.0
 11
776.3661416103932
 21
-4034.604974414746
 31
0.0
  0
LINE
  5
15F9
330
15F6
100
AcDbEntity
  8
SIZE
  6
CONTINUOUS
 62
     0
100
AcDbLine
 10
746.3661416103933
 20
-3664.604974414746
 30
0.0
 11
746.3661416103932
 21
-4024.604974414746
 31
0.0
  0
INSERT
  5
15FA
330
15F6
100
AcDbEntity
  8
SIZE
  6
CONTINUOUS
 62
     0
100
AcDbBlockReference
  2
_ORIGIN
 10
746.3661416103933
 20
-3654.604974414746
 30
0.0
 41
10.0
 42
10.0
 43
10.0
 50
90.0
  0
INSERT
  5
15FB
330
15F6
100
AcDbEntity
  8
SIZE
  6
CONTINUOUS
 62
     0
100
AcDbBlockReference
  2
_ORIGIN
 10
746.3661416103932
 20
-4034.604974414746
 30
0.0
 41
10.0
 42
10.0
 43
10.0
 50
270.0
  0
MTEXT
  5
15FC
330
15F6
100
AcDbEntity
  8
SIZE
  6
CONTINUOUS
 62
     0
100
AcDbMText
 10
704.3661416103939
 20
-3844.604974414746
 30
0.0
 40
64.0
 41
0.0
 71
     5
 72
     1
  1
\A1;380
 11
0.0000000000000001
 21
1.0
 31
0.0
1001
ACAD
1000
MTEXTBEGIN
1070
    73
1070
     1
1070
    44
1040
1.0
1070
    74
1070
     0
1000
MTEXTEND
  0
POINT
  5
15FD
330
15F6
100
AcDbEntity
  8
DEFPOINTS
  6
CONTINUOUS
 62
     0
100
AcDbPoint
 10
568.2922324154242
 20
-3654.604974414746
 30
0.0
  0
POINT
  5
15FE
330
15F6
100
AcDbEntity
  8
DEFPOINTS
  6
CONTINUOUS
 62
     0
100
AcDbPoint
 10
568.2922324154242
 20
-4034.604974414746
 30
0.0
  0
POINT
  5
15FF
330
15F6
100
AcDbEntity
  8
DEFPOINTS
  6
CONTINUOUS
 62
     0
100
AcDbPoint
 10
746.3661416103932
 20
-4034.604974414746
 30
0.0
  0
ENDBLK
  5
1601
330
15F6
100
AcDbEntity
  8
0
100
AcDbBlockEnd
  0
BLOCK
  5
160D
330
1603
100
AcDbEntity
  8
0
100
AcDbBlockBegin
  2
*D28
 70
     1
 10
0.0
 20
0.0
 30
0.0
  3
*D28
  1

  0
LINE
  5
1604
330
1603
100
AcDbEntity
  8
SIZE
  6
CONTINUOUS
 62
     0
100
AcDbLine
 10
415.2922324154242
 20
-4319.604974414746
 30
0.0
 11
776.3661416103932
 21
-4319.604974414746
 31
0.0
  0
LINE
  5
1605
330
1603
100
AcDbEntity
  8
SIZE
  6
CONTINUOUS
 62
     0
100
AcDbLine
 10
588.2922324154242
 20
-4034.604974414746
 30
0.0
 11
776.3661416103932
 21
-4034.604974414746
 31
0.0
  0
LINE
  5
1606
330
1603
100
AcDbEntity
  8
SIZE
  6
CONTINUOUS
 62
     0
100
AcDbLine
 10
746.3661416103932
 20
-4309.604974414745
 30
0.0
 11
746.3661416103932
 21
-4044.604974414746
 31
0.0
  0
INSERT
  5
1607
330
1603
100
AcDbEntity
  8
SIZE
  6
CONTINUOUS
 62
     0
100
AcDbBlockReference
  2
_ORIGIN
 10
746.3661416103932
 20
-4319.604974414746
 30
0.0
 41
10.0
 42
10.0
 43
10.0
 50
270.0
  0
INSERT
  5
1608
330
1603
100
AcDbEntity
  8
SIZE
  6
CONTINUOUS
 62
     0
100
AcDbBlockReference
  2
_ORIGIN
 10
746.3661416103932
 20
-4034.604974414746
 30
0.0
 41
10.0
 42
10.0
 43
10.0
 50
90.0
  0
MTEXT
  5
1609
330
1603
100
AcDbEntity
  8
SIZE
  6
CONTINUOUS
 62
     0
100
AcDbMText
 10
704.3661416103939
 20
-4177.104974414746
 30
0.0
 40
64.0
 41
0.0
 71
     5
 72
     1
  1
\A1;285
 11
0.0000000000000001
 21
1.0
 31
0.0
1001
ACAD
1000
MTEXTBEGIN
1070
    73
1070
     1
1070
    44
1040
1.0
1070
    74
1070
     0
1000
MTEXTEND
  0
POINT
  5
160A
330
1603
100
AcDbEntity
  8
DEFPOINTS
  6
CONTINUOUS
 62
     0
100
AcDbPoint
 10
395.2922324154242
 20
-4319.604974414746
 30
0.0
  0
POINT
  5
160B
330
1603
100
AcDbEntity
  8
DEFPOINTS
  6
CONTINUOUS
 62
     0
100
AcDbPoint
 10
568.2922324154242
 20
-4034.604974414746
 30
0.0
  0
POINT
  5
160C
330
1603
100
AcDbEntity
  8
DEFPOINTS
  6
CONTINUOUS
 62
     0
100
AcDbPoint
 10
746.3661416103932
 20
-4034.604974414746
 30
0.0
  0
ENDBLK
  5
160E
330
1603
100
AcDbEntity
  8
0
100
AcDbBlockEnd
  0
BLOCK
  5
165C
330
1650
100
AcDbEntity
  8
0
100
AcDbBlockBegin
  2
*D29
 70
     1
 10
0.0
 20
0.0
 30
0.0
  3
*D29
  1

  0
LINE
  5
1668
330
1650
100
AcDbEntity
  8
SIZE
  6
CONTINUOUS
 62
     0
100
AcDbLine
 10
435.2922324154242
 20
-2321.972667774936
 30
0.0
 11
650.1934009705654
 21
-2321.972667774936
 31
0.0
  0
LINE
  5
1669
330
1650
100
AcDbEntity
  8
SIZE
  6
CONTINUOUS
 62
     0
100
AcDbLine
 10
588.2922324154242
 20
-2236.972667774936
 30
0.0
 11
650.1934009705656
 21
-2236.972667774936
 31
0.0
  0
LINE
  5
166A
330
1650
100
AcDbEntity
  8
SIZE
  6
CONTINUOUS
 62
     0
100
AcDbLine
 10
620.1934009705655
 20
-2246.972667774936
 30
0.0
 11
620.1934009705654
 21
-2311.972667774937
 31
0.0
  0
LINE
  5
166B
330
1650
100
AcDbEntity
  8
SIZE
  6
CONTINUOUS
 62
     0
100
AcDbLine
 10
620.1934009705654
 20
-2321.972667774936
 30
0.0
 11
620.1934009705654
 21
-2469.771203012633
 31
0.0
  0
INSERT
  5
166C
330
1650
100
AcDbEntity
  8
SIZE
  6
CONTINUOUS
 62
     0
100
AcDbBlockReference
  2
_ORIGIN
 10
620.1934009705655
 20
-2236.972667774936
 30
0.0
 41
10.0
 42
10.0
 43
10.0
 50
90.0
  0
INSERT
  5
166D
330
1650
100
AcDbEntity
  8
SIZE
  6
CONTINUOUS
 62
     0
100
AcDbBlockReference
  2
_ORIGIN
 10
620.1934009705654
 20
-2321.972667774936
 30
0.0
 41
10.0
 42
10.0
 43
10.0
 50
270.0
  0
MTEXT
  5
166E
330
1650
100
AcDbEntity
  8
SIZE
  6
CONTINUOUS
 62
     0
100
AcDbMText
 10
578.1934009705659
 20
-2413.142631584062
 30
0.0
 40
64.0
 41
0.0
 71
     5
 72
     1
  1
\A1;85
 11
0.0000000000000001
 21
1.0
 31
0.0
1001
ACAD
1000
MTEXTBEGIN
1070
    73
1070
     1
1070
    44
1040
1.0
1070
    74
1070
     0
1000
MTEXTEND
  0
POINT
  5
166F
330
1650
100
AcDbEntity
  8
DEFPOINTS
  6
CONTINUOUS
 62
     0
100
AcDbPoint
 10
415.2922324154242
 20
-2321.972667774936
 30
0.0
  0
POINT
  5
1670
330
1650
100
AcDbEntity
  8
DEFPOINTS
  6
CONTINUOUS
 62
     0
100
AcDbPoint
 10
568.2922324154242
 20
-2236.972667774936
 30
0.0
  0
POINT
  5
1671
330
1650
100
AcDbEntity
  8
DEFPOINTS
  6
CONTINUOUS
 62
     0
100
AcDbPoint
 10
620.1934009705655
 20
-2236.972667774936
 30
0.0
  0
ENDBLK
  5
165D
330
1650
100
AcDbEntity
  8
0
100
AcDbBlockEnd
  0
ENDSEC
  0
SECTION
  2
ENTITIES
  0
TEXT
  5
753
330
1E
100
AcDbEntity
  8
SIZE
  6
BYBLOCK
100
AcDbText
 10
-74.05714299999999
 20
653.1151812500675
 30
0.0
 40
64.0
  1
620
 41
0.9
100
AcDbText
  0
LINE
  5
754
330
1E
100
AcDbEntity
  8
SIZE
  6
BYBLOCK
100
AcDbLine
 10
-307.3418411480925
 20
639.9783249277497
 30
0.0
 11
307.4863942072425
 21
639.9783249277497
 31
0.0
  0
LINE
  5
755
330
1E
100
AcDbEntity
  8
DETAIL
  6
CONTINUOUS
100
AcDbLine
 10
-475.0
 20
-35.0
 30
0.0
 11
475.0
 21
-35.0
 31
0.0
  0
ARC
  5
756
330
1E
100
AcDbEntity
  8
DETAIL
  6
CONTINUOUS
100
AcDbCircle
 10
0.0
 20
167.0
 30
0.0
 40
75.0
100
AcDbArc
 50
123.2547749999974
 51
56.74522500000254
  0
LINE
  5
757
330
1E
100
AcDbEntity
  8
DETAIL
  6
CONTINUOUS
100
AcDbLine
 10
-41.12721999999985
 20
229.7180339999995
 30
0.0
 11
41.12721999999985
 21
229.7180339999995
 31
0.0
  0
LINE
  5
758
330
1E
100
AcDbEntity
  8
BASIS
  6
DASHDOT
100
AcDbLine
 10
-118.7860949999999
 20
167.0
 30
0.0
 11
118.7860949999999
 21
167.0
 31
0.0
  0
CIRCLE
  5
759
330
1E
100
AcDbEntity
  8
SIZE
  6
CONTINUOUS
100
AcDbCircle
 10
0.0
 20
496.203864743162
 30
0.0
 40
6.0
  0
CIRCLE
  5
75A
330
1E
100
AcDbEntity
  8
SIZE
  6
CONTINUOUS
100
AcDbCircle
 10
0.0
 20
379.3599377431619
 30
0.0
 40
6.0
  0
TEXT
  5
75B
330
1E
100
AcDbEntity
  8
SIZE
  6
BYBLOCK
100
AcDbText
 10
-118.5714289999996
 20
411.3599377431619
 30
0.0
 40
64.0
  1
100
 41
0.9
100
AcDbText
  0
TEXT
  5
75C
330
1E
100
AcDbEntity
  8
SIZE
  6
BYBLOCK
100
AcDbText
 10
-18.57142900000008
 20
528.2038647431622
 30
0.0
 40
64.0
  1
100
 41
0.9
100
AcDbText
  0
LINE
  5
75D
330
1E
100
AcDbEntity
  8
SIZE
  6
BYBLOCK
100
AcDbLine
 10
100.0
 20
496.203864743162
 30
0.0
 11
0.0
 21
496.203864743162
 31
0.0
  0
TEXT
  5
75E
330
1E
100
AcDbEntity
  8
SIZE
  6
BYBLOCK
100
AcDbText
 10
-74.05714299999999
 20
777.7659299999996
 30
0.0
 40
64.0
  1
840
 41
0.9
100
AcDbText
  0
LINE
  5
75F
330
1E
100
AcDbEntity
  8
SIZE
  6
BYBLOCK
100
AcDbLine
 10
-418.0
 20
745.7659299999995
 30
0.0
 11
418.0
 21
745.7659299999995
 31
0.0
  0
TEXT
  5
760
330
1E
100
AcDbEntity
  8
SIZE
  6
BYBLOCK
100
AcDbText
 10
-74.05714299999999
 20
-281.5029739999999
 30
0.0
 40
64.0
  1
950
 41
0.9
100
AcDbText
  0
LINE
  5
761
330
1E
100
AcDbEntity
  8
SIZE
  6
BYBLOCK
100
AcDbLine
 10
-473.0
 20
-313.502974
 30
0.0
 11
473.0
 21
-313.502974
 31
0.0
  0
POINT
  5
763
330
1E
100
AcDbEntity
  8
ARRANGE
  6
CONTINUOUS
100
AcDbPoint
 10
0.0
 20
0.0
 30
0.0
  0
LINE
  5
764
330
1E
100
AcDbEntity
  8
NOTE
  6
CONTINUOUS
100
AcDbLine
 10
20.0
 20
90.0
 30
0.0
 11
-20.0
 21
90.0
 31
0.0
  0
LINE
  5
765
330
1E
100
AcDbEntity
  8
NOTE
  6
CONTINUOUS
100
AcDbLine
 10
20.0
 20
220.0
 30
0.0
 11
-20.0
 21
220.0
 31
0.0
  0
CIRCLE
  5
766
330
1E
100
AcDbEntity
  8
ARRANGE
  6
CONTINUOUS
100
AcDbCircle
 10
0.0
 20
0.0
 30
0.0
 40
40.0
  0
CIRCLE
  5
767
330
1E
100
AcDbEntity
  8
DETAIL
  6
CONTINUOUS
100
AcDbCircle
 10
0.0
 20
90.0
 30
0.0
 40
1.399999999999999
  0
CIRCLE
  5
768
330
1E
100
AcDbEntity
  8
DETAIL
  6
CONTINUOUS
100
AcDbCircle
 10
0.0
 20
220.0
 30
0.0
 40
1.399999999999999
  0
LINE
  5
769
330
1E
100
AcDbEntity
  8
DETAIL
  6
CONTINUOUS
100
AcDbLine
 10
-420.0
 20
17.0
 30
0.0
 11
420.0
 21
17.0
 31
0.0
  0
LINE
  5
76A
330
1E
100
AcDbEntity
  8
DETAIL
  6
CONTINUOUS
100
AcDbLine
 10
-420.0
 20
258.0
 30
0.0
 11
420.0
 21
258.0
 31
0.0
  0
LINE
  5
76B
330
1E
100
AcDbEntity
  8
DETAIL
  6
CONTINUOUS
100
AcDbLine
 10
-475.0
 20
0.0
 30
0.0
 11
475.0
 21
0.0
 31
0.0
  0
LINE
  5
76C
330
1E
100
AcDbEntity
  8
BASIS
  6
DASHDOT
100
AcDbLine
 10
-474.4061679999999
 20
155.0
 30
0.0
 11
546.023205
 21
155.0
 31
0.0
  0
LINE
  5
76D
330
1E
100
AcDbEntity
  8
DETAIL
  6
CONTINUOUS
100
AcDbLine
 10
-175.0
 20
105.0
 30
0.0
 11
175.0
 21
105.0
 31
0.0
  0
LINE
  5
76E
330
1E
100
AcDbEntity
  8
DETAIL
  6
CONTINUOUS
100
AcDbLine
 10
-175.0
 20
205.0
 30
0.0
 11
175.0
 21
205.0
 31
0.0
  0
LINE
  5
76F
330
1E
100
AcDbEntity
  8
DETAIL
  6
CONTINUOUS
100
AcDbLine
 10
-260.0
 20
258.0
 30
0.0
 11
-260.0
 21
0.0
 31
0.0
  0
CIRCLE
  5
770
330
1E
100
AcDbEntity
  8
SIZE
  6
CONTINUOUS
100
AcDbCircle
 10
-1012.326
 20
0.0
 30
0.0
 40
6.0
  0
CIRCLE
  5
771
330
1E
100
AcDbEntity
  8
SIZE
  6
CONTINUOUS
100
AcDbCircle
 10
-1135.882999999999
 20
0.0
 30
0.0
 40
6.0
  0
CIRCLE
  5
772
330
1E
100
AcDbEntity
  8
SIZE
  6
CONTINUOUS
100
AcDbCircle
 10
-1135.882999999999
 20
0.0
 30
0.0
 40
6.0
  0
CIRCLE
  5
773
330
1E
100
AcDbEntity
  8
SIZE
  6
CONTINUOUS
100
AcDbCircle
 10
-891.3311430000003
 20
0.0
 30
0.0
 40
6.0
  0
TEXT
  5
774
330
1E
100
AcDbEntity
  8
SIZE
  6
BYBLOCK
100
AcDbText
 10
-1167.882999999999
 20
-61.62857100000019
 30
0.0
 40
64.0
  1
35
 50
90.0
 41
0.9
100
AcDbText
  0
LINE
  5
776
330
1E
100
AcDbEntity
  8
BASIS
  6
DASHDOT
100
AcDbLine
 10
0.0
 20
321.964758
 30
0.0
 11
0.0
 21
-130.4959960000001
 31
0.0
  0
LINE
  5
777
330
1E
100
AcDbEntity
  8
DETAIL
  6
CONTINUOUS
100
AcDbLine
 10
-420.0
 20
258.0
 30
0.0
 11
-420.0
 21
0.0
 31
0.0
  0
LINE
  5
778
330
1E
100
AcDbEntity
  8
SIZE
  6
BYBLOCK
100
AcDbLine
 10
-495.0
 20
0.0
 30
0.0
 11
-1166.528
 21
0.0
 31
0.0
  0
LINE
  5
779
330
1E
100
AcDbEntity
  8
SIZE
  6
BYBLOCK
100
AcDbLine
 10
-495.0
 20
-35.0
 30
0.0
 11
-1166.528
 21
-35.0
 31
0.0
  0
LINE
  5
77A
330
1E
100
AcDbEntity
  8
SIZE
  6
BYBLOCK
100
AcDbLine
 10
-495.0
 20
0.0
 30
0.0
 11
-1108.904999999999
 21
0.0
 31
0.0
  0
CIRCLE
  5
77B
330
1E
100
AcDbEntity
  8
SIZE
  6
CONTINUOUS
100
AcDbCircle
 10
-1135.882999999999
 20
-35.0
 30
0.0
 40
6.0
  0
LINE
  5
77C
330
1E
100
AcDbEntity
  8
SIZE
  6
BYBLOCK
100
AcDbLine
 10
-1135.882999999999
 20
0.0
 30
0.0
 11
-1135.882999999999
 21
-30.0
 31
0.0
  0
LINE
  5
77D
330
1E
100
AcDbEntity
  8
SIZE
  6
BYBLOCK
100
AcDbLine
 10
-1135.882999999999
 20
-32.0
 30
0.0
 11
-1135.882999999999
 21
-34.0
 31
0.0
  0
LINE
  5
77F
330
1E
100
AcDbEntity
  8
SIZE
  6
BYBLOCK
100
AcDbLine
 10
-475.0
 20
-70.0
 30
0.0
 11
-475.0
 21
-363.502974
 31
0.0
  0
LINE
  5
780
330
1E
100
AcDbEntity
  8
SIZE
  6
BYBLOCK
100
AcDbLine
 10
-495.0
 20
0.0
 30
0.0
 11
-921.3311430000002
 21
0.0
 31
0.0
  0
CIRCLE
  5
781
330
1E
100
AcDbEntity
  8
SIZE
  6
CONTINUOUS
100
AcDbCircle
 10
-475.0
 20
-313.502974
 30
0.0
 40
6.0
  0
LINE
  5
783
330
1E
100
AcDbEntity
  8
DETAIL
  6
CONTINUOUS
100
AcDbLine
 10
-475.0
 20
0.0
 30
0.0
 11
-475.0
 21
-35.0
 31
0.0
  0
LINE
  5
784
330
1E
100
AcDbEntity
  8
SIZE
  6
BYBLOCK
100
AcDbLine
 10
-379.0999999999999
 20
158.0
 30
0.0
 11
-1036.426
 21
158.0
 31
0.0
  0
TEXT
  5
785
330
1E
100
AcDbEntity
  8
SIZE
  6
BYBLOCK
100
AcDbText
 10
-923.3311430000004
 20
21.42857099999992
 30
0.0
 40
64.0
  1
155
 50
90.0
 41
0.9
100
AcDbText
  0
LINE
  5
786
330
1E
100
AcDbEntity
  8
SIZE
  6
BYBLOCK
100
AcDbLine
 10
-440.0
 20
258.0
 30
0.0
 11
-1166.528
 21
258.0
 31
0.0
  0
TEXT
  5
787
330
1E
100
AcDbEntity
  8
SIZE
  6
BYBLOCK
100
AcDbText
 10
-1167.882999999999
 20
70.942857
 30
0.0
 40
64.0
  1
258
 50
90.0
 41
0.9
100
AcDbText
  0
LINE
  5
788
330
1E
100
AcDbEntity
  8
SIZE
  6
BYBLOCK
100
AcDbLine
 10
-1135.882999999999
 20
2.0
 30
0.0
 11
-1135.882999999999
 21
258.0
 31
0.0
  0
TEXT
  5
789
330
1E
100
AcDbEntity
  8
SIZE
  6
BYBLOCK
100
AcDbText
 10
-1044.326
 20
21.42857099999992
 30
0.0
 40
64.0
  1
158
 50
90.0
 41
0.9
100
AcDbText
  0
LINE
  5
78A
330
1E
100
AcDbEntity
  8
SIZE
  6
BYBLOCK
100
AcDbLine
 10
-1135.882999999999
 20
2.0
 30
0.0
 11
-1135.882999999999
 21
4.0
 31
0.0
  0
LINE
  5
78B
330
1E
100
AcDbEntity
  8
SIZE
  6
BYBLOCK
100
AcDbLine
 10
-1012.326
 20
2.0
 30
0.0
 11
-1012.326
 21
155.0
 31
0.0
  0
CIRCLE
  5
78C
330
1E
100
AcDbEntity
  8
SIZE
  6
CONTINUOUS
100
AcDbCircle
 10
-1012.326
 20
155.0
 30
0.0
 40
6.0
  0
CIRCLE
  5
78D
330
1E
100
AcDbEntity
  8
SIZE
  6
CONTINUOUS
100
AcDbCircle
 10
-1135.882999999999
 20
258.0
 30
0.0
 40
6.0
  0
LINE
  5
78E
330
1E
100
AcDbEntity
  8
SIZE
  6
BYBLOCK
100
AcDbLine
 10
-310.0
 20
125.0
 30
0.0
 11
-310.0
 21
666.8840129188629
 31
0.0
  0
LINE
  5
78F
330
1E
100
AcDbEntity
  8
SIZE
  6
BYBLOCK
100
AcDbLine
 10
-420.0
 20
290.0
 30
0.0
 11
-420.0
 21
775.7659299999995
 31
0.0
  0
LINE
  5
790
330
1E
100
AcDbEntity
  8
SIZE
  6
BYBLOCK
100
AcDbLine
 10
-195.0
 20
105.0
 30
0.0
 11
-526.6281199999998
 21
105.0
 31
0.0
  0
LINE
  5
791
330
1E
100
AcDbEntity
  8
SIZE
  6
BYBLOCK
100
AcDbLine
 10
-195.0
 20
205.0
 30
0.0
 11
-526.6281199999998
 21
205.0
 31
0.0
  0
LINE
  5
792
330
1E
100
AcDbEntity
  8
SIZE
  6
BYBLOCK
100
AcDbLine
 10
-230.0
 20
90.0
 30
0.0
 11
-745.3095579999999
 21
90.0
 31
0.0
  0
LINE
  5
793
330
1E
100
AcDbEntity
  8
SIZE
  6
BYBLOCK
100
AcDbLine
 10
-230.0
 20
220.0
 30
0.0
 11
-745.3095579999999
 21
220.0
 31
0.0
  0
LINE
  5
794
330
1E
100
AcDbEntity
  8
NOTE
  6
CONTINUOUS
100
AcDbLine
 10
-310.0
 20
105.0
 30
0.0
 11
-560.1439869999999
 21
29.64977300000009
 31
0.0
  0
LINE
  5
795
330
1E
100
AcDbEntity
  8
SIZE
  6
BYBLOCK
100
AcDbLine
 10
-494.4061679999999
 20
155.0
 30
0.0
 11
-921.3311430000002
 21
155.0
 31
0.0
  0
LINE
  5
796
330
1E
100
AcDbEntity
  8
NOTE
  6
CONTINUOUS
100
AcDbLine
 10
-560.1439869999999
 20
29.64977300000009
 30
0.0
 11
-708.3772039999999
 21
29.64977300000009
 31
0.0
  0
TEXT
  5
797
330
1E
100
AcDbEntity
  8
SIZE
  6
BYBLOCK
100
AcDbText
 10
-747.3095579999998
 20
86.42857099999991
 30
0.0
 40
64.0
  1
130
 50
90.0
 41
0.9
100
AcDbText
  0
LINE
  5
798
330
1E
100
AcDbEntity
  8
SIZE
  6
BYBLOCK
100
AcDbLine
 10
-715.3095579999999
 20
90.0
 30
0.0
 11
-715.3095579999999
 21
220.0
 31
0.0
  0
LINE
  5
799
330
1E
100
AcDbEntity
  8
SIZE
  6
BYBLOCK
100
AcDbLine
 10
-891.3311430000003
 20
2.0
 30
0.0
 11
-891.3311430000003
 21
155.0
 31
0.0
  0
CIRCLE
  5
79A
330
1E
100
AcDbEntity
  8
SIZE
  6
CONTINUOUS
100
AcDbCircle
 10
-891.3311430000003
 20
155.0
 30
0.0
 40
6.0
  0
CIRCLE
  5
79B
330
1E
100
AcDbEntity
  8
SIZE
  6
CONTINUOUS
100
AcDbCircle
 10
-715.3095579999999
 20
90.0
 30
0.0
 40
6.0
  0
LINE
  5
79C
330
1E
100
AcDbEntity
  8
SIZE
  6
BYBLOCK
100
AcDbLine
 10
-715.3095579999999
 20
88.0
 30
0.0
 11
-715.3095579999999
 21
86.0
 31
0.0
  0
CIRCLE
  5
79D
330
1E
100
AcDbEntity
  8
SIZE
  6
CONTINUOUS
100
AcDbCircle
 10
-715.3095579999999
 20
220.0
 30
0.0
 40
6.0
  0
LINE
  5
79E
330
1E
100
AcDbEntity
  8
SIZE
  6
BYBLOCK
100
AcDbLine
 10
-715.3095579999999
 20
222.0
 30
0.0
 11
-715.3095579999999
 21
224.0
 31
0.0
  0
TEXT
  5
79F
330
1E
100
AcDbEntity
  8
SIZE
  6
BYBLOCK
100
AcDbText
 10
-528.6281199999998
 20
86.42857099999991
 30
0.0
 40
64.0
  1
100
 50
90.0
 41
0.9
100
AcDbText
  0
LINE
  5
7A0
330
1E
100
AcDbEntity
  8
SIZE
  6
BYBLOCK
100
AcDbLine
 10
-496.6281200000003
 20
105.0
 30
0.0
 11
-496.6281200000003
 21
205.0
 31
0.0
  0
TEXT
  5
7A1
330
1E
100
AcDbEntity
  8
NOTE
  6
CONTINUOUS
100
AcDbText
 10
-682.0130049999997
 20
38.71150699999998
 30
0.0
 40
64.0
  1
AH
 41
0.9
100
AcDbText
  0
CIRCLE
  5
7A2
330
1E
100
AcDbEntity
  8
SIZE
  6
CONTINUOUS
100
AcDbCircle
 10
-496.6281200000003
 20
105.0
 30
0.0
 40
6.0
  0
LINE
  5
7A3
330
1E
100
AcDbEntity
  8
SIZE
  6
BYBLOCK
100
AcDbLine
 10
-496.6281200000003
 20
103.0
 30
0.0
 11
-496.6281200000003
 21
101.0
 31
0.0
  0
CIRCLE
  5
7A4
330
1E
100
AcDbEntity
  8
SIZE
  6
CONTINUOUS
100
AcDbCircle
 10
-496.6281200000003
 20
205.0
 30
0.0
 40
6.0
  0
LINE
  5
7A5
330
1E
100
AcDbEntity
  8
SIZE
  6
BYBLOCK
100
AcDbLine
 10
-496.6281200000003
 20
207.0
 30
0.0
 11
-496.6281200000003
 21
209.0
 31
0.0
  0
LINE
  5
7A6
330
1E
100
AcDbEntity
  8
SIZE
  6
BYBLOCK
100
AcDbLine
 10
-100.0
 20
240.0
 30
0.0
 11
-100.0
 21
520.382484157124
 31
0.0
  0
LINE
  5
7A7
330
1E
100
AcDbEntity
  8
SIZE
  6
BYBLOCK
100
AcDbLine
 10
-190.0
 20
240.0
 30
0.0
 11
-190.0
 21
520.382484157124
 31
0.0
  0
LINE
  5
7A8
330
1E
100
AcDbEntity
  8
SIZE
  6
BYBLOCK
100
AcDbLine
 10
0.0
 20
240.0
 30
0.0
 11
0.0
 21
477.1051540000001
 31
0.0
  0
LINE
  5
7A9
330
1E
100
AcDbEntity
  8
SIZE
  6
BYBLOCK
100
AcDbLine
 10
-100.0
 20
240.0
 30
0.0
 11
-100.0
 21
477.1051540000001
 31
0.0
  0
LINE
  5
7AA
330
1E
100
AcDbEntity
  8
SIZE
  6
BYBLOCK
100
AcDbLine
 10
0.0
 20
240.0
 30
0.0
 11
0.0
 21
523.2509078652265
 31
0.0
  0
LINE
  5
7AB
330
1E
100
AcDbEntity
  8
NOTE
  6
CONTINUOUS
100
AcDbLine
 10
-340.0
 20
178.0
 30
0.0
 11
-340.0
 21
138.0
 31
0.0
  0
LINE
  5
7AC
330
1E
100
AcDbEntity
  8
NOTE
  6
CONTINUOUS
100
AcDbLine
 10
-320.0
 20
158.0
 30
0.0
 11
-360.0
 21
158.0
 31
0.0
  0
LWPOLYLINE
  5
7AD
330
1E
100
AcDbEntity
  8
NOTE
  6
CONTINUOUS
100
AcDbPolyline
 90
        3
 70
     0
 43
0.0
 10
-344.2225969999999
 20
84.29217900000002
 10
-310.0
 20
105.0
 10
-349.9915490000002
 20
104.1777999999999
  0
CIRCLE
  5
7AE
330
1E
100
AcDbEntity
  8
FIX
  6
CONTINUOUS
100
AcDbCircle
 10
-310.0
 20
105.0
 30
0.0
 40
40.0
  0
LINE
  5
7AF
330
1E
100
AcDbEntity
  8
NOTE
  6
CONTINUOUS
100
AcDbLine
 10
-330.0
 20
105.0
 30
0.0
 11
-290.0
 21
105.0
 31
0.0
  0
CIRCLE
  5
7B0
330
1E
100
AcDbEntity
  8
DETAIL
  6
CONTINUOUS
100
AcDbCircle
 10
-340.0
 20
158.0
 30
0.0
 40
1.399999999999999
  0
LINE
  5
7B1
330
1E
100
AcDbEntity
  8
NOTE
  6
CONTINUOUS
100
AcDbLine
 10
-310.0
 20
85.0
 30
0.0
 11
-310.0
 21
125.0
 31
0.0
  0
LINE
  5
7B2
330
1E
100
AcDbEntity
  8
DETAIL
  6
CONTINUOUS
100
AcDbLine
 10
-175.0
 20
205.0
 30
0.0
 11
-175.0
 21
105.0
 31
0.0
  0
LINE
  5
7B3
330
1E
100
AcDbEntity
  8
NOTE
  6
CONTINUOUS
100
AcDbLine
 10
-80.0
 20
90.0
 30
0.0
 11
-120.0
 21
90.0
 31
0.0
  0
LINE
  5
7B4
330
1E
100
AcDbEntity
  8
NOTE
  6
CONTINUOUS
100
AcDbLine
 10
-190.0
 20
110.0
 30
0.0
 11
-190.0
 21
70.0
 31
0.0
  0
LINE
  5
7B5
330
1E
100
AcDbEntity
  8
NOTE
  6
CONTINUOUS
100
AcDbLine
 10
-170.0
 20
90.0
 30
0.0
 11
-210.0
 21
90.0
 31
0.0
  0
CIRCLE
  5
7B6
330
1E
100
AcDbEntity
  8
DETAIL
  6
CONTINUOUS
100
AcDbCircle
 10
-190.0
 20
90.0
 30
0.0
 40
1.399999999999999
  0
LINE
  5
7B7
330
1E
100
AcDbEntity
  8
NOTE
  6
CONTINUOUS
100
AcDbLine
 10
0.0
 20
110.0
 30
0.0
 11
0.0
 21
70.0
 31
0.0
  0
LINE
  5
7B8
330
1E
100
AcDbEntity
  8
NOTE
  6
CONTINUOUS
100
AcDbLine
 10
-100.0
 20
110.0
 30
0.0
 11
-100.0
 21
70.0
 31
0.0
  0
CIRCLE
  5
7B9
330
1E
100
AcDbEntity
  8
DETAIL
  6
CONTINUOUS
100
AcDbCircle
 10
-100.0
 20
90.0
 30
0.0
 40
1.399999999999999
  0
LINE
  5
7BA
330
1E
100
AcDbEntity
  8
NOTE
  6
CONTINUOUS
100
AcDbLine
 10
-80.0
 20
220.0
 30
0.0
 11
-120.0
 21
220.0
 31
0.0
  0
LINE
  5
7BB
330
1E
100
AcDbEntity
  8
NOTE
  6
CONTINUOUS
100
AcDbLine
 10
-170.0
 20
220.0
 30
0.0
 11
-210.0
 21
220.0
 31
0.0
  0
LINE
  5
7BC
330
1E
100
AcDbEntity
  8
NOTE
  6
CONTINUOUS
100
AcDbLine
 10
-190.0
 20
240.0
 30
0.0
 11
-190.0
 21
200.0
 31
0.0
  0
CIRCLE
  5
7BD
330
1E
100
AcDbEntity
  8
DETAIL
  6
CONTINUOUS
100
AcDbCircle
 10
-190.0
 20
220.0
 30
0.0
 40
1.399999999999999
  0
LINE
  5
7BE
330
1E
100
AcDbEntity
  8
NOTE
  6
CONTINUOUS
100
AcDbLine
 10
-100.0
 20
240.0
 30
0.0
 11
-100.0
 21
200.0
 31
0.0
  0
CIRCLE
  5
7BF
330
1E
100
AcDbEntity
  8
DETAIL
  6
CONTINUOUS
100
AcDbCircle
 10
-100.0
 20
220.0
 30
0.0
 40
1.399999999999999
  0
LINE
  5
7C0
330
1E
100
AcDbEntity
  8
NOTE
  6
CONTINUOUS
100
AcDbLine
 10
0.0
 20
240.0
 30
0.0
 11
0.0
 21
200.0
 31
0.0
  0
CIRCLE
  5
7C1
330
1E
100
AcDbEntity
  8
SIZE
  6
CONTINUOUS
100
AcDbCircle
 10
-310.0
 20
639.9783249277497
 30
0.0
 40
6.0
  0
CIRCLE
  5
7C2
330
1E
100
AcDbEntity
  8
SIZE
  6
CONTINUOUS
100
AcDbCircle
 10
-100.0
 20
493.1290237431619
 30
0.0
 40
6.0
  0
CIRCLE
  5
7C3
330
1E
100
AcDbEntity
  8
SIZE
  6
CONTINUOUS
100
AcDbCircle
 10
-190.0
 20
493.1290237431619
 30
0.0
 40
6.0
  0
LINE
  5
7C4
330
1E
100
AcDbEntity
  8
SIZE
  6
BYBLOCK
100
AcDbLine
 10
0.0
 20
379.3599377431619
 30
0.0
 11
-100.0
 21
379.3599377431619
 31
0.0
  0
CIRCLE
  5
7C5
330
1E
100
AcDbEntity
  8
SIZE
  6
CONTINUOUS
100
AcDbCircle
 10
-100.0
 20
379.3599377431619
 30
0.0
 40
6.0
  0
TEXT
  5
7C6
330
1E
100
AcDbEntity
  8
SIZE
  6
BYBLOCK
100
AcDbText
 10
-191.6285710000001
 20
525.1290237431619
 30
0.0
 40
64.0
  1
90
 41
0.9
100
AcDbText
  0
LINE
  5
7C7
330
1E
100
AcDbEntity
  8
SIZE
  6
BYBLOCK
100
AcDbLine
 10
-100.0
 20
493.1290237431619
 30
0.0
 11
-190.0
 21
493.1290237431619
 31
0.0
  0
CIRCLE
  5
7C8
330
1E
100
AcDbEntity
  8
SIZE
  6
CONTINUOUS
100
AcDbCircle
 10
-420.0
 20
745.7659299999995
 30
0.0
 40
6.0
  0
LINE
  5
7C9
330
1E
100
AcDbEntity
  8
DETAIL
  6
CONTINUOUS
100
AcDbLine
 10
330.0
 20
258.0
 30
0.0
 11
330.0
 21
0.0
 31
0.0
  0
LINE
  5
7CA
330
1E
100
AcDbEntity
  8
DETAIL
  6
CONTINUOUS
100
AcDbLine
 10
270.0
 20
258.0
 30
0.0
 11
270.0
 21
0.0
 31
0.0
  0
CIRCLE
  5
7CB
330
1E
100
AcDbEntity
  8
SIZE
  6
CONTINUOUS
100
AcDbCircle
 10
1072.542
 20
0.0
 30
0.0
 40
6.0
  0
LINE
  5
7CC
330
1E
100
AcDbEntity
  8
NOTE
  6
CONTINUOUS
100
AcDbLine
 10
310.0
 20
105.0
 30
0.0
 11
512.9396719999999
 21
-194.0367069999997
 31
0.0
  0
LINE
  5
7CD
330
1E
100
AcDbEntity
  8
NOTE
  6
CONTINUOUS
100
AcDbLine
 10
31.39975499999991
 20
98.88371700000016
 30
0.0
 11
262.864673
 21
-242.185657
 31
0.0
  0
CIRCLE
  5
7CE
330
1E
100
AcDbEntity
  8
SIZE
  6
CONTINUOUS
100
AcDbCircle
 10
682.1169552481105
 20
0.0
 30
0.0
 40
6.0
  0
CIRCLE
  5
7CF
330
1E
100
AcDbEntity
  8
SIZE
  6
CONTINUOUS
100
AcDbCircle
 10
1213.84
 20
0.0
 30
0.0
 40
6.0
  0
CIRCLE
  5
7D0
330
1E
100
AcDbEntity
  8
SIZE
  6
CONTINUOUS
100
AcDbCircle
 10
904.453688
 20
0.0
 30
0.0
 40
6.0
  0
TEXT
  5
7D1
330
1E
100
AcDbEntity
  8
SIZE
  6
BYBLOCK
100
AcDbText
 10
651.2682002481105
 20
-21.79394200000024
 30
0.0
 40
64.0
  1
105
 50
90.0
 41
0.9
100
AcDbText
  0
LINE
  5
7D3
330
1E
100
AcDbEntity
  8
NOTE
  6
CONTINUOUS
100
AcDbLine
 10
407.0
 20
140.0
 30
0.0
 11
691.6124261003265
 21
-116.9840492611838
 31
0.0
  0
LINE
  5
7D4
330
1E
100
AcDbEntity
  8
DETAIL
  6
CONTINUOUS
100
AcDbLine
 10
420.0
 20
258.0
 30
0.0
 11
420.0
 21
0.0
 31
0.0
  0
LINE
  5
7D5
330
1E
100
AcDbEntity
  8
SIZE
  6
BYBLOCK
100
AcDbLine
 10
495.0
 20
0.0
 30
0.0
 11
934.4536880000001
 21
0.0
 31
0.0
  0
LINE
  5
7D6
330
1E
100
AcDbEntity
  8
SIZE
  6
BYBLOCK
100
AcDbLine
 10
495.0
 20
0.0
 30
0.0
 11
1242.58
 21
0.0
 31
0.0
  0
TEXT
  5
7D7
330
1E
100
AcDbEntity
  8
NOTE
  6
CONTINUOUS
100
AcDbText
 10
729.9710159654164
 20
-96.12655220381657
 30
0.0
 40
64.0
  1
RG%%C15.88
 41
0.9
100
AcDbText
  0
LINE
  5
7D8
330
1E
100
AcDbEntity
  8
NOTE
  6
CONTINUOUS
100
AcDbLine
 10
1146.121150511957
 20
-116.9840492611838
 30
0.0
 11
691.6124261003265
 21
-116.9840492611838
 31
0.0
  0
TEXT
  5
7DA
330
1E
100
AcDbEntity
  8
NOTE
  6
CONTINUOUS
100
AcDbText
 10
252.342533
 20
-227.292844
 30
0.0
 40
64.0
  1
φ150
 41
0.9
100
AcDbText
  0
LINE
  5
7DB
330
1E
100
AcDbEntity
  8
NOTE
  6
CONTINUOUS
100
AcDbLine
 10
262.864673
 20
-242.185657
 30
0.0
 11
443.488535
 21
-242.185657
 31
0.0
  0
LINE
  5
7DC
330
1E
100
AcDbEntity
  8
SIZE
  6
BYBLOCK
100
AcDbLine
 10
475.0
 20
-50.0
 30
0.0
 11
475.0
 21
-343.502974
 31
0.0
  0
TEXT
  5
7DD
330
1E
100
AcDbEntity
  8
NOTE
  6
CONTINUOUS
100
AcDbText
 10
533.7629120000001
 20
-172.4787329999999
 30
0.0
 40
64.0
  1
AH
 41
0.9
100
AcDbText
  0
LINE
  5
7DE
330
1E
100
AcDbEntity
  8
NOTE
  6
CONTINUOUS
100
AcDbLine
 10
668.5203820000001
 20
-194.0367069999997
 30
0.0
 11
512.9396719999999
 21
-194.0367069999997
 31
0.0
  0
CIRCLE
  5
7DF
330
1E
100
AcDbEntity
  8
SIZE
  6
CONTINUOUS
100
AcDbCircle
 10
475.0
 20
-313.502974
 30
0.0
 40
6.0
  0
LINE
  5
7E0
330
1E
100
AcDbEntity
  8
SIZE
  6
BYBLOCK
100
AcDbLine
 10
495.0
 20
0.0
 30
0.0
 11
623.8813110000001
 21
0.0
 31
0.0
  0
LINE
  5
7E2
330
1E
100
AcDbEntity
  8
DETAIL
  6
CONTINUOUS
100
AcDbLine
 10
475.0
 20
0.0
 30
0.0
 11
475.0
 21
-35.0
 31
0.0
  0
LINE
  5
7E3
330
1E
100
AcDbEntity
  8
SIZE
  6
BYBLOCK
100
AcDbLine
 10
142.7860949999999
 20
167.0
 30
0.0
 11
1103.371
 21
167.0
 31
0.0
  0
LINE
  5
7E4
330
1E
100
AcDbEntity
  8
SIZE
  6
BYBLOCK
100
AcDbLine
 10
441.0
 20
140.0
 30
0.0
 11
934.4536880000001
 21
140.0
 31
0.0
  0
LINE
  5
7E5
330
1E
100
AcDbEntity
  8
SIZE
  6
BYBLOCK
100
AcDbLine
 10
451.0
 20
170.0
 30
0.0
 11
1242.58
 21
170.0
 31
0.0
  0
TEXT
  5
7E6
330
1E
100
AcDbEntity
  8
NOTE
  6
CONTINUOUS
100
AcDbText
 10
634.8107279261498
 20
274.6375014048089
 30
0.0
 40
64.0
  1
RL%%C9.52
 41
0.9
100
AcDbText
  0
LINE
  5
7E7
330
1E
100
AcDbEntity
  8
NOTE
  6
CONTINUOUS
100
AcDbLine
 10
626.3269919999993
 20
258.8864659999999
 30
0.0
 11
972.0793400112734
 21
258.8864659999999
 31
0.0
  0
LINE
  5
7E8
330
1E
100
AcDbEntity
  8
SIZE
  6
BYBLOCK
100
AcDbLine
 10
310.0
 20
125.0
 30
0.0
 11
310.0
 21
664.9243924990941
 31
0.0
  0
LINE
  5
7E9
330
1E
100
AcDbEntity
  8
SIZE
  6
BYBLOCK
100
AcDbLine
 10
420.0
 20
271.4634614585865
 30
0.0
 11
420.0
 21
775.7659299999995
 31
0.0
  0
LINE
  5
7EA
330
1E
100
AcDbEntity
  8
SIZE
  6
BYBLOCK
100
AcDbLine
 10
407.0
 20
147.94
 30
0.0
 11
407.0
 21
944.8821400000001
 31
0.0
  0
LINE
  5
7EB
330
1E
100
AcDbEntity
  8
SIZE
  6
BYBLOCK
100
AcDbLine
 10
330.0
 20
271.7264934298455
 30
0.0
 11
330.0
 21
944.8821400000001
 31
0.0
  0
LINE
  5
7EC
330
1E
100
AcDbEntity
  8
SIZE
  6
BYBLOCK
100
AcDbLine
 10
415.0
 20
190.0
 30
0.0
 11
415.0
 21
1089.4
 31
0.0
  0
LINE
  5
7ED
330
1E
100
AcDbEntity
  8
SIZE
  6
BYBLOCK
100
AcDbLine
 10
330.0
 20
290.0
 30
0.0
 11
330.0
 21
1089.4
 31
0.0
  0
LINE
  5
7EE
330
1E
100
AcDbEntity
  8
SIZE
  6
BYBLOCK
100
AcDbLine
 10
420.0
 20
290.0
 30
0.0
 11
420.0
 21
1224.693
 31
0.0
  0
LINE
  5
7EF
330
1E
100
AcDbEntity
  8
SIZE
  6
BYBLOCK
100
AcDbLine
 10
330.0
 20
290.0
 30
0.0
 11
330.0
 21
1224.693
 31
0.0
  0
LINE
  5
7F0
330
1E
100
AcDbEntity
  8
SIZE
  6
BYBLOCK
100
AcDbLine
 10
339.9415128796417
 20
105.0
 30
0.0
 11
712.1169552481106
 21
105.0
 31
0.0
  0
LINE
  5
7F1
330
1E
100
AcDbEntity
  8
NOTE
  6
CONTINUOUS
100
AcDbLine
 10
415.0
 20
170.0
 30
0.0
 11
627.3269919999993
 21
258.8864659999999
 31
0.0
  0
LINE
  5
7F2
330
1E
100
AcDbEntity
  8
SIZE
  6
BYBLOCK
100
AcDbLine
 10
100.0
 20
240.0
 30
0.0
 11
100.0
 21
521.3878333064731
 31
0.0
  0
LINE
  5
7F3
330
1E
100
AcDbEntity
  8
SIZE
  6
BYBLOCK
100
AcDbLine
 10
190.0
 20
240.0
 30
0.0
 11
190.0
 21
397.825826445136
 31
0.0
  0
LINE
  5
7F4
330
1E
100
AcDbEntity
  8
SIZE
  6
BYBLOCK
100
AcDbLine
 10
100.0
 20
240.0
 30
0.0
 11
100.0
 21
470.9554729999999
 31
0.0
  0
LINE
  5
7F5
330
1E
100
AcDbEntity
  8
DETAIL
  6
CONTINUOUS
100
AcDbLine
 10
175.0
 20
205.0
 30
0.0
 11
175.0
 21
105.0
 31
0.0
  0
LINE
  5
7F6
330
1E
100
AcDbEntity
  8
NOTE
  6
CONTINUOUS
100
AcDbLine
 10
120.0
 20
90.0
 30
0.0
 11
80.0
 21
90.0
 31
0.0
  0
LWPOLYLINE
  5
7F7
330
1E
100
AcDbEntity
  8
NOTE
  6
CONTINUOUS
100
AcDbPolyline
 90
        3
 70
     0
 43
0.0
 10
62.80664299999989
 20
74.11261699999977
 10
31.39975499999991
 20
98.88371700000016
 10
46.21336700000028
 20
61.72787100000005
  0
LINE
  5
7F8
330
1E
100
AcDbEntity
  8
NOTE
  6
CONTINUOUS
100
AcDbLine
 10
100.0
 20
110.0
 30
0.0
 11
100.0
 21
70.0
 31
0.0
  0
CIRCLE
  5
7F9
330
1E
100
AcDbEntity
  8
DETAIL
  6
CONTINUOUS
100
AcDbCircle
 10
100.0
 20
90.0
 30
0.0
 40
1.399999999999999
  0
LINE
  5
7FA
330
1E
100
AcDbEntity
  8
NOTE
  6
CONTINUOUS
100
AcDbLine
 10
190.0
 20
110.0
 30
0.0
 11
190.0
 21
70.0
 31
0.0
  0
LINE
  5
7FB
330
1E
100
AcDbEntity
  8
NOTE
  6
CONTINUOUS
100
AcDbLine
 10
210.0
 20
90.0
 30
0.0
 11
170.0
 21
90.0
 31
0.0
  0
CIRCLE
  5
7FC
330
1E
100
AcDbEntity
  8
DETAIL
  6
CONTINUOUS
100
AcDbCircle
 10
190.0
 20
90.0
 30
0.0
 40
1.399999999999999
  0
LINE
  5
7FD
330
1E
100
AcDbEntity
  8
NOTE
  6
CONTINUOUS
100
AcDbLine
 10
120.0
 20
220.0
 30
0.0
 11
80.0
 21
220.0
 31
0.0
  0
LINE
  5
7FE
330
1E
100
AcDbEntity
  8
NOTE
  6
CONTINUOUS
100
AcDbLine
 10
100.0
 20
240.0
 30
0.0
 11
100.0
 21
200.0
 31
0.0
  0
CIRCLE
  5
7FF
330
1E
100
AcDbEntity
  8
DETAIL
  6
CONTINUOUS
100
AcDbCircle
 10
100.0
 20
220.0
 30
0.0
 40
1.399999999999999
  0
LINE
  5
800
330
1E
100
AcDbEntity
  8
NOTE
  6
CONTINUOUS
100
AcDbLine
 10
210.0
 20
220.0
 30
0.0
 11
170.0
 21
220.0
 31
0.0
  0
LINE
  5
801
330
1E
100
AcDbEntity
  8
NOTE
  6
CONTINUOUS
100
AcDbLine
 10
190.0
 20
240.0
 30
0.0
 11
190.0
 21
200.0
 31
0.0
  0
CIRCLE
  5
802
330
1E
100
AcDbEntity
  8
DETAIL
  6
CONTINUOUS
100
AcDbCircle
 10
190.0
 20
220.0
 30
0.0
 40
1.399999999999999
  0
CIRCLE
  5
804
330
1E
100
AcDbEntity
  8
FIX
  6
CONTINUOUS
100
AcDbCircle
 10
310.0
 20
105.0
 30
0.0
 40
40.0
  0
LINE
  5
805
330
1E
100
AcDbEntity
  8
DETAIL
  6
CONTINUOUS
100
AcDbLine
 10
330.0
 20
132.0599999999999
 30
0.0
 11
407.0
 21
132.0599999999999
 31
0.0
  0
LINE
  5
806
330
1E
100
AcDbEntity
  8
DETAIL
  6
CONTINUOUS
100
AcDbLine
 10
330.0
 20
147.94
 30
0.0
 11
407.0
 21
147.94
 31
0.0
  0
LWPOLYLINE
  5
807
330
1E
100
AcDbEntity
  8
NOTE
  6
CONTINUOUS
100
AcDbPolyline
 90
        3
 70
     0
 43
0.0
 10
341.4068879999999
 20
80.22890000000007
 10
310.0
 20
105.0
 10
324.8136119999999
 20
67.84415399999989
  0
LINE
  5
808
330
1E
100
AcDbEntity
  8
NOTE
  6
CONTINUOUS
100
AcDbLine
 10
290.0
 20
105.0
 30
0.0
 11
330.0
 21
105.0
 31
0.0
  0
LINE
  5
809
330
1E
100
AcDbEntity
  8
NOTE
  6
CONTINUOUS
100
AcDbLine
 10
310.0
 20
85.0
 30
0.0
 11
310.0
 21
125.0
 31
0.0
  0
LWPOLYLINE
  5
80A
330
1E
100
AcDbEntity
  8
NOTE
  6
CONTINUOUS
100
AcDbPolyline
 90
        3
 70
     0
 43
0.0
 10
442.9852088859052
 20
122.5338983488418
 10
407.0
 20
140.0
 10
429.4310538286453
 20
106.8813069054149
  0
LINE
  5
80B
330
1E
100
AcDbEntity
  8
NOTE
  6
CONTINUOUS
100
AcDbLine
 10
387.0
 20
140.0
 30
0.0
 11
427.0
 21
140.0
 31
0.0
  0
LINE
  5
80C
330
1E
100
AcDbEntity
  8
DETAIL
  6
CONTINUOUS
100
AcDbLine
 10
407.0
 20
147.94
 30
0.0
 11
407.0
 21
132.0599999999999
 31
0.0
  0
LINE
  5
80E
330
1E
100
AcDbEntity
  8
DETAIL
  6
CONTINUOUS
100
AcDbLine
 10
330.0
 20
165.2400000000002
 30
0.0
 11
415.0
 21
165.2399999999993
 31
0.0
  0
LINE
  5
80F
330
1E
100
AcDbEntity
  8
DETAIL
  6
CONTINUOUS
100
AcDbLine
 10
330.0
 20
174.7600000000002
 30
0.0
 11
415.0
 21
174.7600000000006
 31
0.0
  0
LINE
  5
810
330
1E
100
AcDbEntity
  8
NOTE
  6
CONTINUOUS
100
AcDbLine
 10
395.0
 20
170.0
 30
0.0
 11
435.0
 21
170.0
 31
0.0
  0
LINE
  5
811
330
1E
100
AcDbEntity
  8
DETAIL
  6
CONTINUOUS
100
AcDbLine
 10
415.0
 20
174.7600000000006
 30
0.0
 11
415.0
 21
165.2399999999993
 31
0.0
  0
LWPOLYLINE
  5
812
330
1E
100
AcDbEntity
  8
NOTE
  6
CONTINUOUS
100
AcDbPolyline
 90
        3
 70
     0
 43
0.0
 10
446.6490199999998
 20
194.4609790000004
 10
415.0
 20
170.0
 10
454.639345
 20
175.3593190000001
  0
CIRCLE
  5
813
330
1E
100
AcDbEntity
  8
SIZE
  6
CONTINUOUS
100
AcDbCircle
 10
100.0
 20
496.203864743162
 30
0.0
 40
6.0
  0
TEXT
  5
814
330
1E
100
AcDbEntity
  8
SIZE
  6
BYBLOCK
100
AcDbText
 10
98.37142899999982
 20
405.210256743162
 30
0.0
 40
64.0
  1
90
 41
0.9
100
AcDbText
  0
LINE
  5
815
330
1E
100
AcDbEntity
  8
SIZE
  6
BYBLOCK
100
AcDbLine
 10
190.0
 20
373.210256743162
 30
0.0
 11
100.0
 21
373.210256743162
 31
0.0
  0
CIRCLE
  5
816
330
1E
100
AcDbEntity
  8
SIZE
  6
CONTINUOUS
100
AcDbCircle
 10
100.0
 20
373.210256743162
 30
0.0
 40
6.0
  0
CIRCLE
  5
817
330
1E
100
AcDbEntity
  8
SIZE
  6
CONTINUOUS
100
AcDbCircle
 10
190.0
 20
373.210256743162
 30
0.0
 40
6.0
  0
CIRCLE
  5
818
330
1E
100
AcDbEntity
  8
SIZE
  6
CONTINUOUS
100
AcDbCircle
 10
310.0
 20
639.9783249277497
 30
0.0
 40
6.0
  0
LINE
  5
819
330
1E
100
AcDbEntity
  8
SIZE
  6
BYBLOCK
100
AcDbLine
 10
682.1169552481105
 20
2.0
 30
0.0
 11
682.1169552481105
 21
105.0
 31
0.0
  0
CIRCLE
  5
81A
330
1E
100
AcDbEntity
  8
SIZE
  6
CONTINUOUS
100
AcDbCircle
 10
682.1169552481105
 20
105.0
 30
0.0
 40
6.0
  0
TEXT
  5
81B
330
1E
100
AcDbEntity
  8
SIZE
  6
BYBLOCK
100
AcDbText
 10
872.453688
 20
1.428570999999919
 30
0.0
 40
64.0
  1
140
 50
90.0
 41
0.9
100
AcDbText
  0
LINE
  5
81C
330
1E
100
AcDbEntity
  8
SIZE
  6
BYBLOCK
100
AcDbLine
 10
904.453688
 20
2.0
 30
0.0
 11
904.453688
 21
138.0
 31
0.0
  0
CIRCLE
  5
81D
330
1E
100
AcDbEntity
  8
SIZE
  6
CONTINUOUS
100
AcDbCircle
 10
904.453688
 20
140.0
 30
0.0
 40
6.0
  0
TEXT
  5
81E
330
1E
100
AcDbEntity
  8
SIZE
  6
BYBLOCK
100
AcDbText
 10
316.2428570000002
 20
933.80031360574
 30
0.0
 40
64.0
  1
77
 41
0.9
100
AcDbText
  0
CIRCLE
  5
81F
330
1E
100
AcDbEntity
  8
SIZE
  6
CONTINUOUS
100
AcDbCircle
 10
420.0
 20
745.7659299999995
 30
0.0
 40
6.0
  0
LINE
  5
820
330
1E
100
AcDbEntity
  8
SIZE
  6
BYBLOCK
100
AcDbLine
 10
407.0
 20
914.88214
 30
0.0
 11
333.0440418017897
 21
914.88214
 31
0.0
  0
CIRCLE
  5
821
330
1E
100
AcDbEntity
  8
SIZE
  6
CONTINUOUS
100
AcDbCircle
 10
330.0
 20
914.88214
 30
0.0
 40
6.0
  0
CIRCLE
  5
822
330
1E
100
AcDbEntity
  8
SIZE
  6
CONTINUOUS
100
AcDbCircle
 10
407.0
 20
914.88214
 30
0.0
 40
6.0
  0
TEXT
  5
824
330
1E
100
AcDbEntity
  8
SIZE
  6
BYBLOCK
100
AcDbText
 10
332.3416613185209
 20
1077.311870778844
 30
0.0
 40
64.0
  1
85
 41
0.9
100
AcDbText
  0
LINE
  5
825
330
1E
100
AcDbEntity
  8
SIZE
  6
BYBLOCK
100
AcDbLine
 10
415.0000000000004
 20
1059.4
 30
0.0
 11
332.4733124706454
 21
1059.4
 31
0.0
  0
CIRCLE
  5
826
330
1E
100
AcDbEntity
  8
SIZE
  6
CONTINUOUS
100
AcDbCircle
 10
330.0
 20
1059.4
 30
0.0
 40
6.0
  0
CIRCLE
  5
827
330
1E
100
AcDbEntity
  8
SIZE
  6
CONTINUOUS
100
AcDbCircle
 10
415.0
 20
1059.4
 30
0.0
 40
6.0
  0
TEXT
  5
828
330
1E
100
AcDbEntity
  8
SIZE
  6
BYBLOCK
100
AcDbText
 10
324.3714289999998
 20
1226.693
 30
0.0
 40
64.0
  1
90
 41
0.9
100
AcDbText
  0
LINE
  5
829
330
1E
100
AcDbEntity
  8
SIZE
  6
BYBLOCK
100
AcDbLine
 10
332.8367774391881
 20
1194.693
 30
0.0
 11
418.0
 21
1194.693
 31
0.0
  0
CIRCLE
  5
82A
330
1E
100
AcDbEntity
  8
SIZE
  6
CONTINUOUS
100
AcDbCircle
 10
330.0
 20
1194.693
 30
0.0
 40
6.0
  0
CIRCLE
  5
82B
330
1E
100
AcDbEntity
  8
SIZE
  6
CONTINUOUS
100
AcDbCircle
 10
420.0
 20
1194.693
 30
0.0
 40
6.0
  0
TEXT
  5
82C
330
1E
100
AcDbEntity
  8
ETC
  6
CONTINUOUS
100
AcDbText
 10
825.7046780366326
 20
552.3610541051039
 30
0.0
 40
64.0
  1
SPLF5005
 41
0.9
100
AcDbText
  0
TEXT
  5
82D
330
1E
100
AcDbEntity
  8
SIZE
  6
BYBLOCK
100
AcDbText
 10
1181.84
 20
16.42857099999992
 30
0.0
 40
64.0
  1
170
 50
90.0
 41
0.9
100
AcDbText
  0
CIRCLE
  5
82E
330
1E
100
AcDbEntity
  8
SIZE
  6
CONTINUOUS
100
AcDbCircle
 10
1072.542
 20
167.0
 30
0.0
 40
6.0
  0
LINE
  5
82F
330
1E
100
AcDbEntity
  8
SIZE
  6
BYBLOCK
100
AcDbLine
 10
1072.542
 20
2.0
 30
0.0
 11
1072.542
 21
167.0
 31
0.0
  0
TEXT
  5
830
330
1E
100
AcDbEntity
  8
SIZE
  6
BYBLOCK
100
AcDbText
 10
1040.542
 20
16.42857099999992
 30
0.0
 40
64.0
  1
167
 50
90.0
 41
0.9
100
AcDbText
  0
CIRCLE
  5
831
330
1E
100
AcDbEntity
  8
SIZE
  6
CONTINUOUS
100
AcDbCircle
 10
1213.84
 20
170.0
 30
0.0
 40
6.0
  0
LINE
  5
832
330
1E
100
AcDbEntity
  8
SIZE
  6
BYBLOCK
100
AcDbLine
 10
1213.84
 20
2.0
 30
0.0
 11
1213.84
 21
170.0
 31
0.0
  0
TEXT
  5
833
330
1E
100
AcDbEntity
  8
ETC
  6
CONTINUOUS
100
AcDbText
 10
832.363678036634
 20
712.1727231051038
 30
0.0
 40
64.0
  1
PAC
 41
0.9
100
AcDbText
  0
LINE
  5
1642
330
1E
100
AcDbEntity
  8
NOTE
  6
CONTINUOUS
100
AcDbLine
 10
415.0
 20
150.0
 30
0.0
 11
415.0
 21
190.0
 31
0.0
  0
LINE
  5
1646
330
1E
100
AcDbEntity
  8
NOTE
  6
CONTINUOUS
100
AcDbLine
 10
407.0
 20
120.0
 30
0.0
 11
407.0
 21
160.0
 31
0.0
  0
LINE
  5
1683
330
1E
100
AcDbEntity
  8
OUTLINE
  6
CONTINUOUS
100
AcDbLine
 10
-475.0
 20
-35.0
 30
0.0
 11
475.0
 21
-35.0
 31
0.0
  0
LINE
  5
1685
330
1E
100
AcDbEntity
  8
OUTLINE
  6
CONTINUOUS
100
AcDbLine
 10
-420.0
 20
258.0
 30
0.0
 11
420.0
 21
258.0
 31
0.0
  0
LINE
  5
1686
330
1E
100
AcDbEntity
  8
OUTLINE
  6
CONTINUOUS
100
AcDbLine
 10
-475.0
 20
0.0
 30
0.0
 11
-420.0000000000001
 21
0.0
 31
0.0
  0
LINE
  5
1687
330
1E
100
AcDbEntity
  8
OUTLINE
  6
CONTINUOUS
100
AcDbLine
 10
-475.0
 20
0.0
 30
0.0
 11
-475.0
 21
-35.0
 31
0.0
  0
LINE
  5
1689
330
1E
100
AcDbEntity
  8
OUTLINE
  6
CONTINUOUS
100
AcDbLine
 10
-420.0
 20
258.0
 30
0.0
 11
-420.0000000000001
 21
0.0
 31
0.0
  0
LINE
  5
169F
330
1E
100
AcDbEntity
  8
OUTLINE
  6
CONTINUOUS
100
AcDbLine
 10
420.0
 20
258.0
 30
0.0
 11
420.0
 21
0.0
 31
0.0
  0
LINE
  5
16A0
330
1E
100
AcDbEntity
  8
OUTLINE
  6
CONTINUOUS
100
AcDbLine
 10
475.0
 20
0.0
 30
0.0
 11
475.0
 21
-35.0
 31
0.0
  0
LINE
  5
16A1
330
1E
100
AcDbEntity
  8
OUTLINE
  6
CONTINUOUS
100
AcDbLine
 10
420.0
 20
0.0
 30
0.0
 11
475.0
 21
0.0
 31
0.0
  0
ENDSEC
  0
SECTION
  2
OBJECTS
  0
DICTIONARY
  5
C
330
0
100
AcDbDictionary
  3
ACAD_GROUP
350
D
  3
ACAD_LAYOUT
350
19
  3
ACAD_MLINESTYLE
350
16
  3
ACAD_PLOTSETTINGS
350
18
  3
ACAD_PLOTSTYLENAME
350
E
  3
ACDBHEADERROUNDTRIPXREC
350
16A6
  0
DICTIONARY
  5
16C9
330
1E
100
AcDbDictionary
280
     1
  3
ACAD_LAYOUTSELFREF
360
16CA
  0
DICTIONARY
  5
16C7
330
1A
100
AcDbDictionary
280
     1
  3
ACAD_LAYOUTSELFREF
360
16C8
  0
DICTIONARY
  5
D
102
{ACAD_REACTORS
330
C
102
}
330
C
100
AcDbDictionary
  0
DICTIONARY
  5
19
102
{ACAD_REACTORS
330
C
102
}
330
C
100
AcDbDictionary
  0
DICTIONARY
  5
16
102
{ACAD_REACTORS
330
C
102
}
330
C
100
AcDbDictionary
  3
STANDARD
350
17
  0
DICTIONARY
  5
18
102
{ACAD_REACTORS
330
C
102
}
330
C
100
AcDbDictionary
  0
ACDBDICTIONARYWDFLT
  5
E
102
{ACAD_REACTORS
330
C
102
}
330
C
100
AcDbDictionary
281
     1
  3
Normal
350
F
100
AcDbDictionaryWithDefault
340
F
  0
DICTIONARY
  5
16A6
102
{ACAD_REACTORS
330
C
102
}
330
C
100
AcDbDictionary
  3
CEPSNTYPE
350
16B0
  3
DIMSTYLEDATA
350
16B4
  3
FINGERPRINTGUID
350
16B1
  3
HYPERLINKBASE
350
16A9
  3
INSUNITS
350
16AF
  3
LAYOUTDICT
350
16AB
  3
LWETCUNION
350
16AE
  3
PLOTSETDICT
350
16AC
  3
PLOTSTYLNAMDICT
350
16AD
  3
PSVPSCALE
350
16B3
  3
PUCSBASE
350
16B7
  3
PUCSORGBACK
350
16BD
  3
PUCSORGBOTTOM
350
16B9
  3
PUCSORGFRONT
350
16BC
  3
PUCSORGLEFT
350
16BA
  3
PUCSORGRIGHT
350
16BB
  3
PUCSORGTOP
350
16B8
  3
PUCSORTHOREF
350
16B5
  3
PUCSORTHOVIEW
350
16B6
  3
STYLESHEET
350
16AA
  3
TSTACKALIGN
350
16A7
  3
TSTACKSIZE
350
16A8
  3
UCSBASE
350
16C0
  3
UCSORGBACK
350
16C6
  3
UCSORGBOTTOM
350
16C2
  3
UCSORGFRONT
350
16C5
  3
UCSORGLEFT
350
16C3
  3
UCSORGRIGHT
350
16C4
  3
UCSORGTOP
350
16C1
  3
UCSORTHOREF
350
16BE
  3
UCSORTHOVIEW
350
16BF
  3
VERSIONGUID
350
16B2
  0
XRECORD
  5
16CA
102
{ACAD_REACTORS
330
16C9
102
}
330
16C9
100
AcDbXrecord
340
1E
  0
XRECORD
  5
16C8
102
{ACAD_REACTORS
330
16C7
102
}
330
16C7
100
AcDbXrecord
340
1A
  0
MLINESTYLE
  5
17
102
{ACAD_REACTORS
330
16
102
}
330
16
100
AcDbMlineStyle
  2
STANDARD
 70
     0
  3

 62
   256
 51
90.0
 52
90.0
 71
     2
 49
0.5
 62
   256
  6
BYLAYER
 49
-0.5
 62
   256
  6
BYLAYER
  0
ACDBPLACEHOLDER
  5
F
102
{ACAD_REACTORS
330
E
102
}
330
E
100
AcDbPlaceHolder
280
     0
  0
XRECORD
  5
16B0
102
{ACAD_REACTORS
330
16A6
102
}
330
16A6
100
AcDbXrecord
 90
        0
  0
XRECORD
  5
16B4
102
{ACAD_REACTORS
330
16A6
102
}
330
16A6
100
AcDbXrecord
1000
DSTYLE
1002
{
1070
   341
340
13CC
1070
   342
340
13CC
1002
}
  0
XRECORD
  5
16B1
102
{ACAD_REACTORS
330
16A6
102
}
330
16A6
100
AcDbXrecord
  1
{8E873859-7981-469D-9774-FECD588D52BD}
  0
XRECORD
  5
16A9
102
{ACAD_REACTORS
330
16A6
102
}
330
16A6
100
AcDbXrecord
  1

  0
XRECORD
  5
16AF
102
{ACAD_REACTORS
330
16A6
102
}
330
16A6
100
AcDbXrecord
 90
        0
  0
XRECORD
  5
16AB
102
{ACAD_REACTORS
330
16A6
102
}
330
16A6
100
AcDbXrecord
340
19
  0
XRECORD
  5
16AE
102
{ACAD_REACTORS
330
16A6
102
}
330
16A6
100
AcDbXrecord
 90
     2589
  0
XRECORD
  5
16AC
102
{ACAD_REACTORS
330
16A6
102
}
330
16A6
100
AcDbXrecord
340
18
  0
XRECORD
  5
16AD
102
{ACAD_REACTORS
330
16A6
102
}
330
16A6
100
AcDbXrecord
340
E
  0
XRECORD
  5
16B3
102
{ACAD_REACTORS
330
16A6
102
}
330
16A6
100
AcDbXrecord
 40
0.0
  0
XRECORD
  5
16B7
102
{ACAD_REACTORS
330
16A6
102
}
330
16A6
100
AcDbXrecord
340
0
  0
XRECORD
  5
16BD
102
{ACAD_REACTORS
330
16A6
102
}
330
16A6
100
AcDbXrecord
 10
0.0
 20
0.0
 30
0.0
  0
XRECORD
  5
16B9
102
{ACAD_REACTORS
330
16A6
102
}
330
16A6
100
AcDbXrecord
 10
0.0
 20
0.0
 30
0.0
  0
XRECORD
  5
16BC
102
{ACAD_REACTORS
330
16A6
102
}
330
16A6
100
AcDbXrecord
 10
0.0
 20
0.0
 30
0.0
  0
XRECORD
  5
16BA
102
{ACAD_REACTORS
330
16A6
102
}
330
16A6
100
AcDbXrecord
 10
0.0
 20
0.0
 30
0.0
  0
XRECORD
  5
16BB
102
{ACAD_REACTORS
330
16A6
102
}
330
16A6
100
AcDbXrecord
 10
0.0
 20
0.0
 30
0.0
  0
XRECORD
  5
16B8
102
{ACAD_REACTORS
330
16A6
102
}
330
16A6
100
AcDbXrecord
 10
0.0
 20
0.0
 30
0.0
  0
XRECORD
  5
16B5
102
{ACAD_REACTORS
330
16A6
102
}
330
16A6
100
AcDbXrecord
340
0
  0
XRECORD
  5
16B6
102
{ACAD_REACTORS
330
16A6
102
}
330
16A6
100
AcDbXrecord
 70
     0
  0
XRECORD
  5
16AA
102
{ACAD_REACTORS
330
16A6
102
}
330
16A6
100
AcDbXrecord
  1

  0
XRECORD
  5
16A7
102
{ACAD_REACTORS
330
16A6
102
}
330
16A6
100
AcDbXrecord
 90
        1
  0
XRECORD
  5
16A8
102
{ACAD_REACTORS
330
16A6
102
}
330
16A6
100
AcDbXrecord
 90
       70
  0
XRECORD
  5
16C0
102
{ACAD_REACTORS
330
16A6
102
}
330
16A6
100
AcDbXrecord
340
0
  0
XRECORD
  5
16C6
102
{ACAD_REACTORS
330
16A6
102
}
330
16A6
100
AcDbXrecord
 10
0.0
 20
0.0
 30
0.0
  0
XRECORD
  5
16C2
102
{ACAD_REACTORS
330
16A6
102
}
330
16A6
100
AcDbXrecord
 10
0.0
 20
0.0
 30
0.0
  0
XRECORD
  5
16C5
102
{ACAD_REACTORS
330
16A6
102
}
330
16A6
100
AcDbXrecord
 10
0.0
 20
0.0
 30
0.0
  0
XRECORD
  5
16C3
102
{ACAD_REACTORS
330
16A6
102
}
330
16A6
100
AcDbXrecord
 10
0.0
 20
0.0
 30
0.0
  0
XRECORD
  5
16C4
102
{ACAD_REACTORS
330
16A6
102
}
330
16A6
100
AcDbXrecord
 10
0.0
 20
0.0
 30
0.0
  0
XRECORD
  5
16C1
102
{ACAD_REACTORS
330
16A6
102
}
330
16A6
100
AcDbXrecord
 10
0.0
 20
0.0
 30
0.0
  0
XRECORD
  5
16BE
102
{ACAD_REACTORS
330
16A6
102
}
330
16A6
100
AcDbXrecord
340
0
  0
XRECORD
  5
16BF
102
{ACAD_REACTORS
330
16A6
102
}
330
16A6
100
AcDbXrecord
 70
     0
  0
XRECORD
  5
16B2
102
{ACAD_REACTORS
330
16A6
102
}
330
16A6
100
AcDbXrecord
  1
{7C80EFAB-D144-4E9F-94E6-EAC279FF81E2}
  0
ENDSEC
  0
EOF
