  0
SECTION
  2
HEADER
  9
$ACADVER
  1
AC1014
  9
$ACADMAINTVER
 70
     9
  9
$DWGCODEPAGE
  3
ANSI_932
  9
$INSBASE
 10
0.0
 20
0.0
 30
0.0
  9
$EXTMIN
 10
-1255.905199336923
 20
-870.80507127071
 30
0.0
  9
$EXTMAX
 10
1683.122130374488
 20
819.9709765964344
 30
0.0
  9
$LIMMIN
 10
-3518.387125399174
 20
-5593.116312394538
  9
$LIMMAX
 10
5758.631667405673
 20
1053.963767074958
  9
$ORTHOMODE
 70
     0
  9
$REGENMODE
 70
     1
  9
$FILLMODE
 70
     1
  9
$QTEXTMODE
 70
     0
  9
$MIRRTEXT
 70
     0
  9
$DRAGMODE
 70
     2
  9
$LTSCALE
 40
20.0
  9
$OSMODE
 70
    39
  9
$ATTMODE
 70
     1
  9
$TEXTSIZE
 40
64.0
  9
$TRACEWID
 40
0.05
  9
$TEXTSTYLE
  7
STANDARD
  9
$CLAYER
  8
0
  9
$CELTYPE
  6
BYLAYER
  9
$CECOLOR
 62
   256
  9
$CELTSCALE
 40
1.0
  9
$DELOBJ
 70
     1
  9
$DISPSILH
 70
     0
  9
$DIMSCALE
 40
1.0
  9
$DIMASZ
 40
10.0
  9
$DIMEXO
 40
20.0
  9
$DIMDLI
 40
200.0
  9
$DIMRND
 40
0.0
  9
$DIMDLE
 40
0.0
  9
$DIMEXE
 40
30.0
  9
$DIMTP
 40
0.0
  9
$DIMTM
 40
0.0
  9
$DIMTXT
 40
64.0
  9
$DIMCEN
 40
0.09
  9
$DIMTSZ
 40
0.0
  9
$DIMTOL
 70
     0
  9
$DIMLIM
 70
     0
  9
$DIMTIH
 70
     0
  9
$DIMTOH
 70
     0
  9
$DIMSE1
 70
     0
  9
$DIMSE2
 70
     0
  9
$DIMTAD
 70
     1
  9
$DIMZIN
 70
     8
  9
$DIMBLK
  1
ORIGIN
  9
$DIMASO
 70
     1
  9
$DIMSHO
 70
     0
  9
$DIMPOST
  1

  9
$DIMAPOST
  1

  9
$DIMALT
 70
     0
  9
$DIMALTD
 70
     2
  9
$DIMALTF
 40
25.4
  9
$DIMLFAC
 40
1.0
  9
$DIMTOFL
 70
     1
  9
$DIMTVP
 40
0.0
  9
$DIMTIX
 70
     0
  9
$DIMSOXD
 70
     0
  9
$DIMSAH
 70
     0
  9
$DIMBLK1
  1

  9
$DIMBLK2
  1

  9
$DIMSTYLE
  2
STANDARD
  9
$DIMCLRD
 70
     0
  9
$DIMCLRE
 70
     0
  9
$DIMCLRT
 70
     0
  9
$DIMTFAC
 40
1.0
  9
$DIMGAP
 40
20.0
  9
$DIMJUST
 70
     0
  9
$DIMSD1
 70
     0
  9
$DIMSD2
 70
     0
  9
$DIMTOLJ
 70
     1
  9
$DIMTZIN
 70
     0
  9
$DIMALTZ
 70
     0
  9
$DIMALTTZ
 70
     0
  9
$DIMFIT
 70
     3
  9
$DIMUPT
 70
     0
  9
$DIMUNIT
 70
     2
  9
$DIMDEC
 70
     4
  9
$DIMTDEC
 70
     4
  9
$DIMALTU
 70
     2
  9
$DIMALTTD
 70
     2
  9
$DIMTXSTY
  7
STANDARD
  9
$DIMAUNIT
 70
     0
  9
$LUNITS
 70
     2
  9
$LUPREC
 70
     4
  9
$SKETCHINC
 40
0.1
  9
$FILLETRAD
 40
6.0
  9
$AUNITS
 70
     1
  9
$AUPREC
 70
     3
  9
$MENU
  1
ACAD
  9
$ELEVATION
 40
0.0
  9
$PELEVATION
 40
0.0
  9
$THICKNESS
 40
0.0
  9
$LIMCHECK
 70
     0
  9
$BLIPMODE
 70
     0
  9
$CHAMFERA
 40
0.0
  9
$CHAMFERB
 40
0.0
  9
$CHAMFERC
 40
0.0
  9
$CHAMFERD
 40
0.0
  9
$SKPOLY
 70
     0
  9
$TDCREATE
 40
2450330.393205995
  9
$TDUPDATE
 40
2456737.420272893
  9
$TDINDWG
 40
1.6308832870
  9
$TDUSRTIMER
 40
1.6308829977
  9
$USRTIMER
 70
     1
  9
$ANGBASE
 50
0.0
  9
$ANGDIR
 70
     0
  9
$PDMODE
 70
     3
  9
$PDSIZE
 40
-2.0
  9
$PLINEWID
 40
0.0
  9
$COORDS
 70
     2
  9
$SPLFRAME
 70
     0
  9
$SPLINETYPE
 70
     6
  9
$SPLINESEGS
 70
     8
  9
$ATTDIA
 70
     0
  9
$ATTREQ
 70
     1
  9
$HANDLING
 70
-16383
  9
$HANDSEED
  5
3AF95
  9
$SURFTAB1
 70
     6
  9
$SURFTAB2
 70
     6
  9
$SURFTYPE
 70
     6
  9
$SURFU
 70
     6
  9
$SURFV
 70
     6
  9
$UCSNAME
  2

  9
$UCSORG
 10
0.0
 20
0.0
 30
0.0
  9
$UCSXDIR
 10
1.0
 20
0.0
 30
0.0
  9
$UCSYDIR
 10
0.0
 20
1.0
 30
0.0
  9
$PUCSNAME
  2

  9
$PUCSORG
 10
0.0
 20
0.0
 30
0.0
  9
$PUCSXDIR
 10
1.0
 20
0.0
 30
0.0
  9
$PUCSYDIR
 10
0.0
 20
1.0
 30
0.0
  9
$USERI1
 70
     0
  9
$USERI2
 70
     0
  9
$USERI3
 70
     0
  9
$USERI4
 70
     0
  9
$USERI5
 70
     0
  9
$USERR1
 40
20.0
  9
$USERR2
 40
0.0
  9
$USERR3
 40
0.0
  9
$USERR4
 40
0.0
  9
$USERR5
 40
0.0
  9
$WORLDVIEW
 70
     1
  9
$SHADEDGE
 70
     3
  9
$SHADEDIF
 70
    70
  9
$TILEMODE
 70
     1
  9
$MAXACTVP
 70
    64
  9
$PINSBASE
 10
0.0
 20
0.0
 30
0.0
  9
$PLIMCHECK
 70
     0
  9
$PEXTMIN
 10
1.000000000000000E+20
 20
1.000000000000000E+20
 30
1.000000000000000E+20
  9
$PEXTMAX
 10
-1.000000000000000E+20
 20
-1.000000000000000E+20
 30
-1.000000000000000E+20
  9
$PLIMMIN
 10
0.0
 20
0.0
  9
$PLIMMAX
 10
12.0
 20
9.0
  9
$UNITMODE
 70
     0
  9
$VISRETAIN
 70
     1
  9
$PLINEGEN
 70
     0
  9
$PSLTSCALE
 70
     1
  9
$TREEDEPTH
 70
  3020
  9
$PICKSTYLE
 70
     1
  9
$CMLSTYLE
  2
STANDARD
  9
$CMLJUST
 70
     0
  9
$CMLSCALE
 40
1.0
  9
$PROXYGRAPHICS
 70
     1
  9
$MEASUREMENT
 70
     0
  0
ENDSEC
  0
SECTION
  2
CLASSES
  0
CLASS
  1
ACDBDICTIONARYWDFLT
  2
AcDbDictionaryWithDefault
  3
AutoCAD 2000
 90
        0
280
     0
281
     0
  0
CLASS
  1
ACDBPLACEHOLDER
  2
AcDbPlaceHolder
  3
AutoCAD 2000
 90
        0
280
     0
281
     0
  0
CLASS
  1
LAYOUT
  2
AcDbLayout
  3
AutoCAD 2000
 90
        0
280
     0
281
     0
  0
CLASS
  1
LONG_TRANSACTION
  2
AcDbLongTransaction
  3
AutoCAD 2000
 90
        0
280
     0
281
     0
  0
CLASS
  1
LWPOLYLINE
  2
AcDbPolyline
  3
AutoCAD 2000
 90
        0
280
     0
281
     1
  0
CLASS
  1
HATCH
  2
AcDbHatch
  3
AutoCAD 2000
 90
        0
280
     0
281
     1
  0
CLASS
  1
XRECORD
  2
AcDbXrecord
  3
AutoCAD 2000
 90
        0
280
     0
281
     0
  0
CLASS
  1
LONG_TRANSACTION
  2
AcDbLongTransaction
  3
AutoCAD 2000
 90
        0
280
     0
281
     0
  0
CLASS
  1
LWPOLYLINE
  2
AcDbPolyline
  3
AutoCAD 2000
 90
        0
280
     0
281
     1
  0
CLASS
  1
HATCH
  2
AcDbHatch
  3
AutoCAD 2000
 90
        0
280
     0
281
     1
  0
CLASS
  1
XRECORD
  2
AcDbXrecord
  3
AutoCAD 2000
 90
        0
280
     0
281
     0
  0
CLASS
  1
LONG_TRANSACTION
  2
AcDbLongTransaction
  3
AutoCAD 2000
 90
        0
280
     0
281
     0
  0
CLASS
  1
LWPOLYLINE
  2
AcDbPolyline
  3
AutoCAD 2000
 90
        0
280
     0
281
     1
  0
CLASS
  1
HATCH
  2
AcDbHatch
  3
AutoCAD 2000
 90
        0
280
     0
281
     1
  0
CLASS
  1
XRECORD
  2
AcDbXrecord
  3
AutoCAD 2000
 90
        0
280
     0
281
     0
  0
ENDSEC
  0
SECTION
  2
TABLES
  0
TABLE
  2
VPORT
  5
3D1
330
0
100
AcDbSymbolTable
 70
     3
  0
VPORT
  5
3AF71
330
3D1
100
AcDbSymbolTableRecord
100
AcDbViewportTableRecord
  2
*ACTIVE
 70
     0
 10
0.0
 20
0.0
 11
1.0
 21
1.0
 12
88.58750691057593
 22
-49.05143230464182
 13
0.0
 23
0.0
 14
50.0
 24
50.0
 15
100.0
 25
100.0
 16
0.0
 26
0.0
 36
1.0
 17
0.0
 27
0.0
 37
0.0
 40
2758.702126869539
 41
1.56020278833967
 42
50.0
 43
0.0
 44
0.0
 50
0.0
 51
0.0
 71
     0
 72
   500
 73
     1
 74
     0
 75
     0
 76
     0
 77
     0
 78
     0
  0
ENDTAB
  0
TABLE
  2
LTYPE
  5
3CE
330
0
100
AcDbSymbolTable
 70
     7
  0
LTYPE
  5
3DC
330
3CE
100
AcDbSymbolTableRecord
100
AcDbLinetypeTableRecord
  2
BYBLOCK
 70
     0
  3

 72
    65
 73
     0
 40
0.0
  0
LTYPE
  5
3DD
330
3CE
100
AcDbSymbolTableRecord
100
AcDbLinetypeTableRecord
  2
BYLAYER
 70
     0
  3

 72
    65
 73
     0
 40
0.0
  0
LTYPE
  5
3DE
330
3CE
100
AcDbSymbolTableRecord
100
AcDbLinetypeTableRecord
  2
CONTINUOUS
 70
     0
  3
実線
 72
    65
 73
     0
 40
0.0
  0
LTYPE
  5
3ED
330
3CE
100
AcDbSymbolTableRecord
100
AcDbLinetypeTableRecord
  2
DASHDOT
 70
     0
  3
____ _ ____ _ ____ _ ____ _ ____ _ ____ _ ____
 72
    65
 73
     4
 40
5.5
 49
4.0
 74
     0
 49
-0.6
 74
     0
 49
0.3
 74
     0
 49
-0.6
 74
     0
  0
LTYPE
  5
3EE
330
3CE
100
AcDbSymbolTableRecord
100
AcDbLinetypeTableRecord
  2
CONTINOUS
 70
     0
  3
Solid line
 72
    65
 73
     0
 40
0.0
  0
LTYPE
  5
26A7
330
3CE
100
AcDbSymbolTableRecord
100
AcDbLinetypeTableRecord
  2
DOT_CENTER
 70
     0
  3
Dot_Center
 72
    65
 73
     4
 40
14.0
 49
12.0
 74
     0
 49
-1.0
 74
     0
 49
0.0
 74
     0
 49
-1.0
 74
     0
  0
LTYPE
  5
26A8
330
3CE
100
AcDbSymbolTableRecord
100
AcDbLinetypeTableRecord
  2
PHANTOM
 70
     0
  3
Phantom
 72
    65
 73
     6
 40
13.0
 49
10.0
 74
     0
 49
-1.0
 74
     0
 49
0.0
 74
     0
 49
-1.0
 74
     0
 49
0.0
 74
     0
 49
-1.0
 74
     0
  0
LTYPE
  5
19770
330
3CE
100
AcDbSymbolTableRecord
100
AcDbLinetypeTableRecord
  2
DASHED
 70
     0
  3
Dashed
 72
    65
 73
     2
 40
15.0
 49
7.0
 74
     0
 49
-8.0
 74
     0
  0
LTYPE
  5
19771
330
3CE
100
AcDbSymbolTableRecord
100
AcDbLinetypeTableRecord
  2
DASH_CENTER
 70
     0
  3
Dash_Center
 72
    65
 73
     4
 40
14.0
 49
11.0
 74
     0
 49
-1.0
 74
     0
 49
1.0
 74
     0
 49
-1.0
 74
     0
  0
ENDTAB
  0
TABLE
  2
LAYER
  5
3CB
330
0
100
AcDbSymbolTable
 70
    11
  0
LAYER
  5
3D9
330
3CB
100
AcDbSymbolTableRecord
100
AcDbLayerTableRecord
  2
0
 70
     0
 62
     7
  6
CONTINUOUS
  0
LAYER
  5
3EB
330
3CB
100
AcDbSymbolTableRecord
100
AcDbLayerTableRecord
  2
SIZE
 70
     0
 62
    32
  6
CONTINUOUS
  0
LAYER
  5
3F4
330
3CB
100
AcDbSymbolTableRecord
100
AcDbLayerTableRecord
  2
DETAIL
 70
     0
 62
     5
  6
CONTINUOUS
  0
LAYER
  5
3F5
330
3CB
100
AcDbSymbolTableRecord
100
AcDbLayerTableRecord
  2
OUTLINE
 70
     0
 62
     3
  6
CONTINUOUS
  0
LAYER
  5
3F6
330
3CB
100
AcDbSymbolTableRecord
100
AcDbLayerTableRecord
  2
BASIS
 70
     0
 62
     6
  6
CONTINUOUS
  0
LAYER
  5
3F7
330
3CB
100
AcDbSymbolTableRecord
100
AcDbLayerTableRecord
  2
NOTE
 70
     0
 62
     4
  6
CONTINUOUS
  0
LAYER
  5
3F8
330
3CB
100
AcDbSymbolTableRecord
100
AcDbLayerTableRecord
  2
ARRANGE
 70
     0
 62
     1
  6
CONTINUOUS
  0
LAYER
  5
3F9
330
3CB
100
AcDbSymbolTableRecord
100
AcDbLayerTableRecord
  2
FIX
 70
     0
 62
   241
  6
CONTINUOUS
  0
LAYER
  5
3FA
330
3CB
100
AcDbSymbolTableRecord
100
AcDbLayerTableRecord
  2
ETC
 70
     0
 62
    83
  6
CONTINUOUS
  0
LAYER
  5
3FB
330
3CB
100
AcDbSymbolTableRecord
100
AcDbLayerTableRecord
  2
SERVICESPACE
 70
     0
 62
     2
  6
DASHDOT
  0
LAYER
  5
3FD
330
3CB
100
AcDbSymbolTableRecord
100
AcDbLayerTableRecord
  2
DEFPOINTS
 70
     0
 62
     7
  6
CONTINUOUS
  0
ENDTAB
  0
TABLE
  2
STYLE
  5
3CC
330
0
100
AcDbSymbolTable
 70
     1
  0
STYLE
  5
3DA
330
3CC
100
AcDbSymbolTableRecord
100
AcDbTextStyleTableRecord
  2
STANDARD
 70
     0
 40
0.0
 41
0.9
 50
0.0
 71
     0
 42
64.0
  3
SIMPLEX
  4
BIGFONT
  0
ENDTAB
  0
TABLE
  2
VIEW
  5
3CF
330
0
100
AcDbSymbolTable
 70
     1
  0
VIEW
  5
3FF
330
3CF
100
AcDbSymbolTableRecord
100
AcDbViewTableRecord
  2
ALL
 70
     0
 40
4282.62
 10
0.0
 20
41.30990399999999
 41
5940.0
 11
0.0
 21
0.0
 31
1.0
 12
0.0
 22
0.0
 32
0.0
 42
50.0
 43
0.0
 44
0.0
 50
0.0
 71
     0
  0
ENDTAB
  0
TABLE
  2
UCS
  5
3D0
330
0
100
AcDbSymbolTable
 70
     0
  0
ENDTAB
  0
TABLE
  2
APPID
  5
3D2
330
0
100
AcDbSymbolTable
 70
     1
  0
APPID
  5
3DB
330
3D2
100
AcDbSymbolTableRecord
100
AcDbRegAppTableRecord
  2
ACAD
 70
     0
  0
ENDTAB
  0
TABLE
  2
DIMSTYLE
  5
3D3
330
0
100
AcDbSymbolTable
 70
     1
  0
DIMSTYLE
105
400
330
3D3
100
AcDbSymbolTableRecord
100
AcDbDimStyleTableRecord
  2
STANDARD
 70
     0
  3

  4

  5

  6

  7

 40
1.0
 41
0.18
 42
0.0625
 43
0.38
 44
0.18
 45
0.0
 46
0.0
 47
0.0
 48
0.0
140
0.18
141
0.09
142
0.0
143
25.4
144
1.0
145
0.0
146
1.0
147
0.09
 71
     0
 72
     0
 73
     1
 74
     1
 75
     0
 76
     0
 77
     0
 78
     0
170
     0
171
     2
172
     0
173
     0
174
     0
175
     0
176
     0
177
     0
178
     0
270
     2
271
     4
272
     4
273
     2
274
     2
340
3DA
275
     1
280
     0
281
     0
282
     0
283
     1
284
     8
285
     8
286
     8
287
     3
288
     0
  0
ENDTAB
  0
TABLE
  2
BLOCK_RECORD
  5
3CA
330
0
100
AcDbSymbolTable
 70
     1
  0
BLOCK_RECORD
  5
3E7
102
{ACAD_XDICTIONARY
360
3ADEE
102
}
330
3CA
100
AcDbSymbolTableRecord
100
AcDbBlockTableRecord
  2
*MODEL_SPACE
  0
BLOCK_RECORD
  5
3E3
102
{ACAD_XDICTIONARY
360
3ADEC
102
}
330
3CA
100
AcDbSymbolTableRecord
100
AcDbBlockTableRecord
  2
*PAPER_SPACE
  0
BLOCK_RECORD
  5
4A9
330
3CA
100
AcDbSymbolTableRecord
100
AcDbBlockTableRecord
  2
_ORIGIN
  0
ENDTAB
  0
ENDSEC
  0
SECTION
  2
BLOCKS
  0
BLOCK
  5
3E8
330
3E7
100
AcDbEntity
  8
0
100
AcDbBlockBegin
  2
*MODEL_SPACE
 70
     0
 10
0.0
 20
0.0
 30
0.0
  3
*MODEL_SPACE
  1

  0
ENDBLK
  5
3E9
330
3E7
100
AcDbEntity
  8
0
100
AcDbBlockEnd
  0
BLOCK
  5
3E4
330
3E3
100
AcDbEntity
 67
     1
  8
0
100
AcDbBlockBegin
  2
*PAPER_SPACE
 70
     0
 10
0.0
 20
0.0
 30
0.0
  3
*PAPER_SPACE
  1

  0
ENDBLK
  5
3E5
330
3E3
100
AcDbEntity
 67
     1
  8
0
100
AcDbBlockEnd
  0
BLOCK
  5
4AA
330
4A9
100
AcDbEntity
  8
0
100
AcDbBlockBegin
  2
_ORIGIN
 70
     0
 10
0.0
 20
0.0
 30
0.0
  3
_ORIGIN
  1

  0
CIRCLE
  5
4AB
330
4A9
100
AcDbEntity
  8
0
  6
BYBLOCK
 62
     0
100
AcDbCircle
 10
0.0
 20
0.0
 30
0.0
 40
0.5
  0
LINE
  5
4AC
330
4A9
100
AcDbEntity
  8
0
  6
BYBLOCK
 62
     0
100
AcDbLine
 10
0.0
 20
0.0
 30
0.0
 11
-1.0
 21
0.0
 31
0.0
  0
ENDBLK
  5
4AD
330
4A9
100
AcDbEntity
  8
0
100
AcDbBlockEnd
  0
ENDSEC
  0
SECTION
  2
ENTITIES
  0
TEXT
  5
1713E
330
3E7
100
AcDbEntity
  8
ETC
  6
CONTINUOUS
100
AcDbText
 10
1266.207844660202
 20
634.8974420518232
 30
0.0
 40
64.0
  1
SPUZ6416
 41
0.9
100
AcDbText
  0
TEXT
  5
29FF0
330
3E7
100
AcDbEntity
  8
ETC
  6
CONTINUOUS
100
AcDbText
 10
1278.194784653229
 20
755.9709765964343
 30
0.0
 40
64.0
  1
PAC
 41
0.9
100
AcDbText
  0
LINE
  5
3A7AB
330
3E7
100
AcDbEntity
  8
NOTE
  6
CONTINUOUS
100
AcDbLine
 10
-1255.905199336923
 20
-459.2326822769408
 30
0.0
 11
-531.9456098358816
 21
-459.2326822769408
 31
0.0
  0
TEXT
  5
3A7AC
330
3E7
100
AcDbEntity
  8
NOTE
  6
CONTINUOUS
100
AcDbText
 10
-1220.85834462397
 20
-444.130381276942
 30
0.0
 40
64.0
  1
AH 2-12×22長穴
 41
0.9
100
AcDbText
  0
LINE
  5
3A7AD
330
3E7
100
AcDbEntity
  8
NOTE
  6
CONTINUOUS
100
AcDbLine
 10
-1146.761119453289
 20
321.187418993164
 30
0.0
 11
-593.6759446680873
 21
321.187418993164
 31
0.0
  0
LINE
  5
3A7AF
330
3E7
100
AcDbEntity
  8
SIZE
100
AcDbLine
 10
-479.7119998501245
 20
407.5700289564755
 30
0.0
 11
-766.6948569929815
 21
407.5700289564755
 31
0.0
  0
TEXT
  5
3A7B1
330
3E7
100
AcDbEntity
  8
NOTE
  6
CONTINUOUS
100
AcDbText
 10
-939.2706697382305
 20
508.4203471997543
 30
0.0
 40
64.0
  1
ｻ-ﾋﾞｽｽﾍﾟ-ｽ
 41
0.9
100
AcDbText
  0
TEXT
  5
3A7B2
330
3E7
100
AcDbEntity
  8
NOTE
  6
CONTINUOUS
100
AcDbText
 10
-1119.055049453289
 20
331.7751169931653
 30
0.0
 40
64.0
  1
AH 2-U cut
 41
0.9
100
AcDbText
  0
LINE
  5
3A7B3
330
3E7
100
AcDbEntity
  8
NOTE
  6
CONTINUOUS
100
AcDbLine
 10
423.7180001499755
 20
-103.9999962212932
 30
0.0
 11
680.2933256585902
 21
376.7048628631901
 31
0.0
  0
LINE
  5
3A7B4
330
3E7
100
AcDbEntity
  8
SIZE
100
AcDbLine
 10
447.6835403599598
 20
-103.9999962212932
 30
0.0
 11
804.7441393678408
 21
-103.9999962212932
 31
0.0
  0
LINE
  5
3A7B5
330
3E7
100
AcDbEntity
  8
SIZE
100
AcDbLine
 10
400.7498576531925
 20
-125.499996221293
 30
0.0
 11
637.4423404176177
 21
-125.499996221293
 31
0.0
  0
LINE
  5
3A7B6
330
3E7
100
AcDbEntity
  8
NOTE
  6
CONTINUOUS
100
AcDbLine
 10
366.7180001499755
 20
-125.499996221293
 30
0.0
 11
711.1529049384762
 21
519.8135468558412
 31
0.0
  0
TEXT
  5
3A7B7
330
3E7
100
AcDbEntity
  8
SIZE
100
AcDbText
 10
489.2717771052002
 20
-336.6093826509741
 30
0.0
 40
64.0
  1
46
 41
0.9
100
AcDbText
  0
LINE
  5
3A7B8
330
3E7
100
AcDbEntity
  8
SIZE
100
AcDbLine
 10
314.8230001499305
 20
-203.7082399999553
 30
0.0
 11
1223.994506541361
 21
-203.7082399999553
 31
0.0
  0
LINE
  5
3A7B9
330
3E7
100
AcDbEntity
  8
SIZE
100
AcDbLine
 10
314.8230001499305
 20
-189.7082399999553
 30
0.0
 11
1000.923925118591
 21
-189.7082399999553
 31
0.0
  0
LINE
  5
3A7BA
330
3E7
100
AcDbEntity
  8
SIZE
100
AcDbLine
 10
314.8230001499305
 20
180.2917600000446
 30
0.0
 11
1000.923925118591
 21
180.2917600000446
 31
0.0
  0
LINE
  5
3A7BB
330
3E7
100
AcDbEntity
  8
SIZE
100
AcDbLine
 10
314.8230001499305
 20
180.2917600000446
 30
0.0
 11
979.7351007840807
 21
180.2917600000446
 31
0.0
  0
LINE
  5
3A7BC
330
3E7
100
AcDbEntity
  8
SIZE
100
AcDbLine
 10
327.645499806973
 20
199.2803600000588
 30
0.0
 11
1222.115785130158
 21
199.3754191281631
 31
0.0
  0
LINE
  5
3A7BD
330
3E7
100
AcDbEntity
  8
SIZE
100
AcDbLine
 10
489.7180001499755
 20
-664.9999962212932
 30
0.0
 11
804.7441393678408
 21
-664.9999962212932
 31
0.0
  0
LINE
  5
3A7BE
330
3E7
100
AcDbEntity
  8
SIZE
100
AcDbLine
 10
489.7180001499755
 20
-164.999996221293
 30
0.0
 11
804.7441393678408
 21
-164.999996221293
 31
0.0
  0
LINE
  5
3A7C0
330
3E7
100
AcDbEntity
  8
BASIS
  6
DASHDOT
100
AcDbLine
 10
543.431685672489
 20
0.0
 30
0.0
 11
-546.2748784953164
 21
0.0
 31
0.0
  0
LINE
  5
3A7C1
330
3E7
100
AcDbEntity
  8
SIZE
100
AcDbLine
 10
495.0
 20
-165.0
 30
0.0
 11
647.4349323467849
 21
-165.0
 31
0.0
  0
LINE
  5
3A7C2
330
3E7
100
AcDbEntity
  8
SIZE
100
AcDbLine
 10
469.7180001499755
 20
-347.9303015200948
 30
0.0
 11
582.6189199623431
 21
-347.9303015200948
 31
0.0
  0
LINE
  5
3A7C3
330
3E7
100
AcDbEntity
  8
SIZE
100
AcDbLine
 10
495.0
 20
-165.0
 30
0.0
 11
790.5659192523398
 21
-165.0000000000009
 31
0.0
  0
LINE
  5
3A7C4
330
3E7
100
AcDbEntity
  8
SIZE
100
AcDbLine
 10
366.7180001499755
 20
-156.0025039074814
 30
0.0
 11
366.7180001499755
 21
-377.333790910291
 31
0.0
  0
LINE
  5
3A7C5
330
3E7
100
AcDbEntity
  8
SIZE
100
AcDbLine
 10
423.7180001499755
 20
-135.0736336322725
 30
0.0
 11
423.7180001499755
 21
-377.333790910291
 31
0.0
  0
LINE
  5
3A7C6
330
3E7
100
AcDbEntity
  8
NOTE
  6
CONTINUOUS
100
AcDbLine
 10
269.7180001499753
 20
-164.9998502924425
 30
0.0
 11
112.042560565603
 21
-352.5583878916493
 31
0.0
  0
LINE
  5
3A7C7
330
3E7
100
AcDbEntity
  8
SIZE
100
AcDbLine
 10
269.7180001499753
 20
-190.066459956789
 30
0.0
 11
269.7180001499753
 21
-613.0679113658953
 31
0.0
  0
LWPOLYLINE
  5
3A7C8
330
3E7
100
AcDbEntity
  8
NOTE
  6
CONTINUOUS
100
AcDbPolyline
 90
        3
 70
     0
 43
0.0
 10
252.5026729556544
 20
-201.1057019933796
 10
269.7180001499753
 20
-164.9998502924425
 10
236.7561640288465
 20
-187.660771789473
  0
LINE
  5
3A7C9
330
3E7
100
AcDbEntity
  8
BASIS
  6
DASHDOT
100
AcDbLine
 10
-118.711999850125
 20
-252.8667730863098
 30
0.0
 11
-118.711999850125
 21
-117.1355340863092
 31
0.0
  0
LINE
  5
3A7CA
330
3E7
100
AcDbEntity
  8
SIZE
100
AcDbLine
 10
-479.711999850125
 20
-164.9999961493167
 30
0.0
 11
-479.711999850125
 21
-483.0039843313413
 31
0.0
  0
LINE
  5
3A7CC
330
3E7
100
AcDbEntity
  8
NOTE
  6
CONTINUOUS
100
AcDbLine
 10
-305.1769998500692
 20
-189.4862399999554
 30
0.0
 11
-531.9456098358816
 21
-459.2326822769408
 31
0.0
  0
LWPOLYLINE
  5
3A7CD
330
3E7
100
AcDbEntity
  8
NOTE
  6
CONTINUOUS
100
AcDbPolyline
 90
        3
 70
     0
 43
0.0
 10
-322.3923270443902
 20
-225.5920917008924
 10
-305.1769998500692
 20
-189.4862399999554
 10
-338.1388359711982
 20
-212.147161496985
  0
LINE
  5
3A7CE
330
3E7
100
AcDbEntity
  8
NOTE
  6
CONTINOUS
100
AcDbLine
 10
-305.1769998500692
 20
-169.4862399999555
 30
0.0
 11
-305.1769998500692
 21
-209.4862399999554
 31
0.0
  0
LINE
  5
3A7CF
330
3E7
100
AcDbEntity
  8
NOTE
  6
CONTINOUS
100
AcDbLine
 10
294.8230001499305
 20
-169.7082399999553
 30
0.0
 11
294.8230001499305
 21
-209.7082399999553
 31
0.0
  0
LINE
  5
3A7D0
330
3E7
100
AcDbEntity
  8
DETAIL
100
AcDbLine
 10
332.3005001499203
 20
-195.4826399999954
 30
0.0
 11
332.3005001499211
 21
-165.0729761682659
 31
0.0
  0
LINE
  5
3A7D2
330
3E7
100
AcDbEntity
  8
DETAIL
100
AcDbLine
 10
324.3053001499192
 20
-198.4808399999518
 30
0.0
 11
324.3053001499192
 21
164.9092055345789
 31
0.0
  0
LINE
  5
3A7D3
330
3E7
100
AcDbEntity
  8
DETAIL
100
AcDbLine
 10
265.3407001499301
 20
-198.4808399999518
 30
0.0
 11
265.3407001499301
 21
-165.0710783287395
 31
0.0
  0
LINE
  5
3A7D4
330
3E7
100
AcDbEntity
  8
DETAIL
100
AcDbLine
 10
257.3455001499314
 20
-195.4826399999954
 30
0.0
 11
257.3455001499314
 21
164.9246685164605
 31
0.0
  0
LINE
  5
3A7D6
330
3E7
100
AcDbEntity
  8
DETAIL
100
AcDbLine
 10
-267.6994998500795
 20
-195.4826399999954
 30
0.0
 11
-267.699499850079
 21
-190.0496205274491
 31
0.0
  0
LINE
  5
3A7D8
330
3E7
100
AcDbEntity
  8
DETAIL
100
AcDbLine
 10
-275.6946998500806
 20
-198.4808399999518
 30
0.0
 11
-275.6946998500806
 21
-190.0496205274565
 31
0.0
  0
LINE
  5
3A7D9
330
3E7
100
AcDbEntity
  8
DETAIL
100
AcDbLine
 10
-334.6592998500761
 20
-190.0496205274594
 30
0.0
 11
-334.6592998500763
 21
-198.4808399999518
 31
0.0
  0
LINE
  5
3A7DB
330
3E7
100
AcDbEntity
  8
DETAIL
100
AcDbLine
 10
-342.6544998500685
 20
-195.4826399999954
 30
0.0
 11
-342.6544998500685
 21
-190.0496205274603
 31
0.0
  0
ARC
  5
3A7DD
330
3E7
100
AcDbEntity
  8
DETAIL
100
AcDbCircle
 10
294.8230001499305
 20
-189.4862399999554
 30
0.0
 40
5.9964
100
AcDbArc
 50
180.0
 51
0.0
  0
LINE
  5
3A7DE
330
3E7
100
AcDbEntity
  8
SIZE
100
AcDbLine
 10
469.7180001499755
 20
-185.0
 30
0.0
 11
469.7180001499755
 21
-377.9303015200948
 31
0.0
  0
LINE
  5
3A7DF
330
3E7
100
AcDbEntity
  8
SIZE
100
AcDbLine
 10
469.7180001499755
 20
-185.0
 30
0.0
 11
469.7180001499755
 21
-613.0679113658953
 31
0.0
  0
CIRCLE
  5
3A7E0
330
3E7
100
AcDbEntity
  8
FIX
  6
CONTINUOUS
100
AcDbCircle
 10
-300.0
 20
-185.0
 30
0.0
 40
40.0
  0
CIRCLE
  5
3A7E1
330
3E7
100
AcDbEntity
  8
FIX
  6
CONTINUOUS
100
AcDbCircle
 10
300.0
 20
-185.0
 30
0.0
 40
40.0
  0
LINE
  5
3A7E2
330
3E7
100
AcDbEntity
  8
BASIS
  6
DASHDOT
100
AcDbLine
 10
0.0
 20
224.900431181999
 30
0.0
 11
0.0
 21
-224.9004311819998
 31
0.0
  0
LINE
  5
3A7E3
330
3E7
100
AcDbEntity
  8
SERVICESPACE
100
AcDbLine
 10
-30.28200362873462
 20
-665.0000071595222
 30
0.0
 11
469.7179963712668
 21
-165.0000071595222
 31
0.0
  0
LINE
  5
3A7E4
330
3E7
100
AcDbEntity
  8
SERVICESPACE
100
AcDbLine
 10
-30.28200362873098
 20
-165.0000071595222
 30
0.0
 11
469.7179963712668
 21
-665.0000071595222
 31
0.0
  0
LINE
  5
3A7E5
330
3E7
100
AcDbEntity
  8
SERVICESPACE
  6
DASHDOT
100
AcDbLine
 10
-30.28200362873098
 20
-165.0000071595222
 30
0.0
 11
-30.28200362873462
 21
-665.0000071595222
 31
0.0
  0
LINE
  5
3A7E6
330
3E7
100
AcDbEntity
  8
SERVICESPACE
  6
DASHDOT
100
AcDbLine
 10
469.7180001499755
 20
315.0000038506831
 30
0.0
 11
469.7180001499755
 21
-665.0000037787083
 31
0.0
  0
LINE
  5
3A7E7
330
3E7
100
AcDbEntity
  8
NOTE
  6
CONTINUOUS
100
AcDbLine
 10
-131.0956510269587
 20
-352.5583878916493
 30
0.0
 11
112.042560565603
 21
-352.5583878916493
 31
0.0
  0
TEXT
  5
3A7E8
330
3E7
100
AcDbEntity
  8
NOTE
  6
CONTINUOUS
100
AcDbText
 10
-116.3153460269604
 20
-337.4560868916505
 30
0.0
 40
64.0
  1
EL,CL
 41
0.9
100
AcDbText
  0
LINE
  5
3A7E9
330
3E7
100
AcDbEntity
  8
SIZE
100
AcDbLine
 10
-479.711999850125
 20
-447.8059722088946
 30
0.0
 11
-118.711999850125
 21
-447.8059722088946
 31
0.0
  0
CIRCLE
  5
3A7EA
330
3E7
100
AcDbEntity
  8
SIZE
100
AcDbCircle
 10
-479.711999850125
 20
-447.8059722088946
 30
0.0
 40
5.0
  0
LINE
  5
3A7EB
330
3E7
100
AcDbEntity
  8
SIZE
100
AcDbLine
 10
-118.711999850125
 20
-265.3337144934038
 30
0.0
 11
-118.711999850125
 21
-472.5603451862471
 31
0.0
  0
TEXT
  5
3A7EC
330
3E7
100
AcDbEntity
  8
SIZE
100
AcDbText
 10
-369.0318042470971
 20
-422.8910725737223
 30
0.0
 40
64.0
  1
361
 41
0.9
100
AcDbText
  0
ARC
  5
3A7ED
330
3E7
100
AcDbEntity
  8
DETAIL
100
AcDbCircle
 10
-277.6934998500692
 20
-198.4808399999518
 30
0.0
 40
4.996999999999998
100
AcDbArc
 50
270.0
 51
359.9999999993744
  0
ARC
  5
3A7EE
330
3E7
100
AcDbEntity
  8
DETAIL
100
AcDbCircle
 10
-277.6934998500692
 20
-198.4808399999518
 30
0.0
 40
1.998799999999999
100
AcDbArc
 50
270.0
 51
0.0
  0
LINE
  5
3A7EF
330
3E7
100
AcDbEntity
  8
DETAIL
100
AcDbLine
 10
-332.6604998500696
 20
-200.4796399999404
 30
0.0
 11
-277.6934998500692
 21
-200.4796399999404
 31
0.0
  0
LINE
  5
3A7F0
330
3E7
100
AcDbEntity
  8
DETAIL
100
AcDbLine
 10
-332.6604998500696
 20
-203.4778399999513
 30
0.0
 11
-277.6934998500692
 21
-203.4778399999513
 31
0.0
  0
ARC
  5
3A7F1
330
3E7
100
AcDbEntity
  8
DETAIL
100
AcDbCircle
 10
-270.6976998500795
 20
-195.4826399999954
 30
0.0
 40
2.9982
100
AcDbArc
 50
270.0
 51
0.0
  0
LINE
  5
3A7F2
330
3E7
100
AcDbEntity
  8
DETAIL
100
AcDbLine
 10
-270.6976998500795
 20
-198.4808399999955
 30
0.0
 11
-275.694699850069
 21
-198.4808399999518
 31
0.0
  0
ARC
  5
3A7F3
330
3E7
100
AcDbEntity
  8
DETAIL
100
AcDbCircle
 10
-332.6604998500696
 20
-198.4808399999518
 30
0.0
 40
4.996999999999998
100
AcDbArc
 50
180.0000000006253
 51
270.0
  0
ARC
  5
3A7F4
330
3E7
100
AcDbEntity
  8
DETAIL
100
AcDbCircle
 10
-339.6562998500776
 20
-195.4826399999954
 30
0.0
 40
2.9982
100
AcDbArc
 50
180.0
 51
270.0
  0
LINE
  5
3A7F5
330
3E7
100
AcDbEntity
  8
DETAIL
100
AcDbLine
 10
-339.6562998500776
 20
-198.4808399999955
 30
0.0
 11
-334.6592998500763
 21
-198.4808399999518
 31
0.0
  0
ARC
  5
3A7F6
330
3E7
100
AcDbEntity
  8
DETAIL
100
AcDbCircle
 10
-332.6604998500696
 20
-198.4808399999518
 30
0.0
 40
1.998799999999999
100
AcDbArc
 50
180.0
 51
270.0
  0
CIRCLE
  5
3A7F7
330
3E7
100
AcDbEntity
  8
SIZE
100
AcDbCircle
 10
-118.711999850125
 20
-447.8059722088946
 30
0.0
 40
5.0
  0
LINE
  5
3A7F8
330
3E7
100
AcDbEntity
  8
SIZE
100
AcDbLine
 10
469.7180001499746
 20
-685.0000033808146
 30
0.0
 11
469.7180001499746
 21
-870.80507127071
 31
0.0
  0
LINE
  5
3A7F9
330
3E7
100
AcDbEntity
  8
SIZE
100
AcDbLine
 10
-30.28199985002538
 20
-685.0000033808146
 30
0.0
 11
-30.28199985002538
 21
-870.80507127071
 31
0.0
  0
LINE
  5
3A7FB
330
3E7
100
AcDbEntity
  8
SIZE
100
AcDbLine
 10
-20.28199985002538
 20
-840.8050712707098
 30
0.0
 11
459.7180001499745
 21
-840.8050712707098
 31
0.0
  0
LINE
  5
3A7FE
330
3E7
100
AcDbEntity
  8
SERVICESPACE
  6
DASHDOT
100
AcDbLine
 10
469.7179963712668
 20
-665.0000071595222
 30
0.0
 11
-30.28200362873462
 21
-665.0000071595222
 31
0.0
  0
TEXT
  5
3A7FF
330
3E7
100
AcDbEntity
  8
NOTE
  6
CONTINUOUS
100
AcDbText
 10
86.40527897099675
 20
-661.5086482392097
 30
0.0
 40
64.0
  1
ｻ-ﾋﾞｽｽﾍﾟ-ｽ
 41
0.9
100
AcDbText
  0
TEXT
  5
3A800
330
3E7
100
AcDbEntity
  8
SIZE
100
AcDbText
 10
308.9830244993218
 20
-560.2201325192488
 30
0.0
 40
64.0
  1
200
 41
0.9
100
AcDbText
  0
LINE
  5
3A801
330
3E7
100
AcDbEntity
  8
SIZE
100
AcDbLine
 10
459.7180001499755
 20
-583.0679113658952
 30
0.0
 11
279.7180001499753
 21
-583.0679113658952
 31
0.0
  0
CIRCLE
  5
3A802
330
3E7
100
AcDbEntity
  8
SIZE
100
AcDbCircle
 10
269.7180001499753
 20
-583.0679113658952
 30
0.0
 40
5.0
  0
LINE
  5
3A803
330
3E7
100
AcDbEntity
  8
SIZE
100
AcDbLine
 10
274.7180001499752
 20
-583.0679113658952
 30
0.0
 11
279.7180001499753
 21
-583.0679113658952
 31
0.0
  0
LINE
  5
3A804
330
3E7
100
AcDbEntity
  8
SIZE
100
AcDbLine
 10
464.7180001499755
 20
-583.0679113658952
 30
0.0
 11
459.7180001499755
 21
-583.0679113658952
 31
0.0
  0
CIRCLE
  5
3A805
330
3E7
100
AcDbEntity
  8
SIZE
100
AcDbCircle
 10
469.7180001499755
 20
-583.0679113658952
 30
0.0
 40
5.0
  0
TEXT
  5
3A806
330
3E7
100
AcDbEntity
  8
SIZE
100
AcDbText
 10
268.7270121924564
 20
-338.445045110041
 30
0.0
 40
64.0
  1
57
 41
0.9
100
AcDbText
  0
LINE
  5
3A807
330
3E7
100
AcDbEntity
  8
SIZE
100
AcDbLine
 10
371.7180001499755
 20
-347.9303015200948
 30
0.0
 11
292.9665715785476
 21
-347.9303015200948
 31
0.0
  0
LINE
  5
3A808
330
3E7
100
AcDbEntity
  8
DETAIL
100
AcDbLine
 10
267.33950014993
 20
-200.4796399999404
 30
0.0
 11
322.3065001499306
 21
-200.4796399999404
 31
0.0
  0
LINE
  5
3A809
330
3E7
100
AcDbEntity
  8
DETAIL
100
AcDbLine
 10
267.33950014993
 20
-203.4778399999513
 30
0.0
 11
322.3065001499306
 21
-203.4778399999513
 31
0.0
  0
ARC
  5
3A80A
330
3E7
100
AcDbEntity
  8
DETAIL
100
AcDbCircle
 10
322.3065001499306
 20
-198.4808399999518
 30
0.0
 40
4.996999999999998
100
AcDbArc
 50
270.0
 51
359.9999999993744
  0
ARC
  5
3A80B
330
3E7
100
AcDbEntity
  8
DETAIL
100
AcDbCircle
 10
322.3065001499306
 20
-198.4808399999518
 30
0.0
 40
1.998799999999999
100
AcDbArc
 50
270.0
 51
0.0
  0
ARC
  5
3A80C
330
3E7
100
AcDbEntity
  8
DETAIL
100
AcDbCircle
 10
329.3023001499205
 20
-195.4826399999954
 30
0.0
 40
2.9982
100
AcDbArc
 50
270.0
 51
0.0
  0
LINE
  5
3A80D
330
3E7
100
AcDbEntity
  8
DETAIL
100
AcDbLine
 10
329.3023001499205
 20
-198.4808399999955
 30
0.0
 11
324.3053001499192
 21
-198.4808399999518
 31
0.0
  0
ARC
  5
3A80E
330
3E7
100
AcDbEntity
  8
DETAIL
100
AcDbCircle
 10
267.33950014993
 20
-198.4808399999518
 30
0.0
 40
4.996999999999998
100
AcDbArc
 50
180.0000000006253
 51
270.0
  0
ARC
  5
3A80F
330
3E7
100
AcDbEntity
  8
DETAIL
100
AcDbCircle
 10
267.33950014993
 20
-198.4808399999518
 30
0.0
 40
1.998799999999999
100
AcDbArc
 50
180.0
 51
270.0
  0
LINE
  5
3A810
330
3E7
100
AcDbEntity
  8
DETAIL
100
AcDbLine
 10
260.3437001499222
 20
-198.4808399999955
 30
0.0
 11
265.3407001499301
 21
-198.4808399999518
 31
0.0
  0
ARC
  5
3A811
330
3E7
100
AcDbEntity
  8
DETAIL
100
AcDbCircle
 10
260.3437001499222
 20
-195.4826399999954
 30
0.0
 40
2.9982
100
AcDbArc
 50
180.0
 51
270.0
  0
LINE
  5
3A812
330
3E7
100
AcDbEntity
  8
SIZE
100
AcDbLine
 10
422.7180001499755
 20
-347.9303015200948
 30
0.0
 11
366.7180001499755
 21
-347.9303015200948
 31
0.0
  0
CIRCLE
  5
3A813
330
3E7
100
AcDbEntity
  8
SIZE
100
AcDbCircle
 10
366.7180001499755
 20
-347.9303015200948
 30
0.0
 40
5.0
  0
LINE
  5
3A814
330
3E7
100
AcDbEntity
  8
SIZE
100
AcDbLine
 10
470.0
 20
-347.9303015200948
 30
0.0
 11
427.7180001499755
 21
-347.9303015200948
 31
0.0
  0
CIRCLE
  5
3A815
330
3E7
100
AcDbEntity
  8
SIZE
100
AcDbCircle
 10
423.7180001499755
 20
-347.9303015200948
 30
0.0
 40
5.0
  0
LINE
  5
3A816
330
3E7
100
AcDbEntity
  8
SIZE
100
AcDbLine
 10
427.7180001499755
 20
-347.9303015200948
 30
0.0
 11
422.7180001499755
 21
-347.9303015200948
 31
0.0
  0
CIRCLE
  5
3A817
330
3E7
100
AcDbEntity
  8
SIZE
100
AcDbCircle
 10
469.7180001499755
 20
-347.9303015200948
 30
0.0
 40
5.0
  0
LINE
  5
3A818
330
3E7
100
AcDbEntity
  8
SERVICESPACE
  6
DASHDOT
100
AcDbLine
 10
469.7180001499755
 20
-165.0000033808137
 30
0.0
 11
-494.7119998501248
 21
-164.9999961493167
 31
0.0
  0
LINE
  5
3A819
330
3E7
100
AcDbEntity
  8
SERVICESPACE
  6
DASHDOT
100
AcDbLine
 10
469.7180001499755
 20
165.000003850683
 30
0.0
 11
-494.7119998501248
 21
165.000003850683
 31
0.0
  0
LINE
  5
3A81B
330
3E7
100
AcDbEntity
  8
DETAIL
100
AcDbLine
 10
225.8924657702753
 20
180.1918200002973
 30
0.0
 11
-267.6994998500704
 21
180.1918200003899
 31
0.0
  0
LINE
  5
3A81C
330
3E7
100
AcDbEntity
  8
DETAIL
100
AcDbLine
 10
168.2234534513991
 20
-190.0496205274311
 30
0.0
 11
-267.699499850079
 21
-190.0496205274555
 31
0.0
  0
LINE
  5
3A81D
330
3E7
100
AcDbEntity
  8
DETAIL
100
AcDbLine
 10
168.2234534513991
 20
-190.0496205274311
 30
0.0
 11
-267.6994998500704
 21
-190.0496205274491
 31
0.0
  0
LINE
  5
3A81E
330
3E7
100
AcDbEntity
  8
DETAIL
100
AcDbLine
 10
168.2234534513991
 20
-190.0496205274311
 30
0.0
 11
-267.6994998500704
 21
-190.0496205274491
 31
0.0
  0
LINE
  5
3A81F
330
3E7
100
AcDbEntity
  8
DETAIL
100
AcDbLine
 10
168.2234534513991
 20
-190.0496205274311
 30
0.0
 11
-267.6994998500704
 21
-190.0496205274491
 31
0.0
  0
LINE
  5
3A820
330
3E7
100
AcDbEntity
  8
DETAIL
100
AcDbLine
 10
168.2234534513991
 20
-190.0496205274311
 30
0.0
 11
-267.6994998500704
 21
-190.0496205274491
 31
0.0
  0
LINE
  5
3A821
330
3E7
100
AcDbEntity
  8
DETAIL
100
AcDbLine
 10
257.3455001499314
 20
-165.070412563464
 30
0.0
 11
-267.6994998500704
 21
-165.0532433738217
 31
0.0
  0
LINE
  5
3A828
330
3E7
100
AcDbEntity
  8
SIZE
100
AcDbLine
 10
-469.7119998501248
 20
577.26090211472
 30
0.0
 11
460.2880001498752
 21
577.26090211472
 31
0.0
  0
POINT
  5
3A829
330
3E7
100
AcDbEntity
  8
ARRANGE
  6
CONTINUOUS
100
AcDbPoint
 10
0.0
 20
0.0
 30
0.0
  0
LINE
  5
3A82A
330
3E7
100
AcDbEntity
  8
SIZE
100
AcDbLine
 10
-294.711999850125
 20
407.5700289564755
 30
0.0
 11
285.2880001498748
 21
407.5700289564755
 31
0.0
  0
LINE
  5
3A82B
330
3E7
100
AcDbEntity
  8
SERVICESPACE
  6
DASHDOT
100
AcDbLine
 10
469.7180001499755
 20
315.0000038506831
 30
0.0
 11
-479.711999850125
 21
315.0000038506831
 31
0.0
  0
TEXT
  5
3A82C
330
3E7
100
AcDbEntity
  8
NOTE
  6
CONTINUOUS
100
AcDbText
 10
-179.3128921748739
 20
342.1233797441872
 30
0.0
 40
64.0
  1
ｻ-ﾋﾞｽｽﾍﾟ-ｽ
 41
0.9
100
AcDbText
  0
LINE
  5
3A82D
330
3E7
100
AcDbEntity
  8
SERVICESPACE
  6
DASHDOT
100
AcDbLine
 10
-479.711999850125
 20
165.000003850683
 30
0.0
 11
469.7180001499755
 21
315.0000038506831
 31
0.0
  0
LINE
  5
3A82E
330
3E7
100
AcDbEntity
  8
SERVICESPACE
  6
DASHDOT
100
AcDbLine
 10
-479.711999850125
 20
315.0000038506831
 30
0.0
 11
469.7180001499755
 21
165.000003850683
 31
0.0
  0
LINE
  5
3A82F
330
3E7
100
AcDbEntity
  8
SIZE
100
AcDbLine
 10
-494.7119998501248
 20
180.5601997865895
 30
0.0
 11
-494.7119998501248
 21
443.5529388396687
 31
0.0
  0
LINE
  5
3A830
330
3E7
100
AcDbEntity
  8
SIZE
100
AcDbLine
 10
-304.711999850125
 20
210.4690483495514
 30
0.0
 11
-304.711999850125
 21
437.5700289564756
 31
0.0
  0
LINE
  5
3A831
330
3E7
100
AcDbEntity
  8
SIZE
100
AcDbLine
 10
-479.7119998501248
 20
184.5887254933275
 30
0.0
 11
-479.7119998501248
 21
437.9813034631468
 31
0.0
  0
LINE
  5
3A832
330
3E7
100
AcDbEntity
  8
SIZE
100
AcDbLine
 10
-304.711999850125
 20
219.5887254933275
 30
0.0
 11
-304.711999850125
 21
437.5700289564756
 31
0.0
  0
LINE
  5
3A833
330
3E7
100
AcDbEntity
  8
SIZE
100
AcDbLine
 10
-479.711999850125
 20
184.5887254933275
 30
0.0
 11
-479.711999850125
 21
607.26090211472
 31
0.0
  0
LINE
  5
3A834
330
3E7
100
AcDbEntity
  8
NOTE
  6
CONTINUOUS
100
AcDbLine
 10
-304.711999850125
 20
185.0
 30
0.0
 11
-593.6759446680873
 21
321.187418993164
 31
0.0
  0
LINE
  5
3A835
330
3E7
100
AcDbEntity
  8
DETAIL
100
AcDbLine
 10
-342.6544998500685
 20
180.1918200004045
 30
0.0
 11
-405.2169399919403
 21
180.1918200004228
 31
0.0
  0
LINE
  5
3A836
330
3E7
100
AcDbEntity
  8
DETAIL
100
AcDbLine
 10
-342.6544998500685
 20
180.1918200004045
 30
0.0
 11
-405.2169399919403
 21
180.1918200004228
 31
0.0
  0
LINE
  5
3A837
330
3E7
100
AcDbEntity
  8
DETAIL
100
AcDbLine
 10
-342.6544998500685
 20
180.1918200004045
 30
0.0
 11
-405.2169399919403
 21
180.1918200004228
 31
0.0
  0
LINE
  5
3A838
330
3E7
100
AcDbEntity
  8
DETAIL
100
AcDbLine
 10
-465.0809998497789
 20
164.9010000002079
 30
0.0
 11
-342.6544998500685
 21
164.9010000002079
 31
0.0
  0
LINE
  5
3A839
330
3E7
100
AcDbEntity
  8
DETAIL
100
AcDbLine
 10
-342.6544998500685
 20
-190.0496205274603
 30
0.0
 11
-406.8030290671868
 21
-190.049620527442
 31
0.0
  0
LINE
  5
3A83A
330
3E7
100
AcDbEntity
  8
DETAIL
100
AcDbLine
 10
-342.6544998500685
 20
-190.0496205274603
 30
0.0
 11
-406.8030290671868
 21
-190.049620527442
 31
0.0
  0
LINE
  5
3A83B
330
3E7
100
AcDbEntity
  8
DETAIL
100
AcDbLine
 10
-342.6544998500685
 20
-190.0496205274603
 30
0.0
 11
-406.8030290671868
 21
-190.049620527442
 31
0.0
  0
LINE
  5
3A83C
330
3E7
100
AcDbEntity
  8
DETAIL
100
AcDbLine
 10
-342.6544998500685
 20
-190.0496205274603
 30
0.0
 11
-406.8030290671868
 21
-190.049620527442
 31
0.0
  0
LINE
  5
3A83D
330
3E7
100
AcDbEntity
  8
DETAIL
100
AcDbLine
 10
-342.6544998500685
 20
-190.0496205274603
 30
0.0
 11
-406.8030290671868
 21
-190.049620527442
 31
0.0
  0
LINE
  5
3A83E
330
3E7
100
AcDbEntity
  8
DETAIL
100
AcDbLine
 10
-464.8861168500661
 20
-165.0507215859825
 30
0.0
 11
-342.6544998500685
 21
-165.0507215859825
 31
0.0
  0
LINE
  5
3A83F
330
3E7
100
AcDbEntity
  8
SERVICESPACE
100
AcDbLine
 10
-494.7119998501248
 20
-164.9999961493167
 30
0.0
 11
-479.711999850125
 21
165.000003850683
 31
0.0
  0
LINE
  5
3A840
330
3E7
100
AcDbEntity
  8
SERVICESPACE
100
AcDbLine
 10
-494.7119998501248
 20
165.000003850683
 30
0.0
 11
-479.711999850125
 21
-164.9999961493167
 31
0.0
  0
LINE
  5
3A841
330
3E7
100
AcDbEntity
  8
SERVICESPACE
  6
DASHDOT
100
AcDbLine
 10
-494.7119998501248
 20
165.000003850683
 30
0.0
 11
-494.7119998501248
 21
-164.9999961493167
 31
0.0
  0
LINE
  5
3A842
330
3E7
100
AcDbEntity
  8
DETAIL
100
AcDbLine
 10
-480.0719998497716
 20
149.9100000002445
 30
0.0
 11
-480.0719998500571
 21
-149.9100000001008
 31
0.0
  0
TEXT
  5
3A844
330
3E7
100
AcDbEntity
  8
SIZE
100
AcDbText
 10
-636.3224242863471
 20
-1.531021616920043
 30
0.0
 40
64.0
  1
136
 50
90.0
 41
0.9
100
AcDbText
  0
LINE
  5
3A845
330
3E7
100
AcDbEntity
  8
SIZE
100
AcDbLine
 10
-617.7608357658409
 20
-165.0
 30
0.0
 11
-617.7608357658409
 21
124.9249999997072
 31
0.0
  0
LINE
  5
3A846
330
3E7
100
AcDbEntity
  8
SERVICESPACE
  6
DASHDOT
100
AcDbLine
 10
-479.711999850125
 20
315.0000038506831
 30
0.0
 11
-479.7119998501232
 21
-165.0000037787085
 31
0.0
  0
LINE
  5
3A847
330
3E7
100
AcDbEntity
  8
SIZE
100
AcDbLine
 10
-497.135320685289
 20
-165.0
 30
0.0
 11
-775.8253905652236
 21
-165.0
 31
0.0
  0
LINE
  5
3A848
330
3E7
100
AcDbEntity
  8
SIZE
100
AcDbLine
 10
-425.8438418182067
 20
-190.049620527442
 30
0.0
 11
-776.5695662209837
 21
-190.049620527442
 31
0.0
  0
CIRCLE
  5
3A84A
330
3E7
100
AcDbEntity
  8
SIZE
100
AcDbCircle
 10
-617.7608357658409
 20
-165.0
 30
0.0
 40
5.0
  0
LINE
  5
3A84B
330
3E7
100
AcDbEntity
  8
SIZE
100
AcDbLine
 10
-617.7608357658409
 20
-160.0
 30
0.0
 11
-617.7608357658409
 21
-155.0
 31
0.0
  0
CIRCLE
  5
3A84C
330
3E7
100
AcDbEntity
  8
SIZE
100
AcDbCircle
 10
-617.7608357658409
 20
-165.0
 30
0.0
 40
5.0
  0
LINE
  5
3A84E
330
3E7
100
AcDbEntity
  8
DETAIL
100
AcDbLine
 10
-484.5806179206211
 20
-14.79112000034274
 30
0.0
 11
-481.3712198501344
 21
-14.79112000034274
 31
0.0
  0
LINE
  5
3A84F
330
3E7
100
AcDbEntity
  8
DETAIL
100
AcDbLine
 10
-484.5806179206211
 20
-6.795920000348812
 30
0.0
 11
-481.3712198501344
 21
-6.795920000348812
 31
0.0
  0
LINE
  5
3A850
330
3E7
100
AcDbEntity
  8
DETAIL
100
AcDbLine
 10
-484.8691198501382
 20
-7.295620000341839
 30
0.0
 11
-484.5806179206211
 21
-6.795920000348812
 31
0.0
  0
LINE
  5
3A851
330
3E7
100
AcDbEntity
  8
DETAIL
100
AcDbLine
 10
-484.8691198501382
 20
-14.29142000034971
 30
0.0
 11
-484.5806179206211
 21
-14.79112000034274
 31
0.0
  0
LINE
  5
3A852
330
3E7
100
AcDbEntity
  8
DETAIL
100
AcDbLine
 10
-481.3712198501344
 20
-14.79112000034274
 30
0.0
 11
-481.3712198501344
 21
-16.7899200003494
 31
0.0
  0
LINE
  5
3A853
330
3E7
100
AcDbEntity
  8
DETAIL
100
AcDbLine
 10
-481.3712198501344
 20
-4.797120000342146
 30
0.0
 11
-480.0719998501427
 21
-4.792123000340325
 31
0.0
  0
LINE
  5
3A854
330
3E7
100
AcDbEntity
  8
DETAIL
100
AcDbLine
 10
-481.3712198501344
 20
-16.7899200003494
 30
0.0
 11
-480.0719998501427
 21
-16.7899200003494
 31
0.0
  0
LINE
  5
3A855
330
3E7
100
AcDbEntity
  8
DETAIL
100
AcDbLine
 10
-484.8691198501382
 20
-7.295620000341839
 30
0.0
 11
-484.8691198501382
 21
-14.29142000034971
 31
0.0
  0
LINE
  5
3A856
330
3E7
100
AcDbEntity
  8
DETAIL
100
AcDbLine
 10
-481.3712198501344
 20
-4.797120000342146
 30
0.0
 11
-481.3712198501344
 21
-6.795920000348812
 31
0.0
  0
SPLINE
  5
3A857
330
3E7
100
AcDbEntity
  8
DETAIL
100
AcDbSpline
210
0.0
220
0.0
230
1.0
 70
    24
 71
     3
 72
    20
 73
    16
 74
    14
 42
0.0000000001
 43
0.0000000001
 44
0.00000001
 40
0.0
 40
0.0
 40
0.0
 40
0.0
 40
0.0334427464317789
 40
0.110536896651625
 40
0.2290374456801739
 40
0.3866993884748585
 40
0.5999413392515674
 40
0.8254524716880968
 40
1.041820459216775
 40
1.227632975256256
 40
1.361477693233118
 40
1.974023961351288
 40
2.641517294795583
 40
3.334507980221802
 40
4.045248106906375
 40
4.045248106906375
 40
4.045248106906375
 40
4.045248106906375
 10
-484.434093358137
 20
-94.36974498808288
 30
0.0
 10
-484.4412588858166
 20
-94.37828453143877
 30
0.0
 10
-484.4649428016755
 20
-94.40650992325318
 30
0.0
 10
-484.5140169457521
 20
-94.4649942107652
 30
0.0
 10
-484.5897066099298
 20
-94.55519763997902
 30
0.0
 10
-484.6945676472016
 20
-94.68016615787991
 30
0.0
 10
-484.8223570435136
 20
-94.8324596300389
 30
0.0
 10
-484.9627249458825
 20
-94.99974358197922
 30
0.0
 10
-485.0972157479893
 20
-95.16002347856568
 30
0.0
 10
-485.2120658716178
 20
-95.29689652601215
 30
0.0
 10
-485.411802158576
 20
-95.5349329635686
 30
0.0
 10
-485.7147445992866
 20
-95.89596570563353
 30
0.0
 10
-486.137491073294
 20
-96.39977533478187
 30
0.0
 10
-486.5812768125104
 20
-96.92865858383296
 30
0.0
 10
-486.8820437369597
 20
-97.28709864658725
 30
0.0
 10
-487.0343287193354
 20
-97.46858482144034
 30
0.0
 11
-484.434093358137
 21
-94.36974498808288
 31
0.0
 11
-484.4555899411751
 21
-94.39536361815134
 31
0.0
 11
-484.5051451057043
 21
-94.45442116353389
 31
0.0
 11
-484.5813157903721
 21
-94.54519785061441
 31
0.0
 11
-484.6826589337106
 21
-94.66597390579137
 31
0.0
 11
-484.8197282175351
 21
-94.82932671722393
 31
0.0
 11
-484.9646839792947
 21
-95.00207826710266
 31
0.0
 11
-485.1037626408178
 21
-95.16782576161222
 31
0.0
 11
-485.223200623859
 21
-95.31016640698089
 31
0.0
 11
-485.309234350203
 21
-95.41269740942244
 31
0.0
 11
-485.7029715017088
 21
-95.88193507426785
 31
0.0
 11
-486.1320279459867
 21
-96.39326463317866
 31
0.0
 11
-486.5774737722056
 21
-96.9241262968835
 31
0.0
 11
-487.0343287193354
 21
-97.46858482144034
 31
0.0
  0
SPLINE
  5
3A858
330
3E7
100
AcDbEntity
  8
DETAIL
100
AcDbSpline
210
0.0
220
0.0
230
1.0
 70
     8
 71
     3
 72
    11
 73
     7
 74
     5
 42
0.0000000001
 43
0.0000000001
 44
0.00000001
 40
0.0
 40
0.0
 40
0.0
 40
0.0
 40
0.424919899403958
 40
0.8429293169890216
 40
1.200952480551817
 40
1.584457776413076
 40
1.584457776413076
 40
1.584457776413076
 40
1.584457776413076
 10
-484.434093358137
 20
-94.36974498808288
 30
0.0
 10
-484.343051430507
 20
-94.26124033984359
 30
0.0
 10
-484.1624482009329
 20
-94.04599564952077
 30
0.0
 10
-483.9050942680709
 20
-93.73936458548838
 30
0.0
 10
-483.6567651096575
 20
-93.4431786847549
 30
0.0
 10
-483.4965394224243
 20
-93.25496537263521
 30
0.0
 10
-483.413673545434
 20
-93.15762481136793
 30
0.0
 11
-484.434093358137
 21
-94.36974498808288
 31
0.0
 11
-484.1609601117489
 21
-94.04423746038537
 31
0.0
 11
-483.8922688374402
 21
-93.72402366889307
 31
0.0
 11
-483.6618917935084
 21
-93.44996709927817
 31
0.0
 11
-483.413673545434
 21
-93.15762481136793
 31
0.0
  0
ARC
  5
3A859
330
3E7
100
AcDbEntity
  8
DETAIL
100
AcDbCircle
 10
-485.0690223441397
 20
-102.9003762296005
 30
0.0
 40
4.997000243305254
100
AcDbArc
 50
139.9999990121979
 51
179.9999989847889
  0
ARC
  5
3A85A
330
3E7
100
AcDbEntity
  8
DETAIL
100
AcDbCircle
 10
-482.6041719766126
 20
-93.74371999993766
 30
0.0
 40
0.9993999999994828
100
AcDbArc
 50
139.9999999996369
 51
144.0947161457303
  0
ARC
  5
3A85B
330
3E7
100
AcDbEntity
  8
DETAIL
100
AcDbCircle
 10
-483.2701531353523
 20
-92.67181043135952
 30
0.0
 40
0.1999534301768025
100
AcDbArc
 50
322.3771859804934
 51
0.0690007399300166
  0
ARC
  5
3A85C
330
3E7
100
AcDbEntity
  8
DETAIL
100
AcDbCircle
 10
-482.0707998502403
 20
-91.28854820307696
 30
0.0
 40
0.9993999999999999
100
AcDbArc
 50
139.9999999999307
 51
180.0
  0
LINE
  5
3A85D
330
3E7
100
AcDbEntity
  8
DETAIL
100
AcDbLine
 10
-488.8969465574098
 20
-99.68836632159856
 30
0.0
 11
-488.5690530556622
 21
-99.29759806280799
 31
0.0
  0
LINE
  5
3A85E
330
3E7
100
AcDbEntity
  8
DETAIL
100
AcDbLine
 10
-488.5690530556622
 20
-99.29759806280799
 30
0.0
 11
-487.0343287193354
 21
-97.46858482143853
 31
0.0
  0
LINE
  5
3A85F
330
3E7
100
AcDbEntity
  8
DETAIL
100
AcDbLine
 10
-483.1117806941963
 20
-92.79387412016241
 30
0.0
 11
-483.3697567930467
 21
-93.10131806280059
 31
0.0
  0
LINE
  5
3A860
330
3E7
100
AcDbEntity
  8
DETAIL
100
AcDbLine
 10
-483.0701998502445
 20
-91.28854820307696
 30
0.0
 11
-483.0701998501718
 21
-92.67156962948048
 31
0.0
  0
LINE
  5
3A861
330
3E7
100
AcDbEntity
  8
DETAIL
100
AcDbLine
 10
-480.5716998502611
 20
-88.15288940865775
 30
0.0
 11
-480.0719998502152
 21
-88.19075659518148
 31
0.0
  0
LINE
  5
3A862
330
3E7
100
AcDbEntity
  8
DETAIL
100
AcDbLine
 10
-482.8363846666905
 20
-90.64614626593813
 30
0.0
 11
-480.5716998502611
 21
-87.9471999998668
 31
0.0
  0
LINE
  5
3A863
330
3E7
100
AcDbEntity
  8
DETAIL
100
AcDbLine
 10
-480.5716998502611
 20
-87.9471999998668
 30
0.0
 11
-480.5716998502611
 21
-88.15288940865775
 31
0.0
  0
SPLINE
  5
3A864
330
3E7
100
AcDbEntity
  8
DETAIL
100
AcDbSpline
210
0.0
220
0.0
230
1.0
 70
    24
 71
     3
 72
    20
 73
    16
 74
    14
 42
0.0000000001
 43
0.0000000001
 44
0.00000001
 40
0.0
 40
0.0
 40
0.0
 40
0.0
 40
0.0334427464317789
 40
0.110536896651625
 40
0.2290374456801739
 40
0.3866993884748585
 40
0.5999413392515674
 40
0.8254524716880968
 40
1.041820459216775
 40
1.227632975256256
 40
1.361477693233118
 40
1.974023961351288
 40
2.641517294795583
 40
3.334507980221802
 40
4.045248106906375
 40
4.045248106906375
 40
4.045248106906375
 40
4.045248106906375
 10
-484.434093358137
 20
-94.36974498808288
 30
0.0
 10
-484.4412588858166
 20
-94.37828453143877
 30
0.0
 10
-484.4649428016755
 20
-94.40650992325318
 30
0.0
 10
-484.5140169457521
 20
-94.4649942107652
 30
0.0
 10
-484.5897066099298
 20
-94.55519763997902
 30
0.0
 10
-484.6945676472016
 20
-94.68016615787991
 30
0.0
 10
-484.8223570435136
 20
-94.8324596300389
 30
0.0
 10
-484.9627249458825
 20
-94.99974358197922
 30
0.0
 10
-485.0972157479893
 20
-95.16002347856568
 30
0.0
 10
-485.2120658716178
 20
-95.29689652601215
 30
0.0
 10
-485.411802158576
 20
-95.5349329635686
 30
0.0
 10
-485.7147445992866
 20
-95.89596570563353
 30
0.0
 10
-486.137491073294
 20
-96.39977533478187
 30
0.0
 10
-486.5812768125104
 20
-96.92865858383296
 30
0.0
 10
-486.8820437369597
 20
-97.28709864658725
 30
0.0
 10
-487.0343287193354
 20
-97.46858482144034
 30
0.0
 11
-484.434093358137
 21
-94.36974498808288
 31
0.0
 11
-484.4555899411751
 21
-94.39536361815134
 31
0.0
 11
-484.5051451057043
 21
-94.45442116353389
 31
0.0
 11
-484.5813157903721
 21
-94.54519785061441
 31
0.0
 11
-484.6826589337106
 21
-94.66597390579137
 31
0.0
 11
-484.8197282175351
 21
-94.82932671722393
 31
0.0
 11
-484.9646839792947
 21
-95.00207826710266
 31
0.0
 11
-485.1037626408178
 21
-95.16782576161222
 31
0.0
 11
-485.223200623859
 21
-95.31016640698089
 31
0.0
 11
-485.309234350203
 21
-95.41269740942244
 31
0.0
 11
-485.7029715017088
 21
-95.88193507426785
 31
0.0
 11
-486.1320279459867
 21
-96.39326463317866
 31
0.0
 11
-486.5774737722056
 21
-96.9241262968835
 31
0.0
 11
-487.0343287193354
 21
-97.46858482144034
 31
0.0
  0
SPLINE
  5
3A865
330
3E7
100
AcDbEntity
  8
DETAIL
100
AcDbSpline
210
0.0
220
0.0
230
1.0
 70
     8
 71
     3
 72
    11
 73
     7
 74
     5
 42
0.0000000001
 43
0.0000000001
 44
0.00000001
 40
0.0
 40
0.0
 40
0.0
 40
0.0
 40
0.424919899403958
 40
0.8429293169890216
 40
1.200952480551817
 40
1.584457776413076
 40
1.584457776413076
 40
1.584457776413076
 40
1.584457776413076
 10
-484.434093358137
 20
-94.36974498808288
 30
0.0
 10
-484.343051430507
 20
-94.26124033984359
 30
0.0
 10
-484.1624482009329
 20
-94.04599564952077
 30
0.0
 10
-483.9050942680709
 20
-93.73936458548838
 30
0.0
 10
-483.6567651096575
 20
-93.4431786847549
 30
0.0
 10
-483.4965394224243
 20
-93.25496537263521
 30
0.0
 10
-483.413673545434
 20
-93.15762481136793
 30
0.0
 11
-484.434093358137
 21
-94.36974498808288
 31
0.0
 11
-484.1609601117489
 21
-94.04423746038537
 31
0.0
 11
-483.8922688374402
 21
-93.72402366889307
 31
0.0
 11
-483.6618917935084
 21
-93.44996709927817
 31
0.0
 11
-483.413673545434
 21
-93.15762481136793
 31
0.0
  0
ARC
  5
3A866
330
3E7
100
AcDbEntity
  8
DETAIL
100
AcDbCircle
 10
-485.0690223441397
 20
-102.9003762296005
 30
0.0
 40
4.997000243305254
100
AcDbArc
 50
139.9999990121979
 51
179.9999989847889
  0
ARC
  5
3A867
330
3E7
100
AcDbEntity
  8
DETAIL
100
AcDbCircle
 10
-482.6041719766126
 20
-93.74371999993766
 30
0.0
 40
0.9993999999994828
100
AcDbArc
 50
139.9999999996369
 51
144.0947161457303
  0
ARC
  5
3A868
330
3E7
100
AcDbEntity
  8
DETAIL
100
AcDbCircle
 10
-483.2701531353523
 20
-92.67181043135952
 30
0.0
 40
0.1999534301768025
100
AcDbArc
 50
322.3771859804934
 51
0.0690007399300166
  0
ARC
  5
3A869
330
3E7
100
AcDbEntity
  8
DETAIL
100
AcDbCircle
 10
-482.0707998502403
 20
-91.28854820307696
 30
0.0
 40
0.9993999999999999
100
AcDbArc
 50
139.9999999999307
 51
180.0
  0
LINE
  5
3A86A
330
3E7
100
AcDbEntity
  8
DETAIL
100
AcDbLine
 10
-488.8969465574098
 20
-99.68836632159856
 30
0.0
 11
-488.5690530556622
 21
-99.29759806280799
 31
0.0
  0
LINE
  5
3A86B
330
3E7
100
AcDbEntity
  8
DETAIL
100
AcDbLine
 10
-488.5690530556622
 20
-99.29759806280799
 30
0.0
 11
-487.0343287193354
 21
-97.46858482143853
 31
0.0
  0
LINE
  5
3A86C
330
3E7
100
AcDbEntity
  8
DETAIL
100
AcDbLine
 10
-483.1117806941963
 20
-92.79387412016241
 30
0.0
 11
-483.3697567930467
 21
-93.10131806280059
 31
0.0
  0
LINE
  5
3A86D
330
3E7
100
AcDbEntity
  8
DETAIL
100
AcDbLine
 10
-483.0701998502445
 20
-91.28854820307696
 30
0.0
 11
-483.0701998501718
 21
-92.67156962948048
 31
0.0
  0
LINE
  5
3A86E
330
3E7
100
AcDbEntity
  8
DETAIL
100
AcDbLine
 10
-480.5716998502611
 20
-88.15288940865775
 30
0.0
 11
-480.0719998502152
 21
-88.19075659518148
 31
0.0
  0
LINE
  5
3A86F
330
3E7
100
AcDbEntity
  8
DETAIL
100
AcDbLine
 10
-482.8363846666905
 20
-90.64614626593813
 30
0.0
 11
-480.5716998502611
 21
-87.9471999998668
 31
0.0
  0
LINE
  5
3A870
330
3E7
100
AcDbEntity
  8
DETAIL
100
AcDbLine
 10
-480.5716998502611
 20
-87.9471999998668
 30
0.0
 11
-480.5716998502611
 21
-88.15288940865775
 31
0.0
  0
LINE
  5
3A871
330
3E7
100
AcDbEntity
  8
DETAIL
100
AcDbLine
 10
-409.9831003942053
 20
-188.7323918544705
 30
0.0
 11
-425.5512033576961
 21
-172.846041585988
 31
0.0
  0
LINE
  5
3A872
330
3E7
100
AcDbEntity
  8
DETAIL
100
AcDbLine
 10
-462.3826198500646
 20
-169.8478415859779
 30
0.0
 11
-462.8823198500758
 21
-169.5593396564788
 31
0.0
  0
ARC
  5
3A873
330
3E7
100
AcDbEntity
  8
DETAIL
100
AcDbCircle
 10
-465.1839502349928
 20
-150.1655890876963
 30
0.0
 40
14.8881118418921
100
AcDbArc
 50
179.8343441408808
 51
271.1462658612523
  0
LINE
  5
3A874
330
3E7
100
AcDbEntity
  8
DETAIL
100
AcDbLine
 10
-462.8823198500758
 20
-166.3499415859923
 30
0.0
 11
-464.8861168500661
 21
-166.3499415859923
 31
0.0
  0
LINE
  5
3A875
330
3E7
100
AcDbEntity
  8
DETAIL
100
AcDbLine
 10
-455.3868198500748
 20
-169.8478415859779
 30
0.0
 11
-454.8871198500656
 21
-169.5593396564788
 31
0.0
  0
ARC
  5
3A876
330
3E7
100
AcDbEntity
  8
DETAIL
100
AcDbCircle
 10
-448.4343480535351
 20
-167.1123440404444
 30
0.0
 40
0.9993999999996919
100
AcDbArc
 50
269.9999999998957
 51
310.0000000008831
  0
ARC
  5
3A877
330
3E7
100
AcDbEntity
  8
DETAIL
100
AcDbCircle
 10
-449.8198354073974
 20
-168.3124730147119
 30
0.0
 40
0.200744120400346
100
AcDbArc
 50
89.29616469911936
 51
127.996829106086
  0
LINE
  5
3A878
330
3E7
100
AcDbEntity
  8
DETAIL
100
AcDbLine
 10
-447.7919461163962
 20
-167.8779288568785
 30
0.0
 11
-445.092999850287
 21
-165.6132440404308
 31
0.0
  0
LINE
  5
3A879
330
3E7
100
AcDbEntity
  8
DETAIL
100
AcDbLine
 10
-445.2931502813383
 20
-165.6132440404353
 30
0.0
 11
-445.3366074204459
 21
-165.113544040383
 31
0.0
  0
ARC
  5
3A87A
330
3E7
100
AcDbEntity
  8
DETAIL
100
AcDbCircle
 10
-460.0461488938472
 20
-170.1105440406554
 30
0.0
 40
4.996999999998343
100
AcDbArc
 50
270.0
 51
309.9999999999893
  0
ARC
  5
3A87B
330
3E7
100
AcDbEntity
  8
DETAIL
100
AcDbCircle
 10
-448.4343480535351
 20
-167.1123440404444
 30
0.0
 40
0.9993999999996919
100
AcDbArc
 50
269.9999999998957
 51
310.0000000008831
  0
ARC
  5
3A87C
330
3E7
100
AcDbEntity
  8
DETAIL
100
AcDbCircle
 10
-449.8198354073974
 20
-168.3124730147119
 30
0.0
 40
0.200744120400346
100
AcDbArc
 50
89.29616469911936
 51
127.996829106086
  0
ARC
  5
3A87D
330
3E7
100
AcDbEntity
  8
DETAIL
100
AcDbCircle
 10
-406.8030290671868
 20
-185.552320527452
 30
0.0
 40
4.4973
100
AcDbArc
 50
225.0
 51
270.0
  0
ARC
  5
3A87E
330
3E7
100
AcDbEntity
  8
DETAIL
100
AcDbCircle
 10
-406.8030290671868
 20
-185.552320527452
 30
0.0
 40
4.4973
100
AcDbArc
 50
225.0
 51
270.0
  0
ARC
  5
3A87F
330
3E7
100
AcDbEntity
  8
DETAIL
100
AcDbCircle
 10
-406.8030290671868
 20
-185.552320527452
 30
0.0
 40
4.4973
100
AcDbArc
 50
225.0
 51
270.0
  0
ARC
  5
3A880
330
3E7
100
AcDbEntity
  8
DETAIL
100
AcDbCircle
 10
-406.8030290671868
 20
-185.552320527452
 30
0.0
 40
4.4973
100
AcDbArc
 50
225.0
 51
270.0
  0
LINE
  5
3A881
330
3E7
100
AcDbEntity
  8
DETAIL
100
AcDbLine
 10
-464.8861168500661
 20
-165.0507215859825
 30
0.0
 11
-464.8861168500661
 21
-166.3499415859923
 31
0.0
  0
LINE
  5
3A882
330
3E7
100
AcDbEntity
  8
DETAIL
100
AcDbLine
 10
-462.3826198500646
 20
-169.8478415859779
 30
0.0
 11
-455.3868198500748
 21
-169.8478415859779
 31
0.0
  0
LINE
  5
3A883
330
3E7
100
AcDbEntity
  8
DETAIL
100
AcDbLine
 10
-462.8823198500758
 20
-169.5593396564788
 30
0.0
 11
-462.8823198500758
 21
-166.3499415859923
 31
0.0
  0
LINE
  5
3A884
330
3E7
100
AcDbEntity
  8
DETAIL
100
AcDbLine
 10
-454.8871198500656
 20
-169.5593396564788
 30
0.0
 11
-454.8871198500656
 21
-166.3499415859923
 31
0.0
  0
LINE
  5
3A885
330
3E7
100
AcDbEntity
  8
DETAIL
100
AcDbLine
 10
-448.4343480535371
 20
-168.1117440404439
 30
0.0
 11
-449.8223013280636
 21
-168.1117440404439
 31
0.0
  0
LINE
  5
3A886
330
3E7
100
AcDbEntity
  8
DETAIL
100
AcDbLine
 10
-445.092999850287
 20
-165.6132440404308
 30
0.0
 11
-445.2931502813383
 21
-165.6132440404353
 31
0.0
  0
LINE
  5
3A887
330
3E7
100
AcDbEntity
  8
DETAIL
100
AcDbLine
 10
-449.9434170739822
 20
-168.1542776495479
 30
0.0
 11
-456.8341392082452
 21
-173.9384681229203
 31
0.0
  0
LINE
  5
3A888
330
3E7
100
AcDbEntity
  8
DETAIL
100
AcDbLine
 10
-452.8883198500753
 20
-166.3499415859923
 30
0.0
 11
-452.8883198500753
 21
-165.0507215859825
 31
0.0
  0
ARC
  5
3A889
330
3E7
100
AcDbEntity
  8
DETAIL
100
AcDbCircle
 10
-429.7484191772475
 20
-166.4810434498895
 30
0.0
 40
1.568882776433893
100
AcDbArc
 50
114.2611925123774
 51
267.9494476182059
  0
LINE
  5
3A88A
330
3E7
100
AcDbEntity
  8
DETAIL
100
AcDbLine
 10
-428.8101527657213
 20
-172.5575396564709
 30
0.0
 11
-428.810152765723
 21
-169.448081585986
 31
0.0
  0
LINE
  5
3A88B
330
3E7
100
AcDbEntity
  8
DETAIL
100
AcDbLine
 10
-420.8099557657215
 20
-172.5575396564709
 30
0.0
 11
-420.8099557657233
 21
-169.448081585986
 31
0.0
  0
ARC
  5
3A88C
330
3E7
100
AcDbEntity
  8
DETAIL
100
AcDbCircle
 10
-428.9100927657191
 20
-169.448081585986
 30
0.0
 40
0.0999399999998523
100
AcDbArc
 50
0.000000000000007
 51
89.99999999999998
  0
LINE
  5
3A88D
330
3E7
100
AcDbEntity
  8
DETAIL
100
AcDbLine
 10
-430.8089527657237
 20
-169.3481415859841
 30
0.0
 11
-428.9100927657191
 21
-169.3481415859841
 31
0.0
  0
LINE
  5
3A88E
330
3E7
100
AcDbEntity
  8
DETAIL
100
AcDbLine
 10
-420.8099557657215
 20
-172.5575396564709
 30
0.0
 11
-420.8099557657233
 21
-169.448081585986
 31
0.0
  0
ARC
  5
3A88F
330
3E7
100
AcDbEntity
  8
DETAIL
100
AcDbCircle
 10
-420.7100157657196
 20
-169.448081585986
 30
0.0
 40
0.0999399999998523
100
AcDbArc
 50
90.00000000000005
 51
180.0
  0
LINE
  5
3A890
330
3E7
100
AcDbEntity
  8
DETAIL
100
AcDbLine
 10
-418.8111557657148
 20
-169.3481415859841
 30
0.0
 11
-420.7100157657196
 21
-169.3481415859841
 31
0.0
  0
LINE
  5
3A891
330
3E7
100
AcDbEntity
  8
DETAIL
100
AcDbLine
 10
-430.8089527657237
 20
-168.5486215859855
 30
0.0
 11
-430.8089527657237
 21
-168.0489215859925
 31
0.0
  0
LINE
  5
3A892
330
3E7
100
AcDbEntity
  8
DETAIL
100
AcDbLine
 10
-428.3054557657222
 20
-172.846041585988
 30
0.0
 11
-428.8051557657154
 21
-172.5575396564709
 31
0.0
  0
LINE
  5
3A893
330
3E7
100
AcDbEntity
  8
DETAIL
100
AcDbLine
 10
-430.8089527657237
 20
-169.3481415859841
 30
0.0
 11
-430.8089527657237
 21
-168.0489215859925
 31
0.0
  0
LINE
  5
3A894
330
3E7
100
AcDbEntity
  8
DETAIL
100
AcDbLine
 10
-421.3096557657143
 20
-172.846041585988
 30
0.0
 11
-420.8099557657215
 21
-172.5575396564709
 31
0.0
  0
LINE
  5
3A895
330
3E7
100
AcDbEntity
  8
DETAIL
100
AcDbLine
 10
-430.8089527657237
 20
-168.0489215859925
 30
0.0
 11
-429.8045557657151
 21
-168.0489215859788
 31
0.0
  0
LINE
  5
3A896
330
3E7
100
AcDbEntity
  8
DETAIL
100
AcDbLine
 10
-428.3054557657222
 20
-172.846041585988
 30
0.0
 11
-421.3096557657143
 21
-172.846041585988
 31
0.0
  0
ARC
  5
3A897
330
3E7
100
AcDbEntity
  8
DETAIL
100
AcDbCircle
 10
-419.810555765719
 20
-166.5498215859788
 30
0.0
 40
1.4991
100
AcDbArc
 50
270.0
 51
90.00000000000005
  0
ARC
  5
3A898
330
3E7
100
AcDbEntity
  8
DETAIL
100
AcDbCircle
 10
-419.810555765719
 20
-166.5498215859788
 30
0.0
 40
1.4991
100
AcDbArc
 50
270.0
 51
90.00000000000005
  0
LINE
  5
3A899
330
3E7
100
AcDbEntity
  8
DETAIL
100
AcDbLine
 10
-418.8061587657129
 20
-169.3481415859841
 30
0.0
 11
-418.8061587657129
 21
-168.0489215859925
 31
0.0
  0
LINE
  5
3A89A
330
3E7
100
AcDbEntity
  8
DETAIL
100
AcDbLine
 10
-419.810555765719
 20
-168.0489215859788
 30
0.0
 11
-418.8061587657129
 21
-168.0489215859925
 31
0.0
  0
LINE
  5
3A89B
330
3E7
100
AcDbEntity
  8
DETAIL
100
AcDbLine
 10
-454.8871198500656
 20
-166.3499415859923
 30
0.0
 11
-452.8883198500753
 21
-166.3499415859923
 31
0.0
  0
LINE
  5
3A89C
330
3E7
100
AcDbEntity
  8
DETAIL
100
AcDbLine
 10
-490.066022587445
 20
-102.9003761410594
 30
0.0
 11
-490.0638443764528
 21
-149.9202701813173
 31
0.0
  0
ARC
  5
3A89D
330
3E7
100
AcDbEntity
  8
DETAIL
100
AcDbCircle
 10
-464.1725736185374
 20
-149.5444503110993
 30
0.0
 40
25.89399818557436
100
AcDbArc
 50
180.8316077077624
 51
279.1696543077266
  0
LINE
  5
3A8A5
330
3E7
100
AcDbEntity
  8
SIZE
100
AcDbLine
 10
-501.3820274297121
 20
165.0
 30
0.0
 11
-772.5666933439879
 21
165.0
 31
0.0
  0
CIRCLE
  5
3A8A6
330
3E7
100
AcDbEntity
  8
SIZE
100
AcDbCircle
 10
-617.7608357658409
 20
124.9249999997072
 30
0.0
 40
5.0
  0
SPLINE
  5
3A8A8
330
3E7
100
AcDbEntity
  8
DETAIL
100
AcDbSpline
210
0.0
220
0.0
230
1.0
 70
     8
 71
     3
 72
    17
 73
    13
 74
    11
 42
0.0000000001
 43
0.0000000001
 44
0.00000001
 40
0.0
 40
0.0
 40
0.0
 40
0.0
 40
14.89662573702418
 40
29.79325146995231
 40
38.28752041420807
 40
46.78178841075744
 40
48.47758599920045
 40
51.16830573103819
 40
54.66668137020613
 40
58.85946466094089
 40
59.33060238619924
 40
59.801324330547
 40
59.801324330547
 40
59.801324330547
 40
59.801324330547
 10
-490.0660225871652
 20
102.9003761412923
 30
0.0
 10
-490.0654270995233
 20
107.8659319134265
 30
0.0
 10
-490.0642361382834
 20
117.7970434563129
 30
0.0
 10
-490.0718887868676
 20
130.5593721479248
 30
0.0
 10
-490.0542450636252
 20
141.1881703579807
 30
0.0
 10
-490.0990127779169
 20
147.4153164363697
 30
0.0
 10
-490.040943499807
 20
151.7101425405343
 30
0.0
 10
-489.7350354852833
 20
154.3271451040357
 30
0.0
 10
-488.9260972219314
 20
157.7019065517276
 30
0.0
 10
-487.8817073292095
 20
160.2311105319139
 30
0.0
 10
-487.0865588752751
 20
161.746708894415
 30
0.0
 10
-486.934159811182
 20
162.0212102232853
 30
0.0
 10
-486.857993910362
 20
162.1584002951449
 30
0.0
 11
-490.0660225871652
 21
102.9003761412923
 31
0.0
 11
-490.0660225870487
 21
117.797001875343
 31
0.0
 11
-490.0660225867865
 21
132.6936276081132
 31
0.0
 11
-490.0667713606488
 21
141.1878965191163
 31
0.0
 11
-490.0664154087971
 21
149.6821645071204
 31
0.0
 11
-490.022949815884
 21
151.3774049623489
 31
0.0
 11
-489.7206056654647
 21
154.0510842034153
 31
0.0
 11
-488.9005861436853
 21
157.4519958583869
 31
0.0
 11
-487.3040944367202
 21
161.3289335553879
 31
0.0
 11
-487.0848572761858
 21
161.7459537325803
 31
0.0
 11
-486.857993910362
 21
162.1584002951449
 31
0.0
  0
LINE
  5
3A8A9
330
3E7
100
AcDbEntity
  8
DETAIL
100
AcDbLine
 10
-460.0461488935016
 20
174.8950000002904
 30
0.0
 11
-466.1703986702557
 21
174.8709776817513
 31
0.0
  0
ARC
  5
3A8AA
330
3E7
100
AcDbEntity
  8
DETAIL
100
AcDbCircle
 10
-465.0809998498878
 20
149.9100000003263
 30
0.0
 40
14.99099999988365
100
AcDbArc
 50
89.99999999958312
 51
180.0000000003125
  0
ARC
  5
3A8AB
330
3E7
100
AcDbEntity
  8
DETAIL
100
AcDbCircle
 10
-465.0809998498878
 20
149.9100000003263
 30
0.0
 40
14.99099999988365
100
AcDbArc
 50
89.99999999958312
 51
180.0000000003125
  0
ARC
  5
3A8AC
330
3E7
100
AcDbEntity
  8
DETAIL
100
AcDbCircle
 10
-465.0967270704257
 20
150.0216188149725
 30
0.0
 40
24.87254323132731
100
AcDbArc
 50
92.47405227708453
 51
102.0906842029505
  0
ARC
  5
3A8AD
330
3E7
100
AcDbEntity
  8
DETAIL
100
AcDbCircle
 10
-465.0807627973397
 20
149.9162788001394
 30
0.0
 40
24.9788912246655
100
AcDbArc
 50
102.0758794609973
 51
114.68432129756
  0
ARC
  5
3A8AE
330
3E7
100
AcDbEntity
  8
DETAIL
100
AcDbCircle
 10
-465.0809998496697
 20
149.910000000108
 30
0.0
 40
14.99100000010002
100
AcDbArc
 50
90.00000000041687
 51
179.9999999994786
  0
ARC
  5
3A8AF
330
3E7
100
AcDbEntity
  8
DETAIL
100
AcDbCircle
 10
-465.0724127932353
 20
149.8950505967195
 30
0.0
 40
25.00166679617622
100
AcDbArc
 50
114.6813918728709
 51
132.1370963432664
  0
ARC
  5
3A8B0
330
3E7
100
AcDbEntity
  8
DETAIL
100
AcDbCircle
 10
-465.0902293878368
 20
149.9159680899765
 30
0.0
 40
24.97424110170503
100
AcDbArc
 50
141.3700549121905
 51
150.6461162914093
  0
ARC
  5
3A8B1
330
3E7
100
AcDbEntity
  8
DETAIL
100
AcDbCircle
 10
-465.0903658090117
 20
149.9157657777968
 30
0.0
 40
24.97426083249614
100
AcDbArc
 50
132.1384385588426
 51
141.369496938637
  0
LINE
  5
3A8B2
330
3E7
100
AcDbEntity
  8
DETAIL
100
AcDbLine
 10
-444.3934198500719
 20
172.6963200000054
 30
0.0
 11
-443.8937198500607
 21
172.4078180705063
 31
0.0
  0
LINE
  5
3A8B3
330
3E7
100
AcDbEntity
  8
DETAIL
100
AcDbLine
 10
-451.3892198500616
 20
172.6963200000054
 30
0.0
 11
-451.8889198500728
 21
172.4078180705063
 31
0.0
  0
LINE
  5
3A8B4
330
3E7
100
AcDbEntity
  8
DETAIL
100
AcDbLine
 10
-453.8877198500795
 20
166.2002200000088
 30
0.0
 11
-451.8889198500728
 21
166.2002200000088
 31
0.0
  0
ARC
  5
3A8B5
330
3E7
100
AcDbEntity
  8
DETAIL
100
AcDbCircle
 10
-460.0461488935198
 20
169.8980000002891
 30
0.0
 40
4.997000000000452
100
AcDbArc
 50
49.9999999999308
 51
90.00000000000005
  0
LINE
  5
3A8B6
330
3E7
100
AcDbEntity
  8
DETAIL
100
AcDbLine
 10
-451.8889198500732
 20
169.5763923372469
 30
0.0
 11
-456.8341392079112
 21
173.7259240825514
 31
0.0
  0
ARC
  5
3A8B7
330
3E7
100
AcDbEntity
  8
DETAIL
100
AcDbCircle
 10
-416.4767209843756
 20
176.4440700004243
 30
0.0
 40
3.747749999994292
100
AcDbArc
 50
89.99999999979158
 51
150.0000006613906
  0
ARC
  5
3A8B8
330
3E7
100
AcDbEntity
  8
DETAIL
100
AcDbCircle
 10
-426.747389516873
 20
168.6487499999993
 30
0.0
 40
1.249250000000034
100
AcDbArc
 50
270.0
 51
330.0000006615331
  0
LINE
  5
3A8B9
330
3E7
100
AcDbEntity
  8
DETAIL
100
AcDbLine
 10
-405.2169399919403
 20
180.1918200004228
 30
0.0
 11
-416.4767209843756
 21
180.1918200004228
 31
0.0
  0
LINE
  5
3A8BA
330
3E7
100
AcDbEntity
  8
DETAIL
100
AcDbLine
 10
-419.7223677130332
 20
178.317944962956
 30
0.0
 11
-425.6655072739813
 21
168.0241250124881
 31
0.0
  0
ARC
  5
3A8BB
330
3E7
100
AcDbEntity
  8
DETAIL
100
AcDbCircle
 10
-416.4767209843756
 20
176.4440700004243
 30
0.0
 40
3.747749999994292
100
AcDbArc
 50
89.99999999979158
 51
150.0000006613906
  0
ARC
  5
3A8BC
330
3E7
100
AcDbEntity
  8
DETAIL
100
AcDbCircle
 10
-426.747389516873
 20
168.6487499999993
 30
0.0
 40
1.249250000000034
100
AcDbArc
 50
270.0
 51
330.0000006615331
  0
LINE
  5
3A8BD
330
3E7
100
AcDbEntity
  8
DETAIL
100
AcDbLine
 10
-405.2169399919403
 20
180.1918200004228
 30
0.0
 11
-416.4767209843756
 21
180.1918200004228
 31
0.0
  0
LINE
  5
3A8BE
330
3E7
100
AcDbEntity
  8
DETAIL
100
AcDbLine
 10
-419.7223677130332
 20
178.317944962956
 30
0.0
 11
-425.6655072739813
 21
168.0241250124881
 31
0.0
  0
ARC
  5
3A8BF
330
3E7
100
AcDbEntity
  8
DETAIL
100
AcDbCircle
 10
-482.0707998497855
 20
91.28854820334799
 30
0.0
 40
0.9993999999994509
100
AcDbArc
 50
180.0
 51
220.0000000000692
  0
ARC
  5
3A8C0
330
3E7
100
AcDbEntity
  8
DETAIL
100
AcDbCircle
 10
-484.9180339962498
 20
102.926999552048
 30
0.0
 40
5.148057433446293
100
AcDbArc
 50
180.2963090234875
 51
224.8298735791849
  0
LINE
  5
3A8C1
330
3E7
100
AcDbEntity
  8
DETAIL
100
AcDbLine
 10
-480.571699849808
 20
87.94720000013787
 30
0.0
 11
-480.571699849808
 21
88.15288940892875
 31
0.0
  0
LINE
  5
3A8C2
330
3E7
100
AcDbEntity
  8
DETAIL
100
AcDbLine
 10
-480.571699849808
 20
88.15288940892875
 30
0.0
 11
-480.0719998497607
 21
88.19075659545251
 31
0.0
  0
LINE
  5
3A8C3
330
3E7
100
AcDbEntity
  8
DETAIL
100
AcDbLine
 10
-482.836384666236
 20
90.64614626622732
 30
0.0
 11
-480.571699849808
 21
87.94720000013787
 31
0.0
  0
LINE
  5
3A8C4
330
3E7
100
AcDbEntity
  8
DETAIL
100
AcDbLine
 10
-483.0701998497898
 20
91.28854820334799
 30
0.0
 11
-483.070199849808
 21
92.67156962975148
 31
0.0
  0
LINE
  5
3A8C5
330
3E7
100
AcDbEntity
  8
DETAIL
100
AcDbLine
 10
-488.5690530553346
 20
99.29759806306083
 30
0.0
 11
-483.070199849808
 21
92.67156962975148
 31
0.0
  0
LINE
  5
3A8C6
330
3E7
100
AcDbEntity
  8
DETAIL
100
AcDbLine
 10
-443.8937198500607
 20
172.4078180705063
 30
0.0
 11
-443.8937198500607
 21
166.2002200000088
 31
0.0
  0
LINE
  5
3A8C7
330
3E7
100
AcDbEntity
  8
DETAIL
100
AcDbLine
 10
-441.8949198500722
 20
166.2002200000088
 30
0.0
 11
-441.8949198500722
 21
164.9009999999988
 31
0.0
  0
LINE
  5
3A8C8
330
3E7
100
AcDbEntity
  8
DETAIL
100
AcDbLine
 10
-451.8889198500728
 20
172.4078180705063
 30
0.0
 11
-451.8889198500728
 21
166.2002200000088
 31
0.0
  0
LINE
  5
3A8C9
330
3E7
100
AcDbEntity
  8
DETAIL
100
AcDbLine
 10
-426.747389516873
 20
167.3994999999995
 30
0.0
 11
-443.8937198500607
 21
167.3994999999995
 31
0.0
  0
LINE
  5
3A8CA
330
3E7
100
AcDbEntity
  8
DETAIL
100
AcDbLine
 10
-451.3892198500616
 20
172.6963200000054
 30
0.0
 11
-444.3934198500719
 21
172.6963200000054
 31
0.0
  0
LINE
  5
3A8CB
330
3E7
100
AcDbEntity
  8
DETAIL
100
AcDbLine
 10
-453.8877198500795
 20
166.2002200000088
 30
0.0
 11
-453.8877198500795
 21
164.9009999999988
 31
0.0
  0
LINE
  5
3A8CC
330
3E7
100
AcDbEntity
  8
DETAIL
100
AcDbLine
 10
-443.8937198500607
 20
166.2002200000088
 30
0.0
 11
-441.8949198500722
 21
166.2002200000088
 31
0.0
  0
LINE
  5
3A8CE
330
3E7
100
AcDbEntity
  8
NOTE
  6
CONTINOUS
100
AcDbLine
 10
-285.1769998500693
 20
-189.4862399999554
 30
0.0
 11
-325.1769998500693
 21
-189.4862399999554
 31
0.0
  0
LINE
  5
3A8CF
330
3E7
100
AcDbEntity
  8
NOTE
  6
CONTINOUS
100
AcDbLine
 10
-284.7119998501248
 20
185.0
 30
0.0
 11
-324.7119998501248
 21
185.0
 31
0.0
  0
LWPOLYLINE
  5
3A8D0
330
3E7
100
AcDbEntity
  8
NOTE
  6
CONTINUOUS
100
AcDbPolyline
 90
        3
 70
     0
 43
0.0
 10
-343.5675332897813
 20
194.4998704505558
 10
-304.711999850125
 20
185.0
 10
-333.6119438665406
 20
212.654895396995
  0
LINE
  5
3A8D1
330
3E7
100
AcDbEntity
  8
NOTE
  6
CONTINOUS
100
AcDbLine
 10
-304.711999850125
 20
205.0
 30
0.0
 11
-304.711999850125
 21
165.0
 31
0.0
  0
LINE
  5
3A8D4
330
3E7
100
AcDbEntity
  8
DETAIL
100
AcDbLine
 10
-342.6544998500685
 20
-190.0496205274603
 30
0.0
 11
-342.6544998500685
 21
191.2851599999929
 31
0.0
  0
LINE
  5
3A8D5
330
3E7
100
AcDbEntity
  8
DETAIL
100
AcDbLine
 10
-275.6946998500806
 20
-190.0496205274565
 30
0.0
 11
-275.6946998500806
 21
194.2833600000583
 31
0.0
  0
LINE
  5
3A8D6
330
3E7
100
AcDbEntity
  8
DETAIL
100
AcDbLine
 10
-267.6994998500704
 20
-190.0496205274491
 30
0.0
 11
-267.6994998500704
 21
191.2851599999929
 31
0.0
  0
LINE
  5
3A8D7
330
3E7
100
AcDbEntity
  8
DETAIL
100
AcDbLine
 10
-275.694699850069
 20
194.2833600000583
 30
0.0
 11
-272.6964998500698
 21
194.2833600000583
 31
0.0
  0
ARC
  5
3A8D8
330
3E7
100
AcDbEntity
  8
DETAIL
100
AcDbCircle
 10
-277.6934998500692
 20
194.2833600000583
 30
0.0
 40
4.996999999999998
100
AcDbArc
 50
0.0
 51
90.00000000000005
  0
LINE
  5
3A8D9
330
3E7
100
AcDbEntity
  8
DETAIL
100
AcDbLine
 10
-334.6592998500763
 20
194.2833600000583
 30
0.0
 11
-336.0584598500718
 21
194.2833600000583
 31
0.0
  0
ARC
  5
3A8DA
330
3E7
100
AcDbEntity
  8
DETAIL
100
AcDbCircle
 10
-332.6604998500696
 20
194.2833600000583
 30
0.0
 40
4.996999999999998
100
AcDbArc
 50
90.00000000000005
 51
180.0000000006253
  0
LINE
  5
3A8DB
330
3E7
100
AcDbEntity
  8
DETAIL
100
AcDbLine
 10
-336.0584598500718
 20
194.2833600000583
 30
0.0
 11
-337.6574998500691
 21
194.2833600000038
 31
0.0
  0
LINE
  5
3A8DC
330
3E7
100
AcDbEntity
  8
DETAIL
100
AcDbLine
 10
-337.6574998500691
 20
194.2833600000038
 30
0.0
 11
-338.0572598500783
 21
194.2833600000038
 31
0.0
  0
LINE
  5
3A8DD
330
3E7
100
AcDbEntity
  8
DETAIL
100
AcDbLine
 10
-338.0572598500783
 20
194.2833600000038
 30
0.0
 11
-339.6562998500776
 21
194.2833600000038
 31
0.0
  0
ARC
  5
3A8DE
330
3E7
100
AcDbEntity
  8
DETAIL
100
AcDbCircle
 10
-339.6562998500776
 20
191.2851599999929
 30
0.0
 40
2.9982
100
AcDbArc
 50
90.00000000000005
 51
180.0
  0
ARC
  5
3A8DF
330
3E7
100
AcDbEntity
  8
DETAIL
100
AcDbCircle
 10
-277.6934998500692
 20
194.2833600000583
 30
0.0
 40
1.998799999999999
100
AcDbArc
 50
0.0
 51
90.00000000000005
  0
LINE
  5
3A8E0
330
3E7
100
AcDbEntity
  8
DETAIL
100
AcDbLine
 10
-332.6604998500696
 20
199.2803600000579
 30
0.0
 11
-316.1703998500724
 21
199.2803600000579
 31
0.0
  0
LINE
  5
3A8E1
330
3E7
100
AcDbEntity
  8
DETAIL
100
AcDbLine
 10
-332.6604998500696
 20
196.2821600000469
 30
0.0
 11
-316.1703998500724
 21
196.2821600000469
 31
0.0
  0
LINE
  5
3A8E2
330
3E7
100
AcDbEntity
  8
DETAIL
100
AcDbLine
 10
-314.1715998500658
 20
194.2833600000583
 30
0.0
 11
-314.1715998500658
 21
180.2917600000446
 31
0.0
  0
LINE
  5
3A8E3
330
3E7
100
AcDbEntity
  8
DETAIL
100
AcDbLine
 10
-296.1823998500731
 20
180.2917600000446
 30
0.0
 11
-296.1823998500731
 21
194.2833600000583
 31
0.0
  0
LINE
  5
3A8E4
330
3E7
100
AcDbEntity
  8
DETAIL
100
AcDbLine
 10
-294.1835998500664
 20
199.2803600000579
 30
0.0
 11
-277.6934998500692
 21
199.2803600000579
 31
0.0
  0
LINE
  5
3A8E5
330
3E7
100
AcDbEntity
  8
DETAIL
100
AcDbLine
 10
-311.1733998500731
 20
194.2833600000583
 30
0.0
 11
-311.1733998500731
 21
180.2917600000446
 31
0.0
  0
LINE
  5
3A8E6
330
3E7
100
AcDbEntity
  8
DETAIL
100
AcDbLine
 10
-299.1805998500656
 20
180.2917600000446
 30
0.0
 11
-299.1805998500656
 21
194.2833600000583
 31
0.0
  0
LINE
  5
3A8E7
330
3E7
100
AcDbEntity
  8
DETAIL
100
AcDbLine
 10
-294.1835998500664
 20
196.2821600000469
 30
0.0
 11
-277.6934998500692
 21
196.2821600000469
 31
0.0
  0
ARC
  5
3A8E8
330
3E7
100
AcDbEntity
  8
DETAIL
100
AcDbCircle
 10
-332.6604998500696
 20
194.2833600000583
 30
0.0
 40
1.998799999999999
100
AcDbArc
 50
90.00000000000005
 51
180.0
  0
ARC
  5
3A8E9
330
3E7
100
AcDbEntity
  8
DETAIL
100
AcDbCircle
 10
-316.1703998500724
 20
194.2833600000583
 30
0.0
 40
4.996999999999998
100
AcDbArc
 50
0.0
 51
90.00000000000005
  0
ARC
  5
3A8EA
330
3E7
100
AcDbEntity
  8
DETAIL
100
AcDbCircle
 10
-316.1703998500724
 20
194.2833600000583
 30
0.0
 40
1.998799999999999
100
AcDbArc
 50
0.0
 51
90.00000000000005
  0
ARC
  5
3A8EB
330
3E7
100
AcDbEntity
  8
DETAIL
100
AcDbCircle
 10
-294.1835998500664
 20
194.2833600000583
 30
0.0
 40
4.996999999999998
100
AcDbArc
 50
90.00000000000005
 51
180.0
  0
ARC
  5
3A8EC
330
3E7
100
AcDbEntity
  8
DETAIL
100
AcDbCircle
 10
-294.1835998500664
 20
194.2833600000583
 30
0.0
 40
1.998799999999999
100
AcDbArc
 50
90.00000000000005
 51
180.0
  0
ARC
  5
3A8ED
330
3E7
100
AcDbEntity
  8
DETAIL
100
AcDbCircle
 10
-270.6976998500795
 20
191.2851599999929
 30
0.0
 40
2.9982
100
AcDbArc
 50
0.0
 51
90.00000000000005
  0
LINE
  5
3A8EE
330
3E7
100
AcDbEntity
  8
DETAIL
100
AcDbLine
 10
-272.6964998500698
 20
194.2833600000583
 30
0.0
 11
-272.2967398500786
 21
194.2833600000038
 31
0.0
  0
LINE
  5
3A8EF
330
3E7
100
AcDbEntity
  8
DETAIL
100
AcDbLine
 10
-270.6976998500795
 20
194.2833600000038
 30
0.0
 11
-272.2967398500786
 21
194.2833600000038
 31
0.0
  0
LINE
  5
3A8F0
330
3E7
100
AcDbEntity
  8
DETAIL
100
AcDbLine
 10
-334.6592998500698
 20
194.2833600000583
 30
0.0
 11
-334.6592998500761
 21
-190.0496205274594
 31
0.0
  0
CIRCLE
  5
3A8F1
330
3E7
100
AcDbEntity
  8
FIX
  6
CONTINUOUS
100
AcDbCircle
 10
-300.0
 20
185.0
 30
0.0
 40
40.0
  0
LINE
  5
3A8F2
330
3E7
100
AcDbEntity
  8
SIZE
100
AcDbLine
 10
-479.711999850125
 20
407.5700289564755
 30
0.0
 11
-314.7119998501248
 21
407.5700289564755
 31
0.0
  0
TEXT
  5
3A8F3
330
3E7
100
AcDbEntity
  8
SIZE
100
AcDbText
 10
-466.8782530959954
 20
421.799545337646
 30
0.0
 40
64.0
  1
175
 41
0.9
100
AcDbText
  0
LINE
  5
3A8F6
330
3E7
100
AcDbEntity
  8
SIZE
100
AcDbLine
 10
-474.711999850125
 20
577.26090211472
 30
0.0
 11
-469.7119998501248
 21
577.26090211472
 31
0.0
  0
CIRCLE
  5
3A8F7
330
3E7
100
AcDbEntity
  8
SIZE
100
AcDbCircle
 10
-479.711999850125
 20
577.26090211472
 30
0.0
 40
5.0
  0
LINE
  5
3A8F8
330
3E7
100
AcDbEntity
  8
SIZE
100
AcDbLine
 10
-309.7119998501248
 20
407.5700289564755
 30
0.0
 11
-314.7119998501248
 21
407.5700289564755
 31
0.0
  0
LINE
  5
3A8F9
330
3E7
100
AcDbEntity
  8
SIZE
100
AcDbLine
 10
-299.7119998501248
 20
407.5700289564755
 30
0.0
 11
-294.711999850125
 21
407.5700289564755
 31
0.0
  0
CIRCLE
  5
3A8FA
330
3E7
100
AcDbEntity
  8
SIZE
100
AcDbCircle
 10
-304.711999850125
 20
407.5700289564755
 30
0.0
 40
5.0
  0
CIRCLE
  5
3A8FB
330
3E7
100
AcDbEntity
  8
SIZE
100
AcDbCircle
 10
-304.711999850125
 20
407.5700289564755
 30
0.0
 40
5.0
  0
LINE
  5
3A8FC
330
3E7
100
AcDbEntity
  8
SIZE
100
AcDbLine
 10
295.2880001498751
 20
206.4002933644013
 30
0.0
 11
295.2880001498751
 21
437.5700289564756
 31
0.0
  0
LINE
  5
3A8FD
330
3E7
100
AcDbEntity
  8
SIZE
100
AcDbLine
 10
295.2880001498751
 20
219.5887254933275
 30
0.0
 11
295.2880001498751
 21
437.5700289564756
 31
0.0
  0
LINE
  5
3A8FE
330
3E7
100
AcDbEntity
  8
SIZE
100
AcDbLine
 10
470.2880001498751
 20
184.5887254933275
 30
0.0
 11
470.2880001498751
 21
437.5700289564756
 31
0.0
  0
LINE
  5
3A8FF
330
3E7
100
AcDbEntity
  8
SIZE
100
AcDbLine
 10
470.2880001498751
 20
184.5887254933275
 30
0.0
 11
470.2880001498751
 21
607.26090211472
 31
0.0
  0
CIRCLE
  5
3A900
330
3E7
100
AcDbEntity
  8
ARRANGE
  6
CONTINUOUS
100
AcDbCircle
 10
0.0
 20
0.0
 30
0.0
 40
40.0
  0
LINE
  5
3A901
330
3E7
100
AcDbEntity
  8
DETAIL
100
AcDbLine
 10
171.4035247784359
 20
-188.7323918544598
 30
0.0
 11
186.8874834609419
 21
-172.8724338079125
 31
0.0
  0
ARC
  5
3A902
330
3E7
100
AcDbEntity
  8
DETAIL
100
AcDbCircle
 10
168.2234534513991
 20
-185.552320527441
 30
0.0
 40
4.49730000000076
100
AcDbArc
 50
270.0
 51
315.0
  0
ARC
  5
3A903
330
3E7
100
AcDbEntity
  8
DETAIL
100
AcDbCircle
 10
168.2234534513991
 20
-185.552320527441
 30
0.0
 40
4.49730000000076
100
AcDbArc
 50
270.0
 51
315.0
  0
ARC
  5
3A904
330
3E7
100
AcDbEntity
  8
DETAIL
100
AcDbCircle
 10
168.2234534513991
 20
-185.552320527441
 30
0.0
 40
4.49730000000076
100
AcDbArc
 50
270.0
 51
315.0
  0
ARC
  5
3A905
330
3E7
100
AcDbEntity
  8
DETAIL
100
AcDbCircle
 10
168.2234534513991
 20
-185.552320527441
 30
0.0
 40
4.49730000000076
100
AcDbArc
 50
270.0
 51
315.0
  0
ARC
  5
3A906
330
3E7
100
AcDbEntity
  8
DETAIL
100
AcDbCircle
 10
168.2234534513991
 20
-185.552320527441
 30
0.0
 40
4.49730000000076
100
AcDbArc
 50
270.0
 51
315.0
  0
ARC
  5
3A907
330
3E7
100
AcDbEntity
  8
DETAIL
100
AcDbCircle
 10
191.2249801499309
 20
-166.5762138079033
 30
0.0
 40
1.4991
100
AcDbArc
 50
270.0
 51
90.00000000000005
  0
ARC
  5
3A908
330
3E7
100
AcDbEntity
  8
DETAIL
100
AcDbCircle
 10
191.2249801499309
 20
-166.5762138079033
 30
0.0
 40
1.4991
100
AcDbArc
 50
270.0
 51
90.00000000000005
  0
LINE
  5
3A909
330
3E7
100
AcDbEntity
  8
DETAIL
100
AcDbLine
 10
182.7300801499275
 20
-172.8724338079125
 30
0.0
 11
189.7258801499356
 21
-172.8724338079125
 31
0.0
  0
LINE
  5
3A90A
330
3E7
100
AcDbEntity
  8
DETAIL
100
AcDbLine
 10
192.2243801499353
 20
-169.3745338079088
 30
0.0
 11
192.2293771499371
 21
-168.075313807917
 31
0.0
  0
LINE
  5
3A90B
330
3E7
100
AcDbEntity
  8
DETAIL
100
AcDbLine
 10
180.2265831499262
 20
-168.075313807917
 30
0.0
 11
181.2309801499349
 21
-168.0753138079035
 31
0.0
  0
LINE
  5
3A90C
330
3E7
100
AcDbEntity
  8
DETAIL
100
AcDbLine
 10
189.7258801499356
 20
-172.8724338079125
 30
0.0
 11
190.2255801499284
 21
-172.5839318783955
 31
0.0
  0
LINE
  5
3A90D
330
3E7
100
AcDbEntity
  8
DETAIL
100
AcDbLine
 10
192.2293771499371
 20
-168.57501380791
 30
0.0
 11
192.2293771499371
 21
-168.075313807917
 31
0.0
  0
ARC
  5
3A90E
330
3E7
100
AcDbEntity
  8
DETAIL
100
AcDbCircle
 10
181.2871167384023
 20
-166.5074356718141
 30
0.0
 40
1.568882776433893
100
AcDbArc
 50
114.2611925123774
 51
267.9494476182059
  0
LINE
  5
3A90F
330
3E7
100
AcDbEntity
  8
DETAIL
100
AcDbLine
 10
180.2265831499262
 20
-169.3745338079088
 30
0.0
 11
180.2265831499262
 21
-168.075313807917
 31
0.0
  0
LINE
  5
3A910
330
3E7
100
AcDbEntity
  8
DETAIL
100
AcDbLine
 10
182.7300801499275
 20
-172.8724338079125
 30
0.0
 11
182.2303801499345
 21
-172.5839318783955
 31
0.0
  0
LINE
  5
3A911
330
3E7
100
AcDbEntity
  8
DETAIL
100
AcDbLine
 10
180.2265831499262
 20
-168.57501380791
 30
0.0
 11
180.2265831499262
 21
-168.075313807917
 31
0.0
  0
LINE
  5
3A912
330
3E7
100
AcDbEntity
  8
DETAIL
100
AcDbLine
 10
190.2255801499284
 20
-172.5839318783955
 30
0.0
 11
190.2255801499268
 21
-169.4744738079107
 31
0.0
  0
LINE
  5
3A913
330
3E7
100
AcDbEntity
  8
DETAIL
100
AcDbLine
 10
192.2243801499353
 20
-169.3745338079088
 30
0.0
 11
190.3255201499304
 21
-169.3745338079088
 31
0.0
  0
ARC
  5
3A914
330
3E7
100
AcDbEntity
  8
DETAIL
100
AcDbCircle
 10
190.3255201499304
 20
-169.4744738079107
 30
0.0
 40
0.0999399999998523
100
AcDbArc
 50
90.00000000000005
 51
180.0
  0
ARC
  5
3A915
330
3E7
100
AcDbEntity
  8
DETAIL
100
AcDbCircle
 10
182.1254431499309
 20
-169.4744738079107
 30
0.0
 40
0.0999399999998523
100
AcDbArc
 50
0.000000000000007
 51
89.99999999999998
  0
LINE
  5
3A916
330
3E7
100
AcDbEntity
  8
DETAIL
100
AcDbLine
 10
180.2265831499262
 20
-169.3745338079088
 30
0.0
 11
182.1254431499309
 21
-169.3745338079088
 31
0.0
  0
LINE
  5
3A917
330
3E7
100
AcDbEntity
  8
DETAIL
100
AcDbLine
 10
190.2255801499284
 20
-172.5839318783955
 30
0.0
 11
190.2255801499268
 21
-169.4744738079107
 31
0.0
  0
LINE
  5
3A918
330
3E7
100
AcDbEntity
  8
DETAIL
100
AcDbLine
 10
182.2253831499287
 20
-172.5839318783955
 30
0.0
 11
182.2253831499269
 21
-169.4744738079107
 31
0.0
  0
LINE
  5
3A919
330
3E7
100
AcDbEntity
  8
DETAIL
100
AcDbLine
 10
191.2249801499309
 20
-168.0753138079035
 30
0.0
 11
192.2293771499371
 21
-168.075313807917
 31
0.0
  0
LINE
  5
3A91A
330
3E7
100
AcDbEntity
  8
DETAIL
100
AcDbLine
 10
469.9280001497355
 20
149.1104800000093
 30
0.0
 11
469.9280001499428
 21
-149.9100000000005
 31
0.0
  0
LINE
  5
3A91C
330
3E7
100
AcDbEntity
  8
NOTE
  6
CONTINOUS
100
AcDbLine
 10
386.7180001499755
 20
-125.499996221293
 30
0.0
 11
346.7180001499755
 21
-125.499996221293
 31
0.0
  0
LINE
  5
3A91D
330
3E7
100
AcDbEntity
  8
DETAIL
100
AcDbLine
 10
332.3005001499208
 20
-165.0729761682659
 30
0.0
 11
454.9370001499426
 21
-165.0764520507681
 31
0.0
  0
LINE
  5
3A91E
330
3E7
100
AcDbEntity
  8
NOTE
  6
CONTINOUS
100
AcDbLine
 10
289.7180001499755
 20
-164.9998502924425
 30
0.0
 11
249.7180001499752
 21
-164.9998502924425
 31
0.0
  0
LINE
  5
3A91F
330
3E7
100
AcDbEntity
  8
NOTE
  6
CONTINOUS
100
AcDbLine
 10
269.7180001499753
 20
-184.9998502924427
 30
0.0
 11
269.7180001499753
 21
-144.9998502924426
 31
0.0
  0
LINE
  5
3A920
330
3E7
100
AcDbEntity
  8
NOTE
  6
CONTINOUS
100
AcDbLine
 10
314.8230001499305
 20
-189.7082399999553
 30
0.0
 11
274.8230001499305
 21
-189.7082399999553
 31
0.0
  0
LINE
  5
3A921
330
3E7
100
AcDbEntity
  8
DETAIL
100
AcDbLine
 10
288.8266001499266
 20
-189.4862399999554
 30
0.0
 11
288.8266001499266
 21
-179.4922399999549
 31
0.0
  0
LINE
  5
3A922
330
3E7
100
AcDbEntity
  8
DETAIL
100
AcDbLine
 10
300.8194001499341
 20
-189.4862399999554
 30
0.0
 11
300.8194001499341
 21
-179.4922399999549
 31
0.0
  0
ARC
  5
3A923
330
3E7
100
AcDbEntity
  8
DETAIL
100
AcDbCircle
 10
294.8230001499305
 20
-179.4922399999549
 30
0.0
 40
5.9964
100
AcDbArc
 50
0.0
 51
180.0
  0
LINE
  5
3A924
330
3E7
100
AcDbEntity
  8
DETAIL
100
AcDbLine
 10
222.5111971499408
 20
-166.458502888363
 30
0.0
 11
220.5074001499506
 21
-166.458502888363
 31
0.0
  0
LINE
  5
3A925
330
3E7
100
AcDbEntity
  8
DETAIL
100
AcDbLine
 10
220.5074001499506
 20
-165.0698076199132
 30
0.0
 11
220.5074001499506
 21
-166.458502888363
 31
0.0
  0
LINE
  5
3A926
330
3E7
100
AcDbEntity
  8
DETAIL
100
AcDbLine
 10
230.506397149951
 20
-169.6679009588496
 30
0.0
 11
230.506397149951
 21
-166.458502888363
 31
0.0
  0
LINE
  5
3A927
330
3E7
100
AcDbEntity
  8
DETAIL
100
AcDbLine
 10
222.5111971499408
 20
-169.6679009588496
 30
0.0
 11
222.5111971499408
 21
-166.458502888363
 31
0.0
  0
LINE
  5
3A928
330
3E7
100
AcDbEntity
  8
DETAIL
100
AcDbLine
 10
230.0066971499418
 20
-169.9564028883487
 30
0.0
 11
230.506397149951
 21
-169.6679009588496
 31
0.0
  0
LINE
  5
3A929
330
3E7
100
AcDbEntity
  8
DETAIL
100
AcDbLine
 10
223.0108971499519
 20
-169.9564028883487
 30
0.0
 11
222.5111971499408
 21
-169.6679009588496
 31
0.0
  0
LINE
  5
3A92A
330
3E7
100
AcDbEntity
  8
DETAIL
100
AcDbLine
 10
232.5051971499414
 20
-166.458502888363
 30
0.0
 11
232.5051971499414
 21
-165.06760874098
 31
0.0
  0
LINE
  5
3A92B
330
3E7
100
AcDbEntity
  8
DETAIL
100
AcDbLine
 10
223.0108971499519
 20
-169.9564028883487
 30
0.0
 11
230.0066971499418
 21
-169.9564028883487
 31
0.0
  0
LINE
  5
3A92C
330
3E7
100
AcDbEntity
  8
DETAIL
100
AcDbLine
 10
254.7240386192115
 20
-166.4114180705773
 30
0.0
 11
254.7240386192115
 21
-165.0707774210311
 31
0.0
  0
LINE
  5
3A92D
330
3E7
100
AcDbEntity
  8
DETAIL
100
AcDbLine
 10
254.2243386192021
 20
-166.6999200000764
 30
0.0
 11
254.7240386192115
 21
-166.4114180705773
 31
0.0
  0
LINE
  5
3A92E
330
3E7
100
AcDbEntity
  8
DETAIL
100
AcDbLine
 10
246.7288386192012
 20
-166.4114180705773
 30
0.0
 11
246.7288386192012
 21
-165.0705508133269
 31
0.0
  0
LINE
  5
3A92F
330
3E7
100
AcDbEntity
  8
DETAIL
100
AcDbLine
 10
247.2285386192124
 20
-166.6999200000764
 30
0.0
 11
246.7288386192012
 21
-166.4114180705773
 31
0.0
  0
LINE
  5
3A930
330
3E7
100
AcDbEntity
  8
DETAIL
100
AcDbLine
 10
247.2285386192124
 20
-166.6999200000764
 30
0.0
 11
254.2243386192021
 21
-166.6999200000764
 31
0.0
  0
LINE
  5
3A932
330
3E7
100
AcDbEntity
  8
DETAIL
100
AcDbLine
 10
232.5051971499414
 20
-166.458502888363
 30
0.0
 11
230.5014001499511
 21
-166.458502888363
 31
0.0
  0
LINE
  5
3A933
330
3E7
100
AcDbEntity
  8
NOTE
  6
CONTINOUS
100
AcDbLine
 10
443.7180001499755
 20
-103.9999962212923
 30
0.0
 11
403.7180001499755
 21
-103.9999962212923
 31
0.0
  0
LINE
  5
3A934
330
3E7
100
AcDbEntity
  8
NOTE
  6
CONTINOUS
100
AcDbLine
 10
423.7180001499755
 20
-123.9999962212923
 30
0.0
 11
423.7180001499755
 21
-83.99999622129234
 31
0.0
  0
LWPOLYLINE
  5
3A935
330
3E7
100
AcDbEntity
  8
NOTE
  6
CONTINUOUS
100
AcDbPolyline
 90
        3
 70
     0
 43
0.0
 10
433.0761789227572
 20
-65.11009383630062
 10
423.7180001499752
 20
-103.9999962212932
 10
451.2673714264353
 20
-74.99944198792673
  0
LINE
  5
3A936
330
3E7
100
AcDbEntity
  8
NOTE
  6
CONTINOUS
100
AcDbLine
 10
366.7180001499755
 20
-145.499996221293
 30
0.0
 11
366.7180001499755
 21
-105.4999962212932
 31
0.0
  0
LWPOLYLINE
  5
3A937
330
3E7
100
AcDbEntity
  8
NOTE
  6
CONTINUOUS
100
AcDbPolyline
 90
        3
 70
     0
 43
0.0
 10
376.0761789227588
 20
-86.61009383630153
 10
366.7180001499751
 20
-125.499996221293
 10
394.2673714264372
 20
-96.49944198792766
  0
LINE
  5
3A93C
330
3E7
100
AcDbEntity
  8
DETAIL
100
AcDbLine
 10
471.2272201499343
 20
57.26561999999557
 30
0.0
 11
471.227220149934
 21
55.26681999998711
 31
0.0
  0
LINE
  5
3A93D
330
3E7
100
AcDbEntity
  8
DETAIL
100
AcDbLine
 10
471.22722014995
 20
45.27281999998649
 30
0.0
 11
469.9280001498073
 21
45.27281999998649
 31
0.0
  0
LINE
  5
3A93E
330
3E7
100
AcDbEntity
  8
DETAIL
100
AcDbLine
 10
474.7251201499382
 20
47.771319999988
 30
0.0
 11
474.4366182204212
 21
47.27161999999498
 31
0.0
  0
LINE
  5
3A93F
330
3E7
100
AcDbEntity
  8
DETAIL
100
AcDbLine
 10
474.7251201499382
 20
54.76711999999405
 30
0.0
 11
474.4366182204212
 21
55.26681999998711
 31
0.0
  0
LINE
  5
3A940
330
3E7
100
AcDbEntity
  8
DETAIL
100
AcDbLine
 10
474.4366182204212
 20
55.26681999998711
 30
0.0
 11
471.227220149934
 21
55.26681999998711
 31
0.0
  0
LINE
  5
3A941
330
3E7
100
AcDbEntity
  8
DETAIL
100
AcDbLine
 10
474.7251201499382
 20
54.76711999999405
 30
0.0
 11
474.7251201499382
 21
47.771319999988
 31
0.0
  0
LINE
  5
3A942
330
3E7
100
AcDbEntity
  8
DETAIL
100
AcDbLine
 10
474.4366182204212
 20
47.27161999999498
 30
0.0
 11
471.22722014995
 21
47.27161999999498
 31
0.0
  0
LINE
  5
3A943
330
3E7
100
AcDbEntity
  8
DETAIL
100
AcDbLine
 10
471.2272201499343
 20
57.26561999999557
 30
0.0
 11
469.9280001497989
 21
57.26561999999557
 31
0.0
  0
LINE
  5
3A944
330
3E7
100
AcDbEntity
  8
DETAIL
100
AcDbLine
 10
471.22722014995
 20
45.27281999998649
 30
0.0
 11
471.22722014995
 21
47.27161999999498
 31
0.0
  0
ARC
  5
3A945
330
3E7
100
AcDbEntity
  8
DETAIL
100
AcDbCircle
 10
454.6332179692444
 20
-149.7841693007494
 30
0.0
 40
15.29529977868468
100
AcDbArc
 50
271.138034664675
 51
359.5286362849751
  0
ARC
  5
3A946
330
3E7
100
AcDbEntity
  8
DETAIL
100
AcDbCircle
 10
471.9268001489871
 20
-133.2633482035934
 30
0.0
 40
0.9993999999999852
100
AcDbArc
 50
0.0
 51
40.00000000088324
  0
ARC
  5
3A947
330
3E7
100
AcDbEntity
  8
DETAIL
100
AcDbCircle
 10
395.745548352188
 20
-167.1123440408989
 30
0.0
 40
0.9993999999999999
100
AcDbArc
 50
229.9999999997839
 51
270.0
  0
ARC
  5
3A948
330
3E7
100
AcDbEntity
  8
DETAIL
100
AcDbCircle
 10
397.1288105804706
 20
-168.3116973260293
 30
0.0
 40
0.1999534301764614
100
AcDbArc
 50
52.37718597997241
 51
90.06900073982579
  0
ARC
  5
3A949
330
3E7
100
AcDbEntity
  8
DETAIL
100
AcDbCircle
 10
407.3573763786933
 20
-170.1105665348531
 30
0.0
 40
4.997000243304004
100
AcDbArc
 50
229.9999990121979
 51
269.9999989847888
  0
LINE
  5
3A94A
330
3E7
100
AcDbEntity
  8
DETAIL
100
AcDbLine
 10
395.1031464150691
 20
-167.8779288573512
 30
0.0
 11
392.4042001489961
 21
-165.6132440409218
 31
0.0
  0
LINE
  5
3A94B
330
3E7
100
AcDbEntity
  8
DETAIL
100
AcDbLine
 10
392.4042001489961
 20
-165.6132440409218
 30
0.0
 11
392.6098895577688
 21
-165.6132440409218
 31
0.0
  0
LINE
  5
3A94C
330
3E7
100
AcDbEntity
  8
DETAIL
100
AcDbLine
 10
395.745548352188
 20
-168.1117440409034
 30
0.0
 11
397.1285697785915
 21
-168.1117440408488
 31
0.0
  0
LINE
  5
3A94D
330
3E7
100
AcDbEntity
  8
DETAIL
100
AcDbLine
 10
392.6098895577688
 20
-165.6132440409218
 30
0.0
 11
392.6477567443125
 21
-165.1135440408743
 31
0.0
  0
ARC
  5
3A94E
330
3E7
100
AcDbEntity
  8
DETAIL
100
AcDbCircle
 10
395.745548352188
 20
-167.1123440408989
 30
0.0
 40
0.9993999999999999
100
AcDbArc
 50
229.9999999997839
 51
270.0
  0
ARC
  5
3A94F
330
3E7
100
AcDbEntity
  8
DETAIL
100
AcDbCircle
 10
407.3573763786933
 20
-170.1105665348531
 30
0.0
 40
4.997000243304004
100
AcDbArc
 50
229.9999990121979
 51
269.9999989847888
  0
LINE
  5
3A950
330
3E7
100
AcDbEntity
  8
DETAIL
100
AcDbLine
 10
376.2139201499337
 20
-166.4127640406113
 30
0.0
 11
374.2101231499436
 21
-166.4127640406113
 31
0.0
  0
LINE
  5
3A951
330
3E7
100
AcDbEntity
  8
DETAIL
100
AcDbLine
 10
383.709420149933
 20
-169.910664040597
 30
0.0
 11
384.2091201499441
 21
-169.6221621110979
 31
0.0
  0
LINE
  5
3A952
330
3E7
100
AcDbEntity
  8
DETAIL
100
AcDbLine
 10
376.7136201499452
 20
-169.910664040597
 30
0.0
 11
376.2139201499337
 21
-169.6221621110979
 31
0.0
  0
LINE
  5
3A953
330
3E7
100
AcDbEntity
  8
DETAIL
100
AcDbLine
 10
472.6923849654195
 20
-132.6209462664546
 30
0.0
 11
470.4277001489717
 21
-129.9220000003469
 31
0.0
  0
LINE
  5
3A954
330
3E7
100
AcDbEntity
  8
DETAIL
100
AcDbLine
 10
470.4277001489717
 20
-130.1218800003143
 30
0.0
 11
469.928000148926
 21
-130.1656075705039
 31
0.0
  0
LINE
  5
3A955
330
3E7
100
AcDbEntity
  8
DETAIL
100
AcDbLine
 10
470.4277001489717
 20
-129.9220000003469
 30
0.0
 11
470.4277001489717
 21
-130.1218800003143
 31
0.0
  0
ARC
  5
3A956
330
3E7
100
AcDbEntity
  8
DETAIL
100
AcDbCircle
 10
473.1268983511673
 20
-134.6487444255189
 30
0.0
 40
0.2007122517024484
100
AcDbArc
 50
179.3220695714321
 51
218.0227313978551
  0
ARC
  5
3A957
330
3E7
100
AcDbEntity
  8
DETAIL
100
AcDbCircle
 10
474.9250001491618
 20
-144.8751490439599
 30
0.0
 40
4.996999999999016
100
AcDbArc
 50
0.0
 51
39.99999999998943
  0
LINE
  5
3A958
330
3E7
100
AcDbEntity
  8
DETAIL
100
AcDbLine
 10
472.9262001490623
 20
-134.6463696298694
 30
0.0
 11
472.9262001489714
 21
-133.2633482035934
 31
0.0
  0
LINE
  5
3A959
330
3E7
100
AcDbEntity
  8
DETAIL
100
AcDbLine
 10
478.4250537006646
 20
-141.2723984754784
 30
0.0
 11
478.7529242314157
 21
-141.663139358342
 31
0.0
  0
LINE
  5
3A95A
330
3E7
100
AcDbEntity
  8
DETAIL
100
AcDbLine
 10
479.9220001491612
 20
-144.8751490439599
 30
0.0
 11
479.8979777786826
 21
-150.9994000306833
 31
0.0
  0
ARC
  5
3A95B
330
3E7
100
AcDbEntity
  8
DETAIL
100
AcDbCircle
 10
474.9250001491618
 20
-144.8751490439599
 30
0.0
 40
4.996999999999016
100
AcDbArc
 50
0.0
 51
39.99999999998943
  0
LINE
  5
3A95C
330
3E7
100
AcDbEntity
  8
DETAIL
100
AcDbLine
 10
472.9262001490623
 20
-134.6463696298694
 30
0.0
 11
472.9262001489714
 21
-133.2633482035934
 31
0.0
  0
LINE
  5
3A95D
330
3E7
100
AcDbEntity
  8
DETAIL
100
AcDbLine
 10
374.2101231499436
 20
-165.0741640114065
 30
0.0
 11
374.2101231499436
 21
-166.4127640406113
 31
0.0
  0
LINE
  5
3A95E
330
3E7
100
AcDbEntity
  8
DETAIL
100
AcDbLine
 10
386.2127685445566
 20
-165.0745042020107
 30
0.0
 11
386.2079201499327
 21
-166.4127640406113
 31
0.0
  0
LINE
  5
3A95F
330
3E7
100
AcDbEntity
  8
DETAIL
100
AcDbLine
 10
376.7136201499452
 20
-169.910664040597
 30
0.0
 11
383.709420149933
 21
-169.910664040597
 31
0.0
  0
LINE
  5
3A960
330
3E7
100
AcDbEntity
  8
DETAIL
100
AcDbLine
 10
376.2139201499337
 20
-169.6221621110979
 30
0.0
 11
376.2139201499337
 21
-166.4127640406113
 31
0.0
  0
LINE
  5
3A961
330
3E7
100
AcDbEntity
  8
DETAIL
100
AcDbLine
 10
384.2091201499441
 20
-169.6221621110979
 30
0.0
 11
384.2091201499441
 21
-166.4127640406113
 31
0.0
  0
LINE
  5
3A962
330
3E7
100
AcDbEntity
  8
DETAIL
100
AcDbLine
 10
384.2091201499441
 20
-166.4127640406113
 30
0.0
 11
386.2079201499327
 21
-166.4127640406113
 31
0.0
  0
LINE
  5
3A963
330
3E7
100
AcDbEntity
  8
DETAIL
100
AcDbLine
 10
397.2508742692744
 20
-168.1533248848818
 30
0.0
 11
404.1453664707023
 21
-173.9384907481244
 31
0.0
  0
LINE
  5
3A964
330
3E7
100
AcDbEntity
  8
DETAIL
100
AcDbLine
 10
472.9687839760908
 20
-134.7723779661855
 30
0.0
 11
478.4250537006646
 21
-141.2723984754784
 31
0.0
  0
ARC
  5
3A965
330
3E7
100
AcDbEntity
  8
DETAIL
100
AcDbCircle
 10
454.9394214697831
 20
-150.1226660804304
 30
0.0
 40
24.98231493608688
100
AcDbArc
 50
270.8434944521298
 51
357.5009992488838
  0
LINE
  5
3A966
330
3E7
100
AcDbEntity
  8
DETAIL
100
AcDbLine
 10
407.3573762901395
 20
-175.1075667781733
 30
0.0
 11
455.3071917150817
 21
-175.102273855824
 31
0.0
  0
LINE
  5
3A96A
330
3E7
100
AcDbEntity
  8
DETAIL
100
AcDbLine
 10
359.8379651841733
 20
164.9009999999806
 30
0.0
 11
332.3005001499291
 21
164.9073592083841
 31
0.0
  0
LINE
  5
3A96C
330
3E7
100
AcDbEntity
  8
NOTE
  6
CONTINOUS
100
AcDbLine
 10
294.8230001499305
 20
200.2917600000446
 30
0.0
 11
294.8230001499305
 21
160.2917600000446
 31
0.0
  0
LINE
  5
3A96D
330
3E7
100
AcDbEntity
  8
NOTE
  6
CONTINOUS
100
AcDbLine
 10
274.8230001499305
 20
180.2917600000446
 30
0.0
 11
314.8230001499305
 21
180.2917600000446
 31
0.0
  0
LINE
  5
3A970
330
3E7
100
AcDbEntity
  8
DETAIL
100
AcDbLine
 10
257.3455001499314
 20
164.9246685164605
 30
0.0
 11
257.3455001499314
 21
191.2851599999929
 31
0.0
  0
LINE
  5
3A971
330
3E7
100
AcDbEntity
  8
DETAIL
100
AcDbLine
 10
265.3407001499301
 20
-165.0710783287386
 30
0.0
 11
265.3407001499299
 21
194.2833600000583
 31
0.0
  0
LINE
  5
3A972
330
3E7
100
AcDbEntity
  8
DETAIL
100
AcDbLine
 10
324.3053001499192
 20
164.9092055345789
 30
0.0
 11
324.3053001499192
 21
194.2833600000583
 31
0.0
  0
LINE
  5
3A973
330
3E7
100
AcDbEntity
  8
DETAIL
100
AcDbLine
 10
332.3005001499211
 20
-165.0729761682659
 30
0.0
 11
332.3005001499296
 21
191.2851599999929
 31
0.0
  0
ARC
  5
3A974
330
3E7
100
AcDbEntity
  8
DETAIL
100
AcDbCircle
 10
225.8924657702753
 20
176.4440700002969
 30
0.0
 40
3.747750000001015
100
AcDbArc
 50
30.00000000001032
 51
82.15731307704547
  0
ARC
  5
3A975
330
3E7
100
AcDbEntity
  8
DETAIL
100
AcDbCircle
 10
225.8924657702753
 20
176.4440700002969
 30
0.0
 40
3.747749999999999
100
AcDbArc
 50
82.15731307694225
 51
89.99999999989581
  0
LINE
  5
3A976
330
3E7
100
AcDbEntity
  8
DETAIL
100
AcDbLine
 10
236.867994053832
 20
164.9293973732637
 30
0.0
 11
229.1381124773179
 21
178.3179450002961
 31
0.0
  0
ARC
  5
3A977
330
3E7
100
AcDbEntity
  8
DETAIL
100
AcDbCircle
 10
225.8924657702753
 20
176.4440700002969
 30
0.0
 40
3.747750000001015
100
AcDbArc
 50
30.00000000001032
 51
82.15731307704547
  0
ARC
  5
3A978
330
3E7
100
AcDbEntity
  8
DETAIL
100
AcDbCircle
 10
225.8924657702753
 20
176.4440700002969
 30
0.0
 40
3.747749999999999
100
AcDbArc
 50
82.15731307694225
 51
89.99999999989581
  0
LINE
  5
3A979
330
3E7
100
AcDbEntity
  8
DETAIL
100
AcDbLine
 10
305.8164001499333
 20
199.2803600000579
 30
0.0
 11
322.3065001499306
 21
199.2803600000579
 31
0.0
  0
LINE
  5
3A97A
330
3E7
100
AcDbEntity
  8
DETAIL
100
AcDbLine
 10
305.8164001499333
 20
196.2821600000469
 30
0.0
 11
322.3065001499306
 21
196.2821600000469
 31
0.0
  0
ARC
  5
3A97B
330
3E7
100
AcDbEntity
  8
DETAIL
100
AcDbCircle
 10
267.33950014993
 20
194.2833600000583
 30
0.0
 40
4.996999999999998
100
AcDbArc
 50
90.00000000000005
 51
180.0000000006253
  0
ARC
  5
3A97C
330
3E7
100
AcDbEntity
  8
DETAIL
100
AcDbCircle
 10
260.3437001499222
 20
191.2851599999929
 30
0.0
 40
2.9982
100
AcDbArc
 50
90.00000000000005
 51
180.0
  0
LINE
  5
3A97D
330
3E7
100
AcDbEntity
  8
DETAIL
100
AcDbLine
 10
267.33950014993
 20
199.2803600000579
 30
0.0
 11
283.8296001499275
 21
199.2803600000579
 31
0.0
  0
LINE
  5
3A97E
330
3E7
100
AcDbEntity
  8
DETAIL
100
AcDbLine
 10
267.33950014993
 20
196.2821600000469
 30
0.0
 11
283.8296001499275
 21
196.2821600000469
 31
0.0
  0
LINE
  5
3A97F
330
3E7
100
AcDbEntity
  8
DETAIL
100
AcDbLine
 10
285.8284001499341
 20
194.2833600000583
 30
0.0
 11
285.8284001499341
 21
180.2917600000446
 31
0.0
  0
LINE
  5
3A980
330
3E7
100
AcDbEntity
  8
DETAIL
100
AcDbLine
 10
303.8176001499268
 20
180.2917600000446
 30
0.0
 11
303.8176001499268
 21
194.2833600000583
 31
0.0
  0
LINE
  5
3A981
330
3E7
100
AcDbEntity
  8
DETAIL
100
AcDbLine
 10
288.8266001499266
 20
194.2833600000583
 30
0.0
 11
288.8266001499266
 21
180.2917600000446
 31
0.0
  0
LINE
  5
3A982
330
3E7
100
AcDbEntity
  8
DETAIL
100
AcDbLine
 10
300.8194001499341
 20
180.2917600000446
 30
0.0
 11
300.8194001499341
 21
194.2833600000583
 31
0.0
  0
ARC
  5
3A983
330
3E7
100
AcDbEntity
  8
DETAIL
100
AcDbCircle
 10
294.8230001499305
 20
180.2917600000446
 30
0.0
 40
8.9946
100
AcDbArc
 50
180.0
 51
0.0
  0
ARC
  5
3A984
330
3E7
100
AcDbEntity
  8
DETAIL
100
AcDbCircle
 10
267.33950014993
 20
194.2833600000583
 30
0.0
 40
1.998799999999999
100
AcDbArc
 50
90.00000000000005
 51
180.0
  0
ARC
  5
3A985
330
3E7
100
AcDbEntity
  8
DETAIL
100
AcDbCircle
 10
283.8296001499275
 20
194.2833600000583
 30
0.0
 40
4.996999999999998
100
AcDbArc
 50
0.0
 51
90.00000000000005
  0
ARC
  5
3A986
330
3E7
100
AcDbEntity
  8
DETAIL
100
AcDbCircle
 10
283.8296001499275
 20
194.2833600000583
 30
0.0
 40
1.998799999999999
100
AcDbArc
 50
0.0
 51
90.00000000000005
  0
ARC
  5
3A987
330
3E7
100
AcDbEntity
  8
DETAIL
100
AcDbCircle
 10
305.8164001499333
 20
194.2833600000583
 30
0.0
 40
4.996999999999998
100
AcDbArc
 50
90.00000000000005
 51
180.0
  0
ARC
  5
3A988
330
3E7
100
AcDbEntity
  8
DETAIL
100
AcDbCircle
 10
305.8164001499333
 20
194.2833600000583
 30
0.0
 40
1.998799999999999
100
AcDbArc
 50
90.00000000000005
 51
180.0
  0
ARC
  5
3A989
330
3E7
100
AcDbEntity
  8
DETAIL
100
AcDbCircle
 10
294.8230001499305
 20
180.2917600000446
 30
0.0
 40
5.9964
100
AcDbArc
 50
180.0
 51
0.0
  0
ARC
  5
3A98A
330
3E7
100
AcDbEntity
  8
DETAIL
100
AcDbCircle
 10
322.3065001499306
 20
194.2833600000583
 30
0.0
 40
4.996999999999998
100
AcDbArc
 50
0.0
 51
90.00000000000005
  0
ARC
  5
3A98B
330
3E7
100
AcDbEntity
  8
DETAIL
100
AcDbCircle
 10
322.3065001499306
 20
194.2833600000583
 30
0.0
 40
1.998799999999999
100
AcDbArc
 50
0.0
 51
90.00000000000005
  0
ARC
  5
3A98C
330
3E7
100
AcDbEntity
  8
DETAIL
100
AcDbCircle
 10
329.3023001499205
 20
191.2851599999929
 30
0.0
 40
2.9982
100
AcDbArc
 50
0.0
 51
90.00000000000005
  0
LINE
  5
3A98D
330
3E7
100
AcDbEntity
  8
DETAIL
100
AcDbLine
 10
260.3437001499222
 20
194.2833599999929
 30
0.0
 11
265.3407001499301
 21
194.2833600000583
 31
0.0
  0
LINE
  5
3A98E
330
3E7
100
AcDbEntity
  8
DETAIL
100
AcDbLine
 10
329.3023001499205
 20
194.2833599999929
 30
0.0
 11
324.3053001499304
 21
194.2833600000583
 31
0.0
  0
CIRCLE
  5
3A991
330
3E7
100
AcDbEntity
  8
FIX
  6
CONTINUOUS
100
AcDbCircle
 10
300.0
 20
185.0
 30
0.0
 40
40.0
  0
ARC
  5
3A992
330
3E7
100
AcDbEntity
  8
DETAIL
100
AcDbCircle
 10
471.9268001496582
 20
133.2633482032824
 30
0.0
 40
0.9993999999999999
100
AcDbArc
 50
319.9999999990498
 51
0.0
  0
ARC
  5
3A993
330
3E7
100
AcDbEntity
  8
DETAIL
100
AcDbCircle
 10
454.936946550204
 20
149.9120469400759
 30
0.0
 40
24.98369159371321
100
AcDbArc
 50
24.67349722002325
 51
90.43371567817075
  0
LINE
  5
3A994
330
3E7
100
AcDbEntity
  8
DETAIL
100
AcDbLine
 10
454.1374801499285
 20
164.9009999999825
 30
0.0
 11
359.8379651841733
 21
164.9009999999806
 31
0.0
  0
ARC
  5
3A995
330
3E7
100
AcDbEntity
  8
DETAIL
100
AcDbCircle
 10
395.7455483528973
 20
166.8998000000418
 30
0.0
 40
0.9994000000001815
100
AcDbArc
 50
90.00000000000005
 51
130.0000000000692
  0
ARC
  5
3A996
330
3E7
100
AcDbEntity
  8
DETAIL
100
AcDbCircle
 10
397.1309473109413
 20
168.0998903941151
 30
0.0
 40
0.200704476613108
100
AcDbArc
 50
269.3212622091273
 51
308.0236461552686
  0
ARC
  5
3A997
330
3E7
100
AcDbEntity
  8
DETAIL
100
AcDbCircle
 10
407.357376379439
 20
169.8980224940685
 30
0.0
 40
4.997000243304762
100
AcDbArc
 50
90.00000101521107
 51
130.0000009877221
  0
LINE
  5
3A998
330
3E7
100
AcDbEntity
  8
DETAIL
100
AcDbLine
 10
395.1031464157768
 20
167.6653848164941
 30
0.0
 11
392.4042001496873
 21
165.4007000000464
 31
0.0
  0
LINE
  5
3A999
330
3E7
100
AcDbEntity
  8
DETAIL
100
AcDbLine
 10
392.609889558478
 20
165.4007000000464
 30
0.0
 11
392.6477567450201
 21
164.9010000000171
 31
0.0
  0
LINE
  5
3A99A
330
3E7
100
AcDbEntity
  8
DETAIL
100
AcDbLine
 10
392.4042001496873
 20
165.4007000000464
 30
0.0
 11
392.609889558478
 21
165.4007000000464
 31
0.0
  0
LINE
  5
3A99B
330
3E7
100
AcDbEntity
  8
DETAIL
100
AcDbLine
 10
404.1453664714553
 20
173.7259467073388
 30
0.0
 11
403.7553364257801
 21
173.3986726399043
 31
0.0
  0
LINE
  5
3A99C
330
3E7
100
AcDbEntity
  8
DETAIL
100
AcDbLine
 10
403.7553364257801
 20
173.3986726399043
 30
0.0
 11
397.2545785866204
 21
167.9417841178119
 31
0.0
  0
LINE
  5
3A99D
330
3E7
100
AcDbEntity
  8
DETAIL
100
AcDbLine
 10
374.2151201499436
 20
166.2002199999905
 30
0.0
 11
374.2101231499436
 21
165.4006999999919
 31
0.0
  0
LINE
  5
3A99E
330
3E7
100
AcDbEntity
  8
DETAIL
100
AcDbLine
 10
374.2151201499436
 20
166.2002199999905
 30
0.0
 11
376.2139201499337
 21
166.2002199999905
 31
0.0
  0
LINE
  5
3A99F
330
3E7
100
AcDbEntity
  8
DETAIL
100
AcDbLine
 10
384.2091201499441
 20
166.2002199999905
 30
0.0
 11
386.2079201499327
 21
166.2002199999905
 31
0.0
  0
LINE
  5
3A9A0
330
3E7
100
AcDbEntity
  8
DETAIL
100
AcDbLine
 10
376.7136201499452
 20
169.6981199999945
 30
0.0
 11
376.2139201499337
 21
169.4096180704773
 31
0.0
  0
LINE
  5
3A9A1
330
3E7
100
AcDbEntity
  8
DETAIL
100
AcDbLine
 10
383.709420149933
 20
169.6981199999945
 30
0.0
 11
384.2091201499441
 21
169.4096180704773
 31
0.0
  0
LINE
  5
3A9A2
330
3E7
100
AcDbEntity
  8
DETAIL
100
AcDbLine
 10
472.6923849661107
 20
132.6209462661436
 30
0.0
 11
470.4277001496446
 21
129.9220000000359
 31
0.0
  0
LINE
  5
3A9A3
330
3E7
100
AcDbEntity
  8
DETAIL
100
AcDbLine
 10
470.4277001496446
 20
129.9220000000359
 30
0.0
 11
470.4277001496446
 21
130.1218800000033
 31
0.0
  0
LINE
  5
3A9A4
330
3E7
100
AcDbEntity
  8
DETAIL
100
AcDbLine
 10
470.4277001496446
 20
130.1218800000033
 30
0.0
 11
469.9280001495971
 21
130.1656075701929
 31
0.0
  0
ARC
  5
3A9A5
330
3E7
100
AcDbEntity
  8
DETAIL
100
AcDbCircle
 10
474.9250001498894
 20
144.8751490437398
 30
0.0
 40
4.997000000000452
100
AcDbArc
 50
319.9999999999306
 51
0.0
  0
ARC
  5
3A9A6
330
3E7
100
AcDbEntity
  8
DETAIL
100
AcDbCircle
 10
473.1268983518766
 20
134.6487444252443
 30
0.0
 40
0.2007122517040641
100
AcDbArc
 50
141.9772686021445
 51
180.6779304283594
  0
LINE
  5
3A9A7
330
3E7
100
AcDbEntity
  8
DETAIL
100
AcDbLine
 10
473.2257570926647
 20
135.0761180628969
 30
0.0
 11
472.9687839767938
 21
134.772377965909
 31
0.0
  0
LINE
  5
3A9A8
330
3E7
100
AcDbEntity
  8
DETAIL
100
AcDbLine
 10
472.9262001497718
 20
134.6463696295948
 30
0.0
 11
472.9262001496627
 21
133.2633482032641
 31
0.0
  0
LINE
  5
3A9A9
330
3E7
100
AcDbEntity
  8
DETAIL
100
AcDbLine
 10
473.2257570926647
 20
135.0761180628969
 30
0.0
 11
478.7529242321514
 21
141.663139358131
 31
0.0
  0
LINE
  5
3A9AA
330
3E7
100
AcDbEntity
  8
DETAIL
100
AcDbLine
 10
376.2139201499337
 20
169.4096180704773
 30
0.0
 11
376.2139201499337
 21
166.2002199999905
 31
0.0
  0
LINE
  5
3A9AB
330
3E7
100
AcDbEntity
  8
DETAIL
100
AcDbLine
 10
384.2091201499441
 20
169.4096180704773
 30
0.0
 11
384.2091201499441
 21
166.2002199999905
 31
0.0
  0
LINE
  5
3A9AC
330
3E7
100
AcDbEntity
  8
DETAIL
100
AcDbLine
 10
386.2079201499327
 20
166.2002199999905
 30
0.0
 11
386.2129171499344
 21
164.9009999999988
 31
0.0
  0
LINE
  5
3A9AD
330
3E7
100
AcDbEntity
  8
DETAIL
100
AcDbLine
 10
376.7136201499452
 20
169.6981199999945
 30
0.0
 11
383.709420149933
 21
169.6981199999945
 31
0.0
  0
ARC
  5
3A9AE
330
3E7
100
AcDbEntity
  8
DETAIL
100
AcDbCircle
 10
449.0515358144821
 20
148.221159741316
 30
0.0
 40
31.05126979484039
100
AcDbArc
 50
353.8139321735373
 51
22.9750483286183
  0
LINE
  5
3A9AF
330
3E7
100
AcDbEntity
  8
DETAIL
100
AcDbLine
 10
397.1285697793309
 20
167.8992000000353
 30
0.0
 11
395.7455483528973
 21
167.8992000000425
 31
0.0
  0
ARC
  5
3A9B0
330
3E7
100
AcDbEntity
  8
DETAIL
100
AcDbCircle
 10
454.1247869513708
 20
149.0977868016178
 30
0.0
 40
15.80321829597505
100
AcDbArc
 50
0.0460201688621685
 51
89.95397983053562
  0
LINE
  5
3A9B1
330
3E7
100
AcDbEntity
  8
DETAIL
100
AcDbLine
 10
407.3573762908963
 20
174.8950227373743
 30
0.0
 11
454.7478276421339
 21
174.8950227373743
 31
0.0
  0
TEXT
  5
3A9B3
330
3E7
100
AcDbEntity
  8
SIZE
100
AcDbText
 10
-74.36117028211197
 20
594.3411806659312
 30
0.0
 40
64.0
  1
950
 41
0.9
100
AcDbText
  0
TEXT
  5
3A9B4
330
3E7
100
AcDbEntity
  8
SIZE
100
AcDbText
 10
-81.40546702929828
 20
418.2782829441784
 30
0.0
 40
64.0
  1
600
 41
0.9
100
AcDbText
  0
LINE
  5
3A9B5
330
3E7
100
AcDbEntity
  8
SIZE
100
AcDbLine
 10
305.2880001498751
 20
407.5700289564755
 30
0.0
 11
460.2880001498752
 21
407.5700289564755
 31
0.0
  0
TEXT
  5
3A9B6
330
3E7
100
AcDbEntity
  8
SIZE
100
AcDbText
 10
300.950145290567
 20
421.799545337646
 30
0.0
 40
64.0
  1
175
 41
0.9
100
AcDbText
  0
LINE
  5
3A9B7
330
3E7
100
AcDbEntity
  8
SIZE
100
AcDbLine
 10
290.2880001498751
 20
407.5700289564755
 30
0.0
 11
285.2880001498748
 21
407.5700289564755
 31
0.0
  0
CIRCLE
  5
3A9B8
330
3E7
100
AcDbEntity
  8
SIZE
100
AcDbCircle
 10
295.2880001498751
 20
407.5700289564755
 30
0.0
 40
5.0
  0
CIRCLE
  5
3A9B9
330
3E7
100
AcDbEntity
  8
SIZE
100
AcDbCircle
 10
295.2880001498751
 20
407.5700289564755
 30
0.0
 40
5.0
  0
LINE
  5
3A9BA
330
3E7
100
AcDbEntity
  8
SIZE
100
AcDbLine
 10
300.2880001498752
 20
407.5700289564755
 30
0.0
 11
305.2880001498751
 21
407.5700289564755
 31
0.0
  0
LINE
  5
3A9BB
330
3E7
100
AcDbEntity
  8
SIZE
100
AcDbLine
 10
465.2880001498751
 20
577.26090211472
 30
0.0
 11
460.2880001498752
 21
577.26090211472
 31
0.0
  0
CIRCLE
  5
3A9BC
330
3E7
100
AcDbEntity
  8
SIZE
100
AcDbCircle
 10
470.2880001498751
 20
577.26090211472
 30
0.0
 40
5.0
  0
LINE
  5
3A9BD
330
3E7
100
AcDbEntity
  8
SIZE
100
AcDbLine
 10
465.2880001498751
 20
407.5700289564755
 30
0.0
 11
460.2880001498752
 21
407.5700289564755
 31
0.0
  0
CIRCLE
  5
3A9BE
330
3E7
100
AcDbEntity
  8
SIZE
100
AcDbCircle
 10
470.2880001498751
 20
407.5700289564755
 30
0.0
 40
5.0
  0
LINE
  5
3A9BF
330
3E7
100
AcDbEntity
  8
SIZE
100
AcDbLine
 10
1188.799264859389
 20
-203.7082399999553
 30
0.0
 11
1188.799264859389
 21
199.3718994496919
 31
0.0
  0
CIRCLE
  5
3A9C0
330
3E7
100
AcDbEntity
  8
SIZE
100
AcDbCircle
 10
974.9121006341502
 20
-190.0000000000009
 30
0.0
 40
5.0
  0
LINE
  5
3A9C1
330
3E7
100
AcDbEntity
  8
SIZE
100
AcDbLine
 10
774.7441393678407
 20
-174.9999962212931
 30
0.0
 11
774.7441393678407
 21
-654.9999962212933
 31
0.0
  0
LINE
  5
3A9C2
330
3E7
100
AcDbEntity
  8
SIZE
100
AcDbLine
 10
974.9121006341502
 20
-190.0000000000009
 30
0.0
 11
974.9121006341502
 21
-195.0000000000009
 31
0.0
  0
TEXT
  5
3A9C5
330
3E7
100
AcDbEntity
  8
SIZE
100
AcDbText
 10
962.7330608592238
 20
-335.4031663755121
 30
0.0
 40
64.0
  1
14
 50
90.0
 41
0.9
100
AcDbText
  0
LINE
  5
3A9C6
330
3E7
100
AcDbEntity
  8
SIZE
100
AcDbLine
 10
974.9121006341502
 20
-324.8506016987948
 30
0.0
 11
974.9121006341502
 21
-203.0000000000009
 31
0.0
  0
CIRCLE
  5
3A9C7
330
3E7
100
AcDbEntity
  8
SIZE
100
AcDbCircle
 10
974.9121006341502
 20
-203.7082399999553
 30
0.0
 40
5.0
  0
LINE
  5
3A9C8
330
3E7
100
AcDbEntity
  8
SIZE
100
AcDbLine
 10
974.9121006341502
 20
-195.0000000000009
 30
0.0
 11
974.9121006341502
 21
-203.0000000000009
 31
0.0
  0
CIRCLE
  5
3A9C9
330
3E7
100
AcDbEntity
  8
SIZE
100
AcDbCircle
 10
1188.799264859389
 20
-203.7078699976208
 30
0.0
 40
5.0
  0
LINE
  5
3A9CA
330
3E7
100
AcDbEntity
  8
NOTE
  6
CONTINUOUS
100
AcDbLine
 10
680.2933256585902
 20
376.7048628631901
 30
0.0
 11
1135.026588868031
 21
376.7048628631901
 31
0.0
  0
TEXT
  5
3A9CB
330
3E7
100
AcDbEntity
  8
SIZE
100
AcDbText
 10
1163.495531389846
 20
-54.51784609550395
 30
0.0
 40
64.0
  1
403
 50
90.0
 41
0.9
100
AcDbText
  0
TEXT
  5
3A9CC
330
3E7
100
AcDbEntity
  8
NOTE
  6
CONTINUOUS
100
AcDbText
 10
736.5125074905099
 20
396.9862188631905
 30
0.0
 40
64.0
  1
RG%%C15.88
 41
0.9
100
AcDbText
  0
TEXT
  5
3A9CD
330
3E7
100
AcDbEntity
  8
SIZE
100
AcDbText
 10
607.1994073191363
 20
-97.32779542122628
 30
0.0
 40
64.0
  1
39.5
 50
90.0
 41
0.9
100
AcDbText
  0
LINE
  5
3A9CE
330
3E7
100
AcDbEntity
  8
SIZE
100
AcDbLine
 10
617.434932346785
 20
-125.499996221293
 30
0.0
 11
617.434932346785
 21
76.35976363726604
 31
0.0
  0
CIRCLE
  5
3A9CF
330
3E7
100
AcDbEntity
  8
SIZE
100
AcDbCircle
 10
617.434932346785
 20
-125.499996221293
 30
0.0
 40
5.0
  0
LINE
  5
3A9D0
330
3E7
100
AcDbEntity
  8
SIZE
100
AcDbLine
 10
617.434932346785
 20
-165.0
 30
0.0
 11
617.434932346785
 21
-125.499996221293
 31
0.0
  0
CIRCLE
  5
3A9D1
330
3E7
100
AcDbEntity
  8
SIZE
100
AcDbCircle
 10
617.434932346785
 20
-165.0
 30
0.0
 40
5.0
  0
TEXT
  5
3A9D2
330
3E7
100
AcDbEntity
  8
SIZE
100
AcDbText
 10
747.5326113557222
 20
-75.70760775092367
 30
0.0
 40
64.0
  1
61
 50
90.0
 41
0.9
100
AcDbText
  0
LINE
  5
3A9D3
330
3E7
100
AcDbEntity
  8
SIZE
100
AcDbLine
 10
760.5659192523399
 20
-114.0000000000009
 30
0.0
 11
760.5659192523399
 21
-5.352081135512888
 31
0.0
  0
CIRCLE
  5
3A9D4
330
3E7
100
AcDbEntity
  8
SIZE
100
AcDbCircle
 10
760.5659192523399
 20
-104.0000000000009
 30
0.0
 40
5.0
  0
LINE
  5
3A9D6
330
3E7
100
AcDbEntity
  8
SIZE
100
AcDbLine
 10
760.5659192523399
 20
-114.0000000000009
 30
0.0
 11
760.5659192523399
 21
-119.0000000000009
 31
0.0
  0
CIRCLE
  5
3A9D7
330
3E7
100
AcDbEntity
  8
SIZE
100
AcDbCircle
 10
760.5659192523399
 20
-165.0000000000009
 30
0.0
 40
5.0
  0
LINE
  5
3A9D8
330
3E7
100
AcDbEntity
  8
SIZE
100
AcDbLine
 10
760.5659192523399
 20
-160.0000000000009
 30
0.0
 11
760.5659192523399
 21
-155.0000000000009
 31
0.0
  0
LINE
  5
3A9D9
330
3E7
100
AcDbEntity
  8
SIZE
100
AcDbLine
 10
760.5659192523399
 20
-155.0000000000009
 30
0.0
 11
760.5659192523399
 21
-119.0000000000009
 31
0.0
  0
TEXT
  5
3A9DA
330
3E7
100
AcDbEntity
  8
SIZE
100
AcDbText
 10
955.6887641120392
 20
-70.56733368964342
 30
0.0
 40
64.0
  1
370
 50
90.0
 41
0.9
100
AcDbText
  0
LINE
  5
3A9DB
330
3E7
100
AcDbEntity
  8
SIZE
100
AcDbLine
 10
974.9121006341502
 20
-175.0000000000009
 30
0.0
 11
974.9121006341502
 21
174.999999999999
 31
0.0
  0
LINE
  5
3A9DC
330
3E7
100
AcDbEntity
  8
SIZE
100
AcDbLine
 10
974.9121006341502
 20
-190.0000000000009
 30
0.0
 11
974.9121006341502
 21
-175.0000000000009
 31
0.0
  0
TEXT
  5
3A9DD
330
3E7
100
AcDbEntity
  8
SIZE
100
AcDbText
 10
955.6887641120392
 20
220.7702023917636
 30
0.0
 40
64.0
  1
19
 50
90.0
 41
0.9
100
AcDbText
  0
LINE
  5
3A9DE
330
3E7
100
AcDbEntity
  8
SIZE
100
AcDbLine
 10
974.9121006341502
 20
179.999999999999
 30
0.0
 11
974.9121006341502
 21
309.5042974073666
 31
0.0
  0
CIRCLE
  5
3A9DF
330
3E7
100
AcDbEntity
  8
SIZE
100
AcDbCircle
 10
974.9121006341502
 20
198.9999999999988
 30
0.0
 40
5.0
  0
CIRCLE
  5
3A9E0
330
3E7
100
AcDbEntity
  8
SIZE
100
AcDbCircle
 10
974.9121006341502
 20
179.999999999999
 30
0.0
 40
5.0
  0
CIRCLE
  5
3A9E1
330
3E7
100
AcDbEntity
  8
SIZE
100
AcDbCircle
 10
974.9121006341502
 20
179.999999999999
 30
0.0
 40
5.0
  0
LINE
  5
3A9E2
330
3E7
100
AcDbEntity
  8
SIZE
100
AcDbLine
 10
974.9121006341502
 20
174.999999999999
 30
0.0
 11
974.9121006341502
 21
164.9999999999991
 31
0.0
  0
LINE
  5
3A9E3
330
3E7
100
AcDbEntity
  8
SIZE
100
AcDbLine
 10
974.9121006341502
 20
179.999999999999
 30
0.0
 11
974.9121006341502
 21
174.999999999999
 31
0.0
  0
LINE
  5
3A9E4
330
3E7
100
AcDbEntity
  8
SIZE
100
AcDbLine
 10
974.9121006341502
 20
179.999999999999
 30
0.0
 11
974.9121006341502
 21
174.999999999999
 31
0.0
  0
LINE
  5
3A9E5
330
3E7
100
AcDbEntity
  8
NOTE
  6
CONTINUOUS
100
AcDbLine
 10
1070.866298078313
 20
519.8135468558412
 30
0.0
 11
711.1529049384762
 21
519.8135468558412
 31
0.0
  0
TEXT
  5
3A9E6
330
3E7
100
AcDbEntity
  8
NOTE
  6
CONTINUOUS
100
AcDbText
 10
732.2363723406215
 20
539.5301941046691
 30
0.0
 40
64.0
  1
RL%%C9.52
 41
0.9
100
AcDbText
  0
CIRCLE
  5
3A9E7
330
3E7
100
AcDbEntity
  8
SIZE
100
AcDbCircle
 10
1188.799264859389
 20
199.3718994496919
 30
0.0
 40
5.0
  0
ARC
  5
3AA5F
330
3E7
100
AcDbEntity
  8
DETAIL
100
AcDbCircle
 10
-305.1769998500692
 20
-189.4862399999554
 30
0.0
 40
5.9964
100
AcDbArc
 50
180.0
 51
0.0
  0
ARC
  5
3AA66
330
3E7
100
AcDbEntity
  8
DETAIL
100
AcDbCircle
 10
-305.1769998500692
 20
-179.4922399999549
 30
0.0
 40
5.9964
100
AcDbArc
 50
0.0
 51
180.0
  0
LINE
  5
3AA67
330
3E7
100
AcDbEntity
  8
DETAIL
100
AcDbLine
 10
-299.1805998500656
 20
-189.4862399999554
 30
0.0
 11
-299.1805998500656
 21
-179.4922399999549
 31
0.0
  0
LINE
  5
3AA68
330
3E7
100
AcDbEntity
  8
DETAIL
100
AcDbLine
 10
-311.1733998500731
 20
-189.4862399999554
 30
0.0
 11
-311.1733998500731
 21
-179.4922399999549
 31
0.0
  0
CIRCLE
  5
3AAC9
330
3E7
100
AcDbEntity
  8
DETAIL
100
AcDbCircle
 10
-102.2987998500938
 20
124.9249999997072
 30
0.0
 40
16.4901
  0
LINE
  5
3AACA
330
3E7
100
AcDbEntity
  8
DETAIL
100
AcDbLine
 10
-85.30899985008728
 20
124.9249999997072
 30
0.0
 11
-119.2885998500842
 21
124.9249999997072
 31
0.0
  0
LINE
  5
3AB1A
330
3E7
100
AcDbEntity
  8
DETAIL
100
AcDbLine
 10
-102.2987998500938
 20
107.9351999997005
 30
0.0
 11
-102.2987998500938
 21
141.9147999996974
 31
0.0
  0
LINE
  5
3AB1B
330
3E7
100
AcDbEntity
  8
DETAIL
100
AcDbLine
 10
-220.2279998500869
 20
108.4348999997064
 30
0.0
 11
-220.2279998500869
 21
141.4150999997081
 31
0.0
  0
CIRCLE
  5
3AB1C
330
3E7
100
AcDbEntity
  8
DETAIL
100
AcDbCircle
 10
-220.2279998500869
 20
124.9249999997072
 30
0.0
 40
16.49010000000048
  0
LINE
  5
3AB1D
330
3E7
100
AcDbEntity
  8
DETAIL
100
AcDbLine
 10
-203.7378998500865
 20
124.9249999997072
 30
0.0
 11
-236.7180998500876
 21
124.9249999997072
 31
0.0
  0
CIRCLE
  5
3AB1E
330
3E7
100
AcDbEntity
  8
DETAIL
100
AcDbCircle
 10
15.63040014991566
 20
124.9249999997072
 30
0.0
 40
16.4901
  0
LINE
  5
3AB1F
330
3E7
100
AcDbEntity
  8
DETAIL
100
AcDbLine
 10
15.63040014991566
 20
107.9351999997005
 30
0.0
 11
15.63040014991566
 21
141.9147999996974
 31
0.0
  0
LINE
  5
3AB20
330
3E7
100
AcDbEntity
  8
DETAIL
100
AcDbLine
 10
32.62020014990412
 20
124.9249999997072
 30
0.0
 11
-1.359399850090994
 21
124.9249999997072
 31
0.0
  0
CIRCLE
  5
3AB21
330
3E7
100
AcDbEntity
  8
DETAIL
100
AcDbCircle
 10
133.5596001499087
 20
124.9249999997072
 30
0.0
 40
16.4901
  0
LINE
  5
3AB22
330
3E7
100
AcDbEntity
  8
DETAIL
100
AcDbLine
 10
133.5596001499087
 20
107.9351999997005
 30
0.0
 11
133.5596001499087
 21
141.9147999996974
 31
0.0
  0
LINE
  5
3AB23
330
3E7
100
AcDbEntity
  8
DETAIL
100
AcDbLine
 10
150.5494001499155
 20
124.9249999997072
 30
0.0
 11
116.5698001499204
 21
124.9249999997072
 31
0.0
  0
LINE
  5
3AB71
330
3E7
100
AcDbEntity
  8
DETAIL
100
AcDbLine
 10
257.3455001499314
 20
164.9246685164605
 30
0.0
 11
236.867994053832
 21
164.9293973732637
 31
0.0
  0
LINE
  5
3AB75
330
3E7
100
AcDbEntity
  8
DETAIL
100
AcDbLine
 10
-267.6994998500704
 20
164.9046728949105
 30
0.0
 11
236.867994053832
 21
164.9293973732637
 31
0.0
  0
ARC
  5
3AB76
330
3E7
100
AcDbEntity
  8
DETAIL
100
AcDbCircle
 10
-305.1769998500731
 20
180.2917600000446
 30
0.0
 40
8.9946
100
AcDbArc
 50
180.0
 51
0.0
  0
ARC
  5
3AB77
330
3E7
100
AcDbEntity
  8
DETAIL
100
AcDbCircle
 10
-305.1769998500731
 20
180.2917600000446
 30
0.0
 40
5.9964
100
AcDbArc
 50
180.0
 51
0.0
  0
TEXT
  5
3ABA5
330
3E7
100
AcDbEntity
  8
SIZE
100
AcDbText
 10
-766.6948569929817
 20
427.981303463147
 30
0.0
 40
64.0
  1
15以上
 41
0.9
100
AcDbText
  0
CIRCLE
  5
3ABA6
330
3E7
100
AcDbEntity
  8
SIZE
  6
BYBLOCK
100
AcDbCircle
 10
469.7180001499746
 20
-840.8050712707098
 30
0.0
 40
5.0
  0
LINE
  5
3ABA7
330
3E7
100
AcDbEntity
  8
SIZE
  6
BYBLOCK
100
AcDbLine
 10
469.7180001499746
 20
-840.8050712707098
 30
0.0
 11
459.7180001499745
 21
-840.8050712707098
 31
0.0
  0
CIRCLE
  5
3ABA8
330
3E7
100
AcDbEntity
  8
SIZE
  6
BYBLOCK
100
AcDbCircle
 10
-30.28199985002538
 20
-840.8050712707098
 30
0.0
 40
5.0
  0
LINE
  5
3ABA9
330
3E7
100
AcDbEntity
  8
SIZE
  6
BYBLOCK
100
AcDbLine
 10
-30.28199985002538
 20
-840.8050712707098
 30
0.0
 11
-20.28199985002538
 21
-840.8050712707098
 31
0.0
  0
TEXT
  5
3ABAA
330
3E7
100
AcDbEntity
  8
SIZE
100
AcDbText
 10
68.3122858642603
 20
-820.80507127071
 30
0.0
 40
64.0
  1
500以上
 41
0.9
100
AcDbText
  0
TEXT
  5
3ABAB
330
3E7
100
AcDbEntity
  8
SIZE
100
AcDbText
 10
754.7441393678407
 20
-566.4057105070074
 30
0.0
 40
64.0
  1
500以上
 50
90.0
 41
0.9
100
AcDbText
  0
CIRCLE
  5
3ABAC
330
3E7
100
AcDbEntity
  8
SIZE
  6
BYBLOCK
100
AcDbCircle
 10
774.7441393678407
 20
-664.9999962212932
 30
0.0
 40
5.0
  0
LINE
  5
3ABAD
330
3E7
100
AcDbEntity
  8
SIZE
  6
BYBLOCK
100
AcDbLine
 10
774.7441393678407
 20
-664.9999962212932
 30
0.0
 11
774.7441393678407
 21
-654.9999962212933
 31
0.0
  0
CIRCLE
  5
3ABAE
330
3E7
100
AcDbEntity
  8
SIZE
  6
BYBLOCK
100
AcDbCircle
 10
774.7441393678407
 20
-164.999996221293
 30
0.0
 40
5.0
  0
LINE
  5
3ABAF
330
3E7
100
AcDbEntity
  8
SIZE
  6
BYBLOCK
100
AcDbLine
 10
774.7441393678407
 20
-164.999996221293
 30
0.0
 11
774.7441393678407
 21
-174.9999962212931
 31
0.0
  0
LINE
  5
3ABB0
330
3E7
100
AcDbEntity
  8
SIZE
100
AcDbLine
 10
485.3978542947106
 20
165.000003850683
 30
0.0
 11
647.3505134518407
 21
165.000003850683
 31
0.0
  0
LINE
  5
3ABB1
330
3E7
100
AcDbEntity
  8
SIZE
100
AcDbLine
 10
485.3978542947106
 20
315.0000038506831
 30
0.0
 11
647.3505134518409
 21
315.0000038506831
 31
0.0
  0
LINE
  5
3ABB2
330
3E7
100
AcDbEntity
  8
SIZE
100
AcDbLine
 10
617.3505134518407
 20
175.0000038506831
 30
0.0
 11
617.3505134518409
 21
305.0000038506831
 31
0.0
  0
LINE
  5
3ABB3
330
3E7
100
AcDbEntity
  8
SIZE
100
AcDbLine
 10
617.3505134518409
 20
315.0000038506831
 30
0.0
 11
617.3505134518409
 21
631.7573581177367
 31
0.0
  0
CIRCLE
  5
3ABB7
330
3E7
100
AcDbEntity
  8
SIZE
  6
BYBLOCK
100
AcDbCircle
 10
-494.7119998501248
 20
407.5700289564755
 30
0.0
 40
5.0
  0
LINE
  5
3ABB8
330
3E7
100
AcDbEntity
  8
SIZE
  6
BYBLOCK
100
AcDbLine
 10
-494.7119998501248
 20
407.5700289564755
 30
0.0
 11
-504.711999850125
 21
407.5700289564755
 31
0.0
  0
CIRCLE
  5
3ABB9
330
3E7
100
AcDbEntity
  8
SIZE
  6
BYBLOCK
100
AcDbCircle
 10
-479.7119998501245
 20
407.5700289564755
 30
0.0
 40
5.0
  0
LINE
  5
3ABBA
330
3E7
100
AcDbEntity
  8
SIZE
  6
BYBLOCK
100
AcDbLine
 10
-479.7119998501245
 20
407.5700289564755
 30
0.0
 11
-469.7119998501245
 21
407.5700289564755
 31
0.0
  0
TEXT
  5
3ABBB
330
3E7
100
AcDbEntity
  8
SIZE
100
AcDbText
 10
597.3505134518407
 20
345.0000038506833
 30
0.0
 40
64.0
  1
150以上
 50
90.0
 41
0.9
100
AcDbText
  0
CIRCLE
  5
3ABBC
330
3E7
100
AcDbEntity
  8
SIZE
  6
BYBLOCK
100
AcDbCircle
 10
617.3505134518409
 20
315.0000038506831
 30
0.0
 40
5.0
  0
LINE
  5
3ABBD
330
3E7
100
AcDbEntity
  8
SIZE
  6
BYBLOCK
100
AcDbLine
 10
617.3505134518409
 20
315.0000038506831
 30
0.0
 11
617.3505134518409
 21
305.0000038506831
 31
0.0
  0
CIRCLE
  5
3ABBE
330
3E7
100
AcDbEntity
  8
SIZE
  6
BYBLOCK
100
AcDbCircle
 10
617.3505134518407
 20
165.000003850683
 30
0.0
 40
5.0
  0
LINE
  5
3ABBF
330
3E7
100
AcDbEntity
  8
SIZE
  6
BYBLOCK
100
AcDbLine
 10
617.3505134518407
 20
165.000003850683
 30
0.0
 11
617.3505134518407
 21
175.0000038506831
 31
0.0
  0
LINE
  5
3ABC0
330
3E7
100
AcDbEntity
  8
OUTLINE
100
AcDbLine
 10
324.3053001499192
 20
-198.4808399999518
 30
0.0
 11
324.3053001499192
 21
164.9092055345789
 31
0.0
  0
LINE
  5
3ABC1
330
3E7
100
AcDbEntity
  8
OUTLINE
100
AcDbLine
 10
257.3455001499314
 20
-195.4826399999954
 30
0.0
 11
257.3455001499314
 21
164.9246685164605
 31
0.0
  0
LINE
  5
3ABC2
330
3E7
100
AcDbEntity
  8
OUTLINE
100
AcDbLine
 10
469.9280001497355
 20
149.1104800000093
 30
0.0
 11
469.9280001499428
 21
-149.9100000000005
 31
0.0
  0
LINE
  5
3ABC3
330
3E7
100
AcDbEntity
  8
OUTLINE
100
AcDbLine
 10
265.3407001499301
 20
-165.0710783287386
 30
0.0
 11
265.3407001499299
 21
194.2833600000583
 31
0.0
  0
LINE
  5
3ABC4
330
3E7
100
AcDbEntity
  8
OUTLINE
100
AcDbLine
 10
332.3005001499211
 20
-165.0729761682659
 30
0.0
 11
332.3005001499296
 21
191.2851599999929
 31
0.0
  0
LINE
  5
3ABC5
330
3E7
100
AcDbEntity
  8
OUTLINE
100
AcDbLine
 10
-480.0719998497716
 20
149.9100000002445
 30
0.0
 11
-480.0719998500571
 21
-149.9100000001008
 31
0.0
  0
LINE
  5
3ABC6
330
3E7
100
AcDbEntity
  8
OUTLINE
100
AcDbLine
 10
-342.6544998500685
 20
-190.0496205274603
 30
0.0
 11
-342.6544998500685
 21
191.2851599999929
 31
0.0
  0
LINE
  5
3ABC7
330
3E7
100
AcDbEntity
  8
OUTLINE
100
AcDbLine
 10
-275.6946998500806
 20
-190.0496205274565
 30
0.0
 11
-275.6946998500806
 21
194.2833600000583
 31
0.0
  0
LINE
  5
3ABC8
330
3E7
100
AcDbEntity
  8
OUTLINE
100
AcDbLine
 10
-267.6994998500704
 20
-190.0496205274491
 30
0.0
 11
-267.6994998500704
 21
191.2851599999929
 31
0.0
  0
LINE
  5
3ABC9
330
3E7
100
AcDbEntity
  8
OUTLINE
100
AcDbLine
 10
-334.6592998500698
 20
194.2833600000583
 30
0.0
 11
-334.6592998500761
 21
-190.0496205274594
 31
0.0
  0
LINE
  5
3ABCA
330
3E7
100
AcDbEntity
  8
OUTLINE
100
AcDbLine
 10
168.2234534513991
 20
-190.0496205274311
 30
0.0
 11
-267.699499850079
 21
-190.0496205274555
 31
0.0
  0
LINE
  5
3ABCB
330
3E7
100
AcDbEntity
  8
OUTLINE
100
AcDbLine
 10
168.2234534513991
 20
-190.0496205274311
 30
0.0
 11
-267.6994998500704
 21
-190.0496205274491
 31
0.0
  0
LINE
  5
3ABCC
330
3E7
100
AcDbEntity
  8
OUTLINE
100
AcDbLine
 10
168.2234534513991
 20
-190.0496205274311
 30
0.0
 11
-267.6994998500704
 21
-190.0496205274491
 31
0.0
  0
LINE
  5
3ABCD
330
3E7
100
AcDbEntity
  8
OUTLINE
100
AcDbLine
 10
168.2234534513991
 20
-190.0496205274311
 30
0.0
 11
-267.6994998500704
 21
-190.0496205274491
 31
0.0
  0
LINE
  5
3ABCE
330
3E7
100
AcDbEntity
  8
OUTLINE
100
AcDbLine
 10
168.2234534513991
 20
-190.0496205274311
 30
0.0
 11
-267.6994998500704
 21
-190.0496205274491
 31
0.0
  0
LINE
  5
3ABCF
330
3E7
100
AcDbEntity
  8
OUTLINE
100
AcDbLine
 10
257.3455001499314
 20
-165.0704171656363
 30
0.0
 11
-267.6994998500704
 21
-165.0532433738217
 31
0.0
  0
LINE
  5
3ABD0
330
3E7
100
AcDbEntity
  8
OUTLINE
100
AcDbLine
 10
-342.6544998500685
 20
-190.0496205274603
 30
0.0
 11
-406.8030290671868
 21
-190.049620527442
 31
0.0
  0
LINE
  5
3ABD1
330
3E7
100
AcDbEntity
  8
OUTLINE
100
AcDbLine
 10
-342.6544998500685
 20
-190.0496205274603
 30
0.0
 11
-406.8030290671868
 21
-190.049620527442
 31
0.0
  0
LINE
  5
3ABD2
330
3E7
100
AcDbEntity
  8
OUTLINE
100
AcDbLine
 10
-342.6544998500685
 20
-190.0496205274603
 30
0.0
 11
-406.8030290671868
 21
-190.049620527442
 31
0.0
  0
LINE
  5
3ABD3
330
3E7
100
AcDbEntity
  8
OUTLINE
100
AcDbLine
 10
-342.6544998500685
 20
-190.0496205274603
 30
0.0
 11
-406.8030290671868
 21
-190.049620527442
 31
0.0
  0
LINE
  5
3ABD4
330
3E7
100
AcDbEntity
  8
OUTLINE
100
AcDbLine
 10
-342.6544998500685
 20
-190.0496205274603
 30
0.0
 11
-406.8030290671868
 21
-190.049620527442
 31
0.0
  0
LINE
  5
3ABD5
330
3E7
100
AcDbEntity
  8
OUTLINE
100
AcDbLine
 10
-464.8861168500661
 20
-165.0507215859825
 30
0.0
 11
-342.6544998500685
 21
-165.0507215859825
 31
0.0
  0
LINE
  5
3ABD6
330
3E7
100
AcDbEntity
  8
OUTLINE
100
AcDbLine
 10
-484.5806179206211
 20
-14.79112000034274
 30
0.0
 11
-481.3712198501344
 21
-14.79112000034274
 31
0.0
  0
LINE
  5
3ABD7
330
3E7
100
AcDbEntity
  8
OUTLINE
100
AcDbLine
 10
-484.5806179206211
 20
-6.795920000348812
 30
0.0
 11
-481.3712198501344
 21
-6.795920000348812
 31
0.0
  0
LINE
  5
3ABD8
330
3E7
100
AcDbEntity
  8
OUTLINE
100
AcDbLine
 10
-484.8691198501382
 20
-7.295620000341839
 30
0.0
 11
-484.5806179206211
 21
-6.795920000348812
 31
0.0
  0
LINE
  5
3ABD9
330
3E7
100
AcDbEntity
  8
OUTLINE
100
AcDbLine
 10
-484.8691198501382
 20
-14.29142000034971
 30
0.0
 11
-484.5806179206211
 21
-14.79112000034274
 31
0.0
  0
LINE
  5
3ABDA
330
3E7
100
AcDbEntity
  8
OUTLINE
100
AcDbLine
 10
-481.3712198501344
 20
-14.79112000034274
 30
0.0
 11
-481.3712198501344
 21
-16.7899200003494
 31
0.0
  0
LINE
  5
3ABDB
330
3E7
100
AcDbEntity
  8
OUTLINE
100
AcDbLine
 10
-481.3712198501344
 20
-4.797120000342146
 30
0.0
 11
-480.0719998501427
 21
-4.792123000340325
 31
0.0
  0
LINE
  5
3ABDC
330
3E7
100
AcDbEntity
  8
OUTLINE
100
AcDbLine
 10
-481.3712198501344
 20
-16.7899200003494
 30
0.0
 11
-480.0719998501427
 21
-16.7899200003494
 31
0.0
  0
LINE
  5
3ABDD
330
3E7
100
AcDbEntity
  8
OUTLINE
100
AcDbLine
 10
-484.8691198501382
 20
-7.295620000341839
 30
0.0
 11
-484.8691198501382
 21
-14.29142000034971
 31
0.0
  0
LINE
  5
3ABDE
330
3E7
100
AcDbEntity
  8
OUTLINE
100
AcDbLine
 10
-481.3712198501344
 20
-4.797120000342146
 30
0.0
 11
-481.3712198501344
 21
-6.795920000348812
 31
0.0
  0
SPLINE
  5
3ABDF
330
3E7
100
AcDbEntity
  8
OUTLINE
100
AcDbSpline
210
0.0
220
0.0
230
1.0
 70
    24
 71
     3
 72
    20
 73
    16
 74
    14
 42
0.0000000001
 43
0.0000000001
 44
0.00000001
 40
0.0
 40
0.0
 40
0.0
 40
0.0
 40
0.0334427464317789
 40
0.110536896651625
 40
0.2290374456801739
 40
0.3866993884748585
 40
0.5999413392515674
 40
0.8254524716880968
 40
1.041820459216775
 40
1.227632975256256
 40
1.361477693233118
 40
1.974023961351288
 40
2.641517294795583
 40
3.334507980221802
 40
4.045248106906375
 40
4.045248106906375
 40
4.045248106906375
 40
4.045248106906375
 10
-484.434093358137
 20
-94.36974498808288
 30
0.0
 10
-484.4412588858166
 20
-94.37828453143877
 30
0.0
 10
-484.4649428016755
 20
-94.40650992325318
 30
0.0
 10
-484.5140169457521
 20
-94.4649942107652
 30
0.0
 10
-484.5897066099298
 20
-94.55519763997902
 30
0.0
 10
-484.6945676472016
 20
-94.68016615787991
 30
0.0
 10
-484.8223570435136
 20
-94.8324596300389
 30
0.0
 10
-484.9627249458825
 20
-94.99974358197922
 30
0.0
 10
-485.0972157479893
 20
-95.16002347856568
 30
0.0
 10
-485.2120658716178
 20
-95.29689652601215
 30
0.0
 10
-485.411802158576
 20
-95.5349329635686
 30
0.0
 10
-485.7147445992866
 20
-95.89596570563353
 30
0.0
 10
-486.137491073294
 20
-96.39977533478187
 30
0.0
 10
-486.5812768125104
 20
-96.92865858383296
 30
0.0
 10
-486.8820437369597
 20
-97.28709864658725
 30
0.0
 10
-487.0343287193354
 20
-97.46858482144034
 30
0.0
 11
-484.434093358137
 21
-94.36974498808288
 31
0.0
 11
-484.4555899411751
 21
-94.39536361815134
 31
0.0
 11
-484.5051451057043
 21
-94.45442116353389
 31
0.0
 11
-484.5813157903721
 21
-94.54519785061441
 31
0.0
 11
-484.6826589337106
 21
-94.66597390579137
 31
0.0
 11
-484.8197282175351
 21
-94.82932671722393
 31
0.0
 11
-484.9646839792947
 21
-95.00207826710266
 31
0.0
 11
-485.1037626408178
 21
-95.16782576161222
 31
0.0
 11
-485.223200623859
 21
-95.31016640698089
 31
0.0
 11
-485.309234350203
 21
-95.41269740942244
 31
0.0
 11
-485.7029715017088
 21
-95.88193507426785
 31
0.0
 11
-486.1320279459867
 21
-96.39326463317866
 31
0.0
 11
-486.5774737722056
 21
-96.9241262968835
 31
0.0
 11
-487.0343287193354
 21
-97.46858482144034
 31
0.0
  0
SPLINE
  5
3ABE0
330
3E7
100
AcDbEntity
  8
OUTLINE
100
AcDbSpline
210
0.0
220
0.0
230
1.0
 70
     8
 71
     3
 72
    11
 73
     7
 74
     5
 42
0.0000000001
 43
0.0000000001
 44
0.00000001
 40
0.0
 40
0.0
 40
0.0
 40
0.0
 40
0.424919899403958
 40
0.8429293169890216
 40
1.200952480551817
 40
1.584457776413076
 40
1.584457776413076
 40
1.584457776413076
 40
1.584457776413076
 10
-484.434093358137
 20
-94.36974498808288
 30
0.0
 10
-484.343051430507
 20
-94.26124033984359
 30
0.0
 10
-484.1624482009329
 20
-94.04599564952077
 30
0.0
 10
-483.9050942680709
 20
-93.73936458548838
 30
0.0
 10
-483.6567651096575
 20
-93.4431786847549
 30
0.0
 10
-483.4965394224243
 20
-93.25496537263521
 30
0.0
 10
-483.413673545434
 20
-93.15762481136793
 30
0.0
 11
-484.434093358137
 21
-94.36974498808288
 31
0.0
 11
-484.1609601117489
 21
-94.04423746038537
 31
0.0
 11
-483.8922688374402
 21
-93.72402366889307
 31
0.0
 11
-483.6618917935084
 21
-93.44996709927817
 31
0.0
 11
-483.413673545434
 21
-93.15762481136793
 31
0.0
  0
ARC
  5
3ABE1
330
3E7
100
AcDbEntity
  8
OUTLINE
100
AcDbCircle
 10
-485.0690223441397
 20
-102.9003762296005
 30
0.0
 40
4.997000243305254
100
AcDbArc
 50
139.9999990121979
 51
179.9999989847889
  0
ARC
  5
3ABE2
330
3E7
100
AcDbEntity
  8
OUTLINE
100
AcDbCircle
 10
-482.6041719766126
 20
-93.74371999993766
 30
0.0
 40
0.9993999999994828
100
AcDbArc
 50
139.9999999996369
 51
144.0947161457303
  0
ARC
  5
3ABE3
330
3E7
100
AcDbEntity
  8
OUTLINE
100
AcDbCircle
 10
-483.2701531353523
 20
-92.67181043135952
 30
0.0
 40
0.1999534301768025
100
AcDbArc
 50
322.3771859804934
 51
0.0690007399300166
  0
ARC
  5
3ABE4
330
3E7
100
AcDbEntity
  8
OUTLINE
100
AcDbCircle
 10
-482.0707998502403
 20
-91.28854820307696
 30
0.0
 40
0.9993999999999999
100
AcDbArc
 50
139.9999999999307
 51
180.0
  0
LINE
  5
3ABE5
330
3E7
100
AcDbEntity
  8
OUTLINE
100
AcDbLine
 10
-488.8969465574098
 20
-99.68836632159856
 30
0.0
 11
-488.5690530556622
 21
-99.29759806280799
 31
0.0
  0
LINE
  5
3ABE6
330
3E7
100
AcDbEntity
  8
OUTLINE
100
AcDbLine
 10
-488.5690530556622
 20
-99.29759806280799
 30
0.0
 11
-487.0343287193354
 21
-97.46858482143853
 31
0.0
  0
LINE
  5
3ABE7
330
3E7
100
AcDbEntity
  8
OUTLINE
100
AcDbLine
 10
-483.1117806941963
 20
-92.79387412016241
 30
0.0
 11
-483.3697567930467
 21
-93.10131806280059
 31
0.0
  0
LINE
  5
3ABE8
330
3E7
100
AcDbEntity
  8
OUTLINE
100
AcDbLine
 10
-483.0701998502445
 20
-91.28854820307696
 30
0.0
 11
-483.0701998501718
 21
-92.67156962948048
 31
0.0
  0
LINE
  5
3ABE9
330
3E7
100
AcDbEntity
  8
OUTLINE
100
AcDbLine
 10
-480.5716998502611
 20
-88.15288940865775
 30
0.0
 11
-480.0719998502152
 21
-88.19075659518148
 31
0.0
  0
LINE
  5
3ABEA
330
3E7
100
AcDbEntity
  8
OUTLINE
100
AcDbLine
 10
-482.8363846666905
 20
-90.64614626593813
 30
0.0
 11
-480.5716998502611
 21
-87.9471999998668
 31
0.0
  0
LINE
  5
3ABEB
330
3E7
100
AcDbEntity
  8
OUTLINE
100
AcDbLine
 10
-480.5716998502611
 20
-87.9471999998668
 30
0.0
 11
-480.5716998502611
 21
-88.15288940865775
 31
0.0
  0
SPLINE
  5
3ABEC
330
3E7
100
AcDbEntity
  8
OUTLINE
100
AcDbSpline
210
0.0
220
0.0
230
1.0
 70
    24
 71
     3
 72
    20
 73
    16
 74
    14
 42
0.0000000001
 43
0.0000000001
 44
0.00000001
 40
0.0
 40
0.0
 40
0.0
 40
0.0
 40
0.0334427464317789
 40
0.110536896651625
 40
0.2290374456801739
 40
0.3866993884748585
 40
0.5999413392515674
 40
0.8254524716880968
 40
1.041820459216775
 40
1.227632975256256
 40
1.361477693233118
 40
1.974023961351288
 40
2.641517294795583
 40
3.334507980221802
 40
4.045248106906375
 40
4.045248106906375
 40
4.045248106906375
 40
4.045248106906375
 10
-484.434093358137
 20
-94.36974498808288
 30
0.0
 10
-484.4412588858166
 20
-94.37828453143877
 30
0.0
 10
-484.4649428016755
 20
-94.40650992325318
 30
0.0
 10
-484.5140169457521
 20
-94.4649942107652
 30
0.0
 10
-484.5897066099298
 20
-94.55519763997902
 30
0.0
 10
-484.6945676472016
 20
-94.68016615787991
 30
0.0
 10
-484.8223570435136
 20
-94.8324596300389
 30
0.0
 10
-484.9627249458825
 20
-94.99974358197922
 30
0.0
 10
-485.0972157479893
 20
-95.16002347856568
 30
0.0
 10
-485.2120658716178
 20
-95.29689652601215
 30
0.0
 10
-485.411802158576
 20
-95.5349329635686
 30
0.0
 10
-485.7147445992866
 20
-95.89596570563353
 30
0.0
 10
-486.137491073294
 20
-96.39977533478187
 30
0.0
 10
-486.5812768125104
 20
-96.92865858383296
 30
0.0
 10
-486.8820437369597
 20
-97.28709864658725
 30
0.0
 10
-487.0343287193354
 20
-97.46858482144034
 30
0.0
 11
-484.434093358137
 21
-94.36974498808288
 31
0.0
 11
-484.4555899411751
 21
-94.39536361815134
 31
0.0
 11
-484.5051451057043
 21
-94.45442116353389
 31
0.0
 11
-484.5813157903721
 21
-94.54519785061441
 31
0.0
 11
-484.6826589337106
 21
-94.66597390579137
 31
0.0
 11
-484.8197282175351
 21
-94.82932671722393
 31
0.0
 11
-484.9646839792947
 21
-95.00207826710266
 31
0.0
 11
-485.1037626408178
 21
-95.16782576161222
 31
0.0
 11
-485.223200623859
 21
-95.31016640698089
 31
0.0
 11
-485.309234350203
 21
-95.41269740942244
 31
0.0
 11
-485.7029715017088
 21
-95.88193507426785
 31
0.0
 11
-486.1320279459867
 21
-96.39326463317866
 31
0.0
 11
-486.5774737722056
 21
-96.9241262968835
 31
0.0
 11
-487.0343287193354
 21
-97.46858482144034
 31
0.0
  0
SPLINE
  5
3ABED
330
3E7
100
AcDbEntity
  8
OUTLINE
100
AcDbSpline
210
0.0
220
0.0
230
1.0
 70
     8
 71
     3
 72
    11
 73
     7
 74
     5
 42
0.0000000001
 43
0.0000000001
 44
0.00000001
 40
0.0
 40
0.0
 40
0.0
 40
0.0
 40
0.424919899403958
 40
0.8429293169890216
 40
1.200952480551817
 40
1.584457776413076
 40
1.584457776413076
 40
1.584457776413076
 40
1.584457776413076
 10
-484.434093358137
 20
-94.36974498808288
 30
0.0
 10
-484.343051430507
 20
-94.26124033984359
 30
0.0
 10
-484.1624482009329
 20
-94.04599564952077
 30
0.0
 10
-483.9050942680709
 20
-93.73936458548838
 30
0.0
 10
-483.6567651096575
 20
-93.4431786847549
 30
0.0
 10
-483.4965394224243
 20
-93.25496537263521
 30
0.0
 10
-483.413673545434
 20
-93.15762481136793
 30
0.0
 11
-484.434093358137
 21
-94.36974498808288
 31
0.0
 11
-484.1609601117489
 21
-94.04423746038537
 31
0.0
 11
-483.8922688374402
 21
-93.72402366889307
 31
0.0
 11
-483.6618917935084
 21
-93.44996709927817
 31
0.0
 11
-483.413673545434
 21
-93.15762481136793
 31
0.0
  0
ARC
  5
3ABEE
330
3E7
100
AcDbEntity
  8
OUTLINE
100
AcDbCircle
 10
-485.0690223441397
 20
-102.9003762296005
 30
0.0
 40
4.997000243305254
100
AcDbArc
 50
139.9999990121979
 51
179.9999989847889
  0
ARC
  5
3ABEF
330
3E7
100
AcDbEntity
  8
OUTLINE
100
AcDbCircle
 10
-482.6041719766126
 20
-93.74371999993766
 30
0.0
 40
0.9993999999994828
100
AcDbArc
 50
139.9999999996369
 51
144.0947161457303
  0
ARC
  5
3ABF0
330
3E7
100
AcDbEntity
  8
OUTLINE
100
AcDbCircle
 10
-483.2701531353523
 20
-92.67181043135952
 30
0.0
 40
0.1999534301768025
100
AcDbArc
 50
322.3771859804934
 51
0.0690007399300166
  0
ARC
  5
3ABF1
330
3E7
100
AcDbEntity
  8
OUTLINE
100
AcDbCircle
 10
-482.0707998502403
 20
-91.28854820307696
 30
0.0
 40
0.9993999999999999
100
AcDbArc
 50
139.9999999999307
 51
180.0
  0
LINE
  5
3ABF2
330
3E7
100
AcDbEntity
  8
OUTLINE
100
AcDbLine
 10
-488.8969465574098
 20
-99.68836632159856
 30
0.0
 11
-488.5690530556622
 21
-99.29759806280799
 31
0.0
  0
LINE
  5
3ABF3
330
3E7
100
AcDbEntity
  8
OUTLINE
100
AcDbLine
 10
-488.5690530556622
 20
-99.29759806280799
 30
0.0
 11
-487.0343287193354
 21
-97.46858482143853
 31
0.0
  0
LINE
  5
3ABF4
330
3E7
100
AcDbEntity
  8
OUTLINE
100
AcDbLine
 10
-483.1117806941963
 20
-92.79387412016241
 30
0.0
 11
-483.3697567930467
 21
-93.10131806280059
 31
0.0
  0
LINE
  5
3ABF5
330
3E7
100
AcDbEntity
  8
OUTLINE
100
AcDbLine
 10
-483.0701998502445
 20
-91.28854820307696
 30
0.0
 11
-483.0701998501718
 21
-92.67156962948048
 31
0.0
  0
LINE
  5
3ABF6
330
3E7
100
AcDbEntity
  8
OUTLINE
100
AcDbLine
 10
-480.5716998502611
 20
-88.15288940865775
 30
0.0
 11
-480.0719998502152
 21
-88.19075659518148
 31
0.0
  0
LINE
  5
3ABF7
330
3E7
100
AcDbEntity
  8
OUTLINE
100
AcDbLine
 10
-482.8363846666905
 20
-90.64614626593813
 30
0.0
 11
-480.5716998502611
 21
-87.9471999998668
 31
0.0
  0
LINE
  5
3ABF8
330
3E7
100
AcDbEntity
  8
OUTLINE
100
AcDbLine
 10
-480.5716998502611
 20
-87.9471999998668
 30
0.0
 11
-480.5716998502611
 21
-88.15288940865775
 31
0.0
  0
LINE
  5
3ABF9
330
3E7
100
AcDbEntity
  8
OUTLINE
100
AcDbLine
 10
-409.9831003942053
 20
-188.7323918544705
 30
0.0
 11
-425.5512033576961
 21
-172.846041585988
 31
0.0
  0
LINE
  5
3ABFA
330
3E7
100
AcDbEntity
  8
OUTLINE
100
AcDbLine
 10
-462.3826198500646
 20
-169.8478415859779
 30
0.0
 11
-462.8823198500758
 21
-169.5593396564788
 31
0.0
  0
ARC
  5
3ABFB
330
3E7
100
AcDbEntity
  8
OUTLINE
100
AcDbCircle
 10
-465.1839502349928
 20
-150.1655890876963
 30
0.0
 40
14.8881118418921
100
AcDbArc
 50
179.8343441408808
 51
271.1462658612523
  0
LINE
  5
3ABFC
330
3E7
100
AcDbEntity
  8
OUTLINE
100
AcDbLine
 10
-462.8823198500758
 20
-166.3499415859923
 30
0.0
 11
-464.8861168500661
 21
-166.3499415859923
 31
0.0
  0
LINE
  5
3ABFD
330
3E7
100
AcDbEntity
  8
OUTLINE
100
AcDbLine
 10
-455.3868198500748
 20
-169.8478415859779
 30
0.0
 11
-454.8871198500656
 21
-169.5593396564788
 31
0.0
  0
ARC
  5
3ABFE
330
3E7
100
AcDbEntity
  8
OUTLINE
100
AcDbCircle
 10
-448.4343480535351
 20
-167.1123440404444
 30
0.0
 40
0.9993999999996919
100
AcDbArc
 50
269.9999999998957
 51
310.0000000008831
  0
ARC
  5
3ABFF
330
3E7
100
AcDbEntity
  8
OUTLINE
100
AcDbCircle
 10
-449.8198354073974
 20
-168.3124730147119
 30
0.0
 40
0.200744120400346
100
AcDbArc
 50
89.29616469911936
 51
127.996829106086
  0
LINE
  5
3AC00
330
3E7
100
AcDbEntity
  8
OUTLINE
100
AcDbLine
 10
-447.7919461163962
 20
-167.8779288568785
 30
0.0
 11
-445.092999850287
 21
-165.6132440404308
 31
0.0
  0
LINE
  5
3AC01
330
3E7
100
AcDbEntity
  8
OUTLINE
100
AcDbLine
 10
-445.2931502813383
 20
-165.6132440404353
 30
0.0
 11
-445.3366074204459
 21
-165.113544040383
 31
0.0
  0
ARC
  5
3AC02
330
3E7
100
AcDbEntity
  8
OUTLINE
100
AcDbCircle
 10
-460.0461488938472
 20
-170.1105440406554
 30
0.0
 40
4.996999999998343
100
AcDbArc
 50
270.0
 51
309.9999999999893
  0
ARC
  5
3AC03
330
3E7
100
AcDbEntity
  8
OUTLINE
100
AcDbCircle
 10
-448.4343480535351
 20
-167.1123440404444
 30
0.0
 40
0.9993999999996919
100
AcDbArc
 50
269.9999999998957
 51
310.0000000008831
  0
ARC
  5
3AC04
330
3E7
100
AcDbEntity
  8
OUTLINE
100
AcDbCircle
 10
-449.8198354073974
 20
-168.3124730147119
 30
0.0
 40
0.200744120400346
100
AcDbArc
 50
89.29616469911936
 51
127.996829106086
  0
ARC
  5
3AC05
330
3E7
100
AcDbEntity
  8
OUTLINE
100
AcDbCircle
 10
-406.8030290671868
 20
-185.552320527452
 30
0.0
 40
4.4973
100
AcDbArc
 50
225.0
 51
270.0
  0
ARC
  5
3AC06
330
3E7
100
AcDbEntity
  8
OUTLINE
100
AcDbCircle
 10
-406.8030290671868
 20
-185.552320527452
 30
0.0
 40
4.4973
100
AcDbArc
 50
225.0
 51
270.0
  0
ARC
  5
3AC07
330
3E7
100
AcDbEntity
  8
OUTLINE
100
AcDbCircle
 10
-406.8030290671868
 20
-185.552320527452
 30
0.0
 40
4.4973
100
AcDbArc
 50
225.0
 51
270.0
  0
ARC
  5
3AC08
330
3E7
100
AcDbEntity
  8
OUTLINE
100
AcDbCircle
 10
-406.8030290671868
 20
-185.552320527452
 30
0.0
 40
4.4973
100
AcDbArc
 50
225.0
 51
270.0
  0
LINE
  5
3AC09
330
3E7
100
AcDbEntity
  8
OUTLINE
100
AcDbLine
 10
-464.8861168500661
 20
-165.0507215859825
 30
0.0
 11
-464.8861168500661
 21
-166.3499415859923
 31
0.0
  0
LINE
  5
3AC0A
330
3E7
100
AcDbEntity
  8
OUTLINE
100
AcDbLine
 10
-462.3826198500646
 20
-169.8478415859779
 30
0.0
 11
-455.3868198500748
 21
-169.8478415859779
 31
0.0
  0
LINE
  5
3AC0B
330
3E7
100
AcDbEntity
  8
OUTLINE
100
AcDbLine
 10
-462.8823198500758
 20
-169.5593396564788
 30
0.0
 11
-462.8823198500758
 21
-166.3499415859923
 31
0.0
  0
LINE
  5
3AC0C
330
3E7
100
AcDbEntity
  8
OUTLINE
100
AcDbLine
 10
-454.8871198500656
 20
-169.5593396564788
 30
0.0
 11
-454.8871198500656
 21
-166.3499415859923
 31
0.0
  0
LINE
  5
3AC0D
330
3E7
100
AcDbEntity
  8
OUTLINE
100
AcDbLine
 10
-448.4343480535371
 20
-168.1117440404439
 30
0.0
 11
-449.8223013280636
 21
-168.1117440404439
 31
0.0
  0
LINE
  5
3AC0E
330
3E7
100
AcDbEntity
  8
OUTLINE
100
AcDbLine
 10
-445.092999850287
 20
-165.6132440404308
 30
0.0
 11
-445.2931502813383
 21
-165.6132440404353
 31
0.0
  0
LINE
  5
3AC0F
330
3E7
100
AcDbEntity
  8
OUTLINE
100
AcDbLine
 10
-449.9434170739822
 20
-168.1542776495479
 30
0.0
 11
-456.8341392082452
 21
-173.9384681229203
 31
0.0
  0
LINE
  5
3AC10
330
3E7
100
AcDbEntity
  8
OUTLINE
100
AcDbLine
 10
-452.8883198500753
 20
-166.3499415859923
 30
0.0
 11
-452.8883198500753
 21
-165.0507215859825
 31
0.0
  0
ARC
  5
3AC11
330
3E7
100
AcDbEntity
  8
OUTLINE
100
AcDbCircle
 10
-429.7484191772475
 20
-166.4810434498895
 30
0.0
 40
1.568882776433893
100
AcDbArc
 50
114.2611925123774
 51
267.9494476182059
  0
LINE
  5
3AC12
330
3E7
100
AcDbEntity
  8
OUTLINE
100
AcDbLine
 10
-428.8101527657213
 20
-172.5575396564709
 30
0.0
 11
-428.810152765723
 21
-169.448081585986
 31
0.0
  0
LINE
  5
3AC13
330
3E7
100
AcDbEntity
  8
OUTLINE
100
AcDbLine
 10
-420.8099557657215
 20
-172.5575396564709
 30
0.0
 11
-420.8099557657233
 21
-169.448081585986
 31
0.0
  0
ARC
  5
3AC14
330
3E7
100
AcDbEntity
  8
OUTLINE
100
AcDbCircle
 10
-428.9100927657191
 20
-169.448081585986
 30
0.0
 40
0.0999399999998523
100
AcDbArc
 50
0.000000000000007
 51
89.99999999999998
  0
LINE
  5
3AC15
330
3E7
100
AcDbEntity
  8
OUTLINE
100
AcDbLine
 10
-430.8089527657237
 20
-169.3481415859841
 30
0.0
 11
-428.9100927657191
 21
-169.3481415859841
 31
0.0
  0
LINE
  5
3AC16
330
3E7
100
AcDbEntity
  8
OUTLINE
100
AcDbLine
 10
-420.8099557657215
 20
-172.5575396564709
 30
0.0
 11
-420.8099557657233
 21
-169.448081585986
 31
0.0
  0
ARC
  5
3AC17
330
3E7
100
AcDbEntity
  8
OUTLINE
100
AcDbCircle
 10
-420.7100157657196
 20
-169.448081585986
 30
0.0
 40
0.0999399999998523
100
AcDbArc
 50
90.00000000000005
 51
180.0
  0
LINE
  5
3AC18
330
3E7
100
AcDbEntity
  8
OUTLINE
100
AcDbLine
 10
-418.8111557657148
 20
-169.3481415859841
 30
0.0
 11
-420.7100157657196
 21
-169.3481415859841
 31
0.0
  0
LINE
  5
3AC19
330
3E7
100
AcDbEntity
  8
OUTLINE
100
AcDbLine
 10
-430.8089527657237
 20
-168.5486215859855
 30
0.0
 11
-430.8089527657237
 21
-168.0489215859925
 31
0.0
  0
LINE
  5
3AC1A
330
3E7
100
AcDbEntity
  8
OUTLINE
100
AcDbLine
 10
-428.3054557657222
 20
-172.846041585988
 30
0.0
 11
-428.8051557657154
 21
-172.5575396564709
 31
0.0
  0
LINE
  5
3AC1B
330
3E7
100
AcDbEntity
  8
OUTLINE
100
AcDbLine
 10
-430.8089527657237
 20
-169.3481415859841
 30
0.0
 11
-430.8089527657237
 21
-168.0489215859925
 31
0.0
  0
LINE
  5
3AC1C
330
3E7
100
AcDbEntity
  8
OUTLINE
100
AcDbLine
 10
-421.3096557657143
 20
-172.846041585988
 30
0.0
 11
-420.8099557657215
 21
-172.5575396564709
 31
0.0
  0
LINE
  5
3AC1D
330
3E7
100
AcDbEntity
  8
OUTLINE
100
AcDbLine
 10
-430.8089527657237
 20
-168.0489215859925
 30
0.0
 11
-429.8045557657151
 21
-168.0489215859788
 31
0.0
  0
LINE
  5
3AC1E
330
3E7
100
AcDbEntity
  8
OUTLINE
100
AcDbLine
 10
-428.3054557657222
 20
-172.846041585988
 30
0.0
 11
-421.3096557657143
 21
-172.846041585988
 31
0.0
  0
ARC
  5
3AC1F
330
3E7
100
AcDbEntity
  8
OUTLINE
100
AcDbCircle
 10
-419.810555765719
 20
-166.5498215859788
 30
0.0
 40
1.4991
100
AcDbArc
 50
270.0
 51
90.00000000000005
  0
ARC
  5
3AC20
330
3E7
100
AcDbEntity
  8
OUTLINE
100
AcDbCircle
 10
-419.810555765719
 20
-166.5498215859788
 30
0.0
 40
1.4991
100
AcDbArc
 50
270.0
 51
90.00000000000005
  0
LINE
  5
3AC21
330
3E7
100
AcDbEntity
  8
OUTLINE
100
AcDbLine
 10
-418.8061587657129
 20
-169.3481415859841
 30
0.0
 11
-418.8061587657129
 21
-168.0489215859925
 31
0.0
  0
LINE
  5
3AC22
330
3E7
100
AcDbEntity
  8
OUTLINE
100
AcDbLine
 10
-419.810555765719
 20
-168.0489215859788
 30
0.0
 11
-418.8061587657129
 21
-168.0489215859925
 31
0.0
  0
LINE
  5
3AC23
330
3E7
100
AcDbEntity
  8
OUTLINE
100
AcDbLine
 10
-454.8871198500656
 20
-166.3499415859923
 30
0.0
 11
-452.8883198500753
 21
-166.3499415859923
 31
0.0
  0
LINE
  5
3AC24
330
3E7
100
AcDbEntity
  8
OUTLINE
100
AcDbLine
 10
-490.066022587445
 20
-102.9003761410594
 30
0.0
 11
-490.0638443764528
 21
-149.9202701813173
 31
0.0
  0
ARC
  5
3AC25
330
3E7
100
AcDbEntity
  8
OUTLINE
100
AcDbCircle
 10
-464.1725736185374
 20
-149.5444503110993
 30
0.0
 40
25.89399818557436
100
AcDbArc
 50
180.8316077077624
 51
279.1696543077266
  0
LINE
  5
3AC26
330
3E7
100
AcDbEntity
  8
OUTLINE
100
AcDbLine
 10
-267.6994998500795
 20
-195.4826399999954
 30
0.0
 11
-267.699499850079
 21
-190.0496205274491
 31
0.0
  0
LINE
  5
3AC27
330
3E7
100
AcDbEntity
  8
OUTLINE
100
AcDbLine
 10
-275.6946998500806
 20
-198.4808399999518
 30
0.0
 11
-275.6946998500806
 21
-190.0496205274565
 31
0.0
  0
LINE
  5
3AC28
330
3E7
100
AcDbEntity
  8
OUTLINE
100
AcDbLine
 10
-334.6592998500761
 20
-190.0496205274594
 30
0.0
 11
-334.6592998500763
 21
-198.4808399999518
 31
0.0
  0
LINE
  5
3AC29
330
3E7
100
AcDbEntity
  8
OUTLINE
100
AcDbLine
 10
-342.6544998500685
 20
-195.4826399999954
 30
0.0
 11
-342.6544998500685
 21
-190.0496205274603
 31
0.0
  0
ARC
  5
3AC2A
330
3E7
100
AcDbEntity
  8
OUTLINE
100
AcDbCircle
 10
-277.6934998500692
 20
-198.4808399999518
 30
0.0
 40
4.996999999999998
100
AcDbArc
 50
270.0
 51
359.9999999993744
  0
ARC
  5
3AC2B
330
3E7
100
AcDbEntity
  8
OUTLINE
100
AcDbCircle
 10
-277.6934998500692
 20
-198.4808399999518
 30
0.0
 40
1.998799999999999
100
AcDbArc
 50
270.0
 51
0.0
  0
LINE
  5
3AC2C
330
3E7
100
AcDbEntity
  8
OUTLINE
100
AcDbLine
 10
-332.6604998500696
 20
-200.4796399999404
 30
0.0
 11
-277.6934998500692
 21
-200.4796399999404
 31
0.0
  0
LINE
  5
3AC2D
330
3E7
100
AcDbEntity
  8
OUTLINE
100
AcDbLine
 10
-332.6604998500696
 20
-203.4778399999513
 30
0.0
 11
-277.6934998500692
 21
-203.4778399999513
 31
0.0
  0
ARC
  5
3AC2E
330
3E7
100
AcDbEntity
  8
OUTLINE
100
AcDbCircle
 10
-270.6976998500795
 20
-195.4826399999954
 30
0.0
 40
2.9982
100
AcDbArc
 50
270.0
 51
0.0
  0
LINE
  5
3AC2F
330
3E7
100
AcDbEntity
  8
OUTLINE
100
AcDbLine
 10
-270.6976998500795
 20
-198.4808399999955
 30
0.0
 11
-275.694699850069
 21
-198.4808399999518
 31
0.0
  0
ARC
  5
3AC30
330
3E7
100
AcDbEntity
  8
OUTLINE
100
AcDbCircle
 10
-332.6604998500696
 20
-198.4808399999518
 30
0.0
 40
4.996999999999998
100
AcDbArc
 50
180.0000000006253
 51
270.0
  0
ARC
  5
3AC31
330
3E7
100
AcDbEntity
  8
OUTLINE
100
AcDbCircle
 10
-339.6562998500776
 20
-195.4826399999954
 30
0.0
 40
2.9982
100
AcDbArc
 50
180.0
 51
270.0
  0
LINE
  5
3AC32
330
3E7
100
AcDbEntity
  8
OUTLINE
100
AcDbLine
 10
-339.6562998500776
 20
-198.4808399999955
 30
0.0
 11
-334.6592998500763
 21
-198.4808399999518
 31
0.0
  0
ARC
  5
3AC33
330
3E7
100
AcDbEntity
  8
OUTLINE
100
AcDbCircle
 10
-332.6604998500696
 20
-198.4808399999518
 30
0.0
 40
1.998799999999999
100
AcDbArc
 50
180.0
 51
270.0
  0
ARC
  5
3AC34
330
3E7
100
AcDbEntity
  8
OUTLINE
100
AcDbCircle
 10
-305.1769998500692
 20
-189.4862399999554
 30
0.0
 40
5.9964
100
AcDbArc
 50
180.0
 51
0.0
  0
ARC
  5
3AC35
330
3E7
100
AcDbEntity
  8
OUTLINE
100
AcDbCircle
 10
-305.1769998500692
 20
-179.4922399999549
 30
0.0
 40
5.9964
100
AcDbArc
 50
0.0
 51
180.0
  0
LINE
  5
3AC36
330
3E7
100
AcDbEntity
  8
OUTLINE
100
AcDbLine
 10
-299.1805998500656
 20
-189.4862399999554
 30
0.0
 11
-299.1805998500656
 21
-179.4922399999549
 31
0.0
  0
LINE
  5
3AC37
330
3E7
100
AcDbEntity
  8
OUTLINE
100
AcDbLine
 10
-311.1733998500731
 20
-189.4862399999554
 30
0.0
 11
-311.1733998500731
 21
-179.4922399999549
 31
0.0
  0
LINE
  5
3AC38
330
3E7
100
AcDbEntity
  8
OUTLINE
100
AcDbLine
 10
222.5111971499408
 20
-166.458502888363
 30
0.0
 11
220.5074001499506
 21
-166.458502888363
 31
0.0
  0
LINE
  5
3AC39
330
3E7
100
AcDbEntity
  8
OUTLINE
100
AcDbLine
 10
220.5074001499506
 20
-165.0698076199132
 30
0.0
 11
220.5074001499506
 21
-166.458502888363
 31
0.0
  0
LINE
  5
3AC3A
330
3E7
100
AcDbEntity
  8
OUTLINE
100
AcDbLine
 10
230.506397149951
 20
-169.6679009588496
 30
0.0
 11
230.506397149951
 21
-166.458502888363
 31
0.0
  0
LINE
  5
3AC3B
330
3E7
100
AcDbEntity
  8
OUTLINE
100
AcDbLine
 10
222.5111971499408
 20
-169.6679009588496
 30
0.0
 11
222.5111971499408
 21
-166.458502888363
 31
0.0
  0
LINE
  5
3AC3C
330
3E7
100
AcDbEntity
  8
OUTLINE
100
AcDbLine
 10
230.0066971499418
 20
-169.9564028883487
 30
0.0
 11
230.506397149951
 21
-169.6679009588496
 31
0.0
  0
LINE
  5
3AC3D
330
3E7
100
AcDbEntity
  8
OUTLINE
100
AcDbLine
 10
223.0108971499519
 20
-169.9564028883487
 30
0.0
 11
222.5111971499408
 21
-169.6679009588496
 31
0.0
  0
LINE
  5
3AC3E
330
3E7
100
AcDbEntity
  8
OUTLINE
100
AcDbLine
 10
232.5051971499414
 20
-166.458502888363
 30
0.0
 11
232.5051971499414
 21
-165.06760874098
 31
0.0
  0
LINE
  5
3AC3F
330
3E7
100
AcDbEntity
  8
OUTLINE
100
AcDbLine
 10
223.0108971499519
 20
-169.9564028883487
 30
0.0
 11
230.0066971499418
 21
-169.9564028883487
 31
0.0
  0
LINE
  5
3AC40
330
3E7
100
AcDbEntity
  8
OUTLINE
100
AcDbLine
 10
232.5051971499414
 20
-166.458502888363
 30
0.0
 11
230.5014001499511
 21
-166.458502888363
 31
0.0
  0
LINE
  5
3AC41
330
3E7
100
AcDbEntity
  8
OUTLINE
100
AcDbLine
 10
171.4035247784359
 20
-188.7323918544598
 30
0.0
 11
186.8874834609419
 21
-172.8724338079125
 31
0.0
  0
ARC
  5
3AC42
330
3E7
100
AcDbEntity
  8
OUTLINE
100
AcDbCircle
 10
168.2234534513991
 20
-185.552320527441
 30
0.0
 40
4.49730000000076
100
AcDbArc
 50
270.0
 51
315.0
  0
ARC
  5
3AC43
330
3E7
100
AcDbEntity
  8
OUTLINE
100
AcDbCircle
 10
168.2234534513991
 20
-185.552320527441
 30
0.0
 40
4.49730000000076
100
AcDbArc
 50
270.0
 51
315.0
  0
ARC
  5
3AC44
330
3E7
100
AcDbEntity
  8
OUTLINE
100
AcDbCircle
 10
168.2234534513991
 20
-185.552320527441
 30
0.0
 40
4.49730000000076
100
AcDbArc
 50
270.0
 51
315.0
  0
ARC
  5
3AC45
330
3E7
100
AcDbEntity
  8
OUTLINE
100
AcDbCircle
 10
168.2234534513991
 20
-185.552320527441
 30
0.0
 40
4.49730000000076
100
AcDbArc
 50
270.0
 51
315.0
  0
ARC
  5
3AC46
330
3E7
100
AcDbEntity
  8
OUTLINE
100
AcDbCircle
 10
168.2234534513991
 20
-185.552320527441
 30
0.0
 40
4.49730000000076
100
AcDbArc
 50
270.0
 51
315.0
  0
ARC
  5
3AC47
330
3E7
100
AcDbEntity
  8
OUTLINE
100
AcDbCircle
 10
191.2249801499309
 20
-166.5762138079033
 30
0.0
 40
1.4991
100
AcDbArc
 50
270.0
 51
90.00000000000005
  0
ARC
  5
3AC48
330
3E7
100
AcDbEntity
  8
OUTLINE
100
AcDbCircle
 10
191.2249801499309
 20
-166.5762138079033
 30
0.0
 40
1.4991
100
AcDbArc
 50
270.0
 51
90.00000000000005
  0
LINE
  5
3AC49
330
3E7
100
AcDbEntity
  8
OUTLINE
100
AcDbLine
 10
182.7300801499275
 20
-172.8724338079125
 30
0.0
 11
189.7258801499356
 21
-172.8724338079125
 31
0.0
  0
LINE
  5
3AC4A
330
3E7
100
AcDbEntity
  8
OUTLINE
100
AcDbLine
 10
192.2243801499353
 20
-169.3745338079088
 30
0.0
 11
192.2293771499371
 21
-168.075313807917
 31
0.0
  0
LINE
  5
3AC4B
330
3E7
100
AcDbEntity
  8
OUTLINE
100
AcDbLine
 10
180.2265831499262
 20
-168.075313807917
 30
0.0
 11
181.2309801499349
 21
-168.0753138079035
 31
0.0
  0
LINE
  5
3AC4C
330
3E7
100
AcDbEntity
  8
OUTLINE
100
AcDbLine
 10
189.7258801499356
 20
-172.8724338079125
 30
0.0
 11
190.2255801499284
 21
-172.5839318783955
 31
0.0
  0
LINE
  5
3AC4D
330
3E7
100
AcDbEntity
  8
OUTLINE
100
AcDbLine
 10
192.2293771499371
 20
-168.57501380791
 30
0.0
 11
192.2293771499371
 21
-168.075313807917
 31
0.0
  0
ARC
  5
3AC4E
330
3E7
100
AcDbEntity
  8
OUTLINE
100
AcDbCircle
 10
181.2871167384023
 20
-166.5074356718141
 30
0.0
 40
1.568882776433893
100
AcDbArc
 50
114.2611925123774
 51
267.9494476182059
  0
LINE
  5
3AC4F
330
3E7
100
AcDbEntity
  8
OUTLINE
100
AcDbLine
 10
180.2265831499262
 20
-169.3745338079088
 30
0.0
 11
180.2265831499262
 21
-168.075313807917
 31
0.0
  0
LINE
  5
3AC50
330
3E7
100
AcDbEntity
  8
OUTLINE
100
AcDbLine
 10
182.7300801499275
 20
-172.8724338079125
 30
0.0
 11
182.2303801499345
 21
-172.5839318783955
 31
0.0
  0
LINE
  5
3AC51
330
3E7
100
AcDbEntity
  8
OUTLINE
100
AcDbLine
 10
180.2265831499262
 20
-168.57501380791
 30
0.0
 11
180.2265831499262
 21
-168.075313807917
 31
0.0
  0
LINE
  5
3AC52
330
3E7
100
AcDbEntity
  8
OUTLINE
100
AcDbLine
 10
190.2255801499284
 20
-172.5839318783955
 30
0.0
 11
190.2255801499268
 21
-169.4744738079107
 31
0.0
  0
LINE
  5
3AC53
330
3E7
100
AcDbEntity
  8
OUTLINE
100
AcDbLine
 10
192.2243801499353
 20
-169.3745338079088
 30
0.0
 11
190.3255201499304
 21
-169.3745338079088
 31
0.0
  0
ARC
  5
3AC54
330
3E7
100
AcDbEntity
  8
OUTLINE
100
AcDbCircle
 10
190.3255201499304
 20
-169.4744738079107
 30
0.0
 40
0.0999399999998523
100
AcDbArc
 50
90.00000000000005
 51
180.0
  0
ARC
  5
3AC55
330
3E7
100
AcDbEntity
  8
OUTLINE
100
AcDbCircle
 10
182.1254431499309
 20
-169.4744738079107
 30
0.0
 40
0.0999399999998523
100
AcDbArc
 50
0.000000000000007
 51
89.99999999999998
  0
LINE
  5
3AC56
330
3E7
100
AcDbEntity
  8
OUTLINE
100
AcDbLine
 10
180.2265831499262
 20
-169.3745338079088
 30
0.0
 11
182.1254431499309
 21
-169.3745338079088
 31
0.0
  0
LINE
  5
3AC57
330
3E7
100
AcDbEntity
  8
OUTLINE
100
AcDbLine
 10
190.2255801499284
 20
-172.5839318783955
 30
0.0
 11
190.2255801499268
 21
-169.4744738079107
 31
0.0
  0
LINE
  5
3AC58
330
3E7
100
AcDbEntity
  8
OUTLINE
100
AcDbLine
 10
182.2253831499287
 20
-172.5839318783955
 30
0.0
 11
182.2253831499269
 21
-169.4744738079107
 31
0.0
  0
LINE
  5
3AC59
330
3E7
100
AcDbEntity
  8
OUTLINE
100
AcDbLine
 10
191.2249801499309
 20
-168.0753138079035
 30
0.0
 11
192.2293771499371
 21
-168.075313807917
 31
0.0
  0
LINE
  5
3AC5A
330
3E7
100
AcDbEntity
  8
OUTLINE
100
AcDbLine
 10
332.3005001499203
 20
-195.4826399999954
 30
0.0
 11
332.3005001499211
 21
-165.0729761682659
 31
0.0
  0
LINE
  5
3AC5B
330
3E7
100
AcDbEntity
  8
OUTLINE
100
AcDbLine
 10
265.3407001499301
 20
-198.4808399999518
 30
0.0
 11
265.3407001499301
 21
-165.0710783287395
 31
0.0
  0
ARC
  5
3AC5C
330
3E7
100
AcDbEntity
  8
OUTLINE
100
AcDbCircle
 10
294.8230001499305
 20
-189.4862399999554
 30
0.0
 40
5.9964
100
AcDbArc
 50
180.0
 51
0.0
  0
LINE
  5
3AC5D
330
3E7
100
AcDbEntity
  8
OUTLINE
100
AcDbLine
 10
267.33950014993
 20
-200.4796399999404
 30
0.0
 11
322.3065001499306
 21
-200.4796399999404
 31
0.0
  0
LINE
  5
3AC5E
330
3E7
100
AcDbEntity
  8
OUTLINE
100
AcDbLine
 10
267.33950014993
 20
-203.4778399999513
 30
0.0
 11
322.3065001499306
 21
-203.4778399999513
 31
0.0
  0
ARC
  5
3AC5F
330
3E7
100
AcDbEntity
  8
OUTLINE
100
AcDbCircle
 10
322.3065001499306
 20
-198.4808399999518
 30
0.0
 40
4.996999999999998
100
AcDbArc
 50
270.0
 51
359.9999999993744
  0
ARC
  5
3AC60
330
3E7
100
AcDbEntity
  8
OUTLINE
100
AcDbCircle
 10
322.3065001499306
 20
-198.4808399999518
 30
0.0
 40
1.998799999999999
100
AcDbArc
 50
270.0
 51
0.0
  0
ARC
  5
3AC61
330
3E7
100
AcDbEntity
  8
OUTLINE
100
AcDbCircle
 10
329.3023001499205
 20
-195.4826399999954
 30
0.0
 40
2.9982
100
AcDbArc
 50
270.0
 51
0.0
  0
LINE
  5
3AC62
330
3E7
100
AcDbEntity
  8
OUTLINE
100
AcDbLine
 10
329.3023001499205
 20
-198.4808399999955
 30
0.0
 11
324.3053001499192
 21
-198.4808399999518
 31
0.0
  0
ARC
  5
3AC63
330
3E7
100
AcDbEntity
  8
OUTLINE
100
AcDbCircle
 10
267.33950014993
 20
-198.4808399999518
 30
0.0
 40
4.996999999999998
100
AcDbArc
 50
180.0000000006253
 51
270.0
  0
ARC
  5
3AC64
330
3E7
100
AcDbEntity
  8
OUTLINE
100
AcDbCircle
 10
267.33950014993
 20
-198.4808399999518
 30
0.0
 40
1.998799999999999
100
AcDbArc
 50
180.0
 51
270.0
  0
LINE
  5
3AC65
330
3E7
100
AcDbEntity
  8
OUTLINE
100
AcDbLine
 10
260.3437001499222
 20
-198.4808399999955
 30
0.0
 11
265.3407001499301
 21
-198.4808399999518
 31
0.0
  0
ARC
  5
3AC66
330
3E7
100
AcDbEntity
  8
OUTLINE
100
AcDbCircle
 10
260.3437001499222
 20
-195.4826399999954
 30
0.0
 40
2.9982
100
AcDbArc
 50
180.0
 51
270.0
  0
LINE
  5
3AC67
330
3E7
100
AcDbEntity
  8
OUTLINE
100
AcDbLine
 10
332.3005001499208
 20
-165.0729761682659
 30
0.0
 11
454.9370001499426
 21
-165.0764520507681
 31
0.0
  0
LINE
  5
3AC68
330
3E7
100
AcDbEntity
  8
OUTLINE
100
AcDbLine
 10
288.8266001499266
 20
-189.4862399999554
 30
0.0
 11
288.8266001499266
 21
-179.4922399999549
 31
0.0
  0
LINE
  5
3AC69
330
3E7
100
AcDbEntity
  8
OUTLINE
100
AcDbLine
 10
300.8194001499341
 20
-189.4862399999554
 30
0.0
 11
300.8194001499341
 21
-179.4922399999549
 31
0.0
  0
ARC
  5
3AC6A
330
3E7
100
AcDbEntity
  8
OUTLINE
100
AcDbCircle
 10
294.8230001499305
 20
-179.4922399999549
 30
0.0
 40
5.9964
100
AcDbArc
 50
0.0
 51
180.0
  0
LINE
  5
3AC6B
330
3E7
100
AcDbEntity
  8
OUTLINE
100
AcDbLine
 10
254.7240386192115
 20
-166.4114180705773
 30
0.0
 11
254.7240386192115
 21
-165.0707774210311
 31
0.0
  0
LINE
  5
3AC6C
330
3E7
100
AcDbEntity
  8
OUTLINE
100
AcDbLine
 10
254.2243386192021
 20
-166.6999200000764
 30
0.0
 11
254.7240386192115
 21
-166.4114180705773
 31
0.0
  0
LINE
  5
3AC6D
330
3E7
100
AcDbEntity
  8
OUTLINE
100
AcDbLine
 10
246.7288386192012
 20
-166.4114180705773
 30
0.0
 11
246.7288386192012
 21
-165.0705508133269
 31
0.0
  0
LINE
  5
3AC6E
330
3E7
100
AcDbEntity
  8
OUTLINE
100
AcDbLine
 10
247.2285386192124
 20
-166.6999200000764
 30
0.0
 11
246.7288386192012
 21
-166.4114180705773
 31
0.0
  0
LINE
  5
3AC6F
330
3E7
100
AcDbEntity
  8
OUTLINE
100
AcDbLine
 10
247.2285386192124
 20
-166.6999200000764
 30
0.0
 11
254.2243386192021
 21
-166.6999200000764
 31
0.0
  0
ARC
  5
3AC71
330
3E7
100
AcDbEntity
  8
OUTLINE
100
AcDbCircle
 10
454.6332179692444
 20
-149.7841693007494
 30
0.0
 40
15.29529977868468
100
AcDbArc
 50
271.138034664675
 51
359.5286362849751
  0
ARC
  5
3AC72
330
3E7
100
AcDbEntity
  8
OUTLINE
100
AcDbCircle
 10
471.9268001489871
 20
-133.2633482035934
 30
0.0
 40
0.9993999999999852
100
AcDbArc
 50
0.0
 51
40.00000000088324
  0
ARC
  5
3AC73
330
3E7
100
AcDbEntity
  8
OUTLINE
100
AcDbCircle
 10
395.745548352188
 20
-167.1123440408989
 30
0.0
 40
0.9993999999999999
100
AcDbArc
 50
229.9999999997839
 51
270.0
  0
ARC
  5
3AC74
330
3E7
100
AcDbEntity
  8
OUTLINE
100
AcDbCircle
 10
397.1288105804706
 20
-168.3116973260293
 30
0.0
 40
0.1999534301764614
100
AcDbArc
 50
52.37718597997241
 51
90.06900073982579
  0
ARC
  5
3AC75
330
3E7
100
AcDbEntity
  8
OUTLINE
100
AcDbCircle
 10
407.3573763786933
 20
-170.1105665348531
 30
0.0
 40
4.997000243304004
100
AcDbArc
 50
229.9999990121979
 51
269.9999989847888
  0
LINE
  5
3AC76
330
3E7
100
AcDbEntity
  8
OUTLINE
100
AcDbLine
 10
395.1031464150691
 20
-167.8779288573512
 30
0.0
 11
392.4042001489961
 21
-165.6132440409218
 31
0.0
  0
LINE
  5
3AC77
330
3E7
100
AcDbEntity
  8
OUTLINE
100
AcDbLine
 10
392.4042001489961
 20
-165.6132440409218
 30
0.0
 11
392.6098895577688
 21
-165.6132440409218
 31
0.0
  0
LINE
  5
3AC78
330
3E7
100
AcDbEntity
  8
OUTLINE
100
AcDbLine
 10
395.745548352188
 20
-168.1117440409034
 30
0.0
 11
397.1285697785915
 21
-168.1117440408488
 31
0.0
  0
LINE
  5
3AC79
330
3E7
100
AcDbEntity
  8
OUTLINE
100
AcDbLine
 10
392.6098895577688
 20
-165.6132440409218
 30
0.0
 11
392.6477567443125
 21
-165.1135440408743
 31
0.0
  0
ARC
  5
3AC7A
330
3E7
100
AcDbEntity
  8
OUTLINE
100
AcDbCircle
 10
395.745548352188
 20
-167.1123440408989
 30
0.0
 40
0.9993999999999999
100
AcDbArc
 50
229.9999999997839
 51
270.0
  0
ARC
  5
3AC7B
330
3E7
100
AcDbEntity
  8
OUTLINE
100
AcDbCircle
 10
407.3573763786933
 20
-170.1105665348531
 30
0.0
 40
4.997000243304004
100
AcDbArc
 50
229.9999990121979
 51
269.9999989847888
  0
LINE
  5
3AC7C
330
3E7
100
AcDbEntity
  8
OUTLINE
100
AcDbLine
 10
376.2139201499337
 20
-166.4127640406113
 30
0.0
 11
374.2101231499436
 21
-166.4127640406113
 31
0.0
  0
LINE
  5
3AC7D
330
3E7
100
AcDbEntity
  8
OUTLINE
100
AcDbLine
 10
383.709420149933
 20
-169.910664040597
 30
0.0
 11
384.2091201499441
 21
-169.6221621110979
 31
0.0
  0
LINE
  5
3AC7E
330
3E7
100
AcDbEntity
  8
OUTLINE
100
AcDbLine
 10
376.7136201499452
 20
-169.910664040597
 30
0.0
 11
376.2139201499337
 21
-169.6221621110979
 31
0.0
  0
LINE
  5
3AC7F
330
3E7
100
AcDbEntity
  8
OUTLINE
100
AcDbLine
 10
472.6923849654195
 20
-132.6209462664546
 30
0.0
 11
470.4277001489717
 21
-129.9220000003469
 31
0.0
  0
LINE
  5
3AC80
330
3E7
100
AcDbEntity
  8
OUTLINE
100
AcDbLine
 10
470.4277001489717
 20
-130.1218800003143
 30
0.0
 11
469.928000148926
 21
-130.1656075705039
 31
0.0
  0
LINE
  5
3AC81
330
3E7
100
AcDbEntity
  8
OUTLINE
100
AcDbLine
 10
470.4277001489717
 20
-129.9220000003469
 30
0.0
 11
470.4277001489717
 21
-130.1218800003143
 31
0.0
  0
ARC
  5
3AC82
330
3E7
100
AcDbEntity
  8
OUTLINE
100
AcDbCircle
 10
473.1268983511673
 20
-134.6487444255189
 30
0.0
 40
0.2007122517024484
100
AcDbArc
 50
179.3220695714321
 51
218.0227313978551
  0
ARC
  5
3AC83
330
3E7
100
AcDbEntity
  8
OUTLINE
100
AcDbCircle
 10
474.9250001491618
 20
-144.8751490439599
 30
0.0
 40
4.996999999999016
100
AcDbArc
 50
0.0
 51
39.99999999998943
  0
LINE
  5
3AC84
330
3E7
100
AcDbEntity
  8
OUTLINE
100
AcDbLine
 10
472.9262001490623
 20
-134.6463696298694
 30
0.0
 11
472.9262001489714
 21
-133.2633482035934
 31
0.0
  0
LINE
  5
3AC85
330
3E7
100
AcDbEntity
  8
OUTLINE
100
AcDbLine
 10
478.4250537006646
 20
-141.2723984754784
 30
0.0
 11
478.7529242314157
 21
-141.663139358342
 31
0.0
  0
LINE
  5
3AC86
330
3E7
100
AcDbEntity
  8
OUTLINE
100
AcDbLine
 10
479.9220001491612
 20
-144.8751490439599
 30
0.0
 11
479.8979777786826
 21
-150.9994000306833
 31
0.0
  0
ARC
  5
3AC87
330
3E7
100
AcDbEntity
  8
OUTLINE
100
AcDbCircle
 10
474.9250001491618
 20
-144.8751490439599
 30
0.0
 40
4.996999999999016
100
AcDbArc
 50
0.0
 51
39.99999999998943
  0
LINE
  5
3AC88
330
3E7
100
AcDbEntity
  8
OUTLINE
100
AcDbLine
 10
472.9262001490623
 20
-134.6463696298694
 30
0.0
 11
472.9262001489714
 21
-133.2633482035934
 31
0.0
  0
LINE
  5
3AC89
330
3E7
100
AcDbEntity
  8
OUTLINE
100
AcDbLine
 10
374.2101231499436
 20
-165.0741640114065
 30
0.0
 11
374.2101231499436
 21
-166.4127640406113
 31
0.0
  0
LINE
  5
3AC8A
330
3E7
100
AcDbEntity
  8
OUTLINE
100
AcDbLine
 10
386.2127685445566
 20
-165.0745042020107
 30
0.0
 11
386.2079201499327
 21
-166.4127640406113
 31
0.0
  0
LINE
  5
3AC8B
330
3E7
100
AcDbEntity
  8
OUTLINE
100
AcDbLine
 10
376.7136201499452
 20
-169.910664040597
 30
0.0
 11
383.709420149933
 21
-169.910664040597
 31
0.0
  0
LINE
  5
3AC8C
330
3E7
100
AcDbEntity
  8
OUTLINE
100
AcDbLine
 10
376.2139201499337
 20
-169.6221621110979
 30
0.0
 11
376.2139201499337
 21
-166.4127640406113
 31
0.0
  0
LINE
  5
3AC8D
330
3E7
100
AcDbEntity
  8
OUTLINE
100
AcDbLine
 10
384.2091201499441
 20
-169.6221621110979
 30
0.0
 11
384.2091201499441
 21
-166.4127640406113
 31
0.0
  0
LINE
  5
3AC8E
330
3E7
100
AcDbEntity
  8
OUTLINE
100
AcDbLine
 10
384.2091201499441
 20
-166.4127640406113
 30
0.0
 11
386.2079201499327
 21
-166.4127640406113
 31
0.0
  0
LINE
  5
3AC8F
330
3E7
100
AcDbEntity
  8
OUTLINE
100
AcDbLine
 10
397.2508742692744
 20
-168.1533248848818
 30
0.0
 11
404.1453664707023
 21
-173.9384907481244
 31
0.0
  0
LINE
  5
3AC90
330
3E7
100
AcDbEntity
  8
OUTLINE
100
AcDbLine
 10
472.9687839760908
 20
-134.7723779661855
 30
0.0
 11
478.4250537006646
 21
-141.2723984754784
 31
0.0
  0
ARC
  5
3AC91
330
3E7
100
AcDbEntity
  8
OUTLINE
100
AcDbCircle
 10
454.9394214697831
 20
-150.1226660804304
 30
0.0
 40
24.98231493608688
100
AcDbArc
 50
270.8434944521298
 51
357.5009992488838
  0
LINE
  5
3AC92
330
3E7
100
AcDbEntity
  8
OUTLINE
100
AcDbLine
 10
407.3573762901395
 20
-175.1075667781733
 30
0.0
 11
455.3071917150817
 21
-175.102273855824
 31
0.0
  0
LINE
  5
3AC93
330
3E7
100
AcDbEntity
  8
OUTLINE
100
AcDbLine
 10
225.8924657702753
 20
180.1918200002973
 30
0.0
 11
-267.6994998500704
 21
180.1918200003899
 31
0.0
  0
LINE
  5
3AC94
330
3E7
100
AcDbEntity
  8
OUTLINE
100
AcDbLine
 10
-267.6994998500704
 20
164.9046728949105
 30
0.0
 11
236.867994053832
 21
164.9293973732637
 31
0.0
  0
LINE
  5
3AC95
330
3E7
100
AcDbEntity
  8
OUTLINE
100
AcDbLine
 10
-342.6544998500685
 20
180.1918200004045
 30
0.0
 11
-405.2169399919403
 21
180.1918200004228
 31
0.0
  0
LINE
  5
3AC96
330
3E7
100
AcDbEntity
  8
OUTLINE
100
AcDbLine
 10
-342.6544998500685
 20
180.1918200004045
 30
0.0
 11
-405.2169399919403
 21
180.1918200004228
 31
0.0
  0
LINE
  5
3AC97
330
3E7
100
AcDbEntity
  8
OUTLINE
100
AcDbLine
 10
-342.6544998500685
 20
180.1918200004045
 30
0.0
 11
-405.2169399919403
 21
180.1918200004228
 31
0.0
  0
LINE
  5
3AC98
330
3E7
100
AcDbEntity
  8
OUTLINE
100
AcDbLine
 10
-465.0809998497789
 20
164.9010000002079
 30
0.0
 11
-342.6544998500685
 21
164.9010000002079
 31
0.0
  0
SPLINE
  5
3AC99
330
3E7
100
AcDbEntity
  8
OUTLINE
100
AcDbSpline
210
0.0
220
0.0
230
1.0
 70
     8
 71
     3
 72
    17
 73
    13
 74
    11
 42
0.0000000001
 43
0.0000000001
 44
0.00000001
 40
0.0
 40
0.0
 40
0.0
 40
0.0
 40
14.89662573702418
 40
29.79325146995231
 40
38.28752041420807
 40
46.78178841075744
 40
48.47758599920045
 40
51.16830573103819
 40
54.66668137020613
 40
58.85946466094089
 40
59.33060238619924
 40
59.801324330547
 40
59.801324330547
 40
59.801324330547
 40
59.801324330547
 10
-490.0660225871652
 20
102.9003761412923
 30
0.0
 10
-490.0654270995233
 20
107.8659319134265
 30
0.0
 10
-490.0642361382834
 20
117.7970434563129
 30
0.0
 10
-490.0718887868676
 20
130.5593721479248
 30
0.0
 10
-490.0542450636252
 20
141.1881703579807
 30
0.0
 10
-490.0990127779169
 20
147.4153164363697
 30
0.0
 10
-490.040943499807
 20
151.7101425405343
 30
0.0
 10
-489.7350354852833
 20
154.3271451040357
 30
0.0
 10
-488.9260972219314
 20
157.7019065517276
 30
0.0
 10
-487.8817073292095
 20
160.2311105319139
 30
0.0
 10
-487.0865588752751
 20
161.746708894415
 30
0.0
 10
-486.934159811182
 20
162.0212102232853
 30
0.0
 10
-486.857993910362
 20
162.1584002951449
 30
0.0
 11
-490.0660225871652
 21
102.9003761412923
 31
0.0
 11
-490.0660225870487
 21
117.797001875343
 31
0.0
 11
-490.0660225867865
 21
132.6936276081132
 31
0.0
 11
-490.0667713606488
 21
141.1878965191163
 31
0.0
 11
-490.0664154087971
 21
149.6821645071204
 31
0.0
 11
-490.022949815884
 21
151.3774049623489
 31
0.0
 11
-489.7206056654647
 21
154.0510842034153
 31
0.0
 11
-488.9005861436853
 21
157.4519958583869
 31
0.0
 11
-487.3040944367202
 21
161.3289335553879
 31
0.0
 11
-487.0848572761858
 21
161.7459537325803
 31
0.0
 11
-486.857993910362
 21
162.1584002951449
 31
0.0
  0
LINE
  5
3AC9A
330
3E7
100
AcDbEntity
  8
OUTLINE
100
AcDbLine
 10
-460.0461488935016
 20
174.8950000002904
 30
0.0
 11
-466.1703986702557
 21
174.8709776817513
 31
0.0
  0
ARC
  5
3AC9B
330
3E7
100
AcDbEntity
  8
OUTLINE
100
AcDbCircle
 10
-465.0809998498878
 20
149.9100000003263
 30
0.0
 40
14.99099999988365
100
AcDbArc
 50
89.99999999958312
 51
180.0000000003125
  0
ARC
  5
3AC9C
330
3E7
100
AcDbEntity
  8
OUTLINE
100
AcDbCircle
 10
-465.0809998498878
 20
149.9100000003263
 30
0.0
 40
14.99099999988365
100
AcDbArc
 50
89.99999999958312
 51
180.0000000003125
  0
ARC
  5
3AC9D
330
3E7
100
AcDbEntity
  8
OUTLINE
100
AcDbCircle
 10
-465.0967270704257
 20
150.0216188149725
 30
0.0
 40
24.87254323132731
100
AcDbArc
 50
92.47405227708453
 51
102.0906842029505
  0
ARC
  5
3AC9E
330
3E7
100
AcDbEntity
  8
OUTLINE
100
AcDbCircle
 10
-465.0807627973397
 20
149.9162788001394
 30
0.0
 40
24.9788912246655
100
AcDbArc
 50
102.0758794609973
 51
114.68432129756
  0
ARC
  5
3AC9F
330
3E7
100
AcDbEntity
  8
OUTLINE
100
AcDbCircle
 10
-465.0809998496697
 20
149.910000000108
 30
0.0
 40
14.99100000010002
100
AcDbArc
 50
90.00000000041687
 51
179.9999999994786
  0
ARC
  5
3ACA0
330
3E7
100
AcDbEntity
  8
OUTLINE
100
AcDbCircle
 10
-465.0724127932353
 20
149.8950505967195
 30
0.0
 40
25.00166679617622
100
AcDbArc
 50
114.6813918728709
 51
132.1370963432664
  0
ARC
  5
3ACA1
330
3E7
100
AcDbEntity
  8
OUTLINE
100
AcDbCircle
 10
-465.0902293878368
 20
149.9159680899765
 30
0.0
 40
24.97424110170503
100
AcDbArc
 50
141.3700549121905
 51
150.6461162914093
  0
ARC
  5
3ACA2
330
3E7
100
AcDbEntity
  8
OUTLINE
100
AcDbCircle
 10
-465.0903658090117
 20
149.9157657777968
 30
0.0
 40
24.97426083249614
100
AcDbArc
 50
132.1384385588426
 51
141.369496938637
  0
LINE
  5
3ACA3
330
3E7
100
AcDbEntity
  8
OUTLINE
100
AcDbLine
 10
-444.3934198500719
 20
172.6963200000054
 30
0.0
 11
-443.8937198500607
 21
172.4078180705063
 31
0.0
  0
LINE
  5
3ACA4
330
3E7
100
AcDbEntity
  8
OUTLINE
100
AcDbLine
 10
-451.3892198500616
 20
172.6963200000054
 30
0.0
 11
-451.8889198500728
 21
172.4078180705063
 31
0.0
  0
LINE
  5
3ACA5
330
3E7
100
AcDbEntity
  8
OUTLINE
100
AcDbLine
 10
-453.8877198500795
 20
166.2002200000088
 30
0.0
 11
-451.8889198500728
 21
166.2002200000088
 31
0.0
  0
ARC
  5
3ACA6
330
3E7
100
AcDbEntity
  8
OUTLINE
100
AcDbCircle
 10
-460.0461488935198
 20
169.8980000002891
 30
0.0
 40
4.997000000000452
100
AcDbArc
 50
49.9999999999308
 51
90.00000000000005
  0
LINE
  5
3ACA7
330
3E7
100
AcDbEntity
  8
OUTLINE
100
AcDbLine
 10
-451.8889198500732
 20
169.5763923372469
 30
0.0
 11
-456.8341392079112
 21
173.7259240825514
 31
0.0
  0
ARC
  5
3ACA8
330
3E7
100
AcDbEntity
  8
OUTLINE
100
AcDbCircle
 10
-416.4767209843756
 20
176.4440700004243
 30
0.0
 40
3.747749999994292
100
AcDbArc
 50
89.99999999979158
 51
150.0000006613906
  0
ARC
  5
3ACA9
330
3E7
100
AcDbEntity
  8
OUTLINE
100
AcDbCircle
 10
-426.747389516873
 20
168.6487499999993
 30
0.0
 40
1.249250000000034
100
AcDbArc
 50
270.0
 51
330.0000006615331
  0
LINE
  5
3ACAA
330
3E7
100
AcDbEntity
  8
OUTLINE
100
AcDbLine
 10
-419.7223677130332
 20
178.317944962956
 30
0.0
 11
-425.6655072739813
 21
168.0241250124881
 31
0.0
  0
ARC
  5
3ACAB
330
3E7
100
AcDbEntity
  8
OUTLINE
100
AcDbCircle
 10
-416.4767209843756
 20
176.4440700004243
 30
0.0
 40
3.747749999994292
100
AcDbArc
 50
89.99999999979158
 51
150.0000006613906
  0
ARC
  5
3ACAC
330
3E7
100
AcDbEntity
  8
OUTLINE
100
AcDbCircle
 10
-426.747389516873
 20
168.6487499999993
 30
0.0
 40
1.249250000000034
100
AcDbArc
 50
270.0
 51
330.0000006615331
  0
LINE
  5
3ACAD
330
3E7
100
AcDbEntity
  8
OUTLINE
100
AcDbLine
 10
-419.7223677130332
 20
178.317944962956
 30
0.0
 11
-425.6655072739813
 21
168.0241250124881
 31
0.0
  0
ARC
  5
3ACAE
330
3E7
100
AcDbEntity
  8
OUTLINE
100
AcDbCircle
 10
-482.0707998497855
 20
91.28854820334799
 30
0.0
 40
0.9993999999994509
100
AcDbArc
 50
180.0
 51
220.0000000000692
  0
ARC
  5
3ACAF
330
3E7
100
AcDbEntity
  8
OUTLINE
100
AcDbCircle
 10
-484.9180339962498
 20
102.926999552048
 30
0.0
 40
5.148057433446293
100
AcDbArc
 50
180.2963090234875
 51
224.8298735791849
  0
LINE
  5
3ACB0
330
3E7
100
AcDbEntity
  8
OUTLINE
100
AcDbLine
 10
-480.571699849808
 20
87.94720000013787
 30
0.0
 11
-480.571699849808
 21
88.15288940892875
 31
0.0
  0
LINE
  5
3ACB1
330
3E7
100
AcDbEntity
  8
OUTLINE
100
AcDbLine
 10
-480.571699849808
 20
88.15288940892875
 30
0.0
 11
-480.0719998497607
 21
88.19075659545251
 31
0.0
  0
LINE
  5
3ACB2
330
3E7
100
AcDbEntity
  8
OUTLINE
100
AcDbLine
 10
-482.836384666236
 20
90.64614626622732
 30
0.0
 11
-480.571699849808
 21
87.94720000013787
 31
0.0
  0
LINE
  5
3ACB3
330
3E7
100
AcDbEntity
  8
OUTLINE
100
AcDbLine
 10
-483.0701998497898
 20
91.28854820334799
 30
0.0
 11
-483.070199849808
 21
92.67156962975148
 31
0.0
  0
LINE
  5
3ACB4
330
3E7
100
AcDbEntity
  8
OUTLINE
100
AcDbLine
 10
-488.5690530553346
 20
99.29759806306083
 30
0.0
 11
-483.070199849808
 21
92.67156962975148
 31
0.0
  0
LINE
  5
3ACB5
330
3E7
100
AcDbEntity
  8
OUTLINE
100
AcDbLine
 10
-443.8937198500607
 20
172.4078180705063
 30
0.0
 11
-443.8937198500607
 21
166.2002200000088
 31
0.0
  0
LINE
  5
3ACB6
330
3E7
100
AcDbEntity
  8
OUTLINE
100
AcDbLine
 10
-441.8949198500722
 20
166.2002200000088
 30
0.0
 11
-441.8949198500722
 21
164.9009999999988
 31
0.0
  0
LINE
  5
3ACB7
330
3E7
100
AcDbEntity
  8
OUTLINE
100
AcDbLine
 10
-451.8889198500728
 20
172.4078180705063
 30
0.0
 11
-451.8889198500728
 21
166.2002200000088
 31
0.0
  0
LINE
  5
3ACB8
330
3E7
100
AcDbEntity
  8
OUTLINE
100
AcDbLine
 10
-426.747389516873
 20
167.3994999999995
 30
0.0
 11
-443.8937198500607
 21
167.3994999999995
 31
0.0
  0
LINE
  5
3ACB9
330
3E7
100
AcDbEntity
  8
OUTLINE
100
AcDbLine
 10
-451.3892198500616
 20
172.6963200000054
 30
0.0
 11
-444.3934198500719
 21
172.6963200000054
 31
0.0
  0
LINE
  5
3ACBA
330
3E7
100
AcDbEntity
  8
OUTLINE
100
AcDbLine
 10
-453.8877198500795
 20
166.2002200000088
 30
0.0
 11
-453.8877198500795
 21
164.9009999999988
 31
0.0
  0
LINE
  5
3ACBB
330
3E7
100
AcDbEntity
  8
OUTLINE
100
AcDbLine
 10
-443.8937198500607
 20
166.2002200000088
 30
0.0
 11
-441.8949198500722
 21
166.2002200000088
 31
0.0
  0
LINE
  5
3ACBC
330
3E7
100
AcDbEntity
  8
OUTLINE
100
AcDbLine
 10
-405.2169399919403
 20
180.1918200004228
 30
0.0
 11
-416.4767209843756
 21
180.1918200004228
 31
0.0
  0
LINE
  5
3ACBD
330
3E7
100
AcDbEntity
  8
OUTLINE
100
AcDbLine
 10
-405.2169399919403
 20
180.1918200004228
 30
0.0
 11
-416.4767209843756
 21
180.1918200004228
 31
0.0
  0
LINE
  5
3ACBE
330
3E7
100
AcDbEntity
  8
OUTLINE
100
AcDbLine
 10
-275.694699850069
 20
194.2833600000583
 30
0.0
 11
-272.6964998500698
 21
194.2833600000583
 31
0.0
  0
ARC
  5
3ACBF
330
3E7
100
AcDbEntity
  8
OUTLINE
100
AcDbCircle
 10
-277.6934998500692
 20
194.2833600000583
 30
0.0
 40
4.996999999999998
100
AcDbArc
 50
0.0
 51
90.00000000000005
  0
LINE
  5
3ACC0
330
3E7
100
AcDbEntity
  8
OUTLINE
100
AcDbLine
 10
-334.6592998500763
 20
194.2833600000583
 30
0.0
 11
-336.0584598500718
 21
194.2833600000583
 31
0.0
  0
ARC
  5
3ACC1
330
3E7
100
AcDbEntity
  8
OUTLINE
100
AcDbCircle
 10
-332.6604998500696
 20
194.2833600000583
 30
0.0
 40
4.996999999999998
100
AcDbArc
 50
90.00000000000005
 51
180.0000000006253
  0
LINE
  5
3ACC2
330
3E7
100
AcDbEntity
  8
OUTLINE
100
AcDbLine
 10
-336.0584598500718
 20
194.2833600000583
 30
0.0
 11
-337.6574998500691
 21
194.2833600000038
 31
0.0
  0
LINE
  5
3ACC3
330
3E7
100
AcDbEntity
  8
OUTLINE
100
AcDbLine
 10
-337.6574998500691
 20
194.2833600000038
 30
0.0
 11
-338.0572598500783
 21
194.2833600000038
 31
0.0
  0
LINE
  5
3ACC4
330
3E7
100
AcDbEntity
  8
OUTLINE
100
AcDbLine
 10
-338.0572598500783
 20
194.2833600000038
 30
0.0
 11
-339.6562998500776
 21
194.2833600000038
 31
0.0
  0
ARC
  5
3ACC5
330
3E7
100
AcDbEntity
  8
OUTLINE
100
AcDbCircle
 10
-339.6562998500776
 20
191.2851599999929
 30
0.0
 40
2.9982
100
AcDbArc
 50
90.00000000000005
 51
180.0
  0
ARC
  5
3ACC6
330
3E7
100
AcDbEntity
  8
OUTLINE
100
AcDbCircle
 10
-277.6934998500692
 20
194.2833600000583
 30
0.0
 40
1.998799999999999
100
AcDbArc
 50
0.0
 51
90.00000000000005
  0
LINE
  5
3ACC7
330
3E7
100
AcDbEntity
  8
OUTLINE
100
AcDbLine
 10
-332.6604998500696
 20
199.2803600000579
 30
0.0
 11
-316.1703998500724
 21
199.2803600000579
 31
0.0
  0
LINE
  5
3ACC8
330
3E7
100
AcDbEntity
  8
OUTLINE
100
AcDbLine
 10
-332.6604998500696
 20
196.2821600000469
 30
0.0
 11
-316.1703998500724
 21
196.2821600000469
 31
0.0
  0
LINE
  5
3ACC9
330
3E7
100
AcDbEntity
  8
OUTLINE
100
AcDbLine
 10
-314.1715998500658
 20
194.2833600000583
 30
0.0
 11
-314.1715998500658
 21
180.2917600000446
 31
0.0
  0
LINE
  5
3ACCA
330
3E7
100
AcDbEntity
  8
OUTLINE
100
AcDbLine
 10
-296.1823998500731
 20
180.2917600000446
 30
0.0
 11
-296.1823998500731
 21
194.2833600000583
 31
0.0
  0
LINE
  5
3ACCB
330
3E7
100
AcDbEntity
  8
OUTLINE
100
AcDbLine
 10
-294.1835998500664
 20
199.2803600000579
 30
0.0
 11
-277.6934998500692
 21
199.2803600000579
 31
0.0
  0
LINE
  5
3ACCC
330
3E7
100
AcDbEntity
  8
OUTLINE
100
AcDbLine
 10
-311.1733998500731
 20
194.2833600000583
 30
0.0
 11
-311.1733998500731
 21
180.2917600000446
 31
0.0
  0
LINE
  5
3ACCD
330
3E7
100
AcDbEntity
  8
OUTLINE
100
AcDbLine
 10
-299.1805998500656
 20
180.2917600000446
 30
0.0
 11
-299.1805998500656
 21
194.2833600000583
 31
0.0
  0
LINE
  5
3ACCE
330
3E7
100
AcDbEntity
  8
OUTLINE
100
AcDbLine
 10
-294.1835998500664
 20
196.2821600000469
 30
0.0
 11
-277.6934998500692
 21
196.2821600000469
 31
0.0
  0
ARC
  5
3ACCF
330
3E7
100
AcDbEntity
  8
OUTLINE
100
AcDbCircle
 10
-332.6604998500696
 20
194.2833600000583
 30
0.0
 40
1.998799999999999
100
AcDbArc
 50
90.00000000000005
 51
180.0
  0
ARC
  5
3ACD0
330
3E7
100
AcDbEntity
  8
OUTLINE
100
AcDbCircle
 10
-316.1703998500724
 20
194.2833600000583
 30
0.0
 40
4.996999999999998
100
AcDbArc
 50
0.0
 51
90.00000000000005
  0
ARC
  5
3ACD1
330
3E7
100
AcDbEntity
  8
OUTLINE
100
AcDbCircle
 10
-316.1703998500724
 20
194.2833600000583
 30
0.0
 40
1.998799999999999
100
AcDbArc
 50
0.0
 51
90.00000000000005
  0
ARC
  5
3ACD2
330
3E7
100
AcDbEntity
  8
OUTLINE
100
AcDbCircle
 10
-294.1835998500664
 20
194.2833600000583
 30
0.0
 40
4.996999999999998
100
AcDbArc
 50
90.00000000000005
 51
180.0
  0
ARC
  5
3ACD3
330
3E7
100
AcDbEntity
  8
OUTLINE
100
AcDbCircle
 10
-294.1835998500664
 20
194.2833600000583
 30
0.0
 40
1.998799999999999
100
AcDbArc
 50
90.00000000000005
 51
180.0
  0
ARC
  5
3ACD4
330
3E7
100
AcDbEntity
  8
OUTLINE
100
AcDbCircle
 10
-270.6976998500795
 20
191.2851599999929
 30
0.0
 40
2.9982
100
AcDbArc
 50
0.0
 51
90.00000000000005
  0
LINE
  5
3ACD5
330
3E7
100
AcDbEntity
  8
OUTLINE
100
AcDbLine
 10
-272.6964998500698
 20
194.2833600000583
 30
0.0
 11
-272.2967398500786
 21
194.2833600000038
 31
0.0
  0
LINE
  5
3ACD6
330
3E7
100
AcDbEntity
  8
OUTLINE
100
AcDbLine
 10
-270.6976998500795
 20
194.2833600000038
 30
0.0
 11
-272.2967398500786
 21
194.2833600000038
 31
0.0
  0
ARC
  5
3ACDB
330
3E7
100
AcDbEntity
  8
OUTLINE
100
AcDbCircle
 10
-305.1769998500731
 20
180.2917600000446
 30
0.0
 40
8.9946
100
AcDbArc
 50
180.0
 51
0.0
  0
ARC
  5
3ACDC
330
3E7
100
AcDbEntity
  8
OUTLINE
100
AcDbCircle
 10
-305.1769998500731
 20
180.2917600000446
 30
0.0
 40
5.9964
100
AcDbArc
 50
180.0
 51
0.0
  0
LINE
  5
3ACDF
330
3E7
100
AcDbEntity
  8
OUTLINE
100
AcDbLine
 10
257.3455001499314
 20
164.9246685164605
 30
0.0
 11
236.867994053832
 21
164.9293973732637
 31
0.0
  0
ARC
  5
3ACE0
330
3E7
100
AcDbEntity
  8
OUTLINE
100
AcDbCircle
 10
225.8924657702753
 20
176.4440700002969
 30
0.0
 40
3.747750000001015
100
AcDbArc
 50
30.00000000001032
 51
82.15731307704547
  0
ARC
  5
3ACE1
330
3E7
100
AcDbEntity
  8
OUTLINE
100
AcDbCircle
 10
225.8924657702753
 20
176.4440700002969
 30
0.0
 40
3.747749999999999
100
AcDbArc
 50
82.15731307694225
 51
89.99999999989581
  0
LINE
  5
3ACE2
330
3E7
100
AcDbEntity
  8
OUTLINE
100
AcDbLine
 10
236.867994053832
 20
164.9293973732637
 30
0.0
 11
229.1381124773179
 21
178.3179450002961
 31
0.0
  0
ARC
  5
3ACE3
330
3E7
100
AcDbEntity
  8
OUTLINE
100
AcDbCircle
 10
225.8924657702753
 20
176.4440700002969
 30
0.0
 40
3.747750000001015
100
AcDbArc
 50
30.00000000001032
 51
82.15731307704547
  0
ARC
  5
3ACE4
330
3E7
100
AcDbEntity
  8
OUTLINE
100
AcDbCircle
 10
225.8924657702753
 20
176.4440700002969
 30
0.0
 40
3.747749999999999
100
AcDbArc
 50
82.15731307694225
 51
89.99999999989581
  0
LINE
  5
3ACEB
330
3E7
100
AcDbEntity
  8
OUTLINE
100
AcDbLine
 10
471.2272201499343
 20
57.26561999999557
 30
0.0
 11
471.227220149934
 21
55.26681999998711
 31
0.0
  0
LINE
  5
3ACEC
330
3E7
100
AcDbEntity
  8
OUTLINE
100
AcDbLine
 10
471.22722014995
 20
45.27281999998649
 30
0.0
 11
469.9280001498073
 21
45.27281999998649
 31
0.0
  0
LINE
  5
3ACED
330
3E7
100
AcDbEntity
  8
OUTLINE
100
AcDbLine
 10
474.7251201499382
 20
47.771319999988
 30
0.0
 11
474.4366182204212
 21
47.27161999999498
 31
0.0
  0
LINE
  5
3ACEE
330
3E7
100
AcDbEntity
  8
OUTLINE
100
AcDbLine
 10
474.7251201499382
 20
54.76711999999405
 30
0.0
 11
474.4366182204212
 21
55.26681999998711
 31
0.0
  0
LINE
  5
3ACEF
330
3E7
100
AcDbEntity
  8
OUTLINE
100
AcDbLine
 10
474.4366182204212
 20
55.26681999998711
 30
0.0
 11
471.227220149934
 21
55.26681999998711
 31
0.0
  0
LINE
  5
3ACF0
330
3E7
100
AcDbEntity
  8
OUTLINE
100
AcDbLine
 10
474.7251201499382
 20
54.76711999999405
 30
0.0
 11
474.7251201499382
 21
47.771319999988
 31
0.0
  0
LINE
  5
3ACF1
330
3E7
100
AcDbEntity
  8
OUTLINE
100
AcDbLine
 10
474.4366182204212
 20
47.27161999999498
 30
0.0
 11
471.22722014995
 21
47.27161999999498
 31
0.0
  0
LINE
  5
3ACF2
330
3E7
100
AcDbEntity
  8
OUTLINE
100
AcDbLine
 10
471.2272201499343
 20
57.26561999999557
 30
0.0
 11
469.9280001497989
 21
57.26561999999557
 31
0.0
  0
LINE
  5
3ACF3
330
3E7
100
AcDbEntity
  8
OUTLINE
100
AcDbLine
 10
471.22722014995
 20
45.27281999998649
 30
0.0
 11
471.22722014995
 21
47.27161999999498
 31
0.0
  0
LINE
  5
3ACF4
330
3E7
100
AcDbEntity
  8
OUTLINE
100
AcDbLine
 10
359.8379651841733
 20
164.9009999999806
 30
0.0
 11
332.3005001499291
 21
164.9073592083841
 31
0.0
  0
LINE
  5
3ACF5
330
3E7
100
AcDbEntity
  8
OUTLINE
100
AcDbLine
 10
257.3455001499314
 20
164.9246685164605
 30
0.0
 11
257.3455001499314
 21
191.2851599999929
 31
0.0
  0
LINE
  5
3ACF6
330
3E7
100
AcDbEntity
  8
OUTLINE
100
AcDbLine
 10
324.3053001499192
 20
164.9092055345789
 30
0.0
 11
324.3053001499192
 21
194.2833600000583
 31
0.0
  0
LINE
  5
3ACF7
330
3E7
100
AcDbEntity
  8
OUTLINE
100
AcDbLine
 10
305.8164001499333
 20
199.2803600000579
 30
0.0
 11
322.3065001499306
 21
199.2803600000579
 31
0.0
  0
LINE
  5
3ACF8
330
3E7
100
AcDbEntity
  8
OUTLINE
100
AcDbLine
 10
305.8164001499333
 20
196.2821600000469
 30
0.0
 11
322.3065001499306
 21
196.2821600000469
 31
0.0
  0
ARC
  5
3ACF9
330
3E7
100
AcDbEntity
  8
OUTLINE
100
AcDbCircle
 10
267.33950014993
 20
194.2833600000583
 30
0.0
 40
4.996999999999998
100
AcDbArc
 50
90.00000000000005
 51
180.0000000006253
  0
ARC
  5
3ACFA
330
3E7
100
AcDbEntity
  8
OUTLINE
100
AcDbCircle
 10
260.3437001499222
 20
191.2851599999929
 30
0.0
 40
2.9982
100
AcDbArc
 50
90.00000000000005
 51
180.0
  0
LINE
  5
3ACFB
330
3E7
100
AcDbEntity
  8
OUTLINE
100
AcDbLine
 10
267.33950014993
 20
199.2803600000579
 30
0.0
 11
283.8296001499275
 21
199.2803600000579
 31
0.0
  0
LINE
  5
3ACFC
330
3E7
100
AcDbEntity
  8
OUTLINE
100
AcDbLine
 10
267.33950014993
 20
196.2821600000469
 30
0.0
 11
283.8296001499275
 21
196.2821600000469
 31
0.0
  0
LINE
  5
3ACFD
330
3E7
100
AcDbEntity
  8
OUTLINE
100
AcDbLine
 10
285.8284001499341
 20
194.2833600000583
 30
0.0
 11
285.8284001499341
 21
180.2917600000446
 31
0.0
  0
LINE
  5
3ACFE
330
3E7
100
AcDbEntity
  8
OUTLINE
100
AcDbLine
 10
303.8176001499268
 20
180.2917600000446
 30
0.0
 11
303.8176001499268
 21
194.2833600000583
 31
0.0
  0
LINE
  5
3ACFF
330
3E7
100
AcDbEntity
  8
OUTLINE
100
AcDbLine
 10
288.8266001499266
 20
194.2833600000583
 30
0.0
 11
288.8266001499266
 21
180.2917600000446
 31
0.0
  0
LINE
  5
3AD00
330
3E7
100
AcDbEntity
  8
OUTLINE
100
AcDbLine
 10
300.8194001499341
 20
180.2917600000446
 30
0.0
 11
300.8194001499341
 21
194.2833600000583
 31
0.0
  0
ARC
  5
3AD01
330
3E7
100
AcDbEntity
  8
OUTLINE
100
AcDbCircle
 10
294.8230001499305
 20
180.2917600000446
 30
0.0
 40
8.9946
100
AcDbArc
 50
180.0
 51
0.0
  0
ARC
  5
3AD02
330
3E7
100
AcDbEntity
  8
OUTLINE
100
AcDbCircle
 10
267.33950014993
 20
194.2833600000583
 30
0.0
 40
1.998799999999999
100
AcDbArc
 50
90.00000000000005
 51
180.0
  0
ARC
  5
3AD03
330
3E7
100
AcDbEntity
  8
OUTLINE
100
AcDbCircle
 10
283.8296001499275
 20
194.2833600000583
 30
0.0
 40
4.996999999999998
100
AcDbArc
 50
0.0
 51
90.00000000000005
  0
ARC
  5
3AD04
330
3E7
100
AcDbEntity
  8
OUTLINE
100
AcDbCircle
 10
283.8296001499275
 20
194.2833600000583
 30
0.0
 40
1.998799999999999
100
AcDbArc
 50
0.0
 51
90.00000000000005
  0
ARC
  5
3AD05
330
3E7
100
AcDbEntity
  8
OUTLINE
100
AcDbCircle
 10
305.8164001499333
 20
194.2833600000583
 30
0.0
 40
4.996999999999998
100
AcDbArc
 50
90.00000000000005
 51
180.0
  0
ARC
  5
3AD06
330
3E7
100
AcDbEntity
  8
OUTLINE
100
AcDbCircle
 10
305.8164001499333
 20
194.2833600000583
 30
0.0
 40
1.998799999999999
100
AcDbArc
 50
90.00000000000005
 51
180.0
  0
ARC
  5
3AD07
330
3E7
100
AcDbEntity
  8
OUTLINE
100
AcDbCircle
 10
294.8230001499305
 20
180.2917600000446
 30
0.0
 40
5.9964
100
AcDbArc
 50
180.0
 51
0.0
  0
ARC
  5
3AD08
330
3E7
100
AcDbEntity
  8
OUTLINE
100
AcDbCircle
 10
322.3065001499306
 20
194.2833600000583
 30
0.0
 40
4.996999999999998
100
AcDbArc
 50
0.0
 51
90.00000000000005
  0
ARC
  5
3AD09
330
3E7
100
AcDbEntity
  8
OUTLINE
100
AcDbCircle
 10
322.3065001499306
 20
194.2833600000583
 30
0.0
 40
1.998799999999999
100
AcDbArc
 50
0.0
 51
90.00000000000005
  0
ARC
  5
3AD0A
330
3E7
100
AcDbEntity
  8
OUTLINE
100
AcDbCircle
 10
329.3023001499205
 20
191.2851599999929
 30
0.0
 40
2.9982
100
AcDbArc
 50
0.0
 51
90.00000000000005
  0
LINE
  5
3AD0B
330
3E7
100
AcDbEntity
  8
OUTLINE
100
AcDbLine
 10
260.3437001499222
 20
194.2833599999929
 30
0.0
 11
265.3407001499301
 21
194.2833600000583
 31
0.0
  0
LINE
  5
3AD0C
330
3E7
100
AcDbEntity
  8
OUTLINE
100
AcDbLine
 10
329.3023001499205
 20
194.2833599999929
 30
0.0
 11
324.3053001499304
 21
194.2833600000583
 31
0.0
  0
ARC
  5
3AD0D
330
3E7
100
AcDbEntity
  8
OUTLINE
100
AcDbCircle
 10
471.9268001496582
 20
133.2633482032824
 30
0.0
 40
0.9993999999999999
100
AcDbArc
 50
319.9999999990498
 51
0.0
  0
ARC
  5
3AD0E
330
3E7
100
AcDbEntity
  8
OUTLINE
100
AcDbCircle
 10
454.936946550204
 20
149.9120469400759
 30
0.0
 40
24.98369159371321
100
AcDbArc
 50
24.67349722002325
 51
90.43371567817075
  0
LINE
  5
3AD0F
330
3E7
100
AcDbEntity
  8
OUTLINE
100
AcDbLine
 10
454.1374801499285
 20
164.9009999999825
 30
0.0
 11
359.8379651841733
 21
164.9009999999806
 31
0.0
  0
ARC
  5
3AD10
330
3E7
100
AcDbEntity
  8
OUTLINE
100
AcDbCircle
 10
395.7455483528973
 20
166.8998000000418
 30
0.0
 40
0.9994000000001815
100
AcDbArc
 50
90.00000000000005
 51
130.0000000000692
  0
ARC
  5
3AD11
330
3E7
100
AcDbEntity
  8
OUTLINE
100
AcDbCircle
 10
397.1309473109413
 20
168.0998903941151
 30
0.0
 40
0.200704476613108
100
AcDbArc
 50
269.3212622091273
 51
308.0236461552686
  0
ARC
  5
3AD12
330
3E7
100
AcDbEntity
  8
OUTLINE
100
AcDbCircle
 10
407.357376379439
 20
169.8980224940685
 30
0.0
 40
4.997000243304762
100
AcDbArc
 50
90.00000101521107
 51
130.0000009877221
  0
LINE
  5
3AD13
330
3E7
100
AcDbEntity
  8
OUTLINE
100
AcDbLine
 10
395.1031464157768
 20
167.6653848164941
 30
0.0
 11
392.4042001496873
 21
165.4007000000464
 31
0.0
  0
LINE
  5
3AD14
330
3E7
100
AcDbEntity
  8
OUTLINE
100
AcDbLine
 10
392.609889558478
 20
165.4007000000464
 30
0.0
 11
392.6477567450201
 21
164.9010000000171
 31
0.0
  0
LINE
  5
3AD15
330
3E7
100
AcDbEntity
  8
OUTLINE
100
AcDbLine
 10
392.4042001496873
 20
165.4007000000464
 30
0.0
 11
392.609889558478
 21
165.4007000000464
 31
0.0
  0
LINE
  5
3AD16
330
3E7
100
AcDbEntity
  8
OUTLINE
100
AcDbLine
 10
404.1453664714553
 20
173.7259467073388
 30
0.0
 11
403.7553364257801
 21
173.3986726399043
 31
0.0
  0
LINE
  5
3AD17
330
3E7
100
AcDbEntity
  8
OUTLINE
100
AcDbLine
 10
403.7553364257801
 20
173.3986726399043
 30
0.0
 11
397.2545785866204
 21
167.9417841178119
 31
0.0
  0
LINE
  5
3AD18
330
3E7
100
AcDbEntity
  8
OUTLINE
100
AcDbLine
 10
374.2151201499436
 20
166.2002199999905
 30
0.0
 11
374.2101231499436
 21
165.4006999999919
 31
0.0
  0
LINE
  5
3AD19
330
3E7
100
AcDbEntity
  8
OUTLINE
100
AcDbLine
 10
374.2151201499436
 20
166.2002199999905
 30
0.0
 11
376.2139201499337
 21
166.2002199999905
 31
0.0
  0
LINE
  5
3AD1A
330
3E7
100
AcDbEntity
  8
OUTLINE
100
AcDbLine
 10
384.2091201499441
 20
166.2002199999905
 30
0.0
 11
386.2079201499327
 21
166.2002199999905
 31
0.0
  0
LINE
  5
3AD1B
330
3E7
100
AcDbEntity
  8
OUTLINE
100
AcDbLine
 10
376.7136201499452
 20
169.6981199999945
 30
0.0
 11
376.2139201499337
 21
169.4096180704773
 31
0.0
  0
LINE
  5
3AD1C
330
3E7
100
AcDbEntity
  8
OUTLINE
100
AcDbLine
 10
383.709420149933
 20
169.6981199999945
 30
0.0
 11
384.2091201499441
 21
169.4096180704773
 31
0.0
  0
LINE
  5
3AD1D
330
3E7
100
AcDbEntity
  8
OUTLINE
100
AcDbLine
 10
472.6923849661107
 20
132.6209462661436
 30
0.0
 11
470.4277001496446
 21
129.9220000000359
 31
0.0
  0
LINE
  5
3AD1E
330
3E7
100
AcDbEntity
  8
OUTLINE
100
AcDbLine
 10
470.4277001496446
 20
129.9220000000359
 30
0.0
 11
470.4277001496446
 21
130.1218800000033
 31
0.0
  0
LINE
  5
3AD1F
330
3E7
100
AcDbEntity
  8
OUTLINE
100
AcDbLine
 10
470.4277001496446
 20
130.1218800000033
 30
0.0
 11
469.9280001495971
 21
130.1656075701929
 31
0.0
  0
ARC
  5
3AD20
330
3E7
100
AcDbEntity
  8
OUTLINE
100
AcDbCircle
 10
474.9250001498894
 20
144.8751490437398
 30
0.0
 40
4.997000000000452
100
AcDbArc
 50
319.9999999999306
 51
0.0
  0
ARC
  5
3AD21
330
3E7
100
AcDbEntity
  8
OUTLINE
100
AcDbCircle
 10
473.1268983518766
 20
134.6487444252443
 30
0.0
 40
0.2007122517040641
100
AcDbArc
 50
141.9772686021445
 51
180.6779304283594
  0
LINE
  5
3AD22
330
3E7
100
AcDbEntity
  8
OUTLINE
100
AcDbLine
 10
473.2257570926647
 20
135.0761180628969
 30
0.0
 11
472.9687839767938
 21
134.772377965909
 31
0.0
  0
LINE
  5
3AD23
330
3E7
100
AcDbEntity
  8
OUTLINE
100
AcDbLine
 10
472.9262001497718
 20
134.6463696295948
 30
0.0
 11
472.9262001496627
 21
133.2633482032641
 31
0.0
  0
LINE
  5
3AD24
330
3E7
100
AcDbEntity
  8
OUTLINE
100
AcDbLine
 10
473.2257570926647
 20
135.0761180628969
 30
0.0
 11
478.7529242321514
 21
141.663139358131
 31
0.0
  0
LINE
  5
3AD25
330
3E7
100
AcDbEntity
  8
OUTLINE
100
AcDbLine
 10
376.2139201499337
 20
169.4096180704773
 30
0.0
 11
376.2139201499337
 21
166.2002199999905
 31
0.0
  0
LINE
  5
3AD26
330
3E7
100
AcDbEntity
  8
OUTLINE
100
AcDbLine
 10
384.2091201499441
 20
169.4096180704773
 30
0.0
 11
384.2091201499441
 21
166.2002199999905
 31
0.0
  0
LINE
  5
3AD27
330
3E7
100
AcDbEntity
  8
OUTLINE
100
AcDbLine
 10
386.2079201499327
 20
166.2002199999905
 30
0.0
 11
386.2129171499344
 21
164.9009999999988
 31
0.0
  0
LINE
  5
3AD28
330
3E7
100
AcDbEntity
  8
OUTLINE
100
AcDbLine
 10
376.7136201499452
 20
169.6981199999945
 30
0.0
 11
383.709420149933
 21
169.6981199999945
 31
0.0
  0
ARC
  5
3AD29
330
3E7
100
AcDbEntity
  8
OUTLINE
100
AcDbCircle
 10
449.0515358144821
 20
148.221159741316
 30
0.0
 40
31.05126979484039
100
AcDbArc
 50
353.8139321735373
 51
22.9750483286183
  0
LINE
  5
3AD2A
330
3E7
100
AcDbEntity
  8
OUTLINE
100
AcDbLine
 10
397.1285697793309
 20
167.8992000000353
 30
0.0
 11
395.7455483528973
 21
167.8992000000425
 31
0.0
  0
ARC
  5
3AD2B
330
3E7
100
AcDbEntity
  8
OUTLINE
100
AcDbCircle
 10
454.1247869513708
 20
149.0977868016178
 30
0.0
 40
15.80321829597505
100
AcDbArc
 50
0.0460201688621685
 51
89.95397983053562
  0
LINE
  5
3AD2C
330
3E7
100
AcDbEntity
  8
OUTLINE
100
AcDbLine
 10
407.3573762908963
 20
174.8950227373743
 30
0.0
 11
454.7478276421339
 21
174.8950227373743
 31
0.0
  0
LINE
  5
3AE1A
330
3E7
100
AcDbEntity
  8
SIZE
100
AcDbLine
 10
-220.2279998500869
 20
153.3163824761259
 30
0.0
 11
-220.227999850087
 21
250.6607698098341
 31
0.0
  0
LINE
  5
3AE1B
330
3E7
100
AcDbEntity
  8
SIZE
100
AcDbLine
 10
-102.2987998500938
 20
151.8621862287318
 30
0.0
 11
-102.2987998500938
 21
250.6607698098341
 31
0.0
  0
LINE
  5
3AE1C
330
3E7
100
AcDbEntity
  8
SIZE
100
AcDbLine
 10
15.63040014991566
 20
140.915399999717
 30
0.0
 11
15.63040014991565
 21
250.6607698098341
 31
0.0
  0
LINE
  5
3AE1D
330
3E7
100
AcDbEntity
  8
SIZE
100
AcDbLine
 10
133.5596001499087
 20
140.915399999717
 30
0.0
 11
133.5596001499087
 21
250.6607698098341
 31
0.0
  0
LINE
  5
3AE1E
330
3E7
100
AcDbEntity
  8
SIZE
100
AcDbLine
 10
-577.4617197020761
 20
228.5651098965788
 30
0.0
 11
133.5596001499087
 21
228.5651098965788
 31
0.0
  0
CIRCLE
  5
3AE1F
330
3E7
100
AcDbEntity
  8
SIZE
100
AcDbCircle
 10
133.5596001499087
 20
228.5651098965788
 30
0.0
 40
5.0
  0
CIRCLE
  5
3AE20
330
3E7
100
AcDbEntity
  8
SIZE
100
AcDbCircle
 10
15.63040014991571
 20
228.5651098965788
 30
0.0
 40
5.0
  0
CIRCLE
  5
3AE21
330
3E7
100
AcDbEntity
  8
SIZE
100
AcDbCircle
 10
-102.2987998500938
 20
228.5651098965788
 30
0.0
 40
5.0
  0
CIRCLE
  5
3AE22
330
3E7
100
AcDbEntity
  8
SIZE
100
AcDbCircle
 10
-220.227999850087
 20
228.5651098965788
 30
0.0
 40
5.0
  0
CIRCLE
  5
3AE23
330
3E7
100
AcDbEntity
  8
SIZE
100
AcDbCircle
 10
-430.2279998500871
 20
228.5651098965788
 30
0.0
 40
5.0
  0
CIRCLE
  5
3AE24
330
3E7
100
AcDbEntity
  8
SIZE
100
AcDbCircle
 10
-749.2776730060885
 20
-190.0
 30
0.0
 40
5.0
  0
TEXT
  5
3AE25
330
3E7
100
AcDbEntity
  8
SIZE
100
AcDbText
 10
-779.4126730060889
 20
-226.6285714285721
 30
0.0
 40
64.0
  1
25
 50
90.0
 41
0.9
100
AcDbText
  0
TEXT
  5
3AE26
330
3E7
100
AcDbEntity
  8
SIZE
100
AcDbText
 10
-767.8392615265947
 20
-60.00356038121754
 30
0.0
 40
64.0
  1
330
 50
90.0
 41
0.9
100
AcDbText
  0
LINE
  5
3AE27
330
3E7
100
AcDbEntity
  8
SIZE
100
AcDbLine
 10
-749.2776730060885
 20
-155.0
 30
0.0
 11
-749.2776730060885
 21
155.0
 31
0.0
  0
LINE
  5
3AE28
330
3E7
100
AcDbEntity
  8
SIZE
100
AcDbLine
 10
-749.2776730060885
 20
-170.0
 30
0.0
 11
-749.2776730060885
 21
-175.0
 31
0.0
  0
CIRCLE
  5
3AE29
330
3E7
100
AcDbEntity
  8
SIZE
100
AcDbCircle
 10
-749.2776730060885
 20
-165.0
 30
0.0
 40
5.0
  0
LINE
  5
3AE2A
330
3E7
100
AcDbEntity
  8
SIZE
100
AcDbLine
 10
-749.2776730060885
 20
-160.0
 30
0.0
 11
-749.2776730060885
 21
-155.0
 31
0.0
  0
CIRCLE
  5
3AE2B
330
3E7
100
AcDbEntity
  8
SIZE
100
AcDbCircle
 10
-749.2776730060885
 20
-165.0
 30
0.0
 40
5.0
  0
LINE
  5
3AE2C
330
3E7
100
AcDbEntity
  8
SIZE
100
AcDbLine
 10
-749.2776730060885
 20
-175.0
 30
0.0
 11
-749.2776730060885
 21
-185.0
 31
0.0
  0
LINE
  5
3AE2D
330
3E7
100
AcDbEntity
  8
SIZE
100
AcDbLine
 10
-749.2776730060885
 20
160.0
 30
0.0
 11
-749.2776730060885
 21
155.0
 31
0.0
  0
CIRCLE
  5
3AE2E
330
3E7
100
AcDbEntity
  8
SIZE
100
AcDbCircle
 10
-749.2776730060885
 20
165.0
 30
0.0
 40
5.0
  0
LINE
  5
3AE2F
330
3E7
100
AcDbEntity
  8
SIZE
100
AcDbLine
 10
-453.8540082835443
 20
-11.0
 30
0.0
 11
-648.4950992414451
 21
-11.0
 31
0.0
  0
LINE
  5
3AE30
330
3E7
100
AcDbEntity
  8
SIZE
100
AcDbLine
 10
-430.2279998500869
 20
11.60074352947502
 30
0.0
 11
-430.2279998500869
 21
250.6607698098341
 31
0.0
  0
LINE
  5
3AE31
330
3E7
100
AcDbEntity
  8
DETAIL
100
AcDbLine
 10
-413.7378998500865
 20
-11.0
 30
0.0
 11
-446.7180998500875
 21
-11.0
 31
0.0
  0
CIRCLE
  5
3AE32
330
3E7
100
AcDbEntity
  8
DETAIL
100
AcDbCircle
 10
-430.2279998500869
 20
-11.0
 30
0.0
 40
16.49010000000048
  0
LINE
  5
3AE33
330
3E7
100
AcDbEntity
  8
DETAIL
100
AcDbLine
 10
-430.2279998500869
 20
-27.49010000000088
 30
0.0
 11
-430.2279998500869
 21
5.490100000000894
 31
0.0
  0
CIRCLE
  5
3AE34
330
3E7
100
AcDbEntity
  8
SIZE
100
AcDbCircle
 10
-617.7608357658409
 20
-11.0
 30
0.0
 40
5.0
  0
TEXT
  5
3AE35
330
3E7
100
AcDbEntity
  8
SIZE
100
AcDbText
 10
-636.3224242863471
 20
-164.1726634494434
 30
0.0
 40
64.0
  1
154
 50
90.0
 41
0.9
100
AcDbText
  0
TEXT
  5
3AE38
330
3E7
100
AcDbEntity
  8
SIZE
100
AcDbText
 10
-399.1379479983844
 20
240.1834616055594
 30
0.0
 40
64.0
  1
210
 41
0.9
100
AcDbText
  0
TEXT
  5
3AE39
330
3E7
100
AcDbEntity
  8
SIZE
100
AcDbText
 10
-228.6159882647772
 20
244.1704631464153
 30
0.0
 40
64.0
  1
118
 41
0.9
100
AcDbText
  0
TEXT
  5
3AE3A
330
3E7
100
AcDbEntity
  8
SIZE
100
AcDbText
 10
-104.962633582649
 20
242.1769623759873
 30
0.0
 40
64.0
  1
118
 41
0.9
100
AcDbText
  0
TEXT
  5
3AE3B
330
3E7
100
AcDbEntity
  8
SIZE
100
AcDbText
 10
23.67673446806633
 20
241.1802119907732
 30
0.0
 40
64.0
  1
118
 41
0.9
100
AcDbText
  0
LINE
  5
3AE68
330
3E7
100
AcDbEntity
  8
NOTE
  6
CONTINUOUS
100
AcDbLine
 10
139.496756691313
 20
140.3091987182905
 30
0.0
 11
345.494376812927
 21
674.0849624580063
 31
0.0
  0
TEXT
  5
3AE69
330
3E7
100
AcDbEntity
  8
NOTE
  6
CONTINUOUS
100
AcDbText
 10
362.1507695657458
 20
693.8043227793406
 30
0.0
 40
64.0
  1
D 5-%%c33
 41
0.9
100
AcDbText
  0
LINE
  5
3AE6A
330
3E7
100
AcDbEntity
  8
NOTE
  6
CONTINUOUS
100
AcDbLine
 10
745.2180557782762
 20
674.3616638796948
 30
0.0
 11
345.494376812927
 21
674.0849624580063
 31
0.0
  0
LWPOLYLINE
  5
3AE6B
330
3E7
100
AcDbEntity
  8
NOTE
  6
CONTINUOUS
100
AcDbPolyline
 90
        3
 70
     0
 43
0.0
 10
144.0539343370931
 20
180.0487526836079
 10
139.496756691313
 20
140.3091987182905
 10
163.3131647970424
 20
172.4460733098232
  0
LINE
  5
3AEB4
330
3E7
100
AcDbEntity
  8
SIZE
100
AcDbLine
 10
-243.6074319292925
 20
124.9249999997072
 30
0.0
 11
-647.7552469450037
 21
124.9249999997072
 31
0.0
  0
CIRCLE
  5
3AF4B
330
3E7
100
AcDbEntity
  8
SIZE
100
AcDbCircle
 10
-479.7119998501251
 20
228.5651098965788
 30
0.0
 40
5.0
  0
TEXT
  5
3AF4C
330
3E7
100
AcDbEntity
  8
SIZE
100
AcDbText
 10
-645.7478678347943
 20
237.7907712086261
 30
0.0
 40
64.0
  1
50
 41
0.9
100
AcDbText
  0
ENDSEC
  0
SECTION
  2
OBJECTS
  0
DICTIONARY
  5
3D5
330
0
100
AcDbDictionary
  3
ACAD_GROUP
350
3D6
  3
ACAD_LAYOUT
350
3E2
  3
ACAD_MLINESTYLE
350
3DF
  3
ACAD_PLOTSETTINGS
350
3E1
  3
ACAD_PLOTSTYLENAME
350
3D7
  3
ACDBHEADERROUNDTRIPXREC
350
3AF72
  0
DICTIONARY
  5
3ADEE
330
3E7
100
AcDbDictionary
280
     1
  3
ACAD_LAYOUTSELFREF
360
3AF94
  0
DICTIONARY
  5
3ADEC
330
3E3
100
AcDbDictionary
280
     1
  3
ACAD_LAYOUTSELFREF
360
3AF93
  0
DICTIONARY
  5
3D6
102
{ACAD_REACTORS
330
3D5
102
}
330
3D5
100
AcDbDictionary
  0
DICTIONARY
  5
3E2
102
{ACAD_REACTORS
330
3D5
102
}
330
3D5
100
AcDbDictionary
  0
DICTIONARY
  5
3DF
102
{ACAD_REACTORS
330
3D5
102
}
330
3D5
100
AcDbDictionary
  3
STANDARD
350
3E0
  0
DICTIONARY
  5
3E1
102
{ACAD_REACTORS
330
3D5
102
}
330
3D5
100
AcDbDictionary
  0
ACDBDICTIONARYWDFLT
  5
3D7
102
{ACAD_REACTORS
330
3D5
102
}
330
3D5
100
AcDbDictionary
281
     1
  3
Normal
350
3D8
100
AcDbDictionaryWithDefault
340
3D8
  0
DICTIONARY
  5
3AF72
102
{ACAD_REACTORS
330
3D5
102
}
330
3D5
100
AcDbDictionary
  3
CEPSNTYPE
350
3AF7C
  3
DIMSTYLEDATA
350
3AF80
  3
FINGERPRINTGUID
350
3AF7D
  3
HYPERLINKBASE
350
3AF75
  3
INSUNITS
350
3AF7B
  3
LAYOUTDICT
350
3AF77
  3
LWETCUNION
350
3AF7A
  3
PLOTSETDICT
350
3AF78
  3
PLOTSTYLNAMDICT
350
3AF79
  3
PSVPSCALE
350
3AF7F
  3
PUCSBASE
350
3AF83
  3
PUCSORGBACK
350
3AF89
  3
PUCSORGBOTTOM
350
3AF85
  3
PUCSORGFRONT
350
3AF88
  3
PUCSORGLEFT
350
3AF86
  3
PUCSORGRIGHT
350
3AF87
  3
PUCSORGTOP
350
3AF84
  3
PUCSORTHOREF
350
3AF81
  3
PUCSORTHOVIEW
350
3AF82
  3
STYLESHEET
350
3AF76
  3
TSTACKALIGN
350
3AF73
  3
TSTACKSIZE
350
3AF74
  3
UCSBASE
350
3AF8C
  3
UCSORGBACK
350
3AF92
  3
UCSORGBOTTOM
350
3AF8E
  3
UCSORGFRONT
350
3AF91
  3
UCSORGLEFT
350
3AF8F
  3
UCSORGRIGHT
350
3AF90
  3
UCSORGTOP
350
3AF8D
  3
UCSORTHOREF
350
3AF8A
  3
UCSORTHOVIEW
350
3AF8B
  3
VERSIONGUID
350
3AF7E
  0
XRECORD
  5
3AF94
102
{ACAD_REACTORS
330
3ADEE
102
}
330
3ADEE
100
AcDbXrecord
340
3E7
  0
XRECORD
  5
3AF93
102
{ACAD_REACTORS
330
3ADEC
102
}
330
3ADEC
100
AcDbXrecord
340
3E3
  0
MLINESTYLE
  5
3E0
102
{ACAD_REACTORS
330
3DF
102
}
330
3DF
100
AcDbMlineStyle
  2
STANDARD
 70
     0
  3

 62
   256
 51
90.0
 52
90.0
 71
     2
 49
0.5
 62
   256
  6
BYLAYER
 49
-0.5
 62
   256
  6
BYLAYER
  0
ACDBPLACEHOLDER
  5
3D8
102
{ACAD_REACTORS
330
3D7
102
}
330
3D7
100
AcDbPlaceHolder
280
     0
  0
XRECORD
  5
3AF7C
102
{ACAD_REACTORS
330
3AF72
102
}
330
3AF72
100
AcDbXrecord
 90
        0
  0
XRECORD
  5
3AF80
102
{ACAD_REACTORS
330
3AF72
102
}
330
3AF72
100
AcDbXrecord
1000
DSTYLE
1002
{
1070
   341
340
4A9
1070
   342
340
4A9
1002
}
  0
XRECORD
  5
3AF7D
102
{ACAD_REACTORS
330
3AF72
102
}
330
3AF72
100
AcDbXrecord
  1
{D2272796-D80D-4ABD-900F-0E7B08E93DCD}
  0
XRECORD
  5
3AF75
102
{ACAD_REACTORS
330
3AF72
102
}
330
3AF72
100
AcDbXrecord
  1

  0
XRECORD
  5
3AF7B
102
{ACAD_REACTORS
330
3AF72
102
}
330
3AF72
100
AcDbXrecord
 90
        0
  0
XRECORD
  5
3AF77
102
{ACAD_REACTORS
330
3AF72
102
}
330
3AF72
100
AcDbXrecord
340
3E2
  0
XRECORD
  5
3AF7A
102
{ACAD_REACTORS
330
3AF72
102
}
330
3AF72
100
AcDbXrecord
 90
    10781
  0
XRECORD
  5
3AF78
102
{ACAD_REACTORS
330
3AF72
102
}
330
3AF72
100
AcDbXrecord
340
3E1
  0
XRECORD
  5
3AF79
102
{ACAD_REACTORS
330
3AF72
102
}
330
3AF72
100
AcDbXrecord
340
3D7
  0
XRECORD
  5
3AF7F
102
{ACAD_REACTORS
330
3AF72
102
}
330
3AF72
100
AcDbXrecord
 40
0.0
  0
XRECORD
  5
3AF83
102
{ACAD_REACTORS
330
3AF72
102
}
330
3AF72
100
AcDbXrecord
340
0
  0
XRECORD
  5
3AF89
102
{ACAD_REACTORS
330
3AF72
102
}
330
3AF72
100
AcDbXrecord
 10
0.0
 20
0.0
 30
0.0
  0
XRECORD
  5
3AF85
102
{ACAD_REACTORS
330
3AF72
102
}
330
3AF72
100
AcDbXrecord
 10
0.0
 20
0.0
 30
0.0
  0
XRECORD
  5
3AF88
102
{ACAD_REACTORS
330
3AF72
102
}
330
3AF72
100
AcDbXrecord
 10
0.0
 20
0.0
 30
0.0
  0
XRECORD
  5
3AF86
102
{ACAD_REACTORS
330
3AF72
102
}
330
3AF72
100
AcDbXrecord
 10
0.0
 20
0.0
 30
0.0
  0
XRECORD
  5
3AF87
102
{ACAD_REACTORS
330
3AF72
102
}
330
3AF72
100
AcDbXrecord
 10
0.0
 20
0.0
 30
0.0
  0
XRECORD
  5
3AF84
102
{ACAD_REACTORS
330
3AF72
102
}
330
3AF72
100
AcDbXrecord
 10
0.0
 20
0.0
 30
0.0
  0
XRECORD
  5
3AF81
102
{ACAD_REACTORS
330
3AF72
102
}
330
3AF72
100
AcDbXrecord
340
0
  0
XRECORD
  5
3AF82
102
{ACAD_REACTORS
330
3AF72
102
}
330
3AF72
100
AcDbXrecord
 70
     0
  0
XRECORD
  5
3AF76
102
{ACAD_REACTORS
330
3AF72
102
}
330
3AF72
100
AcDbXrecord
  1

  0
XRECORD
  5
3AF73
102
{ACAD_REACTORS
330
3AF72
102
}
330
3AF72
100
AcDbXrecord
 90
        1
  0
XRECORD
  5
3AF74
102
{ACAD_REACTORS
330
3AF72
102
}
330
3AF72
100
AcDbXrecord
 90
       70
  0
XRECORD
  5
3AF8C
102
{ACAD_REACTORS
330
3AF72
102
}
330
3AF72
100
AcDbXrecord
340
0
  0
XRECORD
  5
3AF92
102
{ACAD_REACTORS
330
3AF72
102
}
330
3AF72
100
AcDbXrecord
 10
0.0
 20
0.0
 30
0.0
  0
XRECORD
  5
3AF8E
102
{ACAD_REACTORS
330
3AF72
102
}
330
3AF72
100
AcDbXrecord
 10
0.0
 20
0.0
 30
0.0
  0
XRECORD
  5
3AF91
102
{ACAD_REACTORS
330
3AF72
102
}
330
3AF72
100
AcDbXrecord
 10
0.0
 20
0.0
 30
0.0
  0
XRECORD
  5
3AF8F
102
{ACAD_REACTORS
330
3AF72
102
}
330
3AF72
100
AcDbXrecord
 10
0.0
 20
0.0
 30
0.0
  0
XRECORD
  5
3AF90
102
{ACAD_REACTORS
330
3AF72
102
}
330
3AF72
100
AcDbXrecord
 10
0.0
 20
0.0
 30
0.0
  0
XRECORD
  5
3AF8D
102
{ACAD_REACTORS
330
3AF72
102
}
330
3AF72
100
AcDbXrecord
 10
0.0
 20
0.0
 30
0.0
  0
XRECORD
  5
3AF8A
102
{ACAD_REACTORS
330
3AF72
102
}
330
3AF72
100
AcDbXrecord
340
0
  0
XRECORD
  5
3AF8B
102
{ACAD_REACTORS
330
3AF72
102
}
330
3AF72
100
AcDbXrecord
 70
     0
  0
XRECORD
  5
3AF7E
102
{ACAD_REACTORS
330
3AF72
102
}
330
3AF72
100
AcDbXrecord
  1
{143956B9-B25E-46F6-AD35-774DEE83ED65}
  0
ENDSEC
  0
EOF
