  0
SECTION
  2
HEADER
  9
$ACADVER
  1
AC1014
  9
$ACADMAINTVER
 70
     9
  9
$DWGCODEPAGE
  3
ANSI_932
  9
$INSBASE
 10
0.0
 20
0.0
 30
0.0
  9
$EXTMIN
 10
-996.5583914887451
 20
-498.4758315525781
 30
0.0
  9
$EXTMAX
 10
944.0713526474738
 20
1847.332757676558
 30
0.0
  9
$LIMMIN
 10
-1743.269977744628
 20
-838.3842764017135
  9
$LIMMAX
 10
1409.778393274489
 20
2174.532448989153
  9
$ORTHOMODE
 70
     1
  9
$REGENMODE
 70
     1
  9
$FILLMODE
 70
     1
  9
$QTEXTMODE
 70
     0
  9
$MIRRTEXT
 70
     0
  9
$DRAGMODE
 70
     2
  9
$LTSCALE
 40
20.0
  9
$OSMODE
 70
    39
  9
$ATTMODE
 70
     1
  9
$TEXTSIZE
 40
64.0
  9
$TRACEWID
 40
0.05
  9
$TEXTSTYLE
  7
STANDARD
  9
$CLAYER
  8
DETAIL
  9
$CELTYPE
  6
BYLAYER
  9
$CECOLOR
 62
   256
  9
$CELTSCALE
 40
1.0
  9
$DELOBJ
 70
     1
  9
$DISPSILH
 70
     0
  9
$DIMSCALE
 40
1.0
  9
$DIMASZ
 40
10.0
  9
$DIMEXO
 40
20.0
  9
$DIMDLI
 40
200.0
  9
$DIMRND
 40
0.0
  9
$DIMDLE
 40
0.0
  9
$DIMEXE
 40
30.0
  9
$DIMTP
 40
0.0
  9
$DIMTM
 40
0.0
  9
$DIMTXT
 40
64.0
  9
$DIMCEN
 40
0.09
  9
$DIMTSZ
 40
0.0
  9
$DIMTOL
 70
     0
  9
$DIMLIM
 70
     0
  9
$DIMTIH
 70
     0
  9
$DIMTOH
 70
     0
  9
$DIMSE1
 70
     0
  9
$DIMSE2
 70
     0
  9
$DIMTAD
 70
     1
  9
$DIMZIN
 70
     8
  9
$DIMBLK
  1
ORIGIN
  9
$DIMASO
 70
     1
  9
$DIMSHO
 70
     0
  9
$DIMPOST
  1

  9
$DIMAPOST
  1

  9
$DIMALT
 70
     0
  9
$DIMALTD
 70
     2
  9
$DIMALTF
 40
25.4
  9
$DIMLFAC
 40
1.0
  9
$DIMTOFL
 70
     1
  9
$DIMTVP
 40
0.0
  9
$DIMTIX
 70
     0
  9
$DIMSOXD
 70
     0
  9
$DIMSAH
 70
     0
  9
$DIMBLK1
  1

  9
$DIMBLK2
  1

  9
$DIMSTYLE
  2
STANDARD
  9
$DIMCLRD
 70
     0
  9
$DIMCLRE
 70
     0
  9
$DIMCLRT
 70
     0
  9
$DIMTFAC
 40
1.0
  9
$DIMGAP
 40
20.0
  9
$DIMJUST
 70
     0
  9
$DIMSD1
 70
     0
  9
$DIMSD2
 70
     0
  9
$DIMTOLJ
 70
     1
  9
$DIMTZIN
 70
     0
  9
$DIMALTZ
 70
     0
  9
$DIMALTTZ
 70
     0
  9
$DIMFIT
 70
     3
  9
$DIMUPT
 70
     0
  9
$DIMUNIT
 70
     2
  9
$DIMDEC
 70
     4
  9
$DIMTDEC
 70
     4
  9
$DIMALTU
 70
     2
  9
$DIMALTTD
 70
     2
  9
$DIMTXSTY
  7
STANDARD
  9
$DIMAUNIT
 70
     0
  9
$LUNITS
 70
     2
  9
$LUPREC
 70
     4
  9
$SKETCHINC
 40
0.1
  9
$FILLETRAD
 40
6.0
  9
$AUNITS
 70
     1
  9
$AUPREC
 70
     3
  9
$MENU
  1
ACAD
  9
$ELEVATION
 40
0.0
  9
$PELEVATION
 40
0.0
  9
$THICKNESS
 40
0.0
  9
$LIMCHECK
 70
     0
  9
$BLIPMODE
 70
     0
  9
$CHAMFERA
 40
0.0
  9
$CHAMFERB
 40
0.0
  9
$CHAMFERC
 40
0.0
  9
$CHAMFERD
 40
0.0
  9
$SKPOLY
 70
     0
  9
$TDCREATE
 40
2450330.393205995
  9
$TDUPDATE
 40
2456737.432132882
  9
$TDINDWG
 40
1.1664238194
  9
$TDUSRTIMER
 40
1.1664237037
  9
$USRTIMER
 70
     1
  9
$ANGBASE
 50
0.0
  9
$ANGDIR
 70
     0
  9
$PDMODE
 70
     3
  9
$PDSIZE
 40
-2.0
  9
$PLINEWID
 40
0.0
  9
$COORDS
 70
     2
  9
$SPLFRAME
 70
     0
  9
$SPLINETYPE
 70
     6
  9
$SPLINESEGS
 70
     8
  9
$ATTDIA
 70
     0
  9
$ATTREQ
 70
     1
  9
$HANDLING
 70
-16383
  9
$HANDSEED
  5
16C54
  9
$SURFTAB1
 70
     6
  9
$SURFTAB2
 70
     6
  9
$SURFTYPE
 70
     6
  9
$SURFU
 70
     6
  9
$SURFV
 70
     6
  9
$UCSNAME
  2

  9
$UCSORG
 10
0.0
 20
0.0
 30
0.0
  9
$UCSXDIR
 10
1.0
 20
0.0
 30
0.0
  9
$UCSYDIR
 10
0.0
 20
1.0
 30
0.0
  9
$PUCSNAME
  2

  9
$PUCSORG
 10
0.0
 20
0.0
 30
0.0
  9
$PUCSXDIR
 10
1.0
 20
0.0
 30
0.0
  9
$PUCSYDIR
 10
0.0
 20
1.0
 30
0.0
  9
$USERI1
 70
     0
  9
$USERI2
 70
     0
  9
$USERI3
 70
     0
  9
$USERI4
 70
     0
  9
$USERI5
 70
     0
  9
$USERR1
 40
20.0
  9
$USERR2
 40
0.0
  9
$USERR3
 40
0.0
  9
$USERR4
 40
0.0
  9
$USERR5
 40
0.0
  9
$WORLDVIEW
 70
     1
  9
$SHADEDGE
 70
     3
  9
$SHADEDIF
 70
    70
  9
$TILEMODE
 70
     1
  9
$MAXACTVP
 70
    64
  9
$PINSBASE
 10
0.0
 20
0.0
 30
0.0
  9
$PLIMCHECK
 70
     0
  9
$PEXTMIN
 10
1.000000000000000E+20
 20
1.000000000000000E+20
 30
1.000000000000000E+20
  9
$PEXTMAX
 10
-1.000000000000000E+20
 20
-1.000000000000000E+20
 30
-1.000000000000000E+20
  9
$PLIMMIN
 10
0.0
 20
0.0
  9
$PLIMMAX
 10
12.0
 20
9.0
  9
$UNITMODE
 70
     0
  9
$VISRETAIN
 70
     1
  9
$PLINEGEN
 70
     0
  9
$PSLTSCALE
 70
     1
  9
$TREEDEPTH
 70
  3020
  9
$PICKSTYLE
 70
     1
  9
$CMLSTYLE
  2
STANDARD
  9
$CMLJUST
 70
     0
  9
$CMLSCALE
 40
1.0
  9
$PROXYGRAPHICS
 70
     1
  9
$MEASUREMENT
 70
     0
  0
ENDSEC
  0
SECTION
  2
CLASSES
  0
CLASS
  1
ACDBDICTIONARYWDFLT
  2
AcDbDictionaryWithDefault
  3
AutoCAD 2000
 90
        0
280
     0
281
     0
  0
CLASS
  1
ACDBPLACEHOLDER
  2
AcDbPlaceHolder
  3
AutoCAD 2000
 90
        0
280
     0
281
     0
  0
CLASS
  1
LAYOUT
  2
AcDbLayout
  3
AutoCAD 2000
 90
        0
280
     0
281
     0
  0
CLASS
  1
LONG_TRANSACTION
  2
AcDbLongTransaction
  3
AutoCAD 2000
 90
        0
280
     0
281
     0
  0
CLASS
  1
LWPOLYLINE
  2
AcDbPolyline
  3
AutoCAD 2000
 90
        0
280
     0
281
     1
  0
CLASS
  1
HATCH
  2
AcDbHatch
  3
AutoCAD 2000
 90
        0
280
     0
281
     1
  0
CLASS
  1
XRECORD
  2
AcDbXrecord
  3
AutoCAD 2000
 90
        0
280
     0
281
     0
  0
CLASS
  1
LONG_TRANSACTION
  2
AcDbLongTransaction
  3
AutoCAD 2000
 90
        0
280
     0
281
     0
  0
CLASS
  1
LWPOLYLINE
  2
AcDbPolyline
  3
AutoCAD 2000
 90
        0
280
     0
281
     1
  0
CLASS
  1
HATCH
  2
AcDbHatch
  3
AutoCAD 2000
 90
        0
280
     0
281
     1
  0
CLASS
  1
XRECORD
  2
AcDbXrecord
  3
AutoCAD 2000
 90
        0
280
     0
281
     0
  0
CLASS
  1
LONG_TRANSACTION
  2
AcDbLongTransaction
  3
AutoCAD 2000
 90
        0
280
     0
281
     0
  0
CLASS
  1
LWPOLYLINE
  2
AcDbPolyline
  3
AutoCAD 2000
 90
        0
280
     0
281
     1
  0
CLASS
  1
HATCH
  2
AcDbHatch
  3
AutoCAD 2000
 90
        0
280
     0
281
     1
  0
CLASS
  1
XRECORD
  2
AcDbXrecord
  3
AutoCAD 2000
 90
        0
280
     0
281
     0
  0
CLASS
  1
LONG_TRANSACTION
  2
AcDbLongTransaction
  3
AutoCAD 2000
 90
        0
280
     0
281
     0
  0
CLASS
  1
LWPOLYLINE
  2
AcDbPolyline
  3
AutoCAD 2000
 90
        0
280
     0
281
     1
  0
CLASS
  1
HATCH
  2
AcDbHatch
  3
AutoCAD 2000
 90
        0
280
     0
281
     1
  0
CLASS
  1
XRECORD
  2
AcDbXrecord
  3
AutoCAD 2000
 90
        0
280
     0
281
     0
  0
CLASS
  1
LONG_TRANSACTION
  2
AcDbLongTransaction
  3
AutoCAD 2000
 90
        0
280
     0
281
     0
  0
CLASS
  1
LWPOLYLINE
  2
AcDbPolyline
  3
AutoCAD 2000
 90
        0
280
     0
281
     1
  0
CLASS
  1
HATCH
  2
AcDbHatch
  3
AutoCAD 2000
 90
        0
280
     0
281
     1
  0
CLASS
  1
XRECORD
  2
AcDbXrecord
  3
AutoCAD 2000
 90
        0
280
     0
281
     0
  0
ENDSEC
  0
SECTION
  2
TABLES
  0
TABLE
  2
VPORT
  5
3D1
330
0
100
AcDbSymbolTable
 70
     2
  0
VPORT
  5
16C30
330
3D1
100
AcDbSymbolTableRecord
100
AcDbViewportTableRecord
  2
*ACTIVE
 70
     0
 10
0.0
 20
0.0
 11
1.0
 21
1.0
 12
9.748889954963487
 22
497.1107686350337
 13
0.0
 23
0.0
 14
50.0
 24
50.0
 15
100.0
 25
100.0
 16
0.0
 26
0.0
 36
1.0
 17
0.0
 27
0.0
 37
0.0
 40
3163.717679652948
 41
1.56020278833967
 42
50.0
 43
0.0
 44
0.0
 50
0.0
 51
0.0
 71
     0
 72
   500
 73
     1
 74
     0
 75
     0
 76
     0
 77
     0
 78
     0
  0
ENDTAB
  0
TABLE
  2
LTYPE
  5
3CE
330
0
100
AcDbSymbolTable
 70
     5
  0
LTYPE
  5
3DC
330
3CE
100
AcDbSymbolTableRecord
100
AcDbLinetypeTableRecord
  2
BYBLOCK
 70
     0
  3

 72
    65
 73
     0
 40
0.0
  0
LTYPE
  5
3DD
330
3CE
100
AcDbSymbolTableRecord
100
AcDbLinetypeTableRecord
  2
BYLAYER
 70
     0
  3

 72
    65
 73
     0
 40
0.0
  0
LTYPE
  5
3DE
330
3CE
100
AcDbSymbolTableRecord
100
AcDbLinetypeTableRecord
  2
CONTINUOUS
 70
     0
  3
実線
 72
    65
 73
     0
 40
0.0
  0
LTYPE
  5
3ED
330
3CE
100
AcDbSymbolTableRecord
100
AcDbLinetypeTableRecord
  2
DASHDOT
 70
     0
  3
____ _ ____ _ ____ _ ____ _ ____ _ ____ _ ____
 72
    65
 73
     4
 40
5.5
 49
4.0
 74
     0
 49
-0.6
 74
     0
 49
0.3
 74
     0
 49
-0.6
 74
     0
  0
LTYPE
  5
3EE
330
3CE
100
AcDbSymbolTableRecord
100
AcDbLinetypeTableRecord
  2
CONTINOUS
 70
     0
  3
Solid line
 72
    65
 73
     0
 40
0.0
  0
LTYPE
  5
26A7
330
3CE
100
AcDbSymbolTableRecord
100
AcDbLinetypeTableRecord
  2
DOT_CENTER
 70
     0
  3
Dot_Center
 72
    65
 73
     4
 40
14.0
 49
12.0
 74
     0
 49
-1.0
 74
     0
 49
0.0
 74
     0
 49
-1.0
 74
     0
  0
LTYPE
  5
26A8
330
3CE
100
AcDbSymbolTableRecord
100
AcDbLinetypeTableRecord
  2
PHANTOM
 70
     0
  3
Phantom
 72
    65
 73
     6
 40
13.0
 49
10.0
 74
     0
 49
-1.0
 74
     0
 49
0.0
 74
     0
 49
-1.0
 74
     0
 49
0.0
 74
     0
 49
-1.0
 74
     0
  0
ENDTAB
  0
TABLE
  2
LAYER
  5
3CB
330
0
100
AcDbSymbolTable
 70
    11
  0
LAYER
  5
3D9
330
3CB
100
AcDbSymbolTableRecord
100
AcDbLayerTableRecord
  2
0
 70
     0
 62
     7
  6
CONTINUOUS
  0
LAYER
  5
3EB
330
3CB
100
AcDbSymbolTableRecord
100
AcDbLayerTableRecord
  2
SIZE
 70
     0
 62
    32
  6
CONTINUOUS
  0
LAYER
  5
3F4
330
3CB
100
AcDbSymbolTableRecord
100
AcDbLayerTableRecord
  2
DETAIL
 70
     0
 62
     5
  6
CONTINUOUS
  0
LAYER
  5
3F5
330
3CB
100
AcDbSymbolTableRecord
100
AcDbLayerTableRecord
  2
OUTLINE
 70
     0
 62
     3
  6
CONTINUOUS
  0
LAYER
  5
3F6
330
3CB
100
AcDbSymbolTableRecord
100
AcDbLayerTableRecord
  2
BASIS
 70
     0
 62
     6
  6
CONTINUOUS
  0
LAYER
  5
3F7
330
3CB
100
AcDbSymbolTableRecord
100
AcDbLayerTableRecord
  2
NOTE
 70
     0
 62
     4
  6
CONTINUOUS
  0
LAYER
  5
3F8
330
3CB
100
AcDbSymbolTableRecord
100
AcDbLayerTableRecord
  2
ARRANGE
 70
     0
 62
     1
  6
CONTINUOUS
  0
LAYER
  5
3F9
330
3CB
100
AcDbSymbolTableRecord
100
AcDbLayerTableRecord
  2
FIX
 70
     0
 62
   241
  6
CONTINUOUS
  0
LAYER
  5
3FA
330
3CB
100
AcDbSymbolTableRecord
100
AcDbLayerTableRecord
  2
ETC
 70
     0
 62
    83
  6
CONTINUOUS
  0
LAYER
  5
3FB
330
3CB
100
AcDbSymbolTableRecord
100
AcDbLayerTableRecord
  2
SERVICESPACE
 70
     0
 62
     2
  6
DASHDOT
  0
LAYER
  5
3FD
330
3CB
100
AcDbSymbolTableRecord
100
AcDbLayerTableRecord
  2
DEFPOINTS
 70
     0
 62
     7
  6
CONTINUOUS
  0
ENDTAB
  0
TABLE
  2
STYLE
  5
3CC
330
0
100
AcDbSymbolTable
 70
     1
  0
STYLE
  5
3DA
330
3CC
100
AcDbSymbolTableRecord
100
AcDbTextStyleTableRecord
  2
STANDARD
 70
     0
 40
0.0
 41
0.9
 50
0.0
 71
     0
 42
64.0
  3
SIMPLEX
  4
BIGFONT
  0
ENDTAB
  0
TABLE
  2
VIEW
  5
3CF
330
0
100
AcDbSymbolTable
 70
     1
  0
VIEW
  5
3FF
330
3CF
100
AcDbSymbolTableRecord
100
AcDbViewTableRecord
  2
ALL
 70
     0
 40
4282.62
 10
0.0
 20
41.30990399999999
 41
5940.0
 11
0.0
 21
0.0
 31
1.0
 12
0.0
 22
0.0
 32
0.0
 42
50.0
 43
0.0
 44
0.0
 50
0.0
 71
     0
  0
ENDTAB
  0
TABLE
  2
UCS
  5
3D0
330
0
100
AcDbSymbolTable
 70
     0
  0
ENDTAB
  0
TABLE
  2
APPID
  5
3D2
330
0
100
AcDbSymbolTable
 70
     1
  0
APPID
  5
3DB
330
3D2
100
AcDbSymbolTableRecord
100
AcDbRegAppTableRecord
  2
ACAD
 70
     0
  0
ENDTAB
  0
TABLE
  2
DIMSTYLE
  5
3D3
330
0
100
AcDbSymbolTable
 70
     1
  0
DIMSTYLE
105
400
330
3D3
100
AcDbSymbolTableRecord
100
AcDbDimStyleTableRecord
  2
STANDARD
 70
     0
  3

  4

  5

  6

  7

 40
1.0
 41
0.18
 42
0.0625
 43
0.38
 44
0.18
 45
0.0
 46
0.0
 47
0.0
 48
0.0
140
0.18
141
0.09
142
0.0
143
25.4
144
1.0
145
0.0
146
1.0
147
0.09
 71
     0
 72
     0
 73
     1
 74
     1
 75
     0
 76
     0
 77
     0
 78
     0
170
     0
171
     2
172
     0
173
     0
174
     0
175
     0
176
     0
177
     0
178
     0
270
     2
271
     4
272
     4
273
     2
274
     2
340
3DA
275
     1
280
     0
281
     0
282
     0
283
     1
284
     8
285
     8
286
     8
287
     3
288
     0
  0
ENDTAB
  0
TABLE
  2
BLOCK_RECORD
  5
3CA
330
0
100
AcDbSymbolTable
 70
     1
  0
BLOCK_RECORD
  5
3E7
102
{ACAD_XDICTIONARY
360
16A50
102
}
330
3CA
100
AcDbSymbolTableRecord
100
AcDbBlockTableRecord
  2
*MODEL_SPACE
  0
BLOCK_RECORD
  5
3E3
102
{ACAD_XDICTIONARY
360
16A4E
102
}
330
3CA
100
AcDbSymbolTableRecord
100
AcDbBlockTableRecord
  2
*PAPER_SPACE
  0
BLOCK_RECORD
  5
4A9
330
3CA
100
AcDbSymbolTableRecord
100
AcDbBlockTableRecord
  2
_ORIGIN
  0
ENDTAB
  0
ENDSEC
  0
SECTION
  2
BLOCKS
  0
BLOCK
  5
3E8
330
3E7
100
AcDbEntity
  8
0
100
AcDbBlockBegin
  2
*MODEL_SPACE
 70
     0
 10
0.0
 20
0.0
 30
0.0
  3
*MODEL_SPACE
  1

  0
ENDBLK
  5
3E9
330
3E7
100
AcDbEntity
  8
0
100
AcDbBlockEnd
  0
BLOCK
  5
3E4
330
3E3
100
AcDbEntity
 67
     1
  8
0
100
AcDbBlockBegin
  2
*PAPER_SPACE
 70
     0
 10
0.0
 20
0.0
 30
0.0
  3
*PAPER_SPACE
  1

  0
ENDBLK
  5
3E5
330
3E3
100
AcDbEntity
 67
     1
  8
0
100
AcDbBlockEnd
  0
BLOCK
  5
4AA
330
4A9
100
AcDbEntity
  8
0
100
AcDbBlockBegin
  2
_ORIGIN
 70
     0
 10
0.0
 20
0.0
 30
0.0
  3
_ORIGIN
  1

  0
CIRCLE
  5
4AB
330
4A9
100
AcDbEntity
  8
0
  6
BYBLOCK
 62
     0
100
AcDbCircle
 10
0.0
 20
0.0
 30
0.0
 40
0.5
  0
LINE
  5
4AC
330
4A9
100
AcDbEntity
  8
0
  6
BYBLOCK
 62
     0
100
AcDbLine
 10
0.0
 20
0.0
 30
0.0
 11
-1.0
 21
0.0
 31
0.0
  0
ENDBLK
  5
4AD
330
4A9
100
AcDbEntity
  8
0
100
AcDbBlockEnd
  0
ENDSEC
  0
SECTION
  2
ENTITIES
  0
LINE
  5
ED9
330
3E7
100
AcDbEntity
  8
NOTE
  6
CONTINUOUS
100
AcDbLine
 10
184.7414539652806
 20
652.9648165648266
 30
0.0
 11
-131.9999999999998
 21
510.0000152587926
 31
0.0
  0
LINE
  5
EDA
330
3E7
100
AcDbEntity
  8
NOTE
  6
CONTINUOUS
100
AcDbLine
 10
232.047526088036
 20
284.7797185202571
 30
0.0
 11
-108.9999992164939
 21
426.0000305175831
 31
0.0
  0
LINE
  5
EDB
330
3E7
100
AcDbEntity
  8
NOTE
  6
CONTINUOUS
100
AcDbLine
 10
227.5236141217082
 20
1267.956977613108
 30
0.0
 11
-164.999999999998
 21
1062.000000000002
 31
0.0
  0
CIRCLE
  5
EDF
330
3E7
100
AcDbEntity
  8
FIX
  6
CONTINUOUS
100
AcDbCircle
 10
180.4000091552825
 20
0.0
 30
0.0
 40
40.0
  0
LINE
  5
EE8
330
3E7
100
AcDbEntity
  8
BASIS
  6
DASHDOT
100
AcDbLine
 10
0.0
 20
-50.63582300000007
 30
0.0
 11
0.0
 21
1379.745719210924
 31
0.0
  0
TEXT
  5
EEB
330
3E7
100
AcDbEntity
  8
NOTE
  6
CONTINUOUS
100
AcDbText
 10
-979.6915895590027
 20
-274.9754529999999
 30
0.0
 40
64.0
  1
AH 2-12×36
 41
0.9
100
AcDbText
  0
LINE
  5
EEC
330
3E7
100
AcDbEntity
  8
NOTE
  6
CONTINUOUS
100
AcDbLine
 10
-994.4718948447173
 20
-290.0777539999999
 30
0.0
 11
-409.6650928447195
 21
-290.0777539999999
 31
0.0
  0
LINE
  5
EEE
330
3E7
100
AcDbEntity
  8
NOTE
  6
CONTINUOUS
100
AcDbLine
 10
-409.6650928447195
 20
-290.0777539999999
 30
0.0
 11
-189.5999908447174
 21
0.0
 31
0.0
  0
CIRCLE
  5
EF1
330
3E7
100
AcDbEntity
  8
FIX
  6
CONTINUOUS
100
AcDbCircle
 10
-189.5999908447174
 20
0.0
 30
0.0
 40
40.0
  0
CIRCLE
  5
EF2
330
3E7
100
AcDbEntity
  8
ARRANGE
  6
CONTINUOUS
100
AcDbCircle
 10
0.0
 20
0.0
 30
0.0
 40
40.0
  0
LINE
  5
EF3
330
3E7
100
AcDbEntity
  8
NOTE
  6
CONTINUOUS
100
AcDbLine
 10
-189.5999908447174
 20
0.0
 30
0.0
 11
-221.1999738447175
 21
-24.52429500000016
 31
0.0
  0
LINE
  5
EF4
330
3E7
100
AcDbEntity
  8
NOTE
  6
CONTINUOUS
100
AcDbLine
 10
-189.5999908447174
 20
0.0
 30
0.0
 11
-204.704230844718
 21
-37.03865499999983
 31
0.0
  0
LINE
  5
EF5
330
3E7
100
AcDbEntity
  8
NOTE
  6
CONTINOUS
100
AcDbLine
 10
-209.5999908447174
 20
0.0
 30
0.0
 11
-169.5999908447174
 21
0.0
 31
0.0
  0
LINE
  5
EF6
330
3E7
100
AcDbEntity
  8
NOTE
  6
CONTINOUS
100
AcDbLine
 10
-189.5999908447174
 20
-20.0
 30
0.0
 11
-189.5999908447174
 21
20.0
 31
0.0
  0
POINT
  5
EF7
330
3E7
100
AcDbEntity
  8
ARRANGE
  6
CONTINUOUS
100
AcDbPoint
 10
0.0
 20
0.0
 30
0.0
  0
LINE
  5
EFE
330
3E7
100
AcDbEntity
  8
NOTE
  6
CONTINUOUS
100
AcDbLine
 10
-131.9999999999998
 20
510.0000152587926
 30
0.0
 11
-92.52493275263027
 21
516.4590473845963
 31
0.0
  0
LINE
  5
EFF
330
3E7
100
AcDbEntity
  8
NOTE
  6
CONTINUOUS
100
AcDbLine
 10
-131.9999999999998
 20
510.0000152587926
 30
0.0
 11
-101.043106143554
 21
535.331235000605
 31
0.0
  0
LINE
  5
F00
330
3E7
100
AcDbEntity
  8
NOTE
  6
CONTINUOUS
100
AcDbLine
 10
-108.9999992164939
 20
426.0000305175831
 30
0.0
 11
-77.26305078643889
 21
401.6532415191438
 31
0.0
  0
LINE
  5
F04
330
3E7
100
AcDbEntity
  8
NOTE
  6
CONTINUOUS
100
AcDbLine
 10
-108.9999992164939
 20
426.0000305175831
 30
0.0
 11
-69.34160175855622
 21
420.7835679311599
 31
0.0
  0
LINE
  5
F05
330
3E7
100
AcDbEntity
  8
NOTE
  6
CONTINOUS
100
AcDbLine
 10
-151.999999999998
 20
510.0000152587926
 30
0.0
 11
-111.9999999999981
 21
510.0000152587926
 31
0.0
  0
LINE
  5
F07
330
3E7
100
AcDbEntity
  8
NOTE
  6
CONTINUOUS
100
AcDbLine
 10
-164.999999999998
 20
1062.000000000002
 30
0.0
 11
-135.5967782219664
 21
1089.119190989396
 31
0.0
  0
LINE
  5
F08
330
3E7
100
AcDbEntity
  8
NOTE
  6
CONTINUOUS
100
AcDbLine
 10
-164.999999999998
 20
1062.000000000002
 30
0.0
 11
-125.9764665749625
 21
1070.784296739736
 31
0.0
  0
LINE
  5
F09
330
3E7
100
AcDbEntity
  8
NOTE
  6
CONTINOUS
100
AcDbLine
 10
-164.999999999998
 20
1082.000000000003
 30
0.0
 11
-164.999999999998
 21
1042.000000000003
 31
0.0
  0
TEXT
  5
F0E
330
3E7
100
AcDbEntity
  8
ETC
  6
CONTINUOUS
100
AcDbText
 10
400.2276534331013
 20
1657.275941449946
 30
0.0
 40
64.0
  1
SPUZ6424
 41
0.9
100
AcDbText
  0
TEXT
  5
F0F
330
3E7
100
AcDbEntity
  8
ETC
  6
CONTINUOUS
100
AcDbText
 10
412.0503974331022
 20
1783.332757676558
 30
0.0
 40
64.0
  1
PAC
 41
0.9
100
AcDbText
  0
LINE
  5
F11
330
3E7
100
AcDbEntity
  8
NOTE
  6
CONTINUOUS
100
AcDbLine
 10
944.0713526474738
 20
-290.0777539999999
 30
0.0
 11
400.465111155283
 21
-290.0777539999999
 31
0.0
  0
TEXT
  5
F12
330
3E7
100
AcDbEntity
  8
NOTE
  6
CONTINUOUS
100
AcDbText
 10
425.6973227267116
 20
-274.9754529999999
 30
0.0
 40
64.0
  1
AH 2-U cut
 41
0.9
100
AcDbText
  0
LINE
  5
F15
330
3E7
100
AcDbEntity
  8
NOTE
  6
CONTINUOUS
100
AcDbLine
 10
400.465111155283
 20
-290.0777539999999
 30
0.0
 11
180.4000091552825
 21
0.0
 31
0.0
  0
LINE
  5
F16
330
3E7
100
AcDbEntity
  8
NOTE
  6
CONTINOUS
100
AcDbLine
 10
160.4000091552823
 20
0.0
 30
0.0
 11
200.4000091552823
 21
0.0
 31
0.0
  0
LINE
  5
F17
330
3E7
100
AcDbEntity
  8
NOTE
  6
CONTINUOUS
100
AcDbLine
 10
180.4000091552825
 20
0.0
 30
0.0
 11
211.9999921552826
 21
-24.52429500000016
 31
0.0
  0
LINE
  5
F18
330
3E7
100
AcDbEntity
  8
NOTE
  6
CONTINUOUS
100
AcDbLine
 10
180.4000091552825
 20
0.0
 30
0.0
 11
195.504249155283
 21
-37.03865499999983
 31
0.0
  0
LINE
  5
F19
330
3E7
100
AcDbEntity
  8
NOTE
  6
CONTINOUS
100
AcDbLine
 10
180.4000091552825
 20
-20.0
 30
0.0
 11
180.4000091552825
 21
20.0
 31
0.0
  0
TEXT
  5
F1A
330
3E7
100
AcDbEntity
  8
NOTE
  6
CONTINUOUS
100
AcDbText
 10
241.949176006777
 20
300.579033768888
 30
0.0
 40
64.0
  1
RG%%C15.88
 41
0.9
100
AcDbText
  0
LINE
  5
F1B
330
3E7
100
AcDbEntity
  8
NOTE
  6
CONTINUOUS
100
AcDbLine
 10
637.8581780117452
 20
284.7797185202571
 30
0.0
 11
232.047526088036
 21
284.7797185202571
 31
0.0
  0
TEXT
  5
F1C
330
3E7
100
AcDbEntity
  8
NOTE
  6
CONTINUOUS
100
AcDbText
 10
213.2789443495512
 20
671.422077641847
 30
0.0
 40
64.0
  1
RL%%C9.52
 41
0.9
100
AcDbText
  0
LINE
  5
F1D
330
3E7
100
AcDbEntity
  8
NOTE
  6
CONTINUOUS
100
AcDbLine
 10
184.7414539652806
 20
652.9648165648266
 30
0.0
 11
555.0091296567589
 21
652.9648165648266
 31
0.0
  0
LINE
  5
F1E
330
3E7
100
AcDbEntity
  8
NOTE
  6
CONTINUOUS
100
AcDbLine
 10
468.468338209992
 20
1267.956977613108
 30
0.0
 11
227.5236141217082
 21
1267.956977613108
 31
0.0
  0
TEXT
  5
F1F
330
3E7
100
AcDbEntity
  8
NOTE
  6
CONTINUOUS
100
AcDbText
 10
237.0023189242781
 20
1283.059278613106
 30
0.0
 40
64.0
  1
EL,CL
 41
0.9
100
AcDbText
  0
LINE
  5
1AFC
330
3E7
100
AcDbEntity
  8
NOTE
  6
CONTINOUS
100
AcDbLine
 10
-131.999999999998
 20
530.0000152587922
 30
0.0
 11
-131.999999999998
 21
490.0000152587927
 31
0.0
  0
LINE
  5
1E82
330
3E7
100
AcDbEntity
  8
NOTE
  6
CONTINOUS
100
AcDbLine
 10
-108.9999992164957
 20
446.0000305175833
 30
0.0
 11
-108.9999992164957
 21
406.0000305175834
 31
0.0
  0
LINE
  5
1E8D
330
3E7
100
AcDbEntity
  8
NOTE
  6
CONTINOUS
100
AcDbLine
 10
-128.9999992164954
 20
426.0000305175831
 30
0.0
 11
-88.99999921649579
 21
426.0000305175831
 31
0.0
  0
LINE
  5
9CCA
330
3E7
100
AcDbEntity
  8
DETAIL
  6
CONTINUOUS
100
AcDbLine
 10
-11.70000457763124
 20
1317.600008280698
 30
0.0
 11
-11.699996948244
 21
207.0000305175835
 31
0.0
  0
LINE
  5
9CD1
330
3E7
100
AcDbEntity
  8
DETAIL
  6
CONTINUOUS
100
AcDbLine
 10
-136.8000030517559
 20
599.4000244140717
 30
0.0
 11
-136.8000030517559
 21
554.4000244140717
 31
0.0
  0
LINE
  5
9CD2
330
3E7
100
AcDbEntity
  8
DETAIL
  6
CONTINUOUS
100
AcDbLine
 10
-129.999999999998
 20
599.4000244140717
 30
0.0
 11
-129.999999999998
 21
554.4000244140717
 31
0.0
  0
LINE
  5
C18D
330
3E7
100
AcDbEntity
  8
DETAIL
  6
CONTINUOUS
100
AcDbLine
 10
194.4000015258843
 20
1.60003662109375
 30
0.0
 11
-212.5999908447174
 21
1.60003662109375
 31
0.0
  0
LINE
  5
C18E
330
3E7
100
AcDbEntity
  8
DETAIL
  6
CONTINUOUS
100
AcDbLine
 10
-212.5999908447174
 20
0.0
 30
0.0
 11
194.4000015258843
 21
0.0
 31
0.0
  0
LINE
  5
C191
330
3E7
100
AcDbEntity
  8
DETAIL
  6
CONTINUOUS
100
AcDbLine
 10
-163.9999999999886
 20
185.0000305175808
 30
0.0
 11
-12.7000045776349
 21
185.0000305175808
 31
0.0
  0
LINE
  5
C19A
330
3E7
100
AcDbEntity
  8
DETAIL
  6
CONTINUOUS
100
AcDbLine
 10
-167.0000000000054
 20
543.9000091552816
 30
0.0
 11
-167.0000000000054
 21
247.3570251464889
 31
0.0
  0
LINE
  5
C19B
330
3E7
100
AcDbEntity
  8
DETAIL
  6
CONTINUOUS
100
AcDbLine
 10
-164.999999999998
 20
207.0000305175835
 30
0.0
 11
-164.999999999998
 21
542.4000244140734
 31
0.0
  0
LINE
  5
C1A3
330
3E7
100
AcDbEntity
  8
DETAIL
  6
CONTINUOUS
100
AcDbLine
 10
-164.999999999998
 20
27.00000000000271
 30
0.0
 11
-164.999999999998
 21
184.0000305175816
 31
0.0
  0
LINE
  5
C1AE
330
3E7
100
AcDbEntity
  8
DETAIL
  6
CONTINUOUS
100
AcDbLine
 10
-166.3320465087763
 20
8.000000000001817
 30
0.0
 11
-214.4477691650336
 21
8.000000000001817
 31
0.0
  0
ARC
  5
C1B2
330
3E7
100
AcDbEntity
  8
DETAIL
  6
CONTINUOUS
100
AcDbCircle
 10
-214.5945915288848
 20
4.998188626487714
 30
0.0
 40
3.005399861696522
100
AcDbArc
 50
87.19982301586485
 51
179.9654674690773
  0
LINE
  5
C1B4
330
3E7
100
AcDbEntity
  8
DETAIL
  6
CONTINUOUS
100
AcDbLine
 10
-212.5999908447174
 20
0.0
 30
0.0
 11
-212.5999908447174
 21
2.000000000002728
 31
0.0
  0
LINE
  5
C1B7
330
3E7
100
AcDbEntity
  8
DETAIL
  6
CONTINUOUS
100
AcDbLine
 10
-217.5999908447173
 20
5.0
 30
0.0
 11
-217.5999908447173
 21
2.000000000002728
 31
0.0
  0
LINE
  5
C1B9
330
3E7
100
AcDbEntity
  8
DETAIL
  6
CONTINUOUS
100
AcDbLine
 10
-212.5999908447174
 20
2.000000000002728
 30
0.0
 11
-217.5999908447173
 21
2.000000000002728
 31
0.0
  0
LINE
  5
C1E1
330
3E7
100
AcDbEntity
  8
DETAIL
  6
CONTINUOUS
100
AcDbLine
 10
-155.6510620117095
 20
23.49999999999909
 30
0.0
 11
-163.7339630126898
 21
9.500000000002726
 31
0.0
  0
ARC
  5
C1E3
330
3E7
100
AcDbEntity
  8
DETAIL
  6
CONTINUOUS
100
AcDbCircle
 10
-166.3320511950569
 20
11.00002073444557
 30
0.0
 40
3.000020734447866
100
AcDbArc
 50
270.0000895006368
 51
329.9997713713965
  0
ARC
  5
C22B
330
3E7
100
AcDbEntity
  8
DETAIL
  6
CONTINUOUS
100
AcDbCircle
 10
-153.0530043681336
 20
22.00003216025425
 30
0.0
 40
2.999967839764453
100
AcDbArc
 50
89.99979767244502
 51
150.0003546239148
  0
LINE
  5
C23B
330
3E7
100
AcDbEntity
  8
DETAIL
  6
CONTINUOUS
100
AcDbLine
 10
-159.1999969482258
 20
25.99999999999909
 30
0.0
 11
-159.1999969482258
 21
17.35302734375181
 31
0.0
  0
LINE
  5
C23C
330
3E7
100
AcDbEntity
  8
DETAIL
  6
CONTINUOUS
100
AcDbLine
 10
-160.7999877929596
 20
14.58178710937771
 30
0.0
 11
-160.7999877929596
 21
25.99999999999909
 31
0.0
  0
LINE
  5
C266
330
3E7
100
AcDbEntity
  8
DETAIL
  6
CONTINUOUS
100
AcDbLine
 10
155.1132583618179
 20
25.00000000000454
 30
0.0
 11
-155.1132354736344
 21
25.00000000000454
 31
0.0
  0
LINE
  5
C26E
330
3E7
100
AcDbEntity
  8
DETAIL
  6
CONTINUOUS
100
AcDbLine
 10
-157.5381011962944
 20
26.00000000000273
 30
0.0
 11
-156.152481079096
 21
23.60003662109646
 31
0.0
  0
ARC
  5
C373
330
3E7
100
AcDbEntity
  8
DETAIL
  6
CONTINUOUS
100
AcDbCircle
 10
-164.0000040423054
 20
207.0000264752748
 30
0.0
 40
0.9999959576971223
100
AcDbArc
 50
179.9997683918315
 51
270.0002316072565
  0
ARC
  5
C374
330
3E7
100
AcDbEntity
  8
DETAIL
  6
CONTINUOUS
100
AcDbCircle
 10
-164.0000031997788
 20
246.842667258097
 30
0.0
 40
2.999990630933706
100
AcDbArc
 50
188.1826699624332
 51
225.000257815655
  0
ARC
  5
C375
330
3E7
100
AcDbEntity
  8
DETAIL
  6
CONTINUOUS
100
AcDbCircle
 10
-167.9999842782654
 20
242.3573414105431
 30
0.0
 40
2.999984278674363
100
AcDbArc
 50
0.0009539202684295
 51
45.00047470842395
  0
LINE
  5
C378
330
3E7
100
AcDbEntity
  8
DETAIL
  6
CONTINUOUS
100
AcDbLine
 10
-165.8786926269548
 20
244.478668212896
 30
0.0
 11
-166.1213073730484
 21
244.721343994147
 31
0.0
  0
LINE
  5
C37A
330
3E7
100
AcDbEntity
  8
DETAIL
  6
CONTINUOUS
100
AcDbLine
 10
-167.0000000000054
 20
247.3570251464889
 30
0.0
 11
-166.9694519042949
 21
246.4156799316469
 31
0.0
  0
LINE
  5
C37B
330
3E7
100
AcDbEntity
  8
DETAIL
  6
CONTINUOUS
100
AcDbLine
 10
-12.7000045776349
 20
206.0000305175845
 30
0.0
 11
-164.0000000000125
 21
206.0000305175845
 31
0.0
  0
ARC
  5
C37E
330
3E7
100
AcDbEntity
  8
DETAIL
  6
CONTINUOUS
100
AcDbCircle
 10
-160.1999950330337
 20
185.2000255510438
 30
0.0
 40
0.1999950334730628
100
AcDbArc
 50
269.9994513182808
 51
359.9961771274543
  0
ARC
  5
C37F
330
3E7
100
AcDbEntity
  8
DETAIL
  6
CONTINUOUS
100
AcDbCircle
 10
-163.999995033353
 20
184.0000255509448
 30
0.0
 40
1.000004966648303
100
AcDbArc
 50
90.00028456582034
 51
179.9997154341273
  0
ARC
  5
C380
330
3E7
100
AcDbEntity
  8
DETAIL
  6
CONTINUOUS
100
AcDbCircle
 10
-144.9999999999981
 20
190.5000305175826
 30
0.0
 40
0.5
100
AcDbArc
 50
180.0
 51
0.0
  0
LINE
  5
C381
330
3E7
100
AcDbEntity
  8
DETAIL
  6
CONTINUOUS
100
AcDbLine
 10
-159.999999999998
 20
206.0000305175845
 30
0.0
 11
-159.999999999998
 21
185.200012207033
 31
0.0
  0
LINE
  5
C383
330
3E7
100
AcDbEntity
  8
DETAIL
  6
CONTINUOUS
100
AcDbLine
 10
-145.4999999999909
 20
190.5000305175826
 30
0.0
 11
-145.4999999999909
 21
206.0000305175845
 31
0.0
  0
LINE
  5
C384
330
3E7
100
AcDbEntity
  8
DETAIL
  6
CONTINUOUS
100
AcDbLine
 10
-144.5000000000054
 20
190.5000305175826
 30
0.0
 11
-144.5000000000054
 21
206.0000305175845
 31
0.0
  0
ARC
  5
C427
330
3E7
100
AcDbEntity
  8
DETAIL
  6
CONTINUOUS
100
AcDbCircle
 10
-167.0000015419988
 20
545.3142373377295
 30
0.0
 40
0.9999984580013688
100
AcDbArc
 50
179.999875998497
 51
224.9999747907402
  0
ARC
  5
C428
330
3E7
100
AcDbEntity
  8
DETAIL
  6
CONTINUOUS
100
AcDbCircle
 10
-165.2929075709453
 20
542.9000266026696
 30
0.0
 40
0.5000021888264758
100
AcDbArc
 50
225.0014020690329
 51
270.0017320312739
  0
ARC
  5
C429
330
3E7
100
AcDbEntity
  8
DETAIL
  6
CONTINUOUS
100
AcDbCircle
 10
-166.042548107147
 20
547.2142834680835
 30
0.0
 40
1.957503804968423
100
AcDbArc
 50
95.77569650333041
 51
180.4172742757434
  0
ARC
  5
C42A
330
3E7
100
AcDbEntity
  8
DETAIL
  6
CONTINUOUS
100
AcDbCircle
 10
-141.9999983360303
 20
554.400022750101
 30
0.0
 40
11.9999983360275
100
AcDbArc
 50
269.999992055069
 51
0.0000079448786272
  0
ARC
  5
C42B
330
3E7
100
AcDbEntity
  8
DETAIL
  6
CONTINUOUS
100
AcDbCircle
 10
-141.9999983360303
 20
554.400022750101
 30
0.0
 40
5.199995284270737
100
AcDbArc
 50
269.9999816656486
 51
0.0000183343773826
  0
LINE
  5
C431
330
3E7
100
AcDbEntity
  8
DETAIL
  6
CONTINUOUS
100
AcDbLine
 10
-165.6464538574232
 20
542.5464630127044
 30
0.0
 11
-167.7071075439544
 21
544.6071319580187
 31
0.0
  0
LINE
  5
C433
330
3E7
100
AcDbEntity
  8
DETAIL
  6
CONTINUOUS
100
AcDbLine
 10
-142.0000000000054
 20
542.4000244140734
 30
0.0
 11
-165.2928923938248
 21
542.4000244140734
 31
0.0
  0
LINE
  5
C434
330
3E7
100
AcDbEntity
  8
DETAIL
  6
CONTINUOUS
100
AcDbLine
 10
-142.0000000000054
 20
549.2000274658266
 30
0.0
 11
-166.2395401001029
 21
549.1618499755941
 31
0.0
  0
LINE
  5
C440
330
3E7
100
AcDbEntity
  8
DETAIL
  6
CONTINUOUS
100
AcDbLine
 10
167.000000000009
 20
543.8999938964935
 30
0.0
 11
167.0000000000126
 21
246.742675781255
 31
0.0
  0
LINE
  5
C441
330
3E7
100
AcDbEntity
  8
DETAIL
  6
CONTINUOUS
100
AcDbLine
 10
165.0000000000199
 20
542.4000244140688
 30
0.0
 11
165.0000000000199
 21
207.0000305175835
 31
0.0
  0
LINE
  5
C442
330
3E7
100
AcDbEntity
  8
DETAIL
  6
CONTINUOUS
100
AcDbLine
 10
196.400001525886
 20
7.999999999999543
 30
0.0
 11
167.1320571899576
 21
8.000000000001817
 31
0.0
  0
LINE
  5
C448
330
3E7
100
AcDbEntity
  8
DETAIL
  6
CONTINUOUS
100
AcDbLine
 10
-43.94999694824764
 20
99.00000000000545
 30
0.0
 11
-43.99999999999454
 21
26.00000000000362
 31
0.0
  0
LINE
  5
C44B
330
3E7
100
AcDbEntity
  8
DETAIL
  6
CONTINUOUS
100
AcDbLine
 10
165.0000000000018
 20
27.00000000000271
 30
0.0
 11
165.0000000000018
 21
184.0000305175816
 31
0.0
  0
LINE
  5
C44D
330
3E7
100
AcDbEntity
  8
DETAIL
  6
CONTINUOUS
100
AcDbLine
 10
-33.94802093505676
 20
22.00000000000271
 30
0.0
 11
141.3812026977593
 21
22.00000000000271
 31
0.0
  0
LINE
  5
C44E
330
3E7
100
AcDbEntity
  8
DETAIL
  6
CONTINUOUS
100
AcDbLine
 10
-10.69999694824036
 20
26.00000000000362
 30
0.0
 11
164.1423187256093
 21
26.01019287109965
 31
0.0
  0
LINE
  5
C457
330
3E7
100
AcDbEntity
  8
DETAIL
  6
CONTINUOUS
100
AcDbLine
 10
-12.7000045776349
 20
26.00000000000362
 30
0.0
 11
-163.9999999999945
 21
26.00000000000273
 31
0.0
  0
LINE
  5
C45C
330
3E7
100
AcDbEntity
  8
DETAIL
  6
CONTINUOUS
100
AcDbLine
 10
-10.69999694824036
 20
27.00000000000271
 30
0.0
 11
-12.7000045776349
 21
27.00000000000271
 31
0.0
  0
LINE
  5
C45D
330
3E7
100
AcDbEntity
  8
DETAIL
  6
CONTINUOUS
100
AcDbLine
 10
-12.7000045776349
 20
26.00000000000362
 30
0.0
 11
-12.7000045776349
 21
27.00000000000271
 31
0.0
  0
LINE
  5
C47C
330
3E7
100
AcDbEntity
  8
DETAIL
  6
CONTINUOUS
100
AcDbLine
 10
-36.71929931640807
 20
23.60003662109646
 30
0.0
 11
-35.54801940917787
 21
22.42871093750181
 31
0.0
  0
LINE
  5
C47D
330
3E7
100
AcDbEntity
  8
DETAIL
  6
CONTINUOUS
100
AcDbLine
 10
-35.54801940917787
 20
22.42871093750181
 30
0.0
 11
-33.94802093505676
 21
22.00000000000271
 31
0.0
  0
LINE
  5
C481
330
3E7
100
AcDbEntity
  8
DETAIL
  6
CONTINUOUS
100
AcDbLine
 10
-10.69999694824036
 20
27.00000000000271
 30
0.0
 11
-10.69999694824036
 21
26.00000000000362
 31
0.0
  0
ARC
  5
C489
330
3E7
100
AcDbEntity
  8
DETAIL
  6
CONTINUOUS
100
AcDbCircle
 10
7.30001176609403
 20
47.25000871434075
 30
0.0
 40
0.4999912857369946
100
AcDbArc
 50
359.9990013929094
 51
90.00099860709061
  0
ARC
  5
C48A
330
3E7
100
AcDbEntity
  8
DETAIL
  6
CONTINUOUS
100
AcDbCircle
 10
9.299990982892268
 20
47.250012068871
 30
0.0
 40
0.4999879312760242
100
AcDbArc
 50
89.99861697611406
 51
180.001383023964
  0
ARC
  5
C48B
330
3E7
100
AcDbEntity
  8
DETAIL
  6
CONTINUOUS
100
AcDbCircle
 10
7.299990982739472
 20
49.25001206902379
 30
0.0
 40
0.5000120691671805
100
AcDbArc
 50
270.0013829745896
 51
359.9986170253842
  0
ARC
  5
C48C
330
3E7
100
AcDbEntity
  8
DETAIL
  6
CONTINUOUS
100
AcDbCircle
 10
9.300011766392344
 20
49.25000871463453
 30
0.0
 40
0.500008714706838
100
AcDbArc
 50
180.0009986056311
 51
269.999001394264
  0
LINE
  5
C48E
330
3E7
100
AcDbEntity
  8
DETAIL
  6
CONTINUOUS
100
AcDbLine
 10
8.300003051755991
 20
43.63122558594112
 30
0.0
 11
4.300003051759631
 21
45.94061279296965
 31
0.0
  0
LINE
  5
C490
330
3E7
100
AcDbEntity
  8
DETAIL
  6
CONTINUOUS
100
AcDbLine
 10
4.300003051759631
 20
45.94061279296965
 30
0.0
 11
4.300003051759631
 21
50.55944824219295
 31
0.0
  0
LINE
  5
C491
330
3E7
100
AcDbEntity
  8
DETAIL
  6
CONTINUOUS
100
AcDbLine
 10
5.849998474133826
 20
47.75000000000545
 30
0.0
 11
5.849998474133826
 21
48.75000000000454
 31
0.0
  0
LINE
  5
C492
330
3E7
100
AcDbEntity
  8
DETAIL
  6
CONTINUOUS
100
AcDbLine
 10
8.800003051766907
 20
45.80004882812771
 30
0.0
 11
7.800003051763267
 21
45.80004882812771
 31
0.0
  0
LINE
  5
C493
330
3E7
100
AcDbEntity
  8
DETAIL
  6
CONTINUOUS
100
AcDbLine
 10
8.887145996106482
 20
47.53204345703578
 30
0.0
 11
7.712852478036436
 21
47.53204345703578
 31
0.0
  0
LINE
  5
C494
330
3E7
100
AcDbEntity
  8
DETAIL
  6
CONTINUOUS
100
AcDbLine
 10
7.582054138185411
 20
48.83715820312772
 30
0.0
 11
7.582054138185411
 21
47.66290283203487
 31
0.0
  0
LINE
  5
C495
330
3E7
100
AcDbEntity
  8
DETAIL
  6
CONTINUOUS
100
AcDbLine
 10
5.849998474133826
 20
47.75000000000545
 30
0.0
 11
7.300003051770545
 21
47.75000000000545
 31
0.0
  0
LINE
  5
C496
330
3E7
100
AcDbEntity
  8
DETAIL
  6
CONTINUOUS
100
AcDbLine
 10
7.800003051763267
 20
47.25000000000362
 30
0.0
 11
7.800003051763267
 21
45.80004882812771
 31
0.0
  0
LINE
  5
C498
330
3E7
100
AcDbEntity
  8
DETAIL
  6
CONTINUOUS
100
AcDbLine
 10
12.30000305177054
 20
45.94061279296965
 30
0.0
 11
8.300003051755991
 21
43.63122558594112
 31
0.0
  0
LINE
  5
C499
330
3E7
100
AcDbEntity
  8
DETAIL
  6
CONTINUOUS
100
AcDbLine
 10
12.30000305177054
 20
50.55944824219295
 30
0.0
 11
12.30000305177054
 21
45.94061279296965
 31
0.0
  0
LINE
  5
C49A
330
3E7
100
AcDbEntity
  8
DETAIL
  6
CONTINUOUS
100
AcDbLine
 10
10.75000000000909
 20
48.75000000000454
 30
0.0
 11
10.75000000000909
 21
47.75000000000545
 31
0.0
  0
LINE
  5
C49B
330
3E7
100
AcDbEntity
  8
DETAIL
  6
CONTINUOUS
100
AcDbLine
 10
9.017951965344764
 20
48.83715820312772
 30
0.0
 11
9.017951965344764
 21
47.66290283203487
 31
0.0
  0
LINE
  5
C49C
330
3E7
100
AcDbEntity
  8
DETAIL
  6
CONTINUOUS
100
AcDbLine
 10
8.800003051766907
 20
45.80004882812771
 30
0.0
 11
8.800003051766907
 21
47.25000000000362
 31
0.0
  0
LINE
  5
C49D
330
3E7
100
AcDbEntity
  8
DETAIL
  6
CONTINUOUS
100
AcDbLine
 10
9.300003051759633
 20
47.75000000000545
 30
0.0
 11
10.75000000000909
 21
47.75000000000545
 31
0.0
  0
LINE
  5
C49E
330
3E7
100
AcDbEntity
  8
DETAIL
  6
CONTINUOUS
100
AcDbLine
 10
4.300003051759631
 20
50.55944824219295
 30
0.0
 11
8.300003051755991
 21
52.86883544922147
 31
0.0
  0
LINE
  5
C4A1
330
3E7
100
AcDbEntity
  8
DETAIL
  6
CONTINUOUS
100
AcDbLine
 10
7.800003051763267
 20
50.70001220703488
 30
0.0
 11
8.800003051766907
 21
50.70001220703488
 31
0.0
  0
LINE
  5
C4A2
330
3E7
100
AcDbEntity
  8
DETAIL
  6
CONTINUOUS
100
AcDbLine
 10
8.887145996106482
 20
48.96795654296965
 30
0.0
 11
7.712852478036436
 21
48.96795654296965
 31
0.0
  0
LINE
  5
C4A3
330
3E7
100
AcDbEntity
  8
DETAIL
  6
CONTINUOUS
100
AcDbLine
 10
7.800003051763267
 20
50.70001220703488
 30
0.0
 11
7.800003051763267
 21
49.25000000000181
 31
0.0
  0
LINE
  5
C4A4
330
3E7
100
AcDbEntity
  8
DETAIL
  6
CONTINUOUS
100
AcDbLine
 10
7.300003051770545
 20
48.75000000000454
 30
0.0
 11
5.849998474133826
 21
48.75000000000454
 31
0.0
  0
LINE
  5
C4A5
330
3E7
100
AcDbEntity
  8
DETAIL
  6
CONTINUOUS
100
AcDbLine
 10
8.300003051755991
 20
52.86883544922147
 30
0.0
 11
12.30000305177054
 21
50.55944824219295
 31
0.0
  0
LINE
  5
C4A7
330
3E7
100
AcDbEntity
  8
DETAIL
  6
CONTINUOUS
100
AcDbLine
 10
8.800003051766907
 20
49.25000000000181
 30
0.0
 11
8.800003051766907
 21
50.70001220703488
 31
0.0
  0
LINE
  5
C4A8
330
3E7
100
AcDbEntity
  8
DETAIL
  6
CONTINUOUS
100
AcDbLine
 10
9.300003051759633
 20
48.75000000000454
 30
0.0
 11
10.75000000000909
 21
48.75000000000454
 31
0.0
  0
LINE
  5
C4A9
330
3E7
100
AcDbEntity
  8
DETAIL
  6
CONTINUOUS
100
AcDbLine
 10
164.533973693853
 20
9.500000000002726
 30
0.0
 11
156.4510726928729
 21
23.49999999999909
 31
0.0
  0
ARC
  5
C4AA
330
3E7
100
AcDbEntity
  8
DETAIL
  6
CONTINUOUS
100
AcDbCircle
 10
167.1320590546399
 20
11.00001584728943
 30
0.0
 40
3.000015847289091
100
AcDbArc
 50
210.0001747405773
 51
269.999964387467
  0
ARC
  5
C4AD
330
3E7
100
AcDbEntity
  8
DETAIL
  6
CONTINUOUS
100
AcDbCircle
 10
153.8530049389933
 20
22.00001464882916
 30
0.0
 40
2.999985351213464
100
AcDbArc
 50
29.99983847242008
 51
90.00030065557663
  0
LINE
  5
C4B8
330
3E7
100
AcDbEntity
  8
DETAIL
  6
CONTINUOUS
100
AcDbLine
 10
159.7999954223649
 20
17.69952392578034
 30
0.0
 11
159.7999954223649
 21
25.99999999999909
 31
0.0
  0
LINE
  5
C4B9
330
3E7
100
AcDbEntity
  8
DETAIL
  6
CONTINUOUS
100
AcDbLine
 10
158.2000045776494
 20
20.47076416015443
 30
0.0
 11
158.2000045776494
 21
25.99999999999909
 31
0.0
  0
ARC
  5
C4BB
330
3E7
100
AcDbEntity
  8
DETAIL
  6
CONTINUOUS
100
AcDbCircle
 10
141.3811686474415
 20
25.20000409984277
 30
0.0
 40
3.200004100020294
100
AcDbArc
 50
270.0006096678584
 51
330.0007147516735
  0
ARC
  5
C4BC
330
3E7
100
AcDbEntity
  8
DETAIL
  6
CONTINUOUS
100
AcDbCircle
 10
145.9999752221319
 20
23.20000665295992
 30
0.0
 40
1.799993347122213
100
AcDbArc
 50
89.99945414494689
 51
149.9987762372524
  0
LINE
  5
C4BD
330
3E7
100
AcDbEntity
  8
DETAIL
  6
CONTINUOUS
100
AcDbLine
 10
144.4411544799929
 20
24.10003662109375
 30
0.0
 11
144.152473449705
 21
23.60003662109646
 31
0.0
  0
LINE
  5
C4C2
330
3E7
100
AcDbEntity
  8
DETAIL
  6
CONTINUOUS
100
AcDbLine
 10
157.538101196298
 20
26.00000000000362
 30
0.0
 11
156.2477264404351
 21
23.76501464843839
 31
0.0
  0
ARC
  5
C4F8
330
3E7
100
AcDbEntity
  8
DETAIL
  6
CONTINUOUS
100
AcDbCircle
 10
163.9999963482314
 20
27.00001691845955
 30
0.0
 40
1.000003651910742
100
AcDbArc
 50
278.1822244959329
 51
359.9990306473451
  0
LINE
  5
C503
330
3E7
100
AcDbEntity
  8
DETAIL
  6
CONTINUOUS
100
AcDbLine
 10
164.0000000000109
 20
206.000030517584
 30
0.0
 11
-10.70000457762761
 21
206.0000305175845
 31
0.0
  0
LINE
  5
C508
330
3E7
100
AcDbEntity
  8
DETAIL
  6
CONTINUOUS
100
AcDbLine
 10
72.00000000000909
 20
204.0000305175813
 30
0.0
 11
11.06983184814634
 21
204.0000305175813
 31
0.0
  0
LINE
  5
C515
330
3E7
100
AcDbEntity
  8
DETAIL
  6
CONTINUOUS
100
AcDbLine
 10
5.53016662597838
 20
204.0000305175813
 30
0.0
 11
-12.7000045776349
 21
204.0000305175813
 31
0.0
  0
LINE
  5
C517
330
3E7
100
AcDbEntity
  8
DETAIL
  6
CONTINUOUS
100
AcDbLine
 10
-10.70000457762761
 20
206.0000305175845
 30
0.0
 11
-10.70000457762761
 21
207.0000305175835
 31
0.0
  0
LINE
  5
C519
330
3E7
100
AcDbEntity
  8
DETAIL
  6
CONTINUOUS
100
AcDbLine
 10
-10.70000457762761
 20
205.800048828132
 30
0.0
 11
-10.70000457762761
 21
204.0000305175813
 31
0.0
  0
LINE
  5
C51A
330
3E7
100
AcDbEntity
  8
DETAIL
  6
CONTINUOUS
100
AcDbLine
 10
-12.69999694824764
 20
206.0000305175845
 30
0.0
 11
-12.69999694824764
 21
207.0000305175835
 31
0.0
  0
LINE
  5
C51B
330
3E7
100
AcDbEntity
  8
DETAIL
  6
CONTINUOUS
100
AcDbLine
 10
-10.70000457762761
 20
207.0000305175835
 30
0.0
 11
-12.69999694824764
 21
207.0000305175835
 31
0.0
  0
LINE
  5
C51C
330
3E7
100
AcDbEntity
  8
DETAIL
  6
CONTINUOUS
100
AcDbLine
 10
-12.7000045776349
 20
184.0000305175816
 30
0.0
 11
-12.7000045776349
 21
206.0000305175845
 31
0.0
  0
LINE
  5
C51D
330
3E7
100
AcDbEntity
  8
DETAIL
  6
CONTINUOUS
100
AcDbLine
 10
-11.70000457763124
 20
184.0000305175816
 30
0.0
 11
-12.7000045776349
 21
184.0000305175816
 31
0.0
  0
LINE
  5
C524
330
3E7
100
AcDbEntity
  8
DETAIL
  6
CONTINUOUS
100
AcDbLine
 10
-11.699996948244
 20
27.00000000000271
 30
0.0
 11
-11.699996948244
 21
204.0000305175813
 31
0.0
  0
ARC
  5
C536
330
3E7
100
AcDbEntity
  8
DETAIL
  6
CONTINUOUS
100
AcDbCircle
 10
7.300005662693365
 20
197.7000148179693
 30
0.0
 40
0.4999973890726281
100
AcDbArc
 50
359.9997008075216
 51
90.00029919253041
  0
ARC
  5
C537
330
3E7
100
AcDbEntity
  8
DETAIL
  6
CONTINUOUS
100
AcDbCircle
 10
9.299997086347502
 20
197.7000181724588
 30
0.0
 40
0.499994034612999
100
AcDbArc
 50
89.99931640484829
 51
180.0006835952296
  0
ARC
  5
C538
330
3E7
100
AcDbEntity
  8
DETAIL
  6
CONTINUOUS
100
AcDbCircle
 10
7.299997086322036
 20
199.7000181724705
 30
0.0
 40
0.5000059654717595
100
AcDbArc
 50
270.0006835803522
 51
359.9993164195173
  0
ARC
  5
C539
330
3E7
100
AcDbEntity
  8
DETAIL
  6
CONTINUOUS
100
AcDbCircle
 10
9.300005662773401
 20
199.7000148180403
 30
0.0
 40
0.5000026110119467
100
AcDbArc
 50
180.0002991974808
 51
269.9997008023625
  0
LINE
  5
C53C
330
3E7
100
AcDbEntity
  8
DETAIL
  6
CONTINUOUS
100
AcDbLine
 10
8.300003051755991
 20
194.0812072753941
 30
0.0
 11
4.300003051759631
 21
196.3906250000036
 31
0.0
  0
LINE
  5
C53D
330
3E7
100
AcDbEntity
  8
DETAIL
  6
CONTINUOUS
100
AcDbLine
 10
4.300003051759631
 20
196.3906250000036
 30
0.0
 11
4.300003051759631
 21
201.009429931646
 31
0.0
  0
LINE
  5
C53E
330
3E7
100
AcDbEntity
  8
DETAIL
  6
CONTINUOUS
100
AcDbLine
 10
5.849998474133826
 20
198.2000122070346
 30
0.0
 11
5.849998474133826
 21
199.2000122070339
 31
0.0
  0
LINE
  5
C53F
330
3E7
100
AcDbEntity
  8
DETAIL
  6
CONTINUOUS
100
AcDbLine
 10
8.800003051766907
 20
196.2500305175854
 30
0.0
 11
7.800003051763267
 21
196.2500305175854
 31
0.0
  0
LINE
  5
C540
330
3E7
100
AcDbEntity
  8
DETAIL
  6
CONTINUOUS
100
AcDbLine
 10
7.800003051763267
 20
197.7000122070375
 30
0.0
 11
7.800003051763267
 21
196.2500305175854
 31
0.0
  0
LINE
  5
C541
330
3E7
100
AcDbEntity
  8
DETAIL
  6
CONTINUOUS
100
AcDbLine
 10
5.849998474133826
 20
198.2000122070346
 30
0.0
 11
7.300003051770545
 21
198.2000122070346
 31
0.0
  0
LINE
  5
C542
330
3E7
100
AcDbEntity
  8
DETAIL
  6
CONTINUOUS
100
AcDbLine
 10
8.887145996106482
 20
197.982086181646
 30
0.0
 11
7.712852478036436
 21
197.982086181646
 31
0.0
  0
LINE
  5
C543
330
3E7
100
AcDbEntity
  8
DETAIL
  6
CONTINUOUS
100
AcDbLine
 10
7.582054138185411
 20
199.2871704101617
 30
0.0
 11
7.582054138185411
 21
198.112884521488
 31
0.0
  0
LINE
  5
C544
330
3E7
100
AcDbEntity
  8
DETAIL
  6
CONTINUOUS
100
AcDbLine
 10
12.30000305177054
 20
196.3906250000036
 30
0.0
 11
8.300003051755991
 21
194.0812072753941
 31
0.0
  0
LINE
  5
C545
330
3E7
100
AcDbEntity
  8
DETAIL
  6
CONTINUOUS
100
AcDbLine
 10
12.30000305177054
 20
201.009429931646
 30
0.0
 11
12.30000305177054
 21
196.3906250000036
 31
0.0
  0
LINE
  5
C546
330
3E7
100
AcDbEntity
  8
DETAIL
  6
CONTINUOUS
100
AcDbLine
 10
8.800003051766907
 20
196.2500305175854
 30
0.0
 11
8.800003051766907
 21
197.7000122070375
 31
0.0
  0
LINE
  5
C547
330
3E7
100
AcDbEntity
  8
DETAIL
  6
CONTINUOUS
100
AcDbLine
 10
9.017951965344764
 20
199.2871704101617
 30
0.0
 11
9.017951965344764
 21
198.112884521488
 31
0.0
  0
LINE
  5
C548
330
3E7
100
AcDbEntity
  8
DETAIL
  6
CONTINUOUS
100
AcDbLine
 10
10.75000000000909
 20
199.2000122070339
 30
0.0
 11
10.75000000000909
 21
198.2000122070346
 31
0.0
  0
LINE
  5
C549
330
3E7
100
AcDbEntity
  8
DETAIL
  6
CONTINUOUS
100
AcDbLine
 10
9.300003051759633
 20
198.2000122070346
 30
0.0
 11
10.75000000000909
 21
198.2000122070346
 31
0.0
  0
LINE
  5
C54B
330
3E7
100
AcDbEntity
  8
DETAIL
  6
CONTINUOUS
100
AcDbLine
 10
4.300003051759631
 20
201.009429931646
 30
0.0
 11
8.300003051755991
 21
203.318817138679
 31
0.0
  0
LINE
  5
C54E
330
3E7
100
AcDbEntity
  8
DETAIL
  6
CONTINUOUS
100
AcDbLine
 10
7.800003051763267
 20
201.1500244140686
 30
0.0
 11
8.800003051766907
 21
201.1500244140686
 31
0.0
  0
LINE
  5
C54F
330
3E7
100
AcDbEntity
  8
DETAIL
  6
CONTINUOUS
100
AcDbLine
 10
8.887145996106482
 20
199.4179687500036
 30
0.0
 11
7.712852478036436
 21
199.4179687500036
 31
0.0
  0
LINE
  5
C550
330
3E7
100
AcDbEntity
  8
DETAIL
  6
CONTINUOUS
100
AcDbLine
 10
7.800003051763267
 20
201.1500244140686
 30
0.0
 11
7.800003051763267
 21
199.7000122070353
 31
0.0
  0
LINE
  5
C551
330
3E7
100
AcDbEntity
  8
DETAIL
  6
CONTINUOUS
100
AcDbLine
 10
7.300003051770545
 20
199.2000122070339
 30
0.0
 11
5.849998474133826
 21
199.2000122070339
 31
0.0
  0
LINE
  5
C552
330
3E7
100
AcDbEntity
  8
DETAIL
  6
CONTINUOUS
100
AcDbLine
 10
8.300003051755991
 20
203.318817138679
 30
0.0
 11
12.30000305177054
 21
201.009429931646
 31
0.0
  0
LINE
  5
C554
330
3E7
100
AcDbEntity
  8
DETAIL
  6
CONTINUOUS
100
AcDbLine
 10
8.800003051766907
 20
199.7000122070353
 30
0.0
 11
8.800003051766907
 21
201.1500244140686
 31
0.0
  0
LINE
  5
C555
330
3E7
100
AcDbEntity
  8
DETAIL
  6
CONTINUOUS
100
AcDbLine
 10
9.300003051759633
 20
199.2000122070339
 30
0.0
 11
10.75000000000909
 21
199.2000122070339
 31
0.0
  0
LINE
  5
C556
330
3E7
100
AcDbEntity
  8
DETAIL
  6
CONTINUOUS
100
AcDbLine
 10
141.4999961853044
 20
204.0000305175813
 30
0.0
 11
88.00000047684262
 21
204.0000305175813
 31
0.0
  0
ARC
  5
C560
330
3E7
100
AcDbEntity
  8
DETAIL
  6
CONTINUOUS
100
AcDbCircle
 10
84.0000050780709
 20
197.0000259163589
 30
0.0
 40
0.9999953987874182
100
AcDbArc
 50
269.9997363681008
 51
0.0002636318731629
  0
ARC
  5
C561
330
3E7
100
AcDbEntity
  8
DETAIL
  6
CONTINUOUS
100
AcDbCircle
 10
75.99999509606459
 20
197.0000251368128
 30
0.0
 40
0.9999946192464603
100
AcDbArc
 50
179.9996917030345
 51
270.0003082969132
  0
LINE
  5
C562
330
3E7
100
AcDbEntity
  8
DETAIL
  6
CONTINUOUS
100
AcDbLine
 10
76.00000047683534
 20
196.0000305175844
 30
0.0
 11
84.00000047684626
 21
196.0000305175844
 31
0.0
  0
LINE
  5
C563
330
3E7
100
AcDbEntity
  8
DETAIL
  6
CONTINUOUS
100
AcDbLine
 10
85.00000047683171
 20
201.0000305175843
 30
0.0
 11
88.00000047684262
 21
204.0000305175813
 31
0.0
  0
LINE
  5
C564
330
3E7
100
AcDbEntity
  8
DETAIL
  6
CONTINUOUS
100
AcDbLine
 10
72.00000000000909
 20
204.0000305175813
 30
0.0
 11
75.0000004768317
 21
201.0000305175843
 31
0.0
  0
LINE
  5
C565
330
3E7
100
AcDbEntity
  8
DETAIL
  6
CONTINUOUS
100
AcDbLine
 10
85.00000047683171
 20
197.0000305175835
 30
0.0
 11
85.00000047683171
 21
201.0000305175843
 31
0.0
  0
LINE
  5
C566
330
3E7
100
AcDbEntity
  8
DETAIL
  6
CONTINUOUS
100
AcDbLine
 10
75.0000004768317
 20
201.0000305175843
 30
0.0
 11
75.0000004768317
 21
197.0000305175835
 31
0.0
  0
ARC
  5
C567
330
3E7
100
AcDbEntity
  8
DETAIL
  6
CONTINUOUS
100
AcDbCircle
 10
159.4000031893319
 20
205.8000242750039
 30
0.0
 40
0.2000062425882272
100
AcDbArc
 50
90.0004765272156
 51
179.9929662664118
  0
ARC
  5
C568
330
3E7
100
AcDbEntity
  8
DETAIL
  6
CONTINUOUS
100
AcDbCircle
 10
164.0000047157281
 20
207.0000258018671
 30
0.0
 40
0.9999952842943347
100
AcDbArc
 50
269.9997298080509
 51
0.0002701919490702
  0
LINE
  5
C56E
330
3E7
100
AcDbEntity
  8
DETAIL
  6
CONTINUOUS
100
AcDbLine
 10
144.4999961853154
 20
201.0000305175843
 30
0.0
 11
145.5000000000126
 21
201.0000305175843
 31
0.0
  0
LINE
  5
C56F
330
3E7
100
AcDbEntity
  8
DETAIL
  6
CONTINUOUS
100
AcDbLine
 10
159.1999969482476
 20
205.800048828132
 30
0.0
 11
159.1999969482476
 21
204.0000305175813
 31
0.0
  0
ARC
  5
C570
330
3E7
100
AcDbEntity
  8
DETAIL
  6
CONTINUOUS
100
AcDbCircle
 10
160.2000028038146
 20
185.2000165796516
 30
0.0
 40
0.2000028038519807
100
AcDbArc
 50
180.0012526447189
 51
260.0008413650849
  0
ARC
  5
C571
330
3E7
100
AcDbEntity
  8
DETAIL
  6
CONTINUOUS
100
AcDbCircle
 10
163.9999947306583
 20
184.0000252482468
 30
0.0
 40
1.000005269351972
100
AcDbArc
 50
0.0003019091918813
 51
89.99969809075601
  0
ARC
  5
C572
330
3E7
100
AcDbEntity
  8
DETAIL
  6
CONTINUOUS
100
AcDbCircle
 10
144.9999980926459
 20
190.5000305175826
 30
0.0
 40
0.5000019073490876
100
AcDbArc
 50
180.0
 51
0.0
  0
LINE
  5
C573
330
3E7
100
AcDbEntity
  8
DETAIL
  6
CONTINUOUS
100
AcDbLine
 10
144.4999961852969
 20
201.0000305175843
 30
0.0
 11
144.4999961852969
 21
190.5000305175826
 31
0.0
  0
LINE
  5
C574
330
3E7
100
AcDbEntity
  8
DETAIL
  6
CONTINUOUS
100
AcDbLine
 10
145.4999999999945
 20
190.5000305175826
 30
0.0
 11
145.4999999999945
 21
201.0000305175843
 31
0.0
  0
LINE
  5
C575
330
3E7
100
AcDbEntity
  8
DETAIL
  6
CONTINUOUS
100
AcDbLine
 10
160.0000000000018
 20
185.200012207033
 30
0.0
 11
160.0000000000018
 21
204.0000305175813
 31
0.0
  0
LINE
  5
C576
330
3E7
100
AcDbEntity
  8
DETAIL
  6
CONTINUOUS
100
AcDbLine
 10
144.4999961852969
 20
201.0000305175843
 30
0.0
 11
141.4999961853044
 21
204.0000305175813
 31
0.0
  0
LINE
  5
C577
330
3E7
100
AcDbEntity
  8
DETAIL
  6
CONTINUOUS
100
AcDbLine
 10
148.5000000000054
 20
204.0000305175813
 30
0.0
 11
145.4999999999945
 21
201.0000305175843
 31
0.0
  0
LINE
  5
C579
330
3E7
100
AcDbEntity
  8
DETAIL
  6
CONTINUOUS
100
AcDbLine
 10
-10.69999694824036
 20
185.0000305175808
 30
0.0
 11
163.9999999999981
 21
185.0000305175808
 31
0.0
  0
LINE
  5
C57A
330
3E7
100
AcDbEntity
  8
DETAIL
  6
CONTINUOUS
100
AcDbLine
 10
148.5000000000054
 20
204.0000305175813
 30
0.0
 11
160.0000000000018
 21
204.0000305175813
 31
0.0
  0
ARC
  5
C57E
330
3E7
100
AcDbEntity
  8
DETAIL
  6
CONTINUOUS
100
AcDbCircle
 10
196.4000110033174
 20
5.000009477430467
 30
0.0
 40
2.999990522584048
100
AcDbArc
 50
359.9998189938118
 51
90.000181006162
  0
LINE
  5
C580
330
3E7
100
AcDbEntity
  8
DETAIL
  6
CONTINUOUS
100
AcDbLine
 10
194.4000015258843
 20
0.0
 30
0.0
 11
194.4000015258843
 21
2.000000000002728
 31
0.0
  0
LINE
  5
C582
330
3E7
100
AcDbEntity
  8
DETAIL
  6
CONTINUOUS
100
AcDbLine
 10
199.4000015258843
 20
2.000000000002728
 30
0.0
 11
199.4000015258843
 21
5.0
 31
0.0
  0
LINE
  5
C584
330
3E7
100
AcDbEntity
  8
DETAIL
  6
CONTINUOUS
100
AcDbLine
 10
194.4000015258843
 20
2.000000000002728
 30
0.0
 11
199.4000015258843
 21
2.000000000002728
 31
0.0
  0
LINE
  5
10529
330
3E7
100
AcDbEntity
  8
DETAIL
  6
CONTINUOUS
100
AcDbLine
 10
166.9847335815501
 20
1303.313659667981
 30
0.0
 11
167.000000000009
 21
609.9000091552807
 31
0.0
  0
LINE
  5
1052A
330
3E7
100
AcDbEntity
  8
DETAIL
  6
CONTINUOUS
100
AcDbLine
 10
165.0000000000199
 20
1316.59997558595
 30
0.0
 11
165.0000000000199
 21
611.4000167846779
 31
0.0
  0
LINE
  5
1052E
330
3E7
100
AcDbEntity
  8
DETAIL
  6
CONTINUOUS
100
AcDbLine
 10
-164.999999999998
 20
611.4000244140742
 30
0.0
 11
-164.999999999998
 21
1316.600036621107
 31
0.0
  0
LINE
  5
10536
330
3E7
100
AcDbEntity
  8
DETAIL
  6
CONTINUOUS
100
AcDbLine
 10
-167.0000000000054
 20
1045.35739135743
 30
0.0
 11
-167.0000000000054
 21
609.9000244140734
 31
0.0
  0
ARC
  5
105D7
330
3E7
100
AcDbEntity
  8
DETAIL
  6
CONTINUOUS
100
AcDbCircle
 10
-166.0000004407975
 20
606.6000209215143
 30
0.0
 40
1.999999559201159
100
AcDbArc
 50
179.999987372003
 51
270.0000126279708
  0
ARC
  5
105D8
330
3E7
100
AcDbEntity
  8
DETAIL
  6
CONTINUOUS
100
AcDbCircle
 10
-166.9999989747684
 20
608.4858104270279
 30
0.0
 40
1.000001025243839
100
AcDbArc
 50
135.0000861368464
 51
180.000063073883
  0
ARC
  5
105D9
330
3E7
100
AcDbEntity
  8
DETAIL
  6
CONTINUOUS
100
AcDbCircle
 10
-165.292891979623
 20
610.900021422126
 30
0.0
 40
0.5000029919483456
100
AcDbArc
 50
90.00005459482261
 51
135.0010325618079
  0
ARC
  5
105DA
330
3E7
100
AcDbEntity
  8
DETAIL
  6
CONTINUOUS
100
AcDbCircle
 10
-142.0000019666786
 20
599.4000224473892
 30
0.0
 40
12.0000019666824
100
AcDbArc
 50
0.0000093902073536
 51
89.99999060974053
  0
ARC
  5
105DB
330
3E7
100
AcDbEntity
  8
DETAIL
  6
CONTINUOUS
100
AcDbCircle
 10
-142.0000019666786
 20
599.4000224473892
 30
0.0
 40
5.199998914925261
100
AcDbArc
 50
0.0000216697433495
 51
89.9999783302827
  0
LINE
  5
105DC
330
3E7
100
AcDbEntity
  8
DETAIL
  6
CONTINUOUS
100
AcDbLine
 10
-166.0000000000018
 20
604.6000213623117
 30
0.0
 11
-149.999999999998
 21
604.6000213623117
 31
0.0
  0
LINE
  5
105DD
330
3E7
100
AcDbEntity
  8
DETAIL
  6
CONTINUOUS
100
AcDbLine
 10
-168.0000000000091
 20
608.4858093261797
 30
0.0
 11
-167.9999999999981
 21
545.3142395019608
 31
0.0
  0
LINE
  5
105DF
330
3E7
100
AcDbEntity
  8
DETAIL
  6
CONTINUOUS
100
AcDbLine
 10
-165.2928924560528
 20
611.4000244140697
 30
0.0
 11
-149.999999999998
 21
611.4000244140697
 31
0.0
  0
LINE
  5
105E0
330
3E7
100
AcDbEntity
  8
DETAIL
  6
CONTINUOUS
100
AcDbLine
 10
-165.6464538574232
 20
611.2535705566506
 30
0.0
 11
-167.7071075439544
 21
609.1929168701242
 31
0.0
  0
LINE
  5
105E1
330
3E7
100
AcDbEntity
  8
DETAIL
  6
CONTINUOUS
100
AcDbLine
 10
-149.999999999998
 20
604.6000213623117
 30
0.0
 11
-142.0000000000054
 21
604.6000213623117
 31
0.0
  0
LINE
  5
105E2
330
3E7
100
AcDbEntity
  8
DETAIL
  6
CONTINUOUS
100
AcDbLine
 10
-142.0000000000054
 20
611.4000244140697
 30
0.0
 11
-149.999999999998
 21
611.4000244140697
 31
0.0
  0
ARC
  5
106B3
330
3E7
100
AcDbEntity
  8
DETAIL
  6
CONTINUOUS
100
AcDbCircle
 10
-167.9999946588377
 20
1049.842675095874
 30
0.0
 40
2.999994658931586
100
AcDbArc
 50
314.9996074185506
 51
359.9995468148485
  0
ARC
  5
106B4
330
3E7
100
AcDbEntity
  8
DETAIL
  6
CONTINUOUS
100
AcDbCircle
 10
-164.0000054485954
 20
1045.357367673259
 30
0.0
 40
2.99999455149649
100
AcDbArc
 50
134.9996065685897
 51
179.9995476647399
  0
LINE
  5
106B6
330
3E7
100
AcDbEntity
  8
DETAIL
  6
CONTINUOUS
100
AcDbLine
 10
-165.8786926269548
 20
1047.721343994153
 30
0.0
 11
-166.1213073730484
 21
1047.478698730478
 31
0.0
  0
LINE
  5
10747
330
3E7
100
AcDbEntity
  8
DETAIL
  6
CONTINUOUS
100
AcDbLine
 10
-164.999999999998
 20
1334.600036621109
 30
0.0
 11
-164.999999999998
 21
1319.100036621106
 31
0.0
  0
ARC
  5
10760
330
3E7
100
AcDbEntity
  8
DETAIL
  6
CONTINUOUS
100
AcDbCircle
 10
-163.9999922324913
 20
1316.600028853595
 30
0.0
 40
1.000007767543177
100
AcDbArc
 50
90.00044504222797
 51
179.9995549577458
  0
ARC
  5
10797
330
3E7
100
AcDbEntity
  8
DETAIL
  6
CONTINUOUS
100
AcDbCircle
 10
-163.4999922934712
 20
1319.100006910852
 30
0.0
 40
1.500007706811639
100
AcDbArc
 50
179.9988651576233
 51
239.9998300541991
  0
LINE
  5
107A0
330
3E7
100
AcDbEntity
  8
DETAIL
  6
CONTINUOUS
100
AcDbLine
 10
-164.0000000000125
 20
1317.600036621106
 30
0.0
 11
-164.2499999999909
 21
1317.800964355481
 31
0.0
  0
ARC
  5
107E1
330
3E7
100
AcDbEntity
  8
DETAIL
  6
CONTINUOUS
100
AcDbCircle
 10
-159.9999922325132
 20
1332.999992232523
 30
0.0
 40
5.000007767493124
100
AcDbArc
 50
90.00008900871653
 51
179.9999109912834
  0
LINE
  5
10809
330
3E7
100
AcDbEntity
  8
DETAIL
  6
CONTINUOUS
100
AcDbLine
 10
179.8264998099203
 20
1222.500000000012
 30
0.0
 11
166.9999965078769
 21
1222.500000000012
 31
0.0
  0
LINE
  5
1080A
330
3E7
100
AcDbEntity
  8
DETAIL
  6
CONTINUOUS
100
AcDbLine
 10
179.7612237552256
 20
1225.499996369366
 30
0.0
 11
166.9999965078769
 21
1225.50000000001
 31
0.0
  0
LINE
  5
1082D
330
3E7
100
AcDbEntity
  8
DETAIL
  6
CONTINUOUS
100
AcDbLine
 10
165.0000076294072
 20
1319.100036621106
 30
0.0
 11
165.0000000000018
 21
1334.600036621109
 31
0.0
  0
ARC
  5
1082F
330
3E7
100
AcDbEntity
  8
DETAIL
  6
CONTINUOUS
100
AcDbCircle
 10
164.0000224471459
 20
1316.599998033093
 30
0.0
 40
0.9999775531100691
100
AcDbArc
 50
359.9987138445872
 51
90.00128615538669
  0
LINE
  5
10834
330
3E7
100
AcDbEntity
  8
DETAIL
  6
CONTINUOUS
100
AcDbLine
 10
-164.0000000000035
 20
1317.600036621108
 30
0.0
 11
164.0000000000163
 21
1317.599975585949
 31
0.0
  0
ARC
  5
1084E
330
3E7
100
AcDbEntity
  8
DETAIL
  6
CONTINUOUS
100
AcDbCircle
 10
163.4999937467382
 20
1319.100010476563
 30
0.0
 40
1.500013882898251
100
AcDbArc
 50
300.0003061493162
 51
0.0009986388778435
  0
LINE
  5
1084F
330
3E7
100
AcDbEntity
  8
DETAIL
  6
CONTINUOUS
100
AcDbLine
 10
164.2500076293998
 20
1317.800964355481
 30
0.0
 11
163.999999898953
 21
1317.599975585949
 31
0.0
  0
ARC
  5
10878
330
3E7
100
AcDbEntity
  8
DETAIL
  6
CONTINUOUS
100
AcDbCircle
 10
159.999995744505
 20
1332.999988115127
 30
0.0
 40
5.000011884897076
100
AcDbArc
 50
0.0001361903931212
 51
89.99986380955476
  0
LINE
  5
10887
330
3E7
100
AcDbEntity
  8
DETAIL
  6
CONTINUOUS
100
AcDbLine
 10
175.2999995596308
 20
1213.000061035167
 30
0.0
 11
175.2999995596308
 21
1222.500000000012
 31
0.0
  0
LINE
  5
10889
330
3E7
100
AcDbEntity
  8
DETAIL
  6
CONTINUOUS
100
AcDbLine
 10
177.7999995596308
 20
1213.000061035167
 30
0.0
 11
177.7999995596308
 21
1222.500000000012
 31
0.0
  0
ARC
  5
1088B
330
3E7
100
AcDbEntity
  8
DETAIL
  6
CONTINUOUS
100
AcDbCircle
 10
174.0499837048647
 20
1196.108605226585
 30
0.0
 40
2.999984145325732
100
AcDbArc
 50
180.0004523259583
 51
267.0001903745513
  0
ARC
  5
1088C
330
3E7
100
AcDbEntity
  8
DETAIL
  6
CONTINUOUS
100
AcDbCircle
 10
175.0500105547708
 20
1224.000006273603
 30
0.0
 40
4.000018921055627
100
AcDbArc
 50
103.8463245498893
 51
145.3845836534485
  0
LINE
  5
1088E
330
3E7
100
AcDbEntity
  8
DETAIL
  6
CONTINUOUS
100
AcDbLine
 10
183.0499995596275
 20
1197.00000000001
 30
0.0
 11
171.0499995596201
 21
1197.00000000001
 31
0.0
  0
LINE
  5
10890
330
3E7
100
AcDbEntity
  8
DETAIL
  6
CONTINUOUS
100
AcDbLine
 10
177.7999995596308
 20
1192.986572265634
 30
0.0
 11
173.892986620178
 21
1193.112731933601
 31
0.0
  0
LINE
  5
10892
330
3E7
100
AcDbEntity
  8
DETAIL
  6
CONTINUOUS
100
AcDbLine
 10
171.0499995596201
 20
1222.000000000011
 30
0.0
 11
175.2999995596308
 21
1222.000000000011
 31
0.0
  0
LINE
  5
10893
330
3E7
100
AcDbEntity
  8
DETAIL
  6
CONTINUOUS
100
AcDbLine
 10
171.3527568228184
 20
1225.50000000001
 30
0.0
 11
171.7580607778855
 21
1226.272277832044
 31
0.0
  0
LINE
  5
10894
330
3E7
100
AcDbEntity
  8
DETAIL
  6
CONTINUOUS
100
AcDbLine
 10
174.0927317983933
 20
1227.88378906251
 30
0.0
 11
174.4499934561119
 21
1227.927185058605
 31
0.0
  0
LINE
  5
10895
330
3E7
100
AcDbEntity
  8
DETAIL
  6
CONTINUOUS
100
AcDbLine
 10
183.0499995596275
 20
1213.00000000001
 30
0.0
 11
171.0499995596201
 21
1213.00000000001
 31
0.0
  0
LINE
  5
1089A
330
3E7
100
AcDbEntity
  8
DETAIL
  6
CONTINUOUS
100
AcDbLine
 10
171.0499995596201
 20
1222.500000000012
 30
0.0
 11
171.049999559633
 21
1196.108581542979
 31
0.0
  0
ARC
  5
1089B
330
3E7
100
AcDbEntity
  8
DETAIL
  6
CONTINUOUS
100
AcDbCircle
 10
180.0500024441699
 20
1196.108600639285
 30
0.0
 40
2.999997115517551
100
AcDbArc
 50
287.9998946361812
 51
359.9996352870383
  0
LINE
  5
1089F
330
3E7
100
AcDbEntity
  8
DETAIL
  6
CONTINUOUS
100
AcDbLine
 10
177.0499995596239
 20
1197.00000000001
 30
0.0
 11
177.0499995596239
 21
1213.00000000001
 31
0.0
  0
LINE
  5
108A0
330
3E7
100
AcDbEntity
  8
DETAIL
  6
CONTINUOUS
100
AcDbLine
 10
179.0499995596309
 20
1199.000000000008
 30
0.0
 11
183.0499995596275
 21
1199.000000000008
 31
0.0
  0
LINE
  5
108AD
330
3E7
100
AcDbEntity
  8
DETAIL
  6
CONTINUOUS
100
AcDbLine
 10
177.7999995596308
 20
1192.986572265634
 30
0.0
 11
180.2070048696823
 21
1193.112731933601
 31
0.0
  0
LINE
  5
108AF
330
3E7
100
AcDbEntity
  8
DETAIL
  6
CONTINUOUS
100
AcDbLine
 10
179.0499995596309
 20
1211.000000000012
 30
0.0
 11
179.0499995596309
 21
1199.000000000008
 31
0.0
  0
LINE
  5
108B0
330
3E7
100
AcDbEntity
  8
DETAIL
  6
CONTINUOUS
100
AcDbLine
 10
183.0499995596255
 20
1223.999996507877
 30
0.0
 11
183.0499995596275
 21
1196.108581542979
 31
0.0
  0
LINE
  5
108B1
330
3E7
100
AcDbEntity
  8
DETAIL
  6
CONTINUOUS
100
AcDbLine
 10
179.0499995596309
 20
1228.00000000001
 30
0.0
 11
174.4499934561119
 21
1227.927185058605
 31
0.0
  0
LINE
  5
108B2
330
3E7
100
AcDbEntity
  8
DETAIL
  6
CONTINUOUS
100
AcDbLine
 10
179.0499995596309
 20
1226.000000000012
 30
0.0
 11
177.7999995596308
 21
1226.000000000012
 31
0.0
  0
LINE
  5
108B3
330
3E7
100
AcDbEntity
  8
DETAIL
  6
CONTINUOUS
100
AcDbLine
 10
177.7999995596308
 20
1222.000000000011
 30
0.0
 11
179.0499995596309
 21
1222.000000000011
 31
0.0
  0
LINE
  5
108B6
330
3E7
100
AcDbEntity
  8
DETAIL
  6
CONTINUOUS
100
AcDbLine
 10
179.0499995596309
 20
1215.686767578135
 30
0.0
 11
179.0499995596309
 21
1222.000000000011
 31
0.0
  0
LINE
  5
108B7
330
3E7
100
AcDbEntity
  8
DETAIL
  6
CONTINUOUS
100
AcDbLine
 10
179.0499995596309
 20
1211.000000000012
 30
0.0
 11
183.0499995596275
 21
1211.000000000012
 31
0.0
  0
LINE
  5
108C6
330
3E7
100
AcDbEntity
  8
DETAIL
  6
CONTINUOUS
100
AcDbLine
 10
180.9770472891268
 20
1193.255432128916
 30
0.0
 11
180.2070048696823
 21
1193.112731933601
 31
0.0
  0
LINE
  5
108C7
330
3E7
100
AcDbEntity
  8
DETAIL
  6
CONTINUOUS
100
AcDbLine
 10
180.5499995596275
 20
1211.000000000012
 30
0.0
 11
180.5499995596275
 21
1199.000000000008
 31
0.0
  0
LINE
  5
140EB
330
3E7
100
AcDbEntity
  8
DETAIL
100
AcDbLine
 10
-160.0000000000018
 20
1338.00000000001
 30
0.0
 11
160.0000076293925
 21
1338.00000000001
 31
0.0
  0
CIRCLE
  5
140EE
330
3E7
100
AcDbEntity
  8
DETAIL
100
AcDbCircle
 10
-40.0000003026962
 20
159.0000000000054
 30
0.0
 40
20.05000850075659
  0
CIRCLE
  5
140EF
330
3E7
100
AcDbEntity
  8
DETAIL
100
AcDbCircle
 10
-90.00000030269621
 20
162.0000000000024
 30
0.0
 40
13.55001226352523
  0
ARC
  5
140F0
330
3E7
100
AcDbEntity
  8
DETAIL
100
AcDbCircle
 10
-116.0001632141246
 20
125.000208990184
 30
0.0
 40
20.04983983871543
100
AcDbArc
 50
89.99949831008335
 51
180.0005972244811
  0
LINE
  5
140F1
330
3E7
100
AcDbEntity
  8
DETAIL
100
AcDbLine
 10
-115.9999876545007
 20
145.0500488281294
 30
0.0
 11
-89.99999999996907
 21
145.0500488281272
 31
0.0
  0
LINE
  5
140F2
330
3E7
100
AcDbEntity
  8
DETAIL
100
AcDbLine
 10
-136.0500030517559
 20
125.0000004197566
 30
0.0
 11
-136.0500030517559
 21
26.00000000000362
 31
0.0
  0
ARC
  5
140F3
330
3E7
100
AcDbEntity
  8
DETAIL
100
AcDbCircle
 10
-90.00004431274829
 20
99.00000146362982
 30
0.0
 40
46.05004736450011
100
AcDbArc
 50
359.9999981789486
 51
89.99999254384151
  0
LINE
  5
140F4
330
3E7
100
AcDbEntity
  8
DETAIL
100
AcDbLine
 10
-80.94999694823673
 20
125.0000000000045
 30
0.0
 11
-81.00000000000182
 21
26.00000000000362
 31
0.0
  0
LINE
  5
140F5
330
3E7
100
AcDbEntity
  8
DETAIL
100
AcDbLine
 10
-80.94999694823673
 20
125.0000000000045
 30
0.0
 11
-92.44999694823306
 21
143.135620117191
 31
0.0
  0
LINE
  5
140F6
330
3E7
100
AcDbEntity
  8
DETAIL
100
AcDbLine
 10
-92.44999694823306
 20
143.135620117191
 30
0.0
 11
-92.44999694823127
 21
145.0500488281277
 31
0.0
  0
LINE
  5
1410F
330
3E7
100
AcDbEntity
  8
DETAIL
  6
CONTINUOUS
100
AcDbLine
 10
-165.4999999999908
 20
54.25000000000181
 30
0.0
 11
-165.4999999999908
 21
42.24999999999909
 31
0.0
  0
LINE
  5
14110
330
3E7
100
AcDbEntity
  8
DETAIL
  6
CONTINUOUS
100
AcDbLine
 10
-166.2999877929705
 20
53.10565185546693
 30
0.0
 11
-166.2999877929705
 21
43.35498046874818
 31
0.0
  0
LINE
  5
14111
330
3E7
100
AcDbEntity
  8
DETAIL
  6
CONTINUOUS
100
AcDbLine
 10
-169.154052734373
 20
43.63122558593659
 30
0.0
 11
-166.2999877929705
 21
43.63122558593659
 31
0.0
  0
LINE
  5
14112
330
3E7
100
AcDbEntity
  8
DETAIL
  6
CONTINUOUS
100
AcDbLine
 10
-169.799987792974
 20
51.75000000000181
 30
0.0
 11
-169.799987792974
 21
44.74999999999909
 31
0.0
  0
LINE
  5
14113
330
3E7
100
AcDbEntity
  8
DETAIL
  6
CONTINUOUS
100
AcDbLine
 10
-169.154052734373
 20
45.94061279296965
 30
0.0
 11
-166.2999877929705
 21
45.94061279296965
 31
0.0
  0
LINE
  5
14114
330
3E7
100
AcDbEntity
  8
DETAIL
  6
CONTINUOUS
100
AcDbLine
 10
-169.154052734373
 20
52.86883544921693
 30
0.0
 11
-166.2999877929705
 21
52.86883544921693
 31
0.0
  0
LINE
  5
14115
330
3E7
100
AcDbEntity
  8
DETAIL
  6
CONTINUOUS
100
AcDbLine
 10
-169.154052734373
 20
50.5594482421884
 30
0.0
 11
-166.2999877929705
 21
50.55944824218795
 31
0.0
  0
LINE
  5
14116
330
3E7
100
AcDbEntity
  8
DETAIL
  6
CONTINUOUS
100
AcDbLine
 10
-166.2999877929705
 20
53.10565185546693
 30
0.0
 11
-166.2865600585955
 21
53.18505859374909
 31
0.0
  0
LINE
  5
14117
330
3E7
100
AcDbEntity
  8
DETAIL
  6
CONTINUOUS
100
AcDbLine
 10
-166.2865600585955
 20
53.18505859374909
 30
0.0
 11
-166.263427734373
 21
53.20361328124818
 31
0.0
  0
LINE
  5
14118
330
3E7
100
AcDbEntity
  8
DETAIL
  6
CONTINUOUS
100
AcDbLine
 10
-166.263427734373
 20
53.20361328124818
 30
0.0
 11
-166.249999999998
 21
53.22155761718931
 31
0.0
  0
LINE
  5
14119
330
3E7
100
AcDbEntity
  8
DETAIL
  6
CONTINUOUS
100
AcDbLine
 10
-166.2999877929705
 20
43.35498046874818
 30
0.0
 11
-166.2865600585955
 21
43.31500244140443
 31
0.0
  0
LINE
  5
1411A
330
3E7
100
AcDbEntity
  8
DETAIL
  6
CONTINUOUS
100
AcDbLine
 10
-166.2865600585955
 20
43.31500244140443
 30
0.0
 11
-166.249999999998
 21
43.27850341796875
 31
0.0
  0
LINE
  5
1411B
330
3E7
100
AcDbEntity
  8
DETAIL
  6
CONTINUOUS
100
AcDbLine
 10
-166.249999999998
 20
43.27850341796875
 30
0.0
 11
-166.199951171873
 21
43.24999999999818
 31
0.0
  0
LINE
  5
1411C
330
3E7
100
AcDbEntity
  8
DETAIL
  6
CONTINUOUS
100
AcDbLine
 10
-166.249999999998
 20
53.22155761718931
 30
0.0
 11
-166.199951171873
 21
53.24999999999818
 31
0.0
  0
LINE
  5
1411D
330
3E7
100
AcDbEntity
  8
DETAIL
  6
CONTINUOUS
100
AcDbLine
 10
-169.154052734373
 20
52.86883544921693
 30
0.0
 11
-169.799987792974
 21
51.75000000000181
 31
0.0
  0
LINE
  5
1411E
330
3E7
100
AcDbEntity
  8
DETAIL
  6
CONTINUOUS
100
AcDbLine
 10
-169.154052734373
 20
43.63122558593659
 30
0.0
 11
-169.799987792974
 21
44.74999999999909
 31
0.0
  0
LINE
  5
1411F
330
3E7
100
AcDbEntity
  8
DETAIL
  6
CONTINUOUS
100
AcDbLine
 10
-166.199951171873
 20
43.24999999999818
 30
0.0
 11
-165.4999999999908
 21
43.24999999999818
 31
0.0
  0
LINE
  5
14120
330
3E7
100
AcDbEntity
  8
DETAIL
  6
CONTINUOUS
100
AcDbLine
 10
-166.199951171873
 20
53.24999999999818
 30
0.0
 11
-165.4999999999908
 21
53.24999999999818
 31
0.0
  0
LINE
  5
14121
330
3E7
100
AcDbEntity
  8
DETAIL
  6
CONTINUOUS
100
AcDbLine
 10
-165.4999999999908
 20
42.24999999999909
 30
0.0
 11
-164.999999999998
 21
42.24999999999909
 31
0.0
  0
LINE
  5
14122
330
3E7
100
AcDbEntity
  8
DETAIL
  6
CONTINUOUS
100
AcDbLine
 10
-165.4999999999908
 20
54.25000000000181
 30
0.0
 11
-164.999999999998
 21
54.25000000000181
 31
0.0
  0
ARC
  5
14123
330
3E7
100
AcDbEntity
  8
DETAIL
100
AcDbCircle
 10
-167.4665290993269
 20
51.71414184570267
 30
0.0
 40
2.044762415743188
100
AcDbArc
 50
145.6179863151611
 51
214.3820136848389
  0
ARC
  5
14124
330
3E7
100
AcDbEntity
  8
DETAIL
100
AcDbCircle
 10
-161.867902721051
 20
48.25003051757494
 30
0.0
 40
7.643388793156777
100
AcDbArc
 50
162.4134702354826
 51
197.5865297644741
  0
ARC
  5
14125
330
3E7
100
AcDbEntity
  8
DETAIL
100
AcDbCircle
 10
-167.4665290680386
 20
44.7859191894531
 30
0.0
 40
2.044762441566529
100
AcDbArc
 50
145.6179868102023
 51
214.3820131897975
  0
ARC
  5
1413D
330
3E7
100
AcDbEntity
  8
DETAIL
100
AcDbCircle
 10
-167.4665290680386
 20
1325.13595581056
 30
0.0
 40
2.044762441566529
100
AcDbArc
 50
145.6179868102023
 51
214.3820131897975
  0
ARC
  5
1413E
330
3E7
100
AcDbEntity
  8
DETAIL
100
AcDbCircle
 10
-161.867902721051
 20
1328.600067138681
 30
0.0
 40
7.643388793156777
100
AcDbArc
 50
162.4134702354826
 51
197.5865297644741
  0
ARC
  5
1413F
330
3E7
100
AcDbEntity
  8
DETAIL
100
AcDbCircle
 10
-167.4665290993269
 20
1332.06417846681
 30
0.0
 40
2.044762415743188
100
AcDbArc
 50
145.6179863151611
 51
214.3820136848389
  0
LINE
  5
14140
330
3E7
100
AcDbEntity
  8
DETAIL
  6
CONTINUOUS
100
AcDbLine
 10
-165.4999999999908
 20
1334.600036621109
 30
0.0
 11
-164.999999999998
 21
1334.600036621109
 31
0.0
  0
LINE
  5
14141
330
3E7
100
AcDbEntity
  8
DETAIL
  6
CONTINUOUS
100
AcDbLine
 10
-165.4999999999908
 20
1322.600036621106
 30
0.0
 11
-164.999999999998
 21
1322.600036621106
 31
0.0
  0
LINE
  5
14142
330
3E7
100
AcDbEntity
  8
DETAIL
  6
CONTINUOUS
100
AcDbLine
 10
-166.199951171873
 20
1333.600036621105
 30
0.0
 11
-165.4999999999908
 21
1333.600036621105
 31
0.0
  0
LINE
  5
14143
330
3E7
100
AcDbEntity
  8
DETAIL
  6
CONTINUOUS
100
AcDbLine
 10
-166.199951171873
 20
1323.600036621105
 30
0.0
 11
-165.4999999999908
 21
1323.600036621105
 31
0.0
  0
LINE
  5
14144
330
3E7
100
AcDbEntity
  8
DETAIL
  6
CONTINUOUS
100
AcDbLine
 10
-169.154052734373
 20
1323.981262207044
 30
0.0
 11
-169.799987792974
 21
1325.100036621106
 31
0.0
  0
LINE
  5
14145
330
3E7
100
AcDbEntity
  8
DETAIL
  6
CONTINUOUS
100
AcDbLine
 10
-169.154052734373
 20
1333.218872070323
 30
0.0
 11
-169.799987792974
 21
1332.100036621109
 31
0.0
  0
LINE
  5
14146
330
3E7
100
AcDbEntity
  8
DETAIL
  6
CONTINUOUS
100
AcDbLine
 10
-166.249999999998
 20
1333.571594238296
 30
0.0
 11
-166.199951171873
 21
1333.600036621105
 31
0.0
  0
LINE
  5
14147
330
3E7
100
AcDbEntity
  8
DETAIL
  6
CONTINUOUS
100
AcDbLine
 10
-166.249999999998
 20
1323.628540039075
 30
0.0
 11
-166.199951171873
 21
1323.600036621105
 31
0.0
  0
LINE
  5
14148
330
3E7
100
AcDbEntity
  8
DETAIL
  6
CONTINUOUS
100
AcDbLine
 10
-166.2865600585955
 20
1323.665039062511
 30
0.0
 11
-166.249999999998
 21
1323.628540039075
 31
0.0
  0
LINE
  5
14149
330
3E7
100
AcDbEntity
  8
DETAIL
  6
CONTINUOUS
100
AcDbLine
 10
-166.2999877929705
 20
1323.705017089855
 30
0.0
 11
-166.2865600585955
 21
1323.665039062511
 31
0.0
  0
LINE
  5
1414A
330
3E7
100
AcDbEntity
  8
DETAIL
  6
CONTINUOUS
100
AcDbLine
 10
-166.263427734373
 20
1333.553649902355
 30
0.0
 11
-166.249999999998
 21
1333.571594238296
 31
0.0
  0
LINE
  5
1414B
330
3E7
100
AcDbEntity
  8
DETAIL
  6
CONTINUOUS
100
AcDbLine
 10
-166.2865600585955
 20
1333.535095214856
 30
0.0
 11
-166.263427734373
 21
1333.553649902355
 31
0.0
  0
LINE
  5
1414C
330
3E7
100
AcDbEntity
  8
DETAIL
  6
CONTINUOUS
100
AcDbLine
 10
-166.2999877929705
 20
1333.455688476574
 30
0.0
 11
-166.2865600585955
 21
1333.535095214856
 31
0.0
  0
LINE
  5
1414D
330
3E7
100
AcDbEntity
  8
DETAIL
  6
CONTINUOUS
100
AcDbLine
 10
-169.154052734373
 20
1330.909484863294
 30
0.0
 11
-166.2999877929705
 21
1330.909484863294
 31
0.0
  0
LINE
  5
1414E
330
3E7
100
AcDbEntity
  8
DETAIL
  6
CONTINUOUS
100
AcDbLine
 10
-169.154052734373
 20
1333.218872070323
 30
0.0
 11
-166.2999877929705
 21
1333.218872070323
 31
0.0
  0
LINE
  5
1414F
330
3E7
100
AcDbEntity
  8
DETAIL
  6
CONTINUOUS
100
AcDbLine
 10
-169.154052734373
 20
1326.290649414077
 30
0.0
 11
-166.2999877929705
 21
1326.290649414077
 31
0.0
  0
LINE
  5
14150
330
3E7
100
AcDbEntity
  8
DETAIL
  6
CONTINUOUS
100
AcDbLine
 10
-169.799987792974
 20
1332.100036621109
 30
0.0
 11
-169.799987792974
 21
1325.100036621106
 31
0.0
  0
LINE
  5
14151
330
3E7
100
AcDbEntity
  8
DETAIL
  6
CONTINUOUS
100
AcDbLine
 10
-169.154052734373
 20
1323.981262207044
 30
0.0
 11
-166.2999877929705
 21
1323.981262207044
 31
0.0
  0
LINE
  5
14152
330
3E7
100
AcDbEntity
  8
DETAIL
  6
CONTINUOUS
100
AcDbLine
 10
-166.2999877929705
 20
1333.455688476574
 30
0.0
 11
-166.2999877929705
 21
1323.705017089855
 31
0.0
  0
LINE
  5
14153
330
3E7
100
AcDbEntity
  8
DETAIL
  6
CONTINUOUS
100
AcDbLine
 10
-165.4999999999908
 20
1334.600036621109
 30
0.0
 11
-165.4999999999908
 21
1322.600036621106
 31
0.0
  0
ARC
  5
14154
330
3E7
100
AcDbEntity
  8
DETAIL
100
AcDbCircle
 10
167.4666544365955
 20
1325.135940551773
 30
0.0
 40
2.044667594508958
100
AcDbArc
 50
325.6156500638608
 51
34.3843499361391
  0
ARC
  5
14155
330
3E7
100
AcDbEntity
  8
DETAIL
100
AcDbCircle
 10
161.8686541983952
 20
1328.600051879897
 30
0.0
 40
7.642667831145472
100
AcDbArc
 50
342.4118770835066
 51
17.58812291649989
  0
ARC
  5
14156
330
3E7
100
AcDbEntity
  8
DETAIL
100
AcDbCircle
 10
167.4667037451416
 20
1332.064147949236
 30
0.0
 40
2.044618284539545
100
AcDbArc
 50
325.6152226050861
 51
34.38477739489286
  0
LINE
  5
14157
330
3E7
100
AcDbEntity
  8
DETAIL
  6
CONTINUOUS
100
AcDbLine
 10
165.4999999999945
 20
1334.600036621109
 30
0.0
 11
165.0000000000018
 21
1334.600036621109
 31
0.0
  0
LINE
  5
14158
330
3E7
100
AcDbEntity
  8
DETAIL
  6
CONTINUOUS
100
AcDbLine
 10
165.4999999999945
 20
1322.600036621111
 30
0.0
 11
165.0000000000018
 21
1322.600036621111
 31
0.0
  0
LINE
  5
14159
330
3E7
100
AcDbEntity
  8
DETAIL
  6
CONTINUOUS
100
AcDbLine
 10
166.199981689444
 20
1333.60003662111
 30
0.0
 11
165.4999999999945
 21
1333.60003662111
 31
0.0
  0
LINE
  5
1415A
330
3E7
100
AcDbEntity
  8
DETAIL
  6
CONTINUOUS
100
AcDbLine
 10
166.199981689444
 20
1323.60003662111
 30
0.0
 11
165.4999999999945
 21
1323.60003662111
 31
0.0
  0
LINE
  5
1415B
330
3E7
100
AcDbEntity
  8
DETAIL
  6
CONTINUOUS
100
AcDbLine
 10
169.1540527343768
 20
1333.218841552752
 30
0.0
 11
169.7999877929595
 21
1332.100036621109
 31
0.0
  0
LINE
  5
1415C
330
3E7
100
AcDbEntity
  8
DETAIL
  6
CONTINUOUS
100
AcDbLine
 10
169.1540527343768
 20
1323.981231689472
 30
0.0
 11
169.7999877929595
 21
1325.100036621111
 31
0.0
  0
LINE
  5
1415D
330
3E7
100
AcDbEntity
  8
DETAIL
  6
CONTINUOUS
100
AcDbLine
 10
166.2500000000018
 20
1333.571594238296
 30
0.0
 11
166.199981689444
 21
1333.60003662111
 31
0.0
  0
LINE
  5
1415E
330
3E7
100
AcDbEntity
  8
DETAIL
  6
CONTINUOUS
100
AcDbLine
 10
166.2806701660174
 20
1323.655609130874
 30
0.0
 11
166.299987792956
 21
1323.704986572279
 31
0.0
  0
LINE
  5
1415F
330
3E7
100
AcDbEntity
  8
DETAIL
  6
CONTINUOUS
100
AcDbLine
 10
166.2500000000018
 20
1323.628509521499
 30
0.0
 11
166.2806701660174
 21
1323.655609130874
 31
0.0
  0
LINE
  5
14160
330
3E7
100
AcDbEntity
  8
DETAIL
  6
CONTINUOUS
100
AcDbLine
 10
166.199981689444
 20
1323.60003662111
 30
0.0
 11
166.2500000000018
 21
1323.628509521499
 31
0.0
  0
LINE
  5
14161
330
3E7
100
AcDbEntity
  8
DETAIL
  6
CONTINUOUS
100
AcDbLine
 10
166.2634277343768
 20
1333.553619384779
 30
0.0
 11
166.2500000000018
 21
1333.571594238296
 31
0.0
  0
LINE
  5
14162
330
3E7
100
AcDbEntity
  8
DETAIL
  6
CONTINUOUS
100
AcDbLine
 10
166.2865905761663
 20
1333.535095214861
 30
0.0
 11
166.2634277343768
 21
1333.553619384779
 31
0.0
  0
LINE
  5
14163
330
3E7
100
AcDbEntity
  8
DETAIL
  6
CONTINUOUS
100
AcDbLine
 10
166.299987792956
 20
1333.455688476578
 30
0.0
 11
166.2865905761663
 21
1333.535095214861
 31
0.0
  0
LINE
  5
14164
330
3E7
100
AcDbEntity
  8
DETAIL
  6
CONTINUOUS
100
AcDbLine
 10
169.1540527343768
 20
1330.909454345719
 30
0.0
 11
166.2999877929578
 21
1330.909454345719
 31
0.0
  0
LINE
  5
14165
330
3E7
100
AcDbEntity
  8
DETAIL
  6
CONTINUOUS
100
AcDbLine
 10
169.1540527343768
 20
1333.218841552752
 30
0.0
 11
166.2999877929578
 21
1333.218841552752
 31
0.0
  0
LINE
  5
14166
330
3E7
100
AcDbEntity
  8
DETAIL
  6
CONTINUOUS
100
AcDbLine
 10
169.1540527343768
 20
1326.290649414077
 30
0.0
 11
166.2999877929578
 21
1326.290649414077
 31
0.0
  0
LINE
  5
14167
330
3E7
100
AcDbEntity
  8
DETAIL
  6
CONTINUOUS
100
AcDbLine
 10
169.1540527343768
 20
1323.981231689472
 30
0.0
 11
166.2999877929578
 21
1323.981231689472
 31
0.0
  0
LINE
  5
14168
330
3E7
100
AcDbEntity
  8
DETAIL
  6
CONTINUOUS
100
AcDbLine
 10
165.4999999999945
 20
1322.600036621111
 30
0.0
 11
165.4999999999945
 21
1334.600036621109
 31
0.0
  0
LINE
  5
14169
330
3E7
100
AcDbEntity
  8
DETAIL
  6
CONTINUOUS
100
AcDbLine
 10
169.7999877929595
 20
1325.100036621111
 30
0.0
 11
169.7999877929595
 21
1332.100036621109
 31
0.0
  0
LINE
  5
1416A
330
3E7
100
AcDbEntity
  8
DETAIL
  6
CONTINUOUS
100
AcDbLine
 10
166.299987792956
 20
1323.704986572279
 30
0.0
 11
166.299987792956
 21
1333.455688476578
 31
0.0
  0
LINE
  5
1416B
330
3E7
100
AcDbEntity
  8
DETAIL
  6
CONTINUOUS
100
AcDbLine
 10
166.299987792956
 20
39.60494995117187
 30
0.0
 11
166.299987792956
 21
49.35565185547147
 31
0.0
  0
LINE
  5
1416C
330
3E7
100
AcDbEntity
  8
DETAIL
  6
CONTINUOUS
100
AcDbLine
 10
169.7999877929595
 20
41.00000000000362
 30
0.0
 11
169.7999877929595
 21
48.00000000000181
 31
0.0
  0
LINE
  5
1416D
330
3E7
100
AcDbEntity
  8
DETAIL
  6
CONTINUOUS
100
AcDbLine
 10
165.4999999999945
 20
38.50000000000363
 30
0.0
 11
165.4999999999945
 21
50.50000000000181
 31
0.0
  0
LINE
  5
1416E
330
3E7
100
AcDbEntity
  8
DETAIL
  6
CONTINUOUS
100
AcDbLine
 10
169.1540527343768
 20
39.88119506836483
 30
0.0
 11
166.2999877929578
 21
39.88119506836483
 31
0.0
  0
LINE
  5
1416F
330
3E7
100
AcDbEntity
  8
DETAIL
  6
CONTINUOUS
100
AcDbLine
 10
169.1540527343768
 20
42.19061279296965
 30
0.0
 11
166.2999877929578
 21
42.19061279296965
 31
0.0
  0
LINE
  5
14170
330
3E7
100
AcDbEntity
  8
DETAIL
  6
CONTINUOUS
100
AcDbLine
 10
169.1540527343768
 20
49.11880493164517
 30
0.0
 11
166.2999877929578
 21
49.11880493164517
 31
0.0
  0
LINE
  5
14171
330
3E7
100
AcDbEntity
  8
DETAIL
  6
CONTINUOUS
100
AcDbLine
 10
169.1540527343768
 20
46.8094177246121
 30
0.0
 11
166.2999877929578
 21
46.8094177246121
 31
0.0
  0
LINE
  5
14172
330
3E7
100
AcDbEntity
  8
DETAIL
  6
CONTINUOUS
100
AcDbLine
 10
166.299987792956
 20
49.35565185547147
 30
0.0
 11
166.2865905761663
 21
49.43505859375363
 31
0.0
  0
LINE
  5
14173
330
3E7
100
AcDbEntity
  8
DETAIL
  6
CONTINUOUS
100
AcDbLine
 10
166.2865905761663
 20
49.43505859375363
 30
0.0
 11
166.2634277343768
 21
49.45358276367187
 31
0.0
  0
LINE
  5
14174
330
3E7
100
AcDbEntity
  8
DETAIL
  6
CONTINUOUS
100
AcDbLine
 10
166.2634277343768
 20
49.45358276367187
 30
0.0
 11
166.2500000000018
 21
49.47155761718931
 31
0.0
  0
LINE
  5
14175
330
3E7
100
AcDbEntity
  8
DETAIL
  6
CONTINUOUS
100
AcDbLine
 10
166.199981689444
 20
39.50000000000272
 30
0.0
 11
166.2500000000018
 21
39.52847290039244
 31
0.0
  0
LINE
  5
14176
330
3E7
100
AcDbEntity
  8
DETAIL
  6
CONTINUOUS
100
AcDbLine
 10
166.2500000000018
 20
39.52847290039244
 30
0.0
 11
166.2806701660174
 21
39.55557250976653
 31
0.0
  0
LINE
  5
14177
330
3E7
100
AcDbEntity
  8
DETAIL
  6
CONTINUOUS
100
AcDbLine
 10
166.2806701660174
 20
39.55557250976653
 30
0.0
 11
166.299987792956
 21
39.60494995117187
 31
0.0
  0
LINE
  5
14178
330
3E7
100
AcDbEntity
  8
DETAIL
  6
CONTINUOUS
100
AcDbLine
 10
166.2500000000018
 20
49.47155761718931
 30
0.0
 11
166.199981689444
 21
49.50000000000272
 31
0.0
  0
LINE
  5
14179
330
3E7
100
AcDbEntity
  8
DETAIL
  6
CONTINUOUS
100
AcDbLine
 10
169.1540527343768
 20
39.88119506836483
 30
0.0
 11
169.7999877929595
 21
41.00000000000362
 31
0.0
  0
LINE
  5
1417A
330
3E7
100
AcDbEntity
  8
DETAIL
  6
CONTINUOUS
100
AcDbLine
 10
169.1540527343768
 20
49.11880493164517
 30
0.0
 11
169.7999877929595
 21
48.00000000000181
 31
0.0
  0
LINE
  5
1417B
330
3E7
100
AcDbEntity
  8
DETAIL
  6
CONTINUOUS
100
AcDbLine
 10
166.199981689444
 20
39.50000000000272
 30
0.0
 11
165.4999999999945
 21
39.50000000000272
 31
0.0
  0
LINE
  5
1417C
330
3E7
100
AcDbEntity
  8
DETAIL
  6
CONTINUOUS
100
AcDbLine
 10
166.199981689444
 20
49.50000000000272
 30
0.0
 11
165.4999999999945
 21
49.50000000000272
 31
0.0
  0
LINE
  5
1417D
330
3E7
100
AcDbEntity
  8
DETAIL
  6
CONTINUOUS
100
AcDbLine
 10
165.4999999999945
 20
38.50000000000363
 30
0.0
 11
165.0000000000018
 21
38.50000000000363
 31
0.0
  0
LINE
  5
1417E
330
3E7
100
AcDbEntity
  8
DETAIL
  6
CONTINUOUS
100
AcDbLine
 10
165.4999999999945
 20
50.50000000000181
 30
0.0
 11
165.0000000000018
 21
50.50000000000181
 31
0.0
  0
ARC
  5
1417F
330
3E7
100
AcDbEntity
  8
DETAIL
100
AcDbCircle
 10
167.4667037451416
 20
47.96411132812909
 30
0.0
 40
2.044618284539545
100
AcDbArc
 50
325.6152226050861
 51
34.38477739489286
  0
ARC
  5
14180
330
3E7
100
AcDbEntity
  8
DETAIL
100
AcDbCircle
 10
161.8686541983952
 20
44.50001525879042
 30
0.0
 40
7.642667831145472
100
AcDbArc
 50
342.4118770835066
 51
17.58812291649989
  0
ARC
  5
14181
330
3E7
100
AcDbEntity
  8
DETAIL
100
AcDbCircle
 10
167.4666544365955
 20
41.03590393066724
 30
0.0
 40
2.044667594508958
100
AcDbArc
 50
325.6156500638608
 51
34.3843499361391
  0
LINE
  5
1418A
330
3E7
100
AcDbEntity
  8
DETAIL
  6
CONTINUOUS
100
AcDbLine
 10
-189.9999999999945
 20
699.5410676002578
 30
0.0
 11
-189.999999999998
 21
1304.411621093762
 31
0.0
  0
LINE
  5
1418B
330
3E7
100
AcDbEntity
  8
DETAIL
100
AcDbLine
 10
-167.0000000000054
 20
693.5410676002581
 30
0.0
 11
-183.9999999999945
 21
693.541067600258
 31
0.0
  0
LINE
  5
1418C
330
3E7
100
AcDbEntity
  8
DETAIL
100
AcDbLine
 10
-164.999999999998
 20
1310.411621093762
 30
0.0
 11
-183.9999999999981
 21
1310.411621093762
 31
0.0
  0
ARC
  5
1418D
330
3E7
100
AcDbEntity
  8
DETAIL
100
AcDbCircle
 10
-183.9999999999981
 20
1304.411621093762
 30
0.0
 40
6.0
100
AcDbArc
 50
90.0
 51
180.0000000000001
  0
ARC
  5
1418E
330
3E7
100
AcDbEntity
  8
DETAIL
100
AcDbCircle
 10
-183.9999999999945
 20
699.5410676002578
 30
0.0
 40
6.0
100
AcDbArc
 50
180.0000000000001
 51
270.0000000000009
  0
LINE
  5
14190
330
3E7
100
AcDbEntity
  8
DETAIL
100
AcDbLine
 10
-189.9999999999926
 20
671.658966064459
 30
0.0
 11
-189.9999999999945
 21
66.78839111328307
 31
0.0
  0
LINE
  5
14191
330
3E7
100
AcDbEntity
  8
DETAIL
100
AcDbLine
 10
-164.999999999998
 20
60.78839111328306
 30
0.0
 11
-183.9999999999945
 21
60.78839111328306
 31
0.0
  0
ARC
  5
14192
330
3E7
100
AcDbEntity
  8
DETAIL
100
AcDbCircle
 10
-183.9999999999945
 20
66.78839111328307
 30
0.0
 40
6.0
100
AcDbArc
 50
180.0
 51
270.0
  0
LINE
  5
14193
330
3E7
100
AcDbEntity
  8
DETAIL
100
AcDbLine
 10
-167.0000000000054
 20
677.6589660644595
 30
0.0
 11
-183.9999999999926
 21
677.658966064459
 31
0.0
  0
ARC
  5
14194
330
3E7
100
AcDbEntity
  8
DETAIL
100
AcDbCircle
 10
-183.9999999999926
 20
671.658966064459
 30
0.0
 40
6.0
100
AcDbArc
 50
90.0
 51
180.0
  0
ARC
  5
14197
330
3E7
100
AcDbEntity
  8
DETAIL
100
AcDbCircle
 10
-10.69996810853445
 20
183.9999940487889
 30
0.0
 40
1.000036469210672
100
AcDbArc
 50
90.00165233317252
 51
180.0008646010224
  0
ARC
  5
14198
330
3E7
100
AcDbEntity
  8
DETAIL
100
AcDbCircle
 10
-163.9999897595735
 20
27.00001024042331
 30
0.0
 40
1.000010240473464
100
AcDbArc
 50
180.0005867268711
 51
269.9994132731026
  0
ARC
  5
141B2
330
3E7
100
AcDbEntity
  8
DETAIL
100
AcDbCircle
 10
-167.4665290680386
 20
212.5359497070347
 30
0.0
 40
2.044762441566529
100
AcDbArc
 50
145.6179868102023
 51
214.3820131897975
  0
ARC
  5
141B3
330
3E7
100
AcDbEntity
  8
DETAIL
100
AcDbCircle
 10
-161.867902721051
 20
216.0000610351564
 30
0.0
 40
7.643388793156777
100
AcDbArc
 50
162.4134702354826
 51
197.5865297644741
  0
ARC
  5
141B4
330
3E7
100
AcDbEntity
  8
DETAIL
100
AcDbCircle
 10
-167.4665290993269
 20
219.4641723632844
 30
0.0
 40
2.044762415743188
100
AcDbArc
 50
145.6179863151611
 51
214.3820136848389
  0
LINE
  5
141B5
330
3E7
100
AcDbEntity
  8
DETAIL
  6
CONTINUOUS
100
AcDbLine
 10
-165.4999999999908
 20
222.0000305175835
 30
0.0
 11
-164.999999999998
 21
222.0000305175835
 31
0.0
  0
LINE
  5
141B6
330
3E7
100
AcDbEntity
  8
DETAIL
  6
CONTINUOUS
100
AcDbLine
 10
-165.4999999999908
 20
210.0000305175806
 30
0.0
 11
-164.999999999998
 21
210.0000305175806
 31
0.0
  0
LINE
  5
141B7
330
3E7
100
AcDbEntity
  8
DETAIL
  6
CONTINUOUS
100
AcDbLine
 10
-166.199951171873
 20
221.0000305175799
 30
0.0
 11
-165.4999999999908
 21
221.0000305175799
 31
0.0
  0
LINE
  5
141B8
330
3E7
100
AcDbEntity
  8
DETAIL
  6
CONTINUOUS
100
AcDbLine
 10
-166.199951171873
 20
211.0000305175799
 30
0.0
 11
-165.4999999999908
 21
211.0000305175799
 31
0.0
  0
LINE
  5
141B9
330
3E7
100
AcDbEntity
  8
DETAIL
  6
CONTINUOUS
100
AcDbLine
 10
-169.154052734373
 20
211.3812561035183
 30
0.0
 11
-169.799987792974
 21
212.5000305175808
 31
0.0
  0
LINE
  5
141BA
330
3E7
100
AcDbEntity
  8
DETAIL
  6
CONTINUOUS
100
AcDbLine
 10
-169.154052734373
 20
220.6188659667986
 30
0.0
 11
-169.799987792974
 21
219.5000305175835
 31
0.0
  0
LINE
  5
141BB
330
3E7
100
AcDbEntity
  8
DETAIL
  6
CONTINUOUS
100
AcDbLine
 10
-166.249999999998
 20
220.971588134771
 30
0.0
 11
-166.199951171873
 21
221.0000305175799
 31
0.0
  0
LINE
  5
141BC
330
3E7
100
AcDbEntity
  8
DETAIL
  6
CONTINUOUS
100
AcDbLine
 10
-166.249999999998
 20
211.0285339355505
 30
0.0
 11
-166.199951171873
 21
211.0000305175799
 31
0.0
  0
LINE
  5
141BD
330
3E7
100
AcDbEntity
  8
DETAIL
  6
CONTINUOUS
100
AcDbLine
 10
-166.2865600585955
 20
211.065032958986
 30
0.0
 11
-166.249999999998
 21
211.0285339355505
 31
0.0
  0
LINE
  5
141BE
330
3E7
100
AcDbEntity
  8
DETAIL
  6
CONTINUOUS
100
AcDbLine
 10
-166.2999877929705
 20
211.1050109863298
 30
0.0
 11
-166.2865600585955
 21
211.065032958986
 31
0.0
  0
LINE
  5
141BF
330
3E7
100
AcDbEntity
  8
DETAIL
  6
CONTINUOUS
100
AcDbLine
 10
-166.263427734373
 20
220.9536437988299
 30
0.0
 11
-166.249999999998
 21
220.971588134771
 31
0.0
  0
LINE
  5
141C0
330
3E7
100
AcDbEntity
  8
DETAIL
  6
CONTINUOUS
100
AcDbLine
 10
-166.2865600585955
 20
220.9350891113308
 30
0.0
 11
-166.263427734373
 21
220.9536437988299
 31
0.0
  0
LINE
  5
141C1
330
3E7
100
AcDbEntity
  8
DETAIL
  6
CONTINUOUS
100
AcDbLine
 10
-166.2999877929705
 20
220.8556823730487
 30
0.0
 11
-166.2865600585955
 21
220.9350891113308
 31
0.0
  0
LINE
  5
141C2
330
3E7
100
AcDbEntity
  8
DETAIL
  6
CONTINUOUS
100
AcDbLine
 10
-169.154052734373
 20
218.30947875977
 30
0.0
 11
-166.2999877929705
 21
218.3094787597696
 31
0.0
  0
LINE
  5
141C3
330
3E7
100
AcDbEntity
  8
DETAIL
  6
CONTINUOUS
100
AcDbLine
 10
-169.154052734373
 20
220.6188659667986
 30
0.0
 11
-166.2999877929705
 21
220.6188659667986
 31
0.0
  0
LINE
  5
141C4
330
3E7
100
AcDbEntity
  8
DETAIL
  6
CONTINUOUS
100
AcDbLine
 10
-169.154052734373
 20
213.6906433105514
 30
0.0
 11
-166.2999877929705
 21
213.6906433105514
 31
0.0
  0
LINE
  5
141C5
330
3E7
100
AcDbEntity
  8
DETAIL
  6
CONTINUOUS
100
AcDbLine
 10
-169.799987792974
 20
219.5000305175835
 30
0.0
 11
-169.799987792974
 21
212.5000305175808
 31
0.0
  0
LINE
  5
141C6
330
3E7
100
AcDbEntity
  8
DETAIL
  6
CONTINUOUS
100
AcDbLine
 10
-169.154052734373
 20
211.3812561035183
 30
0.0
 11
-166.2999877929705
 21
211.3812561035183
 31
0.0
  0
LINE
  5
141C7
330
3E7
100
AcDbEntity
  8
DETAIL
  6
CONTINUOUS
100
AcDbLine
 10
-166.2999877929705
 20
220.8556823730487
 30
0.0
 11
-166.2999877929705
 21
211.1050109863298
 31
0.0
  0
LINE
  5
141C8
330
3E7
100
AcDbEntity
  8
DETAIL
  6
CONTINUOUS
100
AcDbLine
 10
-165.4999999999908
 20
222.0000305175835
 30
0.0
 11
-165.4999999999908
 21
210.0000305175806
 31
0.0
  0
ARC
  5
141CA
330
3E7
100
AcDbEntity
  8
DETAIL
100
AcDbCircle
 10
-155.4720328306393
 20
27.36629319431176
 30
0.0
 40
2.393340557634501
100
AcDbArc
 50
214.8111161241835
 51
278.6219936311336
  0
LINE
  5
141CB
330
3E7
100
AcDbEntity
  8
DETAIL
100
AcDbLine
 10
-36.71929931640807
 20
23.60003662109646
 30
0.0
 11
-37.97080993652162
 21
25.00000000000454
 31
0.0
  0
ARC
  5
141CC
330
3E7
100
AcDbEntity
  8
DETAIL
100
AcDbCircle
 10
154.9713812210284
 20
28.50322993450935
 30
0.0
 40
3.506101695200711
100
AcDbArc
 50
272.3191516450299
 51
314.441651228026
  0
LINE
  5
141CD
330
3E7
100
AcDbEntity
  8
DETAIL
100
AcDbLine
 10
-156.152481079096
 20
23.60003662109646
 30
0.0
 11
-155.8220184058427
 21
23.20389473809426
 31
0.0
  0
LINE
  5
141D3
330
3E7
100
AcDbEntity
  8
DETAIL
  6
CONTINUOUS
100
AcDbLine
 10
141.9999961853154
 20
611.4000244140697
 30
0.0
 11
149.9999961853081
 21
611.4000244140697
 31
0.0
  0
LINE
  5
141D4
330
3E7
100
AcDbEntity
  8
DETAIL
  6
CONTINUOUS
100
AcDbLine
 10
149.9999961853081
 20
604.6000213623117
 30
0.0
 11
141.9999961853154
 21
604.6000213623117
 31
0.0
  0
LINE
  5
141D5
330
3E7
100
AcDbEntity
  8
DETAIL
  6
CONTINUOUS
100
AcDbLine
 10
165.2928886413628
 20
611.4000244140697
 30
0.0
 11
149.9999961853081
 21
611.4000244140697
 31
0.0
  0
LINE
  5
141D6
330
3E7
100
AcDbEntity
  8
DETAIL
  6
CONTINUOUS
100
AcDbLine
 10
165.9999961853118
 20
604.6000213623117
 30
0.0
 11
149.9999961853081
 21
604.6000213623117
 31
0.0
  0
LINE
  5
141D7
330
3E7
100
AcDbEntity
  8
DETAIL
  6
CONTINUOUS
100
AcDbLine
 10
141.9999961853154
 20
549.2000274658266
 30
0.0
 11
166.239536285413
 21
549.1618499755941
 31
0.0
  0
LINE
  5
141D8
330
3E7
100
AcDbEntity
  8
DETAIL
  6
CONTINUOUS
100
AcDbLine
 10
141.9999961853154
 20
542.4000244140734
 30
0.0
 11
165.2928885791349
 21
542.4000244140734
 31
0.0
  0
ARC
  5
141D9
330
3E7
100
AcDbEntity
  8
DETAIL
  6
CONTINUOUS
100
AcDbCircle
 10
141.9999945213403
 20
554.400022750101
 30
0.0
 40
5.199995284270737
100
AcDbArc
 50
179.9999816656224
 51
270.000018334351
  0
ARC
  5
141DA
330
3E7
100
AcDbEntity
  8
DETAIL
  6
CONTINUOUS
100
AcDbCircle
 10
141.9999981519886
 20
599.4000224473892
 30
0.0
 40
5.199998914925261
100
AcDbArc
 50
90.0000216697173
 51
179.9999783302565
  0
ARC
  5
141DB
330
3E7
100
AcDbEntity
  8
DETAIL
  6
CONTINUOUS
100
AcDbCircle
 10
141.9999981519886
 20
599.4000224473892
 30
0.0
 40
12.0000019666824
100
AcDbArc
 50
90.00000939025945
 51
179.9999906097926
  0
ARC
  5
141DC
330
3E7
100
AcDbEntity
  8
DETAIL
  6
CONTINUOUS
100
AcDbCircle
 10
141.9999945213403
 20
554.400022750101
 30
0.0
 40
11.9999983360275
100
AcDbArc
 50
179.9999920551213
 51
270.0000079449304
  0
LINE
  5
141DD
330
3E7
100
AcDbEntity
  8
DETAIL
  6
CONTINUOUS
100
AcDbLine
 10
129.9999961853081
 20
599.4000244140717
 30
0.0
 11
129.9999961853081
 21
554.4000244140717
 31
0.0
  0
LINE
  5
141DE
330
3E7
100
AcDbEntity
  8
DETAIL
  6
CONTINUOUS
100
AcDbLine
 10
136.799999237066
 20
599.4000244140717
 30
0.0
 11
136.799999237066
 21
554.4000244140717
 31
0.0
  0
ARC
  5
141DF
330
3E7
100
AcDbEntity
  8
DETAIL
  6
CONTINUOUS
100
AcDbCircle
 10
166.0425442924569
 20
547.2142834680835
 30
0.0
 40
1.957503804968423
100
AcDbArc
 50
359.5827257242565
 51
84.22430349666958
  0
ARC
  5
141E0
330
3E7
100
AcDbEntity
  8
DETAIL
  6
CONTINUOUS
100
AcDbCircle
 10
166.9999977273091
 20
545.3142373377295
 30
0.0
 40
0.9999984580013688
100
AcDbArc
 50
315.0000252092596
 51
0.0001240015028387
  0
LINE
  5
141E1
330
3E7
100
AcDbEntity
  8
DETAIL
  6
CONTINUOUS
100
AcDbLine
 10
165.6464500427335
 20
542.5464630127044
 30
0.0
 11
167.7071037292644
 21
544.6071319580187
 31
0.0
  0
ARC
  5
141E2
330
3E7
100
AcDbEntity
  8
DETAIL
  6
CONTINUOUS
100
AcDbCircle
 10
165.2929037562553
 20
542.9000266026696
 30
0.0
 40
0.5000021888264758
100
AcDbArc
 50
269.998267968726
 51
314.9985979309671
  0
LINE
  5
141E3
330
3E7
100
AcDbEntity
  8
DETAIL
  6
CONTINUOUS
100
AcDbLine
 10
167.9999961853191
 20
608.4858093261797
 30
0.0
 11
167.9999961853081
 21
545.3142395019608
 31
0.0
  0
ARC
  5
141E4
330
3E7
100
AcDbEntity
  8
DETAIL
  6
CONTINUOUS
100
AcDbCircle
 10
165.9999966261075
 20
606.6000209215143
 30
0.0
 40
1.999999559201159
100
AcDbArc
 50
269.9999873720291
 51
0.0000126279969632
  0
LINE
  5
141E5
330
3E7
100
AcDbEntity
  8
DETAIL
  6
CONTINUOUS
100
AcDbLine
 10
165.6464500427335
 20
611.2535705566506
 30
0.0
 11
167.7071037292644
 21
609.1929168701242
 31
0.0
  0
ARC
  5
141E6
330
3E7
100
AcDbEntity
  8
DETAIL
  6
CONTINUOUS
100
AcDbCircle
 10
165.292888164933
 20
610.900021422126
 30
0.0
 40
0.5000029919483456
100
AcDbArc
 50
44.99896743819208
 51
89.99994540517738
  0
ARC
  5
141E7
330
3E7
100
AcDbEntity
  8
DETAIL
  6
CONTINUOUS
100
AcDbCircle
 10
166.9999951600784
 20
608.4858104270279
 30
0.0
 40
1.000001025243839
100
AcDbArc
 50
359.999936926117
 51
44.99991386315354
  0
LINE
  5
141E9
330
3E7
100
AcDbEntity
  8
DETAIL
100
AcDbLine
 10
166.9847335815501
 20
1303.313659667981
 30
0.0
 11
165.0000000000163
 21
1307.8426513672
 31
0.0
  0
LINE
  5
141EA
330
3E7
100
AcDbEntity
  8
DETAIL
100
AcDbLine
 10
167.000000000009
 20
246.7426757812563
 30
0.0
 11
165.0000000000181
 21
242.2573852539101
 31
0.0
  0
ARC
  5
141F7
330
3E7
100
AcDbEntity
  8
DETAIL
100
AcDbCircle
 10
179.1792905225939
 20
1223.986625906112
 30
0.0
 40
1.621399533208238
100
AcDbArc
 50
293.5261177980072
 51
68.96685346865068
  0
ARC
  5
141F8
330
3E7
100
AcDbEntity
  8
DETAIL
100
AcDbCircle
 10
179.0499995596291
 20
1224.000000000009
 30
0.0
 40
2.000000000001364
100
AcDbArc
 50
270.0000000000521
 51
89.99999999994788
  0
ARC
  5
141F9
330
3E7
100
AcDbEntity
  8
DETAIL
100
AcDbCircle
 10
184.0338186273603
 20
1216.085251611842
 30
0.0
 40
4.999724194891213
100
AcDbArc
 50
184.5713910954501
 51
205.5715008455714
  0
ARC
  5
141FA
330
3E7
100
AcDbEntity
  8
DETAIL
100
AcDbCircle
 10
179.0499960675043
 20
1223.999996507891
 30
0.0
 40
4.000003492118366
100
AcDbArc
 50
359.9999999997882
 51
90.00000000007814
  0
LINE
  5
1421A
330
3E7
100
AcDbEntity
  8
BASIS
100
AcDbLine
 10
-189.5999908447174
 20
18.52704387588437
 30
0.0
 11
-189.5999908447174
 21
-8.412005207818763
 31
0.0
  0
LINE
  5
1421B
330
3E7
100
AcDbEntity
  8
BASIS
100
AcDbLine
 10
180.4000091552825
 20
17.1383557235049
 30
0.0
 11
180.4000091552825
 21
-14.38666564113099
 31
0.0
  0
LINE
  5
1421E
330
3E7
100
AcDbEntity
  8
BASIS
100
AcDbLine
 10
-223.4763734922653
 20
1001.000020413838
 30
0.0
 11
-123.4482142140093
 21
1001.000020413838
 31
0.0
  0
LINE
  5
1421F
330
3E7
100
AcDbEntity
  8
BASIS
100
AcDbLine
 10
-233.4845185980011
 20
369.0000220555788
 30
0.0
 11
-126.7878748642615
 21
369.0000220555788
 31
0.0
  0
LINE
  5
166FA
330
3E7
100
AcDbEntity
  8
NOTE
  6
CONTINOUS
100
AcDbLine
 10
-184.999999999998
 20
1062.000000000002
 30
0.0
 11
-144.9999999999981
 21
1062.000000000002
 31
0.0
  0
LINE
  5
167AD
330
3E7
100
AcDbEntity
  8
SIZE
  6
CONTINUOUS
100
AcDbLine
 10
180.4000091552825
 20
-40.0
 30
0.0
 11
180.4000091552825
 21
-362.8288020350067
 31
0.0
  0
LINE
  5
167AE
330
3E7
100
AcDbEntity
  8
SIZE
  6
CONTINUOUS
100
AcDbLine
 10
199.4000091552825
 20
-17.99999999999727
 30
0.0
 11
199.4000091552825
 21
-362.8288020350067
 31
0.0
  0
LINE
  5
167AF
330
3E7
100
AcDbEntity
  8
SIZE
  6
CONTINUOUS
100
AcDbLine
 10
170.4000091552825
 20
-332.8288020350068
 30
0.0
 11
160.4000091552823
 21
-332.8288020350068
 31
0.0
  0
LINE
  5
167B0
330
3E7
100
AcDbEntity
  8
SIZE
  6
CONTINUOUS
100
AcDbLine
 10
209.4000091552825
 20
-332.8288020350068
 30
0.0
 11
338.9428662981397
 21
-332.8288020350068
 31
0.0
  0
LINE
  5
167B1
330
3E7
100
AcDbEntity
  8
SIZE
  6
CONTINUOUS
100
AcDbLine
 10
180.4000091552825
 20
-332.8288020350068
 30
0.0
 11
199.4000091552825
 21
-332.8288020350068
 31
0.0
  0
LINE
  5
167B5
330
3E7
100
AcDbEntity
  8
SIZE
  6
CONTINUOUS
100
AcDbLine
 10
-189.5999908447174
 20
-40.0
 30
0.0
 11
-189.5999908447175
 21
-362.8288020350067
 31
0.0
  0
LINE
  5
167B6
330
3E7
100
AcDbEntity
  8
SIZE
  6
CONTINUOUS
100
AcDbLine
 10
-217.5999908447173
 20
-17.99999999999727
 30
0.0
 11
-217.5999908447173
 21
-362.8288020350067
 31
0.0
  0
LINE
  5
167B7
330
3E7
100
AcDbEntity
  8
SIZE
  6
CONTINUOUS
100
AcDbLine
 10
-179.5999908447174
 20
-332.8288020350068
 30
0.0
 11
-169.5999908447175
 21
-332.8288020350068
 31
0.0
  0
LINE
  5
167B8
330
3E7
100
AcDbEntity
  8
SIZE
  6
CONTINUOUS
100
AcDbLine
 10
-227.5999908447174
 20
-332.8288020350068
 30
0.0
 11
-370.8571337018602
 21
-332.8288020350068
 31
0.0
  0
LINE
  5
167B9
330
3E7
100
AcDbEntity
  8
SIZE
  6
CONTINUOUS
100
AcDbLine
 10
-189.5999908447175
 20
-332.8288020350068
 30
0.0
 11
-217.5999908447173
 21
-332.8288020350068
 31
0.0
  0
LINE
  5
167BD
330
3E7
100
AcDbEntity
  8
SIZE
  6
CONTINUOUS
100
AcDbLine
 10
180.4000091552825
 20
-40.0
 30
0.0
 11
180.4000091552825
 21
-362.8288020350067
 31
0.0
  0
LINE
  5
167BE
330
3E7
100
AcDbEntity
  8
SIZE
  6
CONTINUOUS
100
AcDbLine
 10
-189.5999908447174
 20
-40.0
 30
0.0
 11
-189.5999908447175
 21
-362.8288020350067
 31
0.0
  0
LINE
  5
167BF
330
3E7
100
AcDbEntity
  8
SIZE
  6
CONTINUOUS
100
AcDbLine
 10
170.4000091552825
 20
-332.8288020350068
 30
0.0
 11
-179.5999908447174
 21
-332.8288020350068
 31
0.0
  0
LINE
  5
167C3
330
3E7
100
AcDbEntity
  8
SIZE
  6
CONTINUOUS
100
AcDbLine
 10
199.4000091552825
 20
-17.99999999999727
 30
0.0
 11
199.4000091552825
 21
-498.4758315525781
 31
0.0
  0
LINE
  5
167C4
330
3E7
100
AcDbEntity
  8
SIZE
  6
CONTINUOUS
100
AcDbLine
 10
-217.5999908447173
 20
-17.99999999999727
 30
0.0
 11
-217.5999908447173
 21
-498.4758315525781
 31
0.0
  0
LINE
  5
167C5
330
3E7
100
AcDbEntity
  8
SIZE
  6
CONTINUOUS
100
AcDbLine
 10
189.4000091552825
 20
-468.4758315525781
 30
0.0
 11
-207.5999908447175
 21
-468.4758315525781
 31
0.0
  0
LINE
  5
167C9
330
3E7
100
AcDbEntity
  8
SIZE
  6
CONTINUOUS
100
AcDbLine
 10
-164.9999992164957
 20
1353.008262116314
 30
0.0
 11
-164.9999992164957
 21
1678.317922866077
 31
0.0
  0
LINE
  5
167CA
330
3E7
100
AcDbEntity
  8
SIZE
  6
CONTINUOUS
100
AcDbLine
 10
-189.9999999999963
 20
1324.411621093762
 30
0.0
 11
-189.9999999999963
 21
1678.317922866077
 31
0.0
  0
LINE
  5
167CB
330
3E7
100
AcDbEntity
  8
SIZE
  6
CONTINUOUS
100
AcDbLine
 10
-154.9999992164955
 20
1648.317922866078
 30
0.0
 11
-144.9999992164954
 21
1648.317922866078
 31
0.0
  0
LINE
  5
167CC
330
3E7
100
AcDbEntity
  8
SIZE
  6
CONTINUOUS
100
AcDbLine
 10
-199.9999999999963
 20
1648.317922866078
 30
0.0
 11
-348.2571420736385
 21
1648.317922866078
 31
0.0
  0
LINE
  5
167CD
330
3E7
100
AcDbEntity
  8
SIZE
  6
CONTINUOUS
100
AcDbLine
 10
-164.9999992164957
 20
1648.317922866078
 30
0.0
 11
-189.9999999999963
 21
1648.317922866078
 31
0.0
  0
LINE
  5
167D1
330
3E7
100
AcDbEntity
  8
SIZE
  6
CONTINUOUS
100
AcDbLine
 10
-232.5999908447174
 20
0.0000000000000057
 30
0.0
 11
-344.6282005078009
 21
0.0000000000000374
 31
0.0
  0
LINE
  5
167D3
330
3E7
100
AcDbEntity
  8
SIZE
  6
CONTINUOUS
100
AcDbLine
 10
-314.628200507801
 20
10.0
 30
0.0
 11
-314.6282005078008
 21
426.0000305175831
 31
0.0
  0
LINE
  5
167D7
330
3E7
100
AcDbEntity
  8
SIZE
  6
CONTINUOUS
100
AcDbLine
 10
-232.5999908447174
 20
0.0000000000000057
 30
0.0
 11
-630.2067963309582
 21
0.0000000000001183
 31
0.0
  0
LINE
  5
167D8
330
3E7
100
AcDbEntity
  8
SIZE
  6
CONTINUOUS
100
AcDbLine
 10
-253.4845185980011
 20
369.0000220555788
 30
0.0
 11
-630.2067963309581
 21
369.000022055579
 31
0.0
  0
LINE
  5
167D9
330
3E7
100
AcDbEntity
  8
SIZE
  6
CONTINUOUS
100
AcDbLine
 10
-600.2067963309582
 20
10.00000000000011
 30
0.0
 11
-600.2067963309581
 21
359.0000220555788
 31
0.0
  0
LINE
  5
167DD
330
3E7
100
AcDbEntity
  8
SIZE
  6
CONTINUOUS
100
AcDbLine
 10
-232.5999908447174
 20
0.0000000000000057
 30
0.0
 11
-469.5688003232262
 21
0.0000000000000728
 31
0.0
  0
LINE
  5
167DF
330
3E7
100
AcDbEntity
  8
SIZE
  6
CONTINUOUS
100
AcDbLine
 10
-439.5688003232262
 20
10.00000000000005
 30
0.0
 11
-439.5688003232262
 21
510.0000152587928
 31
0.0
  0
LINE
  5
167E4
330
3E7
100
AcDbEntity
  8
SIZE
  6
CONTINUOUS
100
AcDbLine
 10
-232.5999908447174
 20
0.0000000000000057
 30
0.0
 11
-802.0001768550482
 21
0.000000000000167
 31
0.0
  0
LINE
  5
167E5
330
3E7
100
AcDbEntity
  8
SIZE
  6
CONTINUOUS
100
AcDbLine
 10
-772.000176855048
 20
1062.000000000002
 30
0.0
 11
-772.0001768550482
 21
10.00000000000015
 31
0.0
  0
LINE
  5
167E9
330
3E7
100
AcDbEntity
  8
SIZE
  6
CONTINUOUS
100
AcDbLine
 10
-232.5999908447174
 20
0.0000000000000057
 30
0.0
 11
-942.5583914887448
 21
0.0000000000002068
 31
0.0
  0
LINE
  5
167EA
330
3E7
100
AcDbEntity
  8
SIZE
  6
CONTINUOUS
100
AcDbLine
 10
-180.0000000000018
 20
1338.00000000001
 30
0.0
 11
-942.5583914887443
 21
1338.00000000001
 31
0.0
  0
LINE
  5
167EB
330
3E7
100
AcDbEntity
  8
SIZE
  6
CONTINUOUS
100
AcDbLine
 10
-912.5583914887448
 20
10.00000000000019
 30
0.0
 11
-912.5583914887444
 21
1328.00000000001
 31
0.0
  0
LINE
  5
167EF
330
3E7
100
AcDbEntity
  8
SIZE
  6
CONTINUOUS
100
AcDbLine
 10
-164.999999999998
 20
631.4000244140742
 30
0.0
 11
-164.999999999998
 21
724.3747200251991
 31
0.0
  0
LINE
  5
167F1
330
3E7
100
AcDbEntity
  8
SIZE
  6
CONTINUOUS
100
AcDbLine
 10
-114.9999992164957
 20
694.3747200251991
 30
0.0
 11
-104.9999992164957
 21
694.3747200251991
 31
0.0
  0
LINE
  5
167F2
330
3E7
100
AcDbEntity
  8
SIZE
  6
CONTINUOUS
100
AcDbLine
 10
-174.999999999998
 20
694.3747200251991
 30
0.0
 11
-345.1172324672951
 21
694.3747200251991
 31
0.0
  0
LINE
  5
167F3
330
3E7
100
AcDbEntity
  8
SIZE
  6
CONTINUOUS
100
AcDbLine
 10
-124.9999992164957
 20
694.3747200251991
 30
0.0
 11
-164.999999999998
 21
694.3747200251991
 31
0.0
  0
LINE
  5
167F7
330
3E7
100
AcDbEntity
  8
SIZE
  6
CONTINUOUS
100
AcDbLine
 10
-164.999999999998
 20
631.4000244140697
 30
0.0
 11
-164.999999999998
 21
865.397623155065
 31
0.0
  0
LINE
  5
167F9
330
3E7
100
AcDbEntity
  8
SIZE
  6
CONTINUOUS
100
AcDbLine
 10
-98.99999921649577
 20
835.397623155065
 30
0.0
 11
-88.99999921649573
 21
835.397623155065
 31
0.0
  0
LINE
  5
167FA
330
3E7
100
AcDbEntity
  8
SIZE
  6
CONTINUOUS
100
AcDbLine
 10
-174.999999999998
 20
835.397623155065
 30
0.0
 11
-339.1600335607309
 21
835.397623155065
 31
0.0
  0
LINE
  5
167FB
330
3E7
100
AcDbEntity
  8
SIZE
  6
CONTINUOUS
100
AcDbLine
 10
-108.9999992164957
 20
835.397623155065
 30
0.0
 11
-164.999999999998
 21
835.397623155065
 31
0.0
  0
LINE
  5
167FF
330
3E7
100
AcDbEntity
  8
SIZE
100
AcDbLine
 10
-243.4763734922653
 20
1001.000020413838
 30
0.0
 11
-630.2067963309581
 21
1001.000020413838
 31
0.0
  0
LINE
  5
16800
330
3E7
100
AcDbEntity
  8
SIZE
100
AcDbLine
 10
-253.4845185980011
 20
369.0000220555788
 30
0.0
 11
-630.2067963309582
 21
369.000022055579
 31
0.0
  0
LINE
  5
16801
330
3E7
100
AcDbEntity
  8
SIZE
100
AcDbLine
 10
-600.2067963309581
 20
991.0000204138388
 30
0.0
 11
-600.2067963309582
 21
379.000022055579
 31
0.0
  0
LINE
  5
16805
330
3E7
100
AcDbEntity
  8
SIZE
  6
CONTINUOUS
100
AcDbLine
 10
165.000000783504
 20
1353.008262116314
 30
0.0
 11
165.000000783504
 21
1678.317922866077
 31
0.0
  0
LINE
  5
16806
330
3E7
100
AcDbEntity
  8
SIZE
  6
CONTINUOUS
100
AcDbLine
 10
-164.9999992164957
 20
1353.008262116314
 30
0.0
 11
-164.9999992164957
 21
1678.317922866077
 31
0.0
  0
LINE
  5
16807
330
3E7
100
AcDbEntity
  8
SIZE
  6
CONTINUOUS
100
AcDbLine
 10
155.000000783504
 20
1648.317922866078
 30
0.0
 11
-154.9999992164955
 21
1648.317922866078
 31
0.0
  0
TEXT
  5
16851
330
3E7
100
AcDbEntity
  8
SIZE
100
AcDbText
 10
-350.8571337018602
 20
-312.8288020350068
 30
0.0
 40
64.0
  1
28
 41
0.9
100
AcDbText
  0
TEXT
  5
16852
330
3E7
100
AcDbEntity
  8
SIZE
100
AcDbText
 10
-77.67141941614605
 20
-448.4758315525781
 30
0.0
 40
64.0
  1
417
 41
0.9
100
AcDbText
  0
TEXT
  5
16853
330
3E7
100
AcDbEntity
  8
SIZE
100
AcDbText
 10
-78.65713370186035
 20
-312.8288020350068
 30
0.0
 40
64.0
  1
370
 41
0.9
100
AcDbText
  0
CIRCLE
  5
16854
330
3E7
100
AcDbEntity
  8
SIZE
  6
BYBLOCK
100
AcDbCircle
 10
-217.5999908447173
 20
-468.4758315525781
 30
0.0
 40
5.0
  0
LINE
  5
16855
330
3E7
100
AcDbEntity
  8
SIZE
  6
BYBLOCK
100
AcDbLine
 10
-217.5999908447173
 20
-468.4758315525781
 30
0.0
 11
-207.5999908447175
 21
-468.4758315525781
 31
0.0
  0
CIRCLE
  5
16856
330
3E7
100
AcDbEntity
  8
SIZE
  6
BYBLOCK
100
AcDbCircle
 10
-189.5999908447175
 20
-332.8288020350068
 30
0.0
 40
5.0
  0
LINE
  5
16857
330
3E7
100
AcDbEntity
  8
SIZE
  6
BYBLOCK
100
AcDbLine
 10
-189.5999908447175
 20
-332.8288020350068
 30
0.0
 11
-179.5999908447174
 21
-332.8288020350068
 31
0.0
  0
CIRCLE
  5
16858
330
3E7
100
AcDbEntity
  8
SIZE
  6
BYBLOCK
100
AcDbCircle
 10
-217.5999908447173
 20
-332.8288020350068
 30
0.0
 40
5.0
  0
LINE
  5
16859
330
3E7
100
AcDbEntity
  8
SIZE
  6
BYBLOCK
100
AcDbLine
 10
-217.5999908447173
 20
-332.8288020350068
 30
0.0
 11
-227.5999908447174
 21
-332.8288020350068
 31
0.0
  0
CIRCLE
  5
1685A
330
3E7
100
AcDbEntity
  8
SIZE
  6
BYBLOCK
100
AcDbCircle
 10
-189.5999908447175
 20
-332.8288020350068
 30
0.0
 40
5.0
  0
LINE
  5
1685B
330
3E7
100
AcDbEntity
  8
SIZE
  6
BYBLOCK
100
AcDbLine
 10
-189.5999908447175
 20
-332.8288020350068
 30
0.0
 11
-179.5999908447174
 21
-332.8288020350068
 31
0.0
  0
CIRCLE
  5
1685C
330
3E7
100
AcDbEntity
  8
SIZE
  6
BYBLOCK
100
AcDbCircle
 10
199.4000091552825
 20
-468.4758315525781
 30
0.0
 40
5.0
  0
LINE
  5
1685D
330
3E7
100
AcDbEntity
  8
SIZE
  6
BYBLOCK
100
AcDbLine
 10
199.4000091552825
 20
-468.4758315525781
 30
0.0
 11
189.4000091552825
 21
-468.4758315525781
 31
0.0
  0
CIRCLE
  5
1685E
330
3E7
100
AcDbEntity
  8
SIZE
  6
BYBLOCK
100
AcDbCircle
 10
180.4000091552825
 20
-332.8288020350068
 30
0.0
 40
5.0
  0
LINE
  5
1685F
330
3E7
100
AcDbEntity
  8
SIZE
  6
BYBLOCK
100
AcDbLine
 10
180.4000091552825
 20
-332.8288020350068
 30
0.0
 11
170.4000091552825
 21
-332.8288020350068
 31
0.0
  0
CIRCLE
  5
16860
330
3E7
100
AcDbEntity
  8
SIZE
  6
BYBLOCK
100
AcDbCircle
 10
199.4000091552825
 20
-332.8288020350068
 30
0.0
 40
5.0
  0
LINE
  5
16861
330
3E7
100
AcDbEntity
  8
SIZE
  6
BYBLOCK
100
AcDbLine
 10
199.4000091552825
 20
-332.8288020350068
 30
0.0
 11
209.4000091552825
 21
-332.8288020350068
 31
0.0
  0
CIRCLE
  5
16862
330
3E7
100
AcDbEntity
  8
SIZE
  6
BYBLOCK
100
AcDbCircle
 10
180.4000091552825
 20
-332.8288020350068
 30
0.0
 40
5.0
  0
LINE
  5
16863
330
3E7
100
AcDbEntity
  8
SIZE
  6
BYBLOCK
100
AcDbLine
 10
180.4000091552825
 20
-332.8288020350068
 30
0.0
 11
170.4000091552825
 21
-332.8288020350068
 31
0.0
  0
TEXT
  5
16864
330
3E7
100
AcDbEntity
  8
SIZE
100
AcDbText
 10
239.4000091552825
 20
-312.8288020350068
 30
0.0
 40
64.0
  1
19
 41
0.9
100
AcDbText
  0
CIRCLE
  5
16865
330
3E7
100
AcDbEntity
  8
SIZE
  6
BYBLOCK
100
AcDbCircle
 10
-912.5583914887448
 20
0.0000000000001983
 30
0.0
 40
5.0
  0
LINE
  5
16866
330
3E7
100
AcDbEntity
  8
SIZE
  6
BYBLOCK
100
AcDbLine
 10
-912.5583914887448
 20
0.0000000000001983
 30
0.0
 11
-912.5583914887448
 21
10.00000000000019
 31
0.0
  0
CIRCLE
  5
16867
330
3E7
100
AcDbEntity
  8
SIZE
  6
BYBLOCK
100
AcDbCircle
 10
-772.0001768550482
 20
0.0000000000001585
 30
0.0
 40
5.0
  0
LINE
  5
16868
330
3E7
100
AcDbEntity
  8
SIZE
  6
BYBLOCK
100
AcDbLine
 10
-772.0001768550482
 20
0.0000000000001585
 30
0.0
 11
-772.0001768550482
 21
10.00000000000015
 31
0.0
  0
CIRCLE
  5
16869
330
3E7
100
AcDbEntity
  8
SIZE
  6
BYBLOCK
100
AcDbCircle
 10
-600.2067963309582
 20
0.0000000000001098
 30
0.0
 40
5.0
  0
LINE
  5
1686A
330
3E7
100
AcDbEntity
  8
SIZE
  6
BYBLOCK
100
AcDbLine
 10
-600.2067963309582
 20
0.0000000000001098
 30
0.0
 11
-600.2067963309582
 21
10.00000000000011
 31
0.0
  0
CIRCLE
  5
1686B
330
3E7
100
AcDbEntity
  8
SIZE
  6
BYBLOCK
100
AcDbCircle
 10
-439.5688003232262
 20
0.0000000000000643
 30
0.0
 40
5.0
  0
LINE
  5
1686C
330
3E7
100
AcDbEntity
  8
SIZE
  6
BYBLOCK
100
AcDbLine
 10
-439.5688003232262
 20
0.0000000000000643
 30
0.0
 11
-439.5688003232262
 21
10.00000000000005
 31
0.0
  0
TEXT
  5
1686D
330
3E7
100
AcDbEntity
  8
SIZE
100
AcDbText
 10
-451.5550679492078
 20
150.9428647722556
 30
0.0
 40
64.0
  1
510
 50
90.0
 41
0.9
100
AcDbText
  0
TEXT
  5
1686E
330
3E7
100
AcDbEntity
  8
SIZE
100
AcDbText
 10
-620.2067963309582
 20
111.8142967420772
 30
0.0
 40
64.0
  1
369
 50
90.0
 41
0.9
100
AcDbText
  0
TEXT
  5
1686F
330
3E7
100
AcDbEntity
  8
SIZE
100
AcDbText
 10
-331.1931179722193
 20
146.9428724016511
 30
0.0
 40
64.0
  1
426
 50
90.0
 41
0.9
100
AcDbText
  0
TEXT
  5
16870
330
3E7
100
AcDbEntity
  8
SIZE
100
AcDbText
 10
-932.5583914887449
 20
573.0000000000074
 30
0.0
 40
64.0
  1
1338
 50
90.0
 41
0.9
100
AcDbText
  0
TEXT
  5
16871
330
3E7
100
AcDbEntity
  8
SIZE
100
AcDbText
 10
-792.0001768550482
 20
444.8428571428617
 30
0.0
 40
64.0
  1
1062
 50
90.0
 41
0.9
100
AcDbText
  0
CIRCLE
  5
16872
330
3E7
100
AcDbEntity
  8
SIZE
  6
BYBLOCK
100
AcDbCircle
 10
-600.2067963309582
 20
369.000022055579
 30
0.0
 40
5.0
  0
LINE
  5
16873
330
3E7
100
AcDbEntity
  8
SIZE
  6
BYBLOCK
100
AcDbLine
 10
-600.2067963309582
 20
369.000022055579
 30
0.0
 11
-600.2067963309582
 21
379.000022055579
 31
0.0
  0
CIRCLE
  5
16874
330
3E7
100
AcDbEntity
  8
SIZE
  6
BYBLOCK
100
AcDbCircle
 10
-600.2067963309581
 20
369.000022055579
 30
0.0
 40
5.0
  0
LINE
  5
16875
330
3E7
100
AcDbEntity
  8
SIZE
  6
BYBLOCK
100
AcDbLine
 10
-600.2067963309581
 20
369.000022055579
 30
0.0
 11
-600.2067963309581
 21
359.0000220555788
 31
0.0
  0
CIRCLE
  5
16876
330
3E7
100
AcDbEntity
  8
SIZE
  6
BYBLOCK
100
AcDbCircle
 10
-439.5688003232262
 20
510.0000152587928
 30
0.0
 40
5.0
  0
LINE
  5
16877
330
3E7
100
AcDbEntity
  8
SIZE
  6
BYBLOCK
100
AcDbLine
 10
-439.568800323226
 20
424.0000152587928
 30
0.0
 11
-439.568800323226
 21
424.0000152587928
 31
0.0
  0
TEXT
  5
16878
330
3E7
100
AcDbEntity
  8
SIZE
100
AcDbText
 10
-620.2067963309582
 20
610.9428783775658
 30
0.0
 40
64.0
  1
632
 50
90.0
 41
0.9
100
AcDbText
  0
CIRCLE
  5
16879
330
3E7
100
AcDbEntity
  8
SIZE
  6
BYBLOCK
100
AcDbCircle
 10
-772.000176855048
 20
1062.000000000002
 30
0.0
 40
5.0
  0
CIRCLE
  5
1687B
330
3E7
100
AcDbEntity
  8
SIZE
  6
BYBLOCK
100
AcDbCircle
 10
-912.5583914887444
 20
1338.00000000001
 30
0.0
 40
5.0
  0
LINE
  5
1687C
330
3E7
100
AcDbEntity
  8
SIZE
  6
BYBLOCK
100
AcDbLine
 10
-912.5583914887444
 20
1338.00000000001
 30
0.0
 11
-912.5583914887444
 21
1328.00000000001
 31
0.0
  0
CIRCLE
  5
1687D
330
3E7
100
AcDbEntity
  8
SIZE
  6
BYBLOCK
100
AcDbCircle
 10
-600.2067963309581
 20
1001.000020413838
 30
0.0
 40
5.0
  0
LINE
  5
1687E
330
3E7
100
AcDbEntity
  8
SIZE
  6
BYBLOCK
100
AcDbLine
 10
-600.2067963309581
 20
1001.000020413838
 30
0.0
 11
-600.2067963309581
 21
991.0000204138388
 31
0.0
  0
CIRCLE
  5
1687F
330
3E7
100
AcDbEntity
  8
SIZE
  6
BYBLOCK
100
AcDbCircle
 10
-314.628200507801
 20
0.0000000000000289
 30
0.0
 40
5.0
  0
LINE
  5
16880
330
3E7
100
AcDbEntity
  8
SIZE
  6
BYBLOCK
100
AcDbLine
 10
-314.628200507801
 20
0.0000000000000289
 30
0.0
 11
-314.628200507801
 21
10.0
 31
0.0
  0
CIRCLE
  5
16881
330
3E7
100
AcDbEntity
  8
SIZE
  6
BYBLOCK
100
AcDbCircle
 10
-314.6282005078008
 20
426.0000305175831
 30
0.0
 40
5.0
  0
TEXT
  5
16883
330
3E7
100
AcDbEntity
  8
SIZE
100
AcDbText
 10
-325.1172324672953
 20
714.3747200251993
 30
0.0
 40
64.0
  1
33
 41
0.9
100
AcDbText
  0
CIRCLE
  5
16884
330
3E7
100
AcDbEntity
  8
SIZE
  6
BYBLOCK
100
AcDbCircle
 10
-164.999999999998
 20
694.3747200251991
 30
0.0
 40
5.0
  0
LINE
  5
16885
330
3E7
100
AcDbEntity
  8
SIZE
  6
BYBLOCK
100
AcDbLine
 10
-164.999999999998
 20
694.3747200251991
 30
0.0
 11
-174.999999999998
 21
694.3747200251991
 31
0.0
  0
CIRCLE
  5
16886
330
3E7
100
AcDbEntity
  8
SIZE
  6
BYBLOCK
100
AcDbCircle
 10
-164.999999999998
 20
835.397623155065
 30
0.0
 40
5.0
  0
LINE
  5
16887
330
3E7
100
AcDbEntity
  8
SIZE
  6
BYBLOCK
100
AcDbLine
 10
-164.999999999998
 20
835.397623155065
 30
0.0
 11
-174.999999999998
 21
835.397623155065
 31
0.0
  0
CIRCLE
  5
16888
330
3E7
100
AcDbEntity
  8
SIZE
  6
BYBLOCK
100
AcDbCircle
 10
-131.9999992164957
 20
694.3747200251991
 30
0.0
 40
5.0
  0
LINE
  5
16889
330
3E7
100
AcDbEntity
  8
SIZE
  6
BYBLOCK
100
AcDbLine
 10
-124.9999992164957
 20
694.3747200251991
 30
0.0
 11
-114.9999992164957
 21
694.3747200251991
 31
0.0
  0
CIRCLE
  5
1688A
330
3E7
100
AcDbEntity
  8
SIZE
  6
BYBLOCK
100
AcDbCircle
 10
-108.9999992164957
 20
835.397623155065
 30
0.0
 40
5.0
  0
LINE
  5
1688B
330
3E7
100
AcDbEntity
  8
SIZE
  6
BYBLOCK
100
AcDbLine
 10
-108.9999992164957
 20
835.397623155065
 30
0.0
 11
-98.99999921649577
 21
835.397623155065
 31
0.0
  0
TEXT
  5
1688C
330
3E7
100
AcDbEntity
  8
SIZE
100
AcDbText
 10
-319.160033560731
 20
855.3976231550651
 30
0.0
 40
64.0
  1
56
 41
0.9
100
AcDbText
  0
TEXT
  5
1688D
330
3E7
100
AcDbEntity
  8
SIZE
100
AcDbText
 10
-74.05714207363861
 20
1668.317922866078
 30
0.0
 40
64.0
  1
330
 41
0.9
100
AcDbText
  0
TEXT
  5
1688E
330
3E7
100
AcDbEntity
  8
SIZE
100
AcDbText
 10
-328.2571420736386
 20
1668.317922866078
 30
0.0
 40
64.0
  1
25
 41
0.9
100
AcDbText
  0
CIRCLE
  5
1688F
330
3E7
100
AcDbEntity
  8
SIZE
  6
BYBLOCK
100
AcDbCircle
 10
-164.9999992164957
 20
1648.317922866078
 30
0.0
 40
5.0
  0
LINE
  5
16890
330
3E7
100
AcDbEntity
  8
SIZE
  6
BYBLOCK
100
AcDbLine
 10
-164.9999992164957
 20
1648.317922866078
 30
0.0
 11
-154.9999992164955
 21
1648.317922866078
 31
0.0
  0
CIRCLE
  5
16891
330
3E7
100
AcDbEntity
  8
SIZE
  6
BYBLOCK
100
AcDbCircle
 10
-189.9999999999963
 20
1648.317922866078
 30
0.0
 40
5.0
  0
LINE
  5
16892
330
3E7
100
AcDbEntity
  8
SIZE
  6
BYBLOCK
100
AcDbLine
 10
-189.9999999999963
 20
1648.317922866078
 30
0.0
 11
-199.9999999999963
 21
1648.317922866078
 31
0.0
  0
CIRCLE
  5
16893
330
3E7
100
AcDbEntity
  8
SIZE
  6
BYBLOCK
100
AcDbCircle
 10
-164.9999992164957
 20
1648.317922866078
 30
0.0
 40
5.0
  0
LINE
  5
16894
330
3E7
100
AcDbEntity
  8
SIZE
  6
BYBLOCK
100
AcDbLine
 10
-164.9999992164957
 20
1648.317922866078
 30
0.0
 11
-154.9999992164955
 21
1648.317922866078
 31
0.0
  0
CIRCLE
  5
16895
330
3E7
100
AcDbEntity
  8
SIZE
  6
BYBLOCK
100
AcDbCircle
 10
165.000000783504
 20
1648.317922866078
 30
0.0
 40
5.0
  0
LINE
  5
16896
330
3E7
100
AcDbEntity
  8
SIZE
  6
BYBLOCK
100
AcDbLine
 10
165.000000783504
 20
1648.317922866078
 30
0.0
 11
155.000000783504
 21
1648.317922866078
 31
0.0
  0
LINE
  5
16897
330
3E7
100
AcDbEntity
  8
OUTLINE
  6
CONTINUOUS
100
AcDbLine
 10
166.98473358155
 20
1303.313659667981
 30
0.0
 11
167.000000000009
 21
609.9000091552807
 31
0.0
  0
LINE
  5
16898
330
3E7
100
AcDbEntity
  8
OUTLINE
  6
CONTINUOUS
100
AcDbLine
 10
165.0000000000199
 20
1316.59997558595
 30
0.0
 11
165.0000000000199
 21
611.4000167846779
 31
0.0
  0
LINE
  5
1689B
330
3E7
100
AcDbEntity
  8
OUTLINE
  6
CONTINUOUS
100
AcDbLine
 10
-167.0000000000054
 20
1045.35739135743
 30
0.0
 11
-167.0000000000054
 21
609.9000244140734
 31
0.0
  0
LINE
  5
1689C
330
3E7
100
AcDbEntity
  8
OUTLINE
  6
CONTINUOUS
100
AcDbLine
 10
-164.9999999999979
 20
611.4000244140742
 30
0.0
 11
-164.9999999999979
 21
1316.600036621107
 31
0.0
  0
LINE
  5
1689D
330
3E7
100
AcDbEntity
  8
OUTLINE
  6
CONTINUOUS
100
AcDbLine
 10
-189.9999999999945
 20
699.5410676002578
 30
0.0
 11
-189.9999999999979
 21
1304.411621093762
 31
0.0
  0
LINE
  5
1689F
330
3E7
100
AcDbEntity
  8
OUTLINE
  6
CONTINUOUS
100
AcDbLine
 10
167.000000000009
 20
543.8999938964935
 30
0.0
 11
167.0000000000125
 21
246.742675781255
 31
0.0
  0
LINE
  5
168A0
330
3E7
100
AcDbEntity
  8
OUTLINE
  6
CONTINUOUS
100
AcDbLine
 10
165.0000000000199
 20
542.4000244140688
 30
0.0
 11
165.0000000000199
 21
207.0000305175833
 31
0.0
  0
LINE
  5
168A1
330
3E7
100
AcDbEntity
  8
OUTLINE
  6
CONTINUOUS
100
AcDbLine
 10
-167.0000000000054
 20
543.9000091552816
 30
0.0
 11
-167.0000000000054
 21
247.3570251464889
 31
0.0
  0
LINE
  5
168A2
330
3E7
100
AcDbEntity
  8
OUTLINE
  6
CONTINUOUS
100
AcDbLine
 10
-164.9999999999979
 20
207.0000305175833
 30
0.0
 11
-164.9999999999979
 21
542.4000244140734
 31
0.0
  0
LINE
  5
168A5
330
3E7
100
AcDbEntity
  8
OUTLINE
100
AcDbLine
 10
-189.9999999999926
 20
671.658966064459
 30
0.0
 11
-189.9999999999945
 21
66.78839111328307
 31
0.0
  0
LINE
  5
168A7
330
3E7
100
AcDbEntity
  8
OUTLINE
  6
CONTINUOUS
100
AcDbLine
 10
164.0000000000109
 20
206.000030517584
 30
0.0
 11
159.4000015258858
 21
206.0000305175853
 31
0.0
  0
LINE
  5
168A8
330
3E7
100
AcDbEntity
  8
OUTLINE
  6
CONTINUOUS
100
AcDbLine
 10
160.1652755737413
 20
185.0030517578176
 30
0.0
 11
163.9999999999981
 21
185.0000305175808
 31
0.0
  0
LINE
  5
168A9
330
3E7
100
AcDbEntity
  8
OUTLINE
  6
CONTINUOUS
100
AcDbLine
 10
-10.69999694824036
 20
26.00000000000362
 30
0.0
 11
164.1423187256093
 21
26.01019287109965
 31
0.0
  0
LINE
  5
168AA
330
3E7
100
AcDbEntity
  8
OUTLINE
  6
CONTINUOUS
100
AcDbLine
 10
194.4000015258843
 20
1.60003662109375
 30
0.0
 11
-212.5999908447174
 21
1.60003662109375
 31
0.0
  0
LINE
  5
168AB
330
3E7
100
AcDbEntity
  8
OUTLINE
  6
CONTINUOUS
100
AcDbLine
 10
-212.5999908447174
 20
0.0
 30
0.0
 11
194.4000015258843
 21
0.0
 31
0.0
  0
LINE
  5
168AC
330
3E7
100
AcDbEntity
  8
OUTLINE
  6
CONTINUOUS
100
AcDbLine
 10
155.1132583618179
 20
25.00000000000454
 30
0.0
 11
-155.1132354736344
 21
25.00000000000454
 31
0.0
  0
LINE
  5
168AD
330
3E7
100
AcDbEntity
  8
OUTLINE
  6
CONTINUOUS
100
AcDbLine
 10
-33.94802093505676
 20
22.00000000000271
 30
0.0
 11
141.3812026977593
 21
22.00000000000271
 31
0.0
  0
LINE
  5
168AF
330
3E7
100
AcDbEntity
  8
OUTLINE
  6
CONTINUOUS
100
AcDbLine
 10
-164.9999999999979
 20
27.00000000000271
 30
0.0
 11
-164.9999999999979
 21
184.0000305175814
 31
0.0
  0
LINE
  5
168B3
330
3E7
100
AcDbEntity
  8
OUTLINE
  6
CONTINUOUS
100
AcDbLine
 10
-12.7000045776349
 20
26.00000000000362
 30
0.0
 11
-163.9999999999945
 21
26.00000000000273
 31
0.0
  0
LINE
  5
168B4
330
3E7
100
AcDbEntity
  8
OUTLINE
  6
CONTINUOUS
100
AcDbLine
 10
-155.6510620117093
 20
23.49999999999909
 30
0.0
 11
-163.7339630126898
 21
9.500000000002726
 31
0.0
  0
ARC
  5
168B5
330
3E7
100
AcDbEntity
  8
OUTLINE
  6
CONTINUOUS
100
AcDbCircle
 10
-166.3320511950569
 20
11.00002073444557
 30
0.0
 40
3.000020734447866
100
AcDbArc
 50
270.0000895006368
 51
329.9997713713965
  0
ARC
  5
168B6
330
3E7
100
AcDbEntity
  8
OUTLINE
  6
CONTINUOUS
100
AcDbCircle
 10
-153.0530043681335
 20
22.00003216025425
 30
0.0
 40
2.999967839764453
100
AcDbArc
 50
89.99979767244502
 51
150.0003546239148
  0
LINE
  5
168B7
330
3E7
100
AcDbEntity
  8
OUTLINE
  6
CONTINUOUS
100
AcDbLine
 10
-159.1999969482258
 20
25.99999999999909
 30
0.0
 11
-159.1999969482258
 21
17.35302734375181
 31
0.0
  0
LINE
  5
168B8
330
3E7
100
AcDbEntity
  8
OUTLINE
  6
CONTINUOUS
100
AcDbLine
 10
-160.7999877929596
 20
14.58178710937771
 30
0.0
 11
-160.7999877929596
 21
25.99999999999909
 31
0.0
  0
LINE
  5
168B9
330
3E7
100
AcDbEntity
  8
OUTLINE
  6
CONTINUOUS
100
AcDbLine
 10
-157.5381011962944
 20
26.00000000000273
 30
0.0
 11
-156.152481079096
 21
23.60003662109646
 31
0.0
  0
LINE
  5
168BA
330
3E7
100
AcDbEntity
  8
OUTLINE
  6
CONTINUOUS
100
AcDbLine
 10
-165.4999999999908
 20
54.25000000000181
 30
0.0
 11
-165.4999999999908
 21
42.24999999999909
 31
0.0
  0
LINE
  5
168BB
330
3E7
100
AcDbEntity
  8
OUTLINE
  6
CONTINUOUS
100
AcDbLine
 10
-166.2999877929705
 20
53.10565185546693
 30
0.0
 11
-166.2999877929705
 21
43.35498046874818
 31
0.0
  0
LINE
  5
168BC
330
3E7
100
AcDbEntity
  8
OUTLINE
  6
CONTINUOUS
100
AcDbLine
 10
-169.1540527343728
 20
43.63122558593659
 30
0.0
 11
-166.2999877929705
 21
43.63122558593659
 31
0.0
  0
LINE
  5
168BD
330
3E7
100
AcDbEntity
  8
OUTLINE
  6
CONTINUOUS
100
AcDbLine
 10
-169.799987792974
 20
51.75000000000181
 30
0.0
 11
-169.799987792974
 21
44.74999999999909
 31
0.0
  0
LINE
  5
168BE
330
3E7
100
AcDbEntity
  8
OUTLINE
  6
CONTINUOUS
100
AcDbLine
 10
-169.1540527343728
 20
45.94061279296965
 30
0.0
 11
-166.2999877929705
 21
45.94061279296965
 31
0.0
  0
LINE
  5
168BF
330
3E7
100
AcDbEntity
  8
OUTLINE
  6
CONTINUOUS
100
AcDbLine
 10
-169.1540527343728
 20
52.86883544921693
 30
0.0
 11
-166.2999877929705
 21
52.86883544921693
 31
0.0
  0
LINE
  5
168C0
330
3E7
100
AcDbEntity
  8
OUTLINE
  6
CONTINUOUS
100
AcDbLine
 10
-169.1540527343728
 20
50.5594482421884
 30
0.0
 11
-166.2999877929705
 21
50.55944824218795
 31
0.0
  0
LINE
  5
168C1
330
3E7
100
AcDbEntity
  8
OUTLINE
  6
CONTINUOUS
100
AcDbLine
 10
-166.2999877929705
 20
53.10565185546693
 30
0.0
 11
-166.2865600585955
 21
53.18505859374909
 31
0.0
  0
LINE
  5
168C2
330
3E7
100
AcDbEntity
  8
OUTLINE
  6
CONTINUOUS
100
AcDbLine
 10
-166.2865600585955
 20
53.18505859374909
 30
0.0
 11
-166.2634277343729
 21
53.20361328124818
 31
0.0
  0
LINE
  5
168C3
330
3E7
100
AcDbEntity
  8
OUTLINE
  6
CONTINUOUS
100
AcDbLine
 10
-166.2634277343729
 20
53.20361328124818
 30
0.0
 11
-166.2499999999979
 21
53.22155761718931
 31
0.0
  0
LINE
  5
168C4
330
3E7
100
AcDbEntity
  8
OUTLINE
  6
CONTINUOUS
100
AcDbLine
 10
-166.2999877929705
 20
43.35498046874818
 30
0.0
 11
-166.2865600585955
 21
43.31500244140443
 31
0.0
  0
LINE
  5
168C5
330
3E7
100
AcDbEntity
  8
OUTLINE
  6
CONTINUOUS
100
AcDbLine
 10
-166.2865600585955
 20
43.31500244140443
 30
0.0
 11
-166.2499999999979
 21
43.27850341796875
 31
0.0
  0
LINE
  5
168C6
330
3E7
100
AcDbEntity
  8
OUTLINE
  6
CONTINUOUS
100
AcDbLine
 10
-166.2499999999979
 20
43.27850341796875
 30
0.0
 11
-166.1999511718728
 21
43.24999999999818
 31
0.0
  0
LINE
  5
168C7
330
3E7
100
AcDbEntity
  8
OUTLINE
  6
CONTINUOUS
100
AcDbLine
 10
-166.2499999999979
 20
53.22155761718931
 30
0.0
 11
-166.1999511718728
 21
53.24999999999818
 31
0.0
  0
LINE
  5
168C8
330
3E7
100
AcDbEntity
  8
OUTLINE
  6
CONTINUOUS
100
AcDbLine
 10
-169.1540527343728
 20
52.86883544921693
 30
0.0
 11
-169.799987792974
 21
51.75000000000181
 31
0.0
  0
LINE
  5
168C9
330
3E7
100
AcDbEntity
  8
OUTLINE
  6
CONTINUOUS
100
AcDbLine
 10
-169.1540527343728
 20
43.63122558593659
 30
0.0
 11
-169.799987792974
 21
44.74999999999909
 31
0.0
  0
LINE
  5
168CA
330
3E7
100
AcDbEntity
  8
OUTLINE
  6
CONTINUOUS
100
AcDbLine
 10
-166.1999511718728
 20
43.24999999999818
 30
0.0
 11
-165.4999999999908
 21
43.24999999999818
 31
0.0
  0
LINE
  5
168CB
330
3E7
100
AcDbEntity
  8
OUTLINE
  6
CONTINUOUS
100
AcDbLine
 10
-166.1999511718728
 20
53.24999999999818
 30
0.0
 11
-165.4999999999908
 21
53.24999999999818
 31
0.0
  0
LINE
  5
168CC
330
3E7
100
AcDbEntity
  8
OUTLINE
  6
CONTINUOUS
100
AcDbLine
 10
-165.4999999999908
 20
42.24999999999909
 30
0.0
 11
-164.9999999999979
 21
42.24999999999909
 31
0.0
  0
LINE
  5
168CD
330
3E7
100
AcDbEntity
  8
OUTLINE
  6
CONTINUOUS
100
AcDbLine
 10
-165.4999999999908
 20
54.25000000000181
 30
0.0
 11
-164.9999999999979
 21
54.25000000000181
 31
0.0
  0
ARC
  5
168CE
330
3E7
100
AcDbEntity
  8
OUTLINE
100
AcDbCircle
 10
-167.4665290993268
 20
51.71414184570267
 30
0.0
 40
2.044762415743188
100
AcDbArc
 50
145.6179863151611
 51
214.3820136848389
  0
ARC
  5
168CF
330
3E7
100
AcDbEntity
  8
OUTLINE
100
AcDbCircle
 10
-161.867902721051
 20
48.25003051757494
 30
0.0
 40
7.643388793156777
100
AcDbArc
 50
162.4134702354826
 51
197.5865297644741
  0
ARC
  5
168D0
330
3E7
100
AcDbEntity
  8
OUTLINE
100
AcDbCircle
 10
-167.4665290680386
 20
44.7859191894531
 30
0.0
 40
2.044762441566529
100
AcDbArc
 50
145.6179868102023
 51
214.3820131897975
  0
LINE
  5
168D1
330
3E7
100
AcDbEntity
  8
OUTLINE
100
AcDbLine
 10
-164.9999999999979
 20
60.78839111328306
 30
0.0
 11
-183.9999999999945
 21
60.78839111328306
 31
0.0
  0
ARC
  5
168D2
330
3E7
100
AcDbEntity
  8
OUTLINE
100
AcDbCircle
 10
-183.9999999999945
 20
66.78839111328307
 30
0.0
 40
6.0
100
AcDbArc
 50
180.0
 51
270.0
  0
ARC
  5
168D3
330
3E7
100
AcDbEntity
  8
OUTLINE
100
AcDbCircle
 10
-163.9999897595735
 20
27.00001024042331
 30
0.0
 40
1.000010240473464
100
AcDbArc
 50
180.0005867268711
 51
269.9994132731026
  0
ARC
  5
168D4
330
3E7
100
AcDbEntity
  8
OUTLINE
100
AcDbCircle
 10
-155.4720328306393
 20
27.36629319431176
 30
0.0
 40
2.393340557634501
100
AcDbArc
 50
214.8111161241835
 51
278.6219936311336
  0
LINE
  5
168D5
330
3E7
100
AcDbEntity
  8
OUTLINE
100
AcDbLine
 10
-156.152481079096
 20
23.60003662109646
 30
0.0
 11
-155.8220184058427
 21
23.20389473809426
 31
0.0
  0
ARC
  5
168D6
330
3E7
100
AcDbEntity
  8
OUTLINE
  6
CONTINUOUS
100
AcDbCircle
 10
-214.5945915288848
 20
4.998188626487715
 30
0.0
 40
3.005399861696522
100
AcDbArc
 50
87.19982301586485
 51
179.9654674690773
  0
LINE
  5
168D7
330
3E7
100
AcDbEntity
  8
OUTLINE
  6
CONTINUOUS
100
AcDbLine
 10
-212.5999908447174
 20
0.0
 30
0.0
 11
-212.5999908447174
 21
2.000000000002728
 31
0.0
  0
LINE
  5
168D8
330
3E7
100
AcDbEntity
  8
OUTLINE
  6
CONTINUOUS
100
AcDbLine
 10
-217.599990844717
 20
5.0
 30
0.0
 11
-217.599990844717
 21
2.000000000002728
 31
0.0
  0
LINE
  5
168D9
330
3E7
100
AcDbEntity
  8
OUTLINE
  6
CONTINUOUS
100
AcDbLine
 10
-212.5999908447174
 20
2.000000000002728
 30
0.0
 11
-217.599990844717
 21
2.000000000002728
 31
0.0
  0
LINE
  5
168DA
330
3E7
100
AcDbEntity
  8
OUTLINE
  6
CONTINUOUS
100
AcDbLine
 10
-166.3320465087763
 20
8.000000000001817
 30
0.0
 11
-214.4477691650336
 21
8.000000000001817
 31
0.0
  0
LINE
  5
168DB
330
3E7
100
AcDbEntity
  8
OUTLINE
  6
CONTINUOUS
100
AcDbLine
 10
-10.69999694824036
 20
27.00000000000271
 30
0.0
 11
-12.7000045776349
 21
27.00000000000271
 31
0.0
  0
LINE
  5
168DC
330
3E7
100
AcDbEntity
  8
OUTLINE
  6
CONTINUOUS
100
AcDbLine
 10
-12.7000045776349
 20
26.00000000000362
 30
0.0
 11
-12.7000045776349
 21
27.00000000000271
 31
0.0
  0
LINE
  5
168DD
330
3E7
100
AcDbEntity
  8
OUTLINE
  6
CONTINUOUS
100
AcDbLine
 10
-10.69999694824036
 20
27.00000000000271
 30
0.0
 11
-10.69999694824036
 21
26.00000000000362
 31
0.0
  0
LINE
  5
168F8
330
3E7
100
AcDbEntity
  8
OUTLINE
  6
CONTINUOUS
100
AcDbLine
 10
-36.71929931640807
 20
23.60003662109646
 30
0.0
 11
-35.54801940917787
 21
22.42871093750181
 31
0.0
  0
LINE
  5
168F9
330
3E7
100
AcDbEntity
  8
OUTLINE
  6
CONTINUOUS
100
AcDbLine
 10
-35.54801940917787
 20
22.42871093750181
 30
0.0
 11
-33.94802093505676
 21
22.00000000000271
 31
0.0
  0
LINE
  5
168FA
330
3E7
100
AcDbEntity
  8
OUTLINE
100
AcDbLine
 10
-36.71929931640807
 20
23.60003662109646
 30
0.0
 11
-37.97080993652162
 21
25.00000000000454
 31
0.0
  0
LINE
  5
168FD
330
3E7
100
AcDbEntity
  8
OUTLINE
  6
CONTINUOUS
100
AcDbLine
 10
-159.9999999999979
 20
206.0000305175845
 30
0.0
 11
-159.9999999999979
 21
185.200012207033
 31
0.0
  0
ARC
  5
168FE
330
3E7
100
AcDbEntity
  8
OUTLINE
  6
CONTINUOUS
100
AcDbCircle
 10
-160.1999950330337
 20
185.2000255510438
 30
0.0
 40
0.1999950334730628
100
AcDbArc
 50
269.9994513182808
 51
359.9961771274543
  0
ARC
  5
168FF
330
3E7
100
AcDbEntity
  8
OUTLINE
  6
CONTINUOUS
100
AcDbCircle
 10
-163.999995033353
 20
184.0000255509448
 30
0.0
 40
1.000004966648303
100
AcDbArc
 50
90.00028456582034
 51
179.9997154341273
  0
ARC
  5
16900
330
3E7
100
AcDbEntity
  8
OUTLINE
  6
CONTINUOUS
100
AcDbCircle
 10
-164.0000040423053
 20
207.0000264752748
 30
0.0
 40
0.9999959576971223
100
AcDbArc
 50
179.9997683918315
 51
270.0002316072565
  0
ARC
  5
16901
330
3E7
100
AcDbEntity
  8
OUTLINE
  6
CONTINUOUS
100
AcDbCircle
 10
-164.0000031997788
 20
246.842667258097
 30
0.0
 40
2.999990630933706
100
AcDbArc
 50
188.1826699624332
 51
225.000257815655
  0
ARC
  5
16902
330
3E7
100
AcDbEntity
  8
OUTLINE
  6
CONTINUOUS
100
AcDbCircle
 10
-167.9999842782654
 20
242.3573414105431
 30
0.0
 40
2.999984278674363
100
AcDbArc
 50
0.0009539202684295
 51
45.00047470842395
  0
LINE
  5
16903
330
3E7
100
AcDbEntity
  8
OUTLINE
  6
CONTINUOUS
100
AcDbLine
 10
-165.8786926269546
 20
244.4786682128958
 30
0.0
 11
-166.1213073730484
 21
244.721343994147
 31
0.0
  0
LINE
  5
16904
330
3E7
100
AcDbEntity
  8
OUTLINE
  6
CONTINUOUS
100
AcDbLine
 10
-167.0000000000054
 20
247.3570251464889
 30
0.0
 11
-166.9694519042948
 21
246.4156799316469
 31
0.0
  0
ARC
  5
16905
330
3E7
100
AcDbEntity
  8
OUTLINE
100
AcDbCircle
 10
-167.4665290680386
 20
212.5359497070346
 30
0.0
 40
2.044762441566529
100
AcDbArc
 50
145.6179868102023
 51
214.3820131897975
  0
ARC
  5
16906
330
3E7
100
AcDbEntity
  8
OUTLINE
100
AcDbCircle
 10
-161.867902721051
 20
216.0000610351564
 30
0.0
 40
7.643388793156777
100
AcDbArc
 50
162.4134702354826
 51
197.5865297644741
  0
ARC
  5
16907
330
3E7
100
AcDbEntity
  8
OUTLINE
100
AcDbCircle
 10
-167.4665290993268
 20
219.4641723632844
 30
0.0
 40
2.044762415743188
100
AcDbArc
 50
145.6179863151611
 51
214.3820136848389
  0
LINE
  5
16908
330
3E7
100
AcDbEntity
  8
OUTLINE
  6
CONTINUOUS
100
AcDbLine
 10
-165.4999999999908
 20
222.0000305175833
 30
0.0
 11
-164.9999999999979
 21
222.0000305175833
 31
0.0
  0
LINE
  5
16909
330
3E7
100
AcDbEntity
  8
OUTLINE
  6
CONTINUOUS
100
AcDbLine
 10
-165.4999999999908
 20
210.0000305175806
 30
0.0
 11
-164.9999999999979
 21
210.0000305175806
 31
0.0
  0
LINE
  5
1690A
330
3E7
100
AcDbEntity
  8
OUTLINE
  6
CONTINUOUS
100
AcDbLine
 10
-166.1999511718728
 20
221.0000305175799
 30
0.0
 11
-165.4999999999908
 21
221.0000305175799
 31
0.0
  0
LINE
  5
1690B
330
3E7
100
AcDbEntity
  8
OUTLINE
  6
CONTINUOUS
100
AcDbLine
 10
-166.1999511718728
 20
211.0000305175799
 30
0.0
 11
-165.4999999999908
 21
211.0000305175799
 31
0.0
  0
LINE
  5
1690C
330
3E7
100
AcDbEntity
  8
OUTLINE
  6
CONTINUOUS
100
AcDbLine
 10
-169.1540527343728
 20
211.3812561035183
 30
0.0
 11
-169.799987792974
 21
212.5000305175808
 31
0.0
  0
LINE
  5
1690D
330
3E7
100
AcDbEntity
  8
OUTLINE
  6
CONTINUOUS
100
AcDbLine
 10
-169.1540527343728
 20
220.6188659667986
 30
0.0
 11
-169.799987792974
 21
219.5000305175833
 31
0.0
  0
LINE
  5
1690E
330
3E7
100
AcDbEntity
  8
OUTLINE
  6
CONTINUOUS
100
AcDbLine
 10
-166.2499999999979
 20
220.9715881347708
 30
0.0
 11
-166.1999511718728
 21
221.0000305175799
 31
0.0
  0
LINE
  5
1690F
330
3E7
100
AcDbEntity
  8
OUTLINE
  6
CONTINUOUS
100
AcDbLine
 10
-166.2499999999979
 20
211.0285339355505
 30
0.0
 11
-166.1999511718728
 21
211.0000305175799
 31
0.0
  0
LINE
  5
16910
330
3E7
100
AcDbEntity
  8
OUTLINE
  6
CONTINUOUS
100
AcDbLine
 10
-166.2865600585955
 20
211.0650329589859
 30
0.0
 11
-166.2499999999979
 21
211.0285339355505
 31
0.0
  0
LINE
  5
16911
330
3E7
100
AcDbEntity
  8
OUTLINE
  6
CONTINUOUS
100
AcDbLine
 10
-166.2999877929705
 20
211.1050109863298
 30
0.0
 11
-166.2865600585955
 21
211.0650329589859
 31
0.0
  0
LINE
  5
16912
330
3E7
100
AcDbEntity
  8
OUTLINE
  6
CONTINUOUS
100
AcDbLine
 10
-166.2634277343729
 20
220.9536437988299
 30
0.0
 11
-166.2499999999979
 21
220.9715881347708
 31
0.0
  0
LINE
  5
16913
330
3E7
100
AcDbEntity
  8
OUTLINE
  6
CONTINUOUS
100
AcDbLine
 10
-166.2865600585955
 20
220.9350891113308
 30
0.0
 11
-166.2634277343729
 21
220.9536437988299
 31
0.0
  0
LINE
  5
16914
330
3E7
100
AcDbEntity
  8
OUTLINE
  6
CONTINUOUS
100
AcDbLine
 10
-166.2999877929705
 20
220.8556823730487
 30
0.0
 11
-166.2865600585955
 21
220.9350891113308
 31
0.0
  0
LINE
  5
16915
330
3E7
100
AcDbEntity
  8
OUTLINE
  6
CONTINUOUS
100
AcDbLine
 10
-169.1540527343728
 20
218.3094787597699
 30
0.0
 11
-166.2999877929705
 21
218.3094787597696
 31
0.0
  0
LINE
  5
16916
330
3E7
100
AcDbEntity
  8
OUTLINE
  6
CONTINUOUS
100
AcDbLine
 10
-169.1540527343728
 20
220.6188659667986
 30
0.0
 11
-166.2999877929705
 21
220.6188659667986
 31
0.0
  0
LINE
  5
16917
330
3E7
100
AcDbEntity
  8
OUTLINE
  6
CONTINUOUS
100
AcDbLine
 10
-169.1540527343728
 20
213.6906433105514
 30
0.0
 11
-166.2999877929705
 21
213.6906433105514
 31
0.0
  0
LINE
  5
16918
330
3E7
100
AcDbEntity
  8
OUTLINE
  6
CONTINUOUS
100
AcDbLine
 10
-169.799987792974
 20
219.5000305175833
 30
0.0
 11
-169.799987792974
 21
212.5000305175808
 31
0.0
  0
LINE
  5
16919
330
3E7
100
AcDbEntity
  8
OUTLINE
  6
CONTINUOUS
100
AcDbLine
 10
-169.1540527343728
 20
211.3812561035183
 30
0.0
 11
-166.2999877929705
 21
211.3812561035183
 31
0.0
  0
LINE
  5
1691A
330
3E7
100
AcDbEntity
  8
OUTLINE
  6
CONTINUOUS
100
AcDbLine
 10
-166.2999877929705
 20
220.8556823730487
 30
0.0
 11
-166.2999877929705
 21
211.1050109863298
 31
0.0
  0
LINE
  5
1691B
330
3E7
100
AcDbEntity
  8
OUTLINE
  6
CONTINUOUS
100
AcDbLine
 10
-165.4999999999908
 20
222.0000305175833
 30
0.0
 11
-165.4999999999908
 21
210.0000305175806
 31
0.0
  0
LINE
  5
16948
330
3E7
100
AcDbEntity
  8
OUTLINE
  6
CONTINUOUS
100
AcDbLine
 10
165.0000000000018
 20
27.00000000000271
 30
0.0
 11
165.0000000000018
 21
184.0000305175814
 31
0.0
  0
LINE
  5
16949
330
3E7
100
AcDbEntity
  8
OUTLINE
  6
CONTINUOUS
100
AcDbLine
 10
196.4000015258859
 20
7.999999999999543
 30
0.0
 11
167.1320571899574
 21
8.000000000001817
 31
0.0
  0
ARC
  5
1694A
330
3E7
100
AcDbEntity
  8
OUTLINE
  6
CONTINUOUS
100
AcDbCircle
 10
167.1320590546399
 20
11.00001584728943
 30
0.0
 40
3.000015847289091
100
AcDbArc
 50
210.0001747405772
 51
269.999964387467
  0
ARC
  5
1694B
330
3E7
100
AcDbEntity
  8
OUTLINE
  6
CONTINUOUS
100
AcDbCircle
 10
196.4000110033173
 20
5.000009477430467
 30
0.0
 40
2.999990522584048
100
AcDbArc
 50
359.9998189938118
 51
90.000181006162
  0
LINE
  5
1694C
330
3E7
100
AcDbEntity
  8
OUTLINE
  6
CONTINUOUS
100
AcDbLine
 10
194.4000015258843
 20
0.0
 30
0.0
 11
194.4000015258843
 21
2.000000000002728
 31
0.0
  0
LINE
  5
1694D
330
3E7
100
AcDbEntity
  8
OUTLINE
  6
CONTINUOUS
100
AcDbLine
 10
199.4000015258843
 20
2.000000000002728
 30
0.0
 11
199.4000015258843
 21
5.0
 31
0.0
  0
LINE
  5
1694E
330
3E7
100
AcDbEntity
  8
OUTLINE
  6
CONTINUOUS
100
AcDbLine
 10
194.4000015258843
 20
2.000000000002728
 30
0.0
 11
199.4000015258843
 21
2.000000000002728
 31
0.0
  0
LINE
  5
1694F
330
3E7
100
AcDbEntity
  8
OUTLINE
  6
CONTINUOUS
100
AcDbLine
 10
166.299987792956
 20
39.60494995117187
 30
0.0
 11
166.299987792956
 21
49.35565185547147
 31
0.0
  0
LINE
  5
16950
330
3E7
100
AcDbEntity
  8
OUTLINE
  6
CONTINUOUS
100
AcDbLine
 10
169.7999877929593
 20
41.00000000000362
 30
0.0
 11
169.7999877929593
 21
48.00000000000181
 31
0.0
  0
LINE
  5
16951
330
3E7
100
AcDbEntity
  8
OUTLINE
  6
CONTINUOUS
100
AcDbLine
 10
165.4999999999945
 20
38.50000000000363
 30
0.0
 11
165.4999999999945
 21
50.50000000000181
 31
0.0
  0
LINE
  5
16952
330
3E7
100
AcDbEntity
  8
OUTLINE
  6
CONTINUOUS
100
AcDbLine
 10
169.1540527343768
 20
39.88119506836483
 30
0.0
 11
166.2999877929578
 21
39.88119506836483
 31
0.0
  0
LINE
  5
16953
330
3E7
100
AcDbEntity
  8
OUTLINE
  6
CONTINUOUS
100
AcDbLine
 10
169.1540527343768
 20
42.19061279296965
 30
0.0
 11
166.2999877929578
 21
42.19061279296965
 31
0.0
  0
LINE
  5
16954
330
3E7
100
AcDbEntity
  8
OUTLINE
  6
CONTINUOUS
100
AcDbLine
 10
169.1540527343768
 20
49.11880493164517
 30
0.0
 11
166.2999877929578
 21
49.11880493164517
 31
0.0
  0
LINE
  5
16955
330
3E7
100
AcDbEntity
  8
OUTLINE
  6
CONTINUOUS
100
AcDbLine
 10
169.1540527343768
 20
46.8094177246121
 30
0.0
 11
166.2999877929578
 21
46.8094177246121
 31
0.0
  0
LINE
  5
16956
330
3E7
100
AcDbEntity
  8
OUTLINE
  6
CONTINUOUS
100
AcDbLine
 10
166.299987792956
 20
49.35565185547147
 30
0.0
 11
166.2865905761663
 21
49.43505859375363
 31
0.0
  0
LINE
  5
16957
330
3E7
100
AcDbEntity
  8
OUTLINE
  6
CONTINUOUS
100
AcDbLine
 10
166.2865905761663
 20
49.43505859375363
 30
0.0
 11
166.2634277343768
 21
49.45358276367187
 31
0.0
  0
LINE
  5
16958
330
3E7
100
AcDbEntity
  8
OUTLINE
  6
CONTINUOUS
100
AcDbLine
 10
166.2634277343768
 20
49.45358276367187
 30
0.0
 11
166.2500000000018
 21
49.47155761718931
 31
0.0
  0
LINE
  5
16959
330
3E7
100
AcDbEntity
  8
OUTLINE
  6
CONTINUOUS
100
AcDbLine
 10
166.199981689444
 20
39.50000000000272
 30
0.0
 11
166.2500000000018
 21
39.52847290039244
 31
0.0
  0
LINE
  5
1695A
330
3E7
100
AcDbEntity
  8
OUTLINE
  6
CONTINUOUS
100
AcDbLine
 10
166.2500000000018
 20
39.52847290039244
 30
0.0
 11
166.2806701660174
 21
39.55557250976653
 31
0.0
  0
LINE
  5
1695B
330
3E7
100
AcDbEntity
  8
OUTLINE
  6
CONTINUOUS
100
AcDbLine
 10
166.2806701660174
 20
39.55557250976653
 30
0.0
 11
166.299987792956
 21
39.60494995117187
 31
0.0
  0
LINE
  5
1695C
330
3E7
100
AcDbEntity
  8
OUTLINE
  6
CONTINUOUS
100
AcDbLine
 10
166.2500000000018
 20
49.47155761718931
 30
0.0
 11
166.199981689444
 21
49.50000000000272
 31
0.0
  0
LINE
  5
1695D
330
3E7
100
AcDbEntity
  8
OUTLINE
  6
CONTINUOUS
100
AcDbLine
 10
169.1540527343768
 20
39.88119506836483
 30
0.0
 11
169.7999877929593
 21
41.00000000000362
 31
0.0
  0
LINE
  5
1695E
330
3E7
100
AcDbEntity
  8
OUTLINE
  6
CONTINUOUS
100
AcDbLine
 10
169.1540527343768
 20
49.11880493164517
 30
0.0
 11
169.7999877929593
 21
48.00000000000181
 31
0.0
  0
LINE
  5
1695F
330
3E7
100
AcDbEntity
  8
OUTLINE
  6
CONTINUOUS
100
AcDbLine
 10
166.199981689444
 20
39.50000000000272
 30
0.0
 11
165.4999999999945
 21
39.50000000000272
 31
0.0
  0
LINE
  5
16960
330
3E7
100
AcDbEntity
  8
OUTLINE
  6
CONTINUOUS
100
AcDbLine
 10
166.199981689444
 20
49.50000000000272
 30
0.0
 11
165.4999999999945
 21
49.50000000000272
 31
0.0
  0
LINE
  5
16961
330
3E7
100
AcDbEntity
  8
OUTLINE
  6
CONTINUOUS
100
AcDbLine
 10
165.4999999999945
 20
38.50000000000363
 30
0.0
 11
165.0000000000018
 21
38.50000000000363
 31
0.0
  0
LINE
  5
16962
330
3E7
100
AcDbEntity
  8
OUTLINE
  6
CONTINUOUS
100
AcDbLine
 10
165.4999999999945
 20
50.50000000000181
 30
0.0
 11
165.0000000000018
 21
50.50000000000181
 31
0.0
  0
ARC
  5
16963
330
3E7
100
AcDbEntity
  8
OUTLINE
100
AcDbCircle
 10
167.4667037451414
 20
47.96411132812909
 30
0.0
 40
2.044618284539545
100
AcDbArc
 50
325.6152226050861
 51
34.38477739489286
  0
ARC
  5
16964
330
3E7
100
AcDbEntity
  8
OUTLINE
100
AcDbCircle
 10
161.8686541983952
 20
44.50001525879042
 30
0.0
 40
7.642667831145472
100
AcDbArc
 50
342.4118770835066
 51
17.58812291649989
  0
ARC
  5
16965
330
3E7
100
AcDbEntity
  8
OUTLINE
100
AcDbCircle
 10
167.4666544365955
 20
41.03590393066724
 30
0.0
 40
2.044667594508958
100
AcDbArc
 50
325.6156500638608
 51
34.3843499361391
  0
ARC
  5
16966
330
3E7
100
AcDbEntity
  8
OUTLINE
  6
CONTINUOUS
100
AcDbCircle
 10
153.8530049389933
 20
22.00001464882916
 30
0.0
 40
2.999985351213464
100
AcDbArc
 50
29.99983847242008
 51
90.00030065557663
  0
LINE
  5
16967
330
3E7
100
AcDbEntity
  8
OUTLINE
  6
CONTINUOUS
100
AcDbLine
 10
159.7999954223648
 20
17.69952392578034
 30
0.0
 11
159.7999954223648
 21
25.99999999999909
 31
0.0
  0
LINE
  5
16968
330
3E7
100
AcDbEntity
  8
OUTLINE
  6
CONTINUOUS
100
AcDbLine
 10
158.2000045776494
 20
20.47076416015443
 30
0.0
 11
158.2000045776494
 21
25.99999999999909
 31
0.0
  0
ARC
  5
16969
330
3E7
100
AcDbEntity
  8
OUTLINE
  6
CONTINUOUS
100
AcDbCircle
 10
141.3811686474415
 20
25.20000409984277
 30
0.0
 40
3.200004100020294
100
AcDbArc
 50
270.0006096678584
 51
330.0007147516735
  0
ARC
  5
1696A
330
3E7
100
AcDbEntity
  8
OUTLINE
  6
CONTINUOUS
100
AcDbCircle
 10
145.9999752221319
 20
23.20000665295992
 30
0.0
 40
1.799993347122213
100
AcDbArc
 50
89.99945414494689
 51
149.9987762372524
  0
LINE
  5
1696B
330
3E7
100
AcDbEntity
  8
OUTLINE
  6
CONTINUOUS
100
AcDbLine
 10
144.4411544799929
 20
24.10003662109375
 30
0.0
 11
144.152473449705
 21
23.60003662109646
 31
0.0
  0
LINE
  5
1696C
330
3E7
100
AcDbEntity
  8
OUTLINE
  6
CONTINUOUS
100
AcDbLine
 10
157.5381011962979
 20
26.00000000000362
 30
0.0
 11
156.2477264404351
 21
23.76501464843839
 31
0.0
  0
ARC
  5
1696D
330
3E7
100
AcDbEntity
  8
OUTLINE
100
AcDbCircle
 10
154.9713812210284
 20
28.50322993450935
 30
0.0
 40
3.506101695200711
100
AcDbArc
 50
272.3191516450299
 51
314.441651228026
  0
LINE
  5
1696E
330
3E7
100
AcDbEntity
  8
OUTLINE
  6
CONTINUOUS
100
AcDbLine
 10
164.533973693853
 20
9.500000000002726
 30
0.0
 11
156.4510726928729
 21
23.49999999999909
 31
0.0
  0
ARC
  5
1696F
330
3E7
100
AcDbEntity
  8
OUTLINE
  6
CONTINUOUS
100
AcDbCircle
 10
163.9999963482314
 20
27.00001691845955
 30
0.0
 40
1.000003651910742
100
AcDbArc
 50
278.1822244959329
 51
359.9990306473451
  0
LINE
  5
16974
330
3E7
100
AcDbEntity
  8
OUTLINE
  6
CONTINUOUS
100
AcDbLine
 10
160.0000000000018
 20
185.200012207033
 30
0.0
 11
160.0000000000018
 21
204.0000305175813
 31
0.0
  0
ARC
  5
16983
330
3E7
100
AcDbEntity
  8
OUTLINE
  6
CONTINUOUS
100
AcDbCircle
 10
160.2000028038146
 20
185.2000165796516
 30
0.0
 40
0.2000028038519807
100
AcDbArc
 50
180.0012526447189
 51
260.0008413650849
  0
ARC
  5
16985
330
3E7
100
AcDbEntity
  8
OUTLINE
  6
CONTINUOUS
100
AcDbCircle
 10
163.9999947306583
 20
184.0000252482468
 30
0.0
 40
1.000005269351972
100
AcDbArc
 50
0.0003019091918813
 51
89.99969809075601
  0
LINE
  5
16989
330
3E7
100
AcDbEntity
  8
OUTLINE
100
AcDbLine
 10
167.000000000009
 20
246.7426757812561
 30
0.0
 11
165.0000000000181
 21
242.2573852539101
 31
0.0
  0
ARC
  5
1698A
330
3E7
100
AcDbEntity
  8
OUTLINE
  6
CONTINUOUS
100
AcDbCircle
 10
159.4000031893319
 20
205.8000242750039
 30
0.0
 40
0.2000062425882272
100
AcDbArc
 50
90.0004765272156
 51
179.9929662664118
  0
LINE
  5
1698C
330
3E7
100
AcDbEntity
  8
OUTLINE
  6
CONTINUOUS
100
AcDbLine
 10
159.1999969482476
 20
205.800048828132
 30
0.0
 11
159.1999969482476
 21
204.0000305175813
 31
0.0
  0
LINE
  5
1698F
330
3E7
100
AcDbEntity
  8
OUTLINE
  6
CONTINUOUS
100
AcDbLine
 10
159.1999969482476
 20
204.0000305175813
 30
0.0
 11
160.0000000000018
 21
204.0000305175813
 31
0.0
  0
ARC
  5
16990
330
3E7
100
AcDbEntity
  8
OUTLINE
  6
CONTINUOUS
100
AcDbCircle
 10
164.0000047157281
 20
207.0000258018668
 30
0.0
 40
0.9999952842943347
100
AcDbArc
 50
269.9997298080509
 51
0.0002701919490702
  0
LINE
  5
16993
330
3E7
100
AcDbEntity
  8
OUTLINE
  6
CONTINUOUS
100
AcDbLine
 10
-168.0000000000091
 20
608.4858093261797
 30
0.0
 11
-167.9999999999981
 21
545.3142395019608
 31
0.0
  0
ARC
  5
16996
330
3E7
100
AcDbEntity
  8
OUTLINE
  6
CONTINUOUS
100
AcDbCircle
 10
-167.0000015419988
 20
545.3142373377295
 30
0.0
 40
0.9999984580013688
100
AcDbArc
 50
179.999875998497
 51
224.9999747907402
  0
ARC
  5
16997
330
3E7
100
AcDbEntity
  8
OUTLINE
  6
CONTINUOUS
100
AcDbCircle
 10
-165.2929075709453
 20
542.9000266026696
 30
0.0
 40
0.5000021888264758
100
AcDbArc
 50
225.0014020690329
 51
270.0017320312739
  0
LINE
  5
16999
330
3E7
100
AcDbEntity
  8
OUTLINE
  6
CONTINUOUS
100
AcDbLine
 10
-165.6464538574232
 20
542.5464630127044
 30
0.0
 11
-167.7071075439544
 21
544.6071319580187
 31
0.0
  0
ARC
  5
1699F
330
3E7
100
AcDbEntity
  8
OUTLINE
  6
CONTINUOUS
100
AcDbCircle
 10
-166.9999989747684
 20
608.4858104270279
 30
0.0
 40
1.000001025243839
100
AcDbArc
 50
135.0000861368464
 51
180.000063073883
  0
ARC
  5
169A0
330
3E7
100
AcDbEntity
  8
OUTLINE
  6
CONTINUOUS
100
AcDbCircle
 10
-165.2928919796229
 20
610.900021422126
 30
0.0
 40
0.5000029919483456
100
AcDbArc
 50
90.00005459482261
 51
135.0010325618079
  0
LINE
  5
169A3
330
3E7
100
AcDbEntity
  8
OUTLINE
  6
CONTINUOUS
100
AcDbLine
 10
-165.6464538574232
 20
611.2535705566506
 30
0.0
 11
-167.7071075439544
 21
609.1929168701242
 31
0.0
  0
LINE
  5
169A4
330
3E7
100
AcDbEntity
  8
OUTLINE
100
AcDbLine
 10
-167.0000000000054
 20
693.5410676002581
 30
0.0
 11
-183.9999999999945
 21
693.541067600258
 31
0.0
  0
ARC
  5
169A5
330
3E7
100
AcDbEntity
  8
OUTLINE
100
AcDbCircle
 10
-183.9999999999945
 20
699.5410676002578
 30
0.0
 40
6.0
100
AcDbArc
 50
180.0000000000001
 51
270.0000000000009
  0
LINE
  5
169A6
330
3E7
100
AcDbEntity
  8
OUTLINE
100
AcDbLine
 10
-167.0000000000054
 20
677.6589660644595
 30
0.0
 11
-183.9999999999926
 21
677.658966064459
 31
0.0
  0
ARC
  5
169A7
330
3E7
100
AcDbEntity
  8
OUTLINE
100
AcDbCircle
 10
-183.9999999999926
 20
671.658966064459
 30
0.0
 40
6.0
100
AcDbArc
 50
90.0
 51
180.0
  0
LINE
  5
169AC
330
3E7
100
AcDbEntity
  8
OUTLINE
  6
CONTINUOUS
100
AcDbLine
 10
167.9999961853191
 20
608.4858093261797
 30
0.0
 11
167.9999961853081
 21
545.3142395019608
 31
0.0
  0
ARC
  5
169AE
330
3E7
100
AcDbEntity
  8
OUTLINE
  6
CONTINUOUS
100
AcDbCircle
 10
166.9999977273091
 20
545.3142373377295
 30
0.0
 40
0.9999984580013688
100
AcDbArc
 50
315.0000252092596
 51
0.0001240015028387
  0
LINE
  5
169AF
330
3E7
100
AcDbEntity
  8
OUTLINE
  6
CONTINUOUS
100
AcDbLine
 10
165.6464500427335
 20
542.5464630127044
 30
0.0
 11
167.7071037292644
 21
544.6071319580187
 31
0.0
  0
ARC
  5
169B0
330
3E7
100
AcDbEntity
  8
OUTLINE
  6
CONTINUOUS
100
AcDbCircle
 10
165.2929037562553
 20
542.9000266026696
 30
0.0
 40
0.5000021888264758
100
AcDbArc
 50
269.998267968726
 51
314.9985979309671
  0
LINE
  5
169B6
330
3E7
100
AcDbEntity
  8
OUTLINE
  6
CONTINUOUS
100
AcDbLine
 10
165.6464500427335
 20
611.2535705566506
 30
0.0
 11
167.7071037292644
 21
609.1929168701242
 31
0.0
  0
ARC
  5
169B7
330
3E7
100
AcDbEntity
  8
OUTLINE
  6
CONTINUOUS
100
AcDbCircle
 10
165.2928881649328
 20
610.900021422126
 30
0.0
 40
0.5000029919483456
100
AcDbArc
 50
44.99896743819208
 51
89.99994540517738
  0
ARC
  5
169B8
330
3E7
100
AcDbEntity
  8
OUTLINE
  6
CONTINUOUS
100
AcDbCircle
 10
166.9999951600784
 20
608.4858104270279
 30
0.0
 40
1.000001025243839
100
AcDbArc
 50
359.999936926117
 51
44.99991386315354
  0
LINE
  5
169C2
330
3E7
100
AcDbEntity
  8
OUTLINE
  6
CONTINUOUS
100
AcDbLine
 10
-164.0000000000034
 20
1317.600036621108
 30
0.0
 11
164.0000000000163
 21
1317.599975585949
 31
0.0
  0
LINE
  5
169C3
330
3E7
100
AcDbEntity
  8
OUTLINE
100
AcDbLine
 10
-160.0000000000018
 20
1338.00000000001
 30
0.0
 11
160.0000076293925
 21
1338.00000000001
 31
0.0
  0
ARC
  5
169C4
330
3E7
100
AcDbEntity
  8
OUTLINE
  6
CONTINUOUS
100
AcDbCircle
 10
-167.9999946588377
 20
1049.842675095874
 30
0.0
 40
2.999994658931586
100
AcDbArc
 50
314.9996074185506
 51
359.9995468148485
  0
ARC
  5
169C5
330
3E7
100
AcDbEntity
  8
OUTLINE
  6
CONTINUOUS
100
AcDbCircle
 10
-164.0000054485954
 20
1045.357367673259
 30
0.0
 40
2.99999455149649
100
AcDbArc
 50
134.9996065685897
 51
179.9995476647399
  0
LINE
  5
169C6
330
3E7
100
AcDbEntity
  8
OUTLINE
  6
CONTINUOUS
100
AcDbLine
 10
-165.8786926269546
 20
1047.721343994153
 30
0.0
 11
-166.1213073730484
 21
1047.478698730478
 31
0.0
  0
LINE
  5
169C7
330
3E7
100
AcDbEntity
  8
OUTLINE
  6
CONTINUOUS
100
AcDbLine
 10
-164.9999999999979
 20
1334.600036621109
 30
0.0
 11
-164.9999999999979
 21
1319.100036621106
 31
0.0
  0
ARC
  5
169C8
330
3E7
100
AcDbEntity
  8
OUTLINE
  6
CONTINUOUS
100
AcDbCircle
 10
-163.9999922324913
 20
1316.600028853595
 30
0.0
 40
1.000007767543177
100
AcDbArc
 50
90.00044504222797
 51
179.9995549577458
  0
ARC
  5
169C9
330
3E7
100
AcDbEntity
  8
OUTLINE
  6
CONTINUOUS
100
AcDbCircle
 10
-163.4999922934712
 20
1319.100006910852
 30
0.0
 40
1.500007706811639
100
AcDbArc
 50
179.9988651576233
 51
239.9998300541991
  0
LINE
  5
169CA
330
3E7
100
AcDbEntity
  8
OUTLINE
  6
CONTINUOUS
100
AcDbLine
 10
-164.0000000000125
 20
1317.600036621106
 30
0.0
 11
-164.2499999999909
 21
1317.800964355481
 31
0.0
  0
ARC
  5
169CB
330
3E7
100
AcDbEntity
  8
OUTLINE
  6
CONTINUOUS
100
AcDbCircle
 10
-159.9999922325132
 20
1332.999992232523
 30
0.0
 40
5.000007767493124
100
AcDbArc
 50
90.00008900871653
 51
179.9999109912834
  0
ARC
  5
169CC
330
3E7
100
AcDbEntity
  8
OUTLINE
100
AcDbCircle
 10
-167.4665290680386
 20
1325.13595581056
 30
0.0
 40
2.044762441566529
100
AcDbArc
 50
145.6179868102023
 51
214.3820131897975
  0
ARC
  5
169CD
330
3E7
100
AcDbEntity
  8
OUTLINE
100
AcDbCircle
 10
-161.867902721051
 20
1328.600067138681
 30
0.0
 40
7.643388793156777
100
AcDbArc
 50
162.4134702354826
 51
197.5865297644741
  0
ARC
  5
169CE
330
3E7
100
AcDbEntity
  8
OUTLINE
100
AcDbCircle
 10
-167.4665290993268
 20
1332.06417846681
 30
0.0
 40
2.044762415743188
100
AcDbArc
 50
145.6179863151611
 51
214.3820136848389
  0
LINE
  5
169CF
330
3E7
100
AcDbEntity
  8
OUTLINE
  6
CONTINUOUS
100
AcDbLine
 10
-165.4999999999908
 20
1334.600036621109
 30
0.0
 11
-164.9999999999979
 21
1334.600036621109
 31
0.0
  0
LINE
  5
169D0
330
3E7
100
AcDbEntity
  8
OUTLINE
  6
CONTINUOUS
100
AcDbLine
 10
-165.4999999999908
 20
1322.600036621106
 30
0.0
 11
-164.9999999999979
 21
1322.600036621106
 31
0.0
  0
LINE
  5
169D1
330
3E7
100
AcDbEntity
  8
OUTLINE
  6
CONTINUOUS
100
AcDbLine
 10
-166.1999511718728
 20
1333.600036621105
 30
0.0
 11
-165.4999999999908
 21
1333.600036621105
 31
0.0
  0
LINE
  5
169D2
330
3E7
100
AcDbEntity
  8
OUTLINE
  6
CONTINUOUS
100
AcDbLine
 10
-166.1999511718728
 20
1323.600036621105
 30
0.0
 11
-165.4999999999908
 21
1323.600036621105
 31
0.0
  0
LINE
  5
169D3
330
3E7
100
AcDbEntity
  8
OUTLINE
  6
CONTINUOUS
100
AcDbLine
 10
-169.1540527343728
 20
1323.981262207044
 30
0.0
 11
-169.799987792974
 21
1325.100036621106
 31
0.0
  0
LINE
  5
169D4
330
3E7
100
AcDbEntity
  8
OUTLINE
  6
CONTINUOUS
100
AcDbLine
 10
-169.1540527343728
 20
1333.218872070323
 30
0.0
 11
-169.799987792974
 21
1332.100036621109
 31
0.0
  0
LINE
  5
169D5
330
3E7
100
AcDbEntity
  8
OUTLINE
  6
CONTINUOUS
100
AcDbLine
 10
-166.2499999999979
 20
1333.571594238296
 30
0.0
 11
-166.1999511718728
 21
1333.600036621105
 31
0.0
  0
LINE
  5
169D6
330
3E7
100
AcDbEntity
  8
OUTLINE
  6
CONTINUOUS
100
AcDbLine
 10
-166.2499999999979
 20
1323.628540039075
 30
0.0
 11
-166.1999511718728
 21
1323.600036621105
 31
0.0
  0
LINE
  5
169D7
330
3E7
100
AcDbEntity
  8
OUTLINE
  6
CONTINUOUS
100
AcDbLine
 10
-166.2865600585955
 20
1323.665039062511
 30
0.0
 11
-166.2499999999979
 21
1323.628540039075
 31
0.0
  0
LINE
  5
169D8
330
3E7
100
AcDbEntity
  8
OUTLINE
  6
CONTINUOUS
100
AcDbLine
 10
-166.2999877929705
 20
1323.705017089855
 30
0.0
 11
-166.2865600585955
 21
1323.665039062511
 31
0.0
  0
LINE
  5
169D9
330
3E7
100
AcDbEntity
  8
OUTLINE
  6
CONTINUOUS
100
AcDbLine
 10
-166.2634277343729
 20
1333.553649902355
 30
0.0
 11
-166.2499999999979
 21
1333.571594238296
 31
0.0
  0
LINE
  5
169DA
330
3E7
100
AcDbEntity
  8
OUTLINE
  6
CONTINUOUS
100
AcDbLine
 10
-166.2865600585955
 20
1333.535095214856
 30
0.0
 11
-166.2634277343729
 21
1333.553649902355
 31
0.0
  0
LINE
  5
169DB
330
3E7
100
AcDbEntity
  8
OUTLINE
  6
CONTINUOUS
100
AcDbLine
 10
-166.2999877929705
 20
1333.455688476574
 30
0.0
 11
-166.2865600585955
 21
1333.535095214856
 31
0.0
  0
LINE
  5
169DC
330
3E7
100
AcDbEntity
  8
OUTLINE
  6
CONTINUOUS
100
AcDbLine
 10
-169.1540527343728
 20
1330.909484863294
 30
0.0
 11
-166.2999877929705
 21
1330.909484863294
 31
0.0
  0
LINE
  5
169DD
330
3E7
100
AcDbEntity
  8
OUTLINE
  6
CONTINUOUS
100
AcDbLine
 10
-169.1540527343728
 20
1333.218872070323
 30
0.0
 11
-166.2999877929705
 21
1333.218872070323
 31
0.0
  0
LINE
  5
169DE
330
3E7
100
AcDbEntity
  8
OUTLINE
  6
CONTINUOUS
100
AcDbLine
 10
-169.1540527343728
 20
1326.290649414077
 30
0.0
 11
-166.2999877929705
 21
1326.290649414077
 31
0.0
  0
LINE
  5
169DF
330
3E7
100
AcDbEntity
  8
OUTLINE
  6
CONTINUOUS
100
AcDbLine
 10
-169.799987792974
 20
1332.100036621109
 30
0.0
 11
-169.799987792974
 21
1325.100036621106
 31
0.0
  0
LINE
  5
169E0
330
3E7
100
AcDbEntity
  8
OUTLINE
  6
CONTINUOUS
100
AcDbLine
 10
-169.1540527343728
 20
1323.981262207044
 30
0.0
 11
-166.2999877929705
 21
1323.981262207044
 31
0.0
  0
LINE
  5
169E1
330
3E7
100
AcDbEntity
  8
OUTLINE
  6
CONTINUOUS
100
AcDbLine
 10
-166.2999877929705
 20
1333.455688476574
 30
0.0
 11
-166.2999877929705
 21
1323.705017089855
 31
0.0
  0
LINE
  5
169E2
330
3E7
100
AcDbEntity
  8
OUTLINE
  6
CONTINUOUS
100
AcDbLine
 10
-165.4999999999908
 20
1334.600036621109
 30
0.0
 11
-165.4999999999908
 21
1322.600036621106
 31
0.0
  0
LINE
  5
169E3
330
3E7
100
AcDbEntity
  8
OUTLINE
100
AcDbLine
 10
-164.9999999999979
 20
1310.411621093762
 30
0.0
 11
-183.9999999999981
 21
1310.411621093762
 31
0.0
  0
ARC
  5
169E4
330
3E7
100
AcDbEntity
  8
OUTLINE
100
AcDbCircle
 10
-183.9999999999981
 20
1304.411621093762
 30
0.0
 40
6.0
100
AcDbArc
 50
90.0
 51
180.0000000000001
  0
LINE
  5
169E5
330
3E7
100
AcDbEntity
  8
OUTLINE
  6
CONTINUOUS
100
AcDbLine
 10
179.8264998099205
 20
1222.500000000012
 30
0.0
 11
166.999996507877
 21
1222.500000000012
 31
0.0
  0
LINE
  5
169E6
330
3E7
100
AcDbEntity
  8
OUTLINE
  6
CONTINUOUS
100
AcDbLine
 10
179.7612237552256
 20
1225.499996369366
 30
0.0
 11
166.999996507877
 21
1225.50000000001
 31
0.0
  0
LINE
  5
169E7
330
3E7
100
AcDbEntity
  8
OUTLINE
  6
CONTINUOUS
100
AcDbLine
 10
165.0000076294072
 20
1319.100036621106
 30
0.0
 11
165.0000000000018
 21
1334.600036621109
 31
0.0
  0
LINE
  5
169E9
330
3E7
100
AcDbEntity
  8
OUTLINE
  6
CONTINUOUS
100
AcDbLine
 10
175.299999559631
 20
1213.000061035167
 30
0.0
 11
175.299999559631
 21
1222.500000000012
 31
0.0
  0
LINE
  5
169EB
330
3E7
100
AcDbEntity
  8
OUTLINE
  6
CONTINUOUS
100
AcDbLine
 10
177.799999559631
 20
1213.000061035167
 30
0.0
 11
177.799999559631
 21
1222.500000000012
 31
0.0
  0
ARC
  5
169ED
330
3E7
100
AcDbEntity
  8
OUTLINE
  6
CONTINUOUS
100
AcDbCircle
 10
174.0499837048648
 20
1196.108605226585
 30
0.0
 40
2.999984145325732
100
AcDbArc
 50
180.0004523259583
 51
267.0001903745513
  0
ARC
  5
169EE
330
3E7
100
AcDbEntity
  8
OUTLINE
  6
CONTINUOUS
100
AcDbCircle
 10
175.050010554771
 20
1224.000006273603
 30
0.0
 40
4.000018921055627
100
AcDbArc
 50
103.8463245498893
 51
145.3845836534485
  0
LINE
  5
169EF
330
3E7
100
AcDbEntity
  8
OUTLINE
  6
CONTINUOUS
100
AcDbLine
 10
183.0499995596276
 20
1197.00000000001
 30
0.0
 11
171.0499995596203
 21
1197.00000000001
 31
0.0
  0
LINE
  5
169F0
330
3E7
100
AcDbEntity
  8
OUTLINE
  6
CONTINUOUS
100
AcDbLine
 10
175.299999559631
 20
1193.039001464853
 30
0.0
 11
173.8929866201781
 21
1193.112731933601
 31
0.0
  0
LINE
  5
169F1
330
3E7
100
AcDbEntity
  8
OUTLINE
  6
CONTINUOUS
100
AcDbLine
 10
171.0499995596203
 20
1222.000000000011
 30
0.0
 11
175.299999559631
 21
1222.000000000011
 31
0.0
  0
LINE
  5
169F2
330
3E7
100
AcDbEntity
  8
OUTLINE
  6
CONTINUOUS
100
AcDbLine
 10
171.3527568228184
 20
1225.50000000001
 30
0.0
 11
171.7580607778856
 21
1226.272277832044
 31
0.0
  0
LINE
  5
169F3
330
3E7
100
AcDbEntity
  8
OUTLINE
  6
CONTINUOUS
100
AcDbLine
 10
174.0927317983935
 20
1227.88378906251
 30
0.0
 11
174.449993456112
 21
1227.927185058605
 31
0.0
  0
LINE
  5
169F4
330
3E7
100
AcDbEntity
  8
OUTLINE
  6
CONTINUOUS
100
AcDbLine
 10
183.0499995596276
 20
1213.00000000001
 30
0.0
 11
171.0499995596203
 21
1213.00000000001
 31
0.0
  0
LINE
  5
169F5
330
3E7
100
AcDbEntity
  8
OUTLINE
  6
CONTINUOUS
100
AcDbLine
 10
171.0499995596203
 20
1222.500000000012
 30
0.0
 11
171.049999559633
 21
1196.108581542979
 31
0.0
  0
ARC
  5
169F6
330
3E7
100
AcDbEntity
  8
OUTLINE
  6
CONTINUOUS
100
AcDbCircle
 10
180.0500024441701
 20
1196.108600639285
 30
0.0
 40
2.999997115517551
100
AcDbArc
 50
287.9998946361812
 51
359.9996352870383
  0
LINE
  5
169F7
330
3E7
100
AcDbEntity
  8
OUTLINE
  6
CONTINUOUS
100
AcDbLine
 10
177.0499995596239
 20
1197.00000000001
 30
0.0
 11
177.0499995596239
 21
1213.00000000001
 31
0.0
  0
LINE
  5
169F8
330
3E7
100
AcDbEntity
  8
OUTLINE
  6
CONTINUOUS
100
AcDbLine
 10
179.049999559631
 20
1199.000000000008
 30
0.0
 11
183.0499995596276
 21
1199.000000000008
 31
0.0
  0
LINE
  5
169F9
330
3E7
100
AcDbEntity
  8
OUTLINE
  6
CONTINUOUS
100
AcDbLine
 10
175.299999559631
 20
1193.039001464853
 30
0.0
 11
180.2070048696823
 21
1193.112731933601
 31
0.0
  0
LINE
  5
169FA
330
3E7
100
AcDbEntity
  8
OUTLINE
  6
CONTINUOUS
100
AcDbLine
 10
179.049999559631
 20
1211.000000000012
 30
0.0
 11
179.049999559631
 21
1199.000000000008
 31
0.0
  0
LINE
  5
169FB
330
3E7
100
AcDbEntity
  8
OUTLINE
  6
CONTINUOUS
100
AcDbLine
 10
183.0499995596255
 20
1223.999996507877
 30
0.0
 11
183.0499995596276
 21
1196.108581542979
 31
0.0
  0
LINE
  5
169FC
330
3E7
100
AcDbEntity
  8
OUTLINE
  6
CONTINUOUS
100
AcDbLine
 10
179.049999559631
 20
1228.00000000001
 30
0.0
 11
174.449993456112
 21
1227.927185058605
 31
0.0
  0
LINE
  5
169FD
330
3E7
100
AcDbEntity
  8
OUTLINE
  6
CONTINUOUS
100
AcDbLine
 10
179.049999559631
 20
1226.000000000012
 30
0.0
 11
177.799999559631
 21
1226.000000000012
 31
0.0
  0
LINE
  5
169FE
330
3E7
100
AcDbEntity
  8
OUTLINE
  6
CONTINUOUS
100
AcDbLine
 10
177.799999559631
 20
1222.000000000011
 30
0.0
 11
179.049999559631
 21
1222.000000000011
 31
0.0
  0
LINE
  5
169FF
330
3E7
100
AcDbEntity
  8
OUTLINE
  6
CONTINUOUS
100
AcDbLine
 10
179.049999559631
 20
1215.686767578135
 30
0.0
 11
179.049999559631
 21
1222.000000000011
 31
0.0
  0
LINE
  5
16A00
330
3E7
100
AcDbEntity
  8
OUTLINE
  6
CONTINUOUS
100
AcDbLine
 10
179.049999559631
 20
1211.000000000012
 30
0.0
 11
183.0499995596276
 21
1211.000000000012
 31
0.0
  0
LINE
  5
16A01
330
3E7
100
AcDbEntity
  8
OUTLINE
  6
CONTINUOUS
100
AcDbLine
 10
180.9770472891268
 20
1193.255432128916
 30
0.0
 11
180.2070048696823
 21
1193.112731933601
 31
0.0
  0
LINE
  5
16A02
330
3E7
100
AcDbEntity
  8
OUTLINE
  6
CONTINUOUS
100
AcDbLine
 10
180.5499995596276
 20
1211.000000000012
 30
0.0
 11
180.5499995596276
 21
1199.000000000008
 31
0.0
  0
ARC
  5
16A05
330
3E7
100
AcDbEntity
  8
OUTLINE
100
AcDbCircle
 10
167.4666544365955
 20
1325.135940551773
 30
0.0
 40
2.044667594508958
100
AcDbArc
 50
325.6156500638608
 51
34.3843499361391
  0
ARC
  5
16A06
330
3E7
100
AcDbEntity
  8
OUTLINE
100
AcDbCircle
 10
161.8686541983952
 20
1328.600051879897
 30
0.0
 40
7.642667831145472
100
AcDbArc
 50
342.4118770835066
 51
17.58812291649989
  0
ARC
  5
16A07
330
3E7
100
AcDbEntity
  8
OUTLINE
100
AcDbCircle
 10
167.4667037451414
 20
1332.064147949236
 30
0.0
 40
2.044618284539545
100
AcDbArc
 50
325.6152226050861
 51
34.38477739489286
  0
LINE
  5
16A08
330
3E7
100
AcDbEntity
  8
OUTLINE
  6
CONTINUOUS
100
AcDbLine
 10
165.4999999999945
 20
1334.600036621109
 30
0.0
 11
165.0000000000018
 21
1334.600036621109
 31
0.0
  0
LINE
  5
16A09
330
3E7
100
AcDbEntity
  8
OUTLINE
  6
CONTINUOUS
100
AcDbLine
 10
165.4999999999945
 20
1322.600036621111
 30
0.0
 11
165.0000000000018
 21
1322.600036621111
 31
0.0
  0
LINE
  5
16A0A
330
3E7
100
AcDbEntity
  8
OUTLINE
  6
CONTINUOUS
100
AcDbLine
 10
166.199981689444
 20
1333.60003662111
 30
0.0
 11
165.4999999999945
 21
1333.60003662111
 31
0.0
  0
LINE
  5
16A0B
330
3E7
100
AcDbEntity
  8
OUTLINE
  6
CONTINUOUS
100
AcDbLine
 10
166.199981689444
 20
1323.60003662111
 30
0.0
 11
165.4999999999945
 21
1323.60003662111
 31
0.0
  0
LINE
  5
16A0C
330
3E7
100
AcDbEntity
  8
OUTLINE
  6
CONTINUOUS
100
AcDbLine
 10
169.1540527343768
 20
1333.218841552752
 30
0.0
 11
169.7999877929593
 21
1332.100036621109
 31
0.0
  0
LINE
  5
16A0D
330
3E7
100
AcDbEntity
  8
OUTLINE
  6
CONTINUOUS
100
AcDbLine
 10
169.1540527343768
 20
1323.981231689472
 30
0.0
 11
169.7999877929593
 21
1325.100036621111
 31
0.0
  0
LINE
  5
16A0E
330
3E7
100
AcDbEntity
  8
OUTLINE
  6
CONTINUOUS
100
AcDbLine
 10
166.2500000000018
 20
1333.571594238296
 30
0.0
 11
166.199981689444
 21
1333.60003662111
 31
0.0
  0
LINE
  5
16A0F
330
3E7
100
AcDbEntity
  8
OUTLINE
  6
CONTINUOUS
100
AcDbLine
 10
166.2806701660174
 20
1323.655609130874
 30
0.0
 11
166.299987792956
 21
1323.704986572279
 31
0.0
  0
LINE
  5
16A10
330
3E7
100
AcDbEntity
  8
OUTLINE
  6
CONTINUOUS
100
AcDbLine
 10
166.2500000000018
 20
1323.628509521499
 30
0.0
 11
166.2806701660174
 21
1323.655609130874
 31
0.0
  0
LINE
  5
16A11
330
3E7
100
AcDbEntity
  8
OUTLINE
  6
CONTINUOUS
100
AcDbLine
 10
166.199981689444
 20
1323.60003662111
 30
0.0
 11
166.2500000000018
 21
1323.628509521499
 31
0.0
  0
LINE
  5
16A12
330
3E7
100
AcDbEntity
  8
OUTLINE
  6
CONTINUOUS
100
AcDbLine
 10
166.2634277343768
 20
1333.553619384779
 30
0.0
 11
166.2500000000018
 21
1333.571594238296
 31
0.0
  0
LINE
  5
16A13
330
3E7
100
AcDbEntity
  8
OUTLINE
  6
CONTINUOUS
100
AcDbLine
 10
166.2865905761663
 20
1333.535095214861
 30
0.0
 11
166.2634277343768
 21
1333.553619384779
 31
0.0
  0
LINE
  5
16A14
330
3E7
100
AcDbEntity
  8
OUTLINE
  6
CONTINUOUS
100
AcDbLine
 10
166.299987792956
 20
1333.455688476578
 30
0.0
 11
166.2865905761663
 21
1333.535095214861
 31
0.0
  0
LINE
  5
16A15
330
3E7
100
AcDbEntity
  8
OUTLINE
  6
CONTINUOUS
100
AcDbLine
 10
169.1540527343768
 20
1330.909454345719
 30
0.0
 11
166.2999877929578
 21
1330.909454345719
 31
0.0
  0
LINE
  5
16A16
330
3E7
100
AcDbEntity
  8
OUTLINE
  6
CONTINUOUS
100
AcDbLine
 10
169.1540527343768
 20
1333.218841552752
 30
0.0
 11
166.2999877929578
 21
1333.218841552752
 31
0.0
  0
LINE
  5
16A17
330
3E7
100
AcDbEntity
  8
OUTLINE
  6
CONTINUOUS
100
AcDbLine
 10
169.1540527343768
 20
1326.290649414077
 30
0.0
 11
166.2999877929578
 21
1326.290649414077
 31
0.0
  0
LINE
  5
16A18
330
3E7
100
AcDbEntity
  8
OUTLINE
  6
CONTINUOUS
100
AcDbLine
 10
169.1540527343768
 20
1323.981231689472
 30
0.0
 11
166.2999877929578
 21
1323.981231689472
 31
0.0
  0
LINE
  5
16A19
330
3E7
100
AcDbEntity
  8
OUTLINE
  6
CONTINUOUS
100
AcDbLine
 10
165.4999999999945
 20
1322.600036621111
 30
0.0
 11
165.4999999999945
 21
1334.600036621109
 31
0.0
  0
LINE
  5
16A1A
330
3E7
100
AcDbEntity
  8
OUTLINE
  6
CONTINUOUS
100
AcDbLine
 10
169.7999877929593
 20
1325.100036621111
 30
0.0
 11
169.7999877929593
 21
1332.100036621109
 31
0.0
  0
LINE
  5
16A1B
330
3E7
100
AcDbEntity
  8
OUTLINE
  6
CONTINUOUS
100
AcDbLine
 10
166.299987792956
 20
1323.704986572279
 30
0.0
 11
166.299987792956
 21
1333.455688476578
 31
0.0
  0
LINE
  5
16A1C
330
3E7
100
AcDbEntity
  8
OUTLINE
100
AcDbLine
 10
166.98473358155
 20
1303.313659667981
 30
0.0
 11
165.0000000000163
 21
1307.8426513672
 31
0.0
  0
ARC
  5
16A1D
330
3E7
100
AcDbEntity
  8
OUTLINE
100
AcDbCircle
 10
179.1792905225941
 20
1223.986625906112
 30
0.0
 40
1.621399533208238
100
AcDbArc
 50
293.5261177980072
 51
68.96685346865068
  0
ARC
  5
16A1E
330
3E7
100
AcDbEntity
  8
OUTLINE
100
AcDbCircle
 10
179.0499995596291
 20
1224.000000000009
 30
0.0
 40
2.000000000001364
100
AcDbArc
 50
270.0000000000521
 51
89.99999999994788
  0
ARC
  5
16A1F
330
3E7
100
AcDbEntity
  8
OUTLINE
100
AcDbCircle
 10
184.0338186273604
 20
1216.085251611842
 30
0.0
 40
4.999724194891213
100
AcDbArc
 50
184.5713910954501
 51
205.5715008455714
  0
ARC
  5
16A20
330
3E7
100
AcDbEntity
  8
OUTLINE
100
AcDbCircle
 10
179.0499960675044
 20
1223.999996507891
 30
0.0
 40
4.000003492118366
100
AcDbArc
 50
359.9999999997882
 51
90.00000000007814
  0
LINE
  5
16A21
330
3E7
100
AcDbEntity
  8
OUTLINE
  6
CONTINUOUS
100
AcDbLine
 10
164.2500076293995
 20
1317.800964355481
 30
0.0
 11
163.999999898953
 21
1317.599975585949
 31
0.0
  0
ARC
  5
16A22
330
3E7
100
AcDbEntity
  8
OUTLINE
  6
CONTINUOUS
100
AcDbCircle
 10
164.0000224471459
 20
1316.599998033093
 30
0.0
 40
0.9999775531100691
100
AcDbArc
 50
359.9987138445872
 51
90.00128615538669
  0
ARC
  5
16A23
330
3E7
100
AcDbEntity
  8
OUTLINE
  6
CONTINUOUS
100
AcDbCircle
 10
163.4999937467382
 20
1319.100010476563
 30
0.0
 40
1.500013882898251
100
AcDbArc
 50
300.0003061493162
 51
0.0009986388778435
  0
ARC
  5
16A24
330
3E7
100
AcDbEntity
  8
OUTLINE
  6
CONTINUOUS
100
AcDbCircle
 10
159.999995744505
 20
1332.999988115127
 30
0.0
 40
5.000011884897076
100
AcDbArc
 50
0.0001361903931212
 51
89.99986380955476
  0
LINE
  5
16A25
330
3E7
100
AcDbEntity
  8
OUTLINE
100
AcDbLine
 10
-164.0000000000125
 20
206.0000305175858
 30
0.0
 11
-159.9999999999979
 21
206.0000305175845
 31
0.0
  0
LINE
  5
16A26
330
3E7
100
AcDbEntity
  8
OUTLINE
100
AcDbLine
 10
-163.9999999999879
 20
185.0000305175808
 30
0.0
 11
-160.1999969482465
 21
185.0000305175799
 31
0.0
  0
LINE
  5
16B44
330
3E7
100
AcDbEntity
  8
SIZE
  6
CONTINUOUS
100
AcDbLine
 10
-108.9999992164957
 20
482.0000305175835
 30
0.0
 11
-108.9999992164957
 21
865.397623155065
 31
0.0
  0
LINE
  5
16BB9
330
3E7
100
AcDbEntity
  8
SIZE
  6
CONTINUOUS
100
AcDbLine
 10
-164.9999992164955
 20
510.0000152587926
 30
0.0
 11
-469.5744419131058
 21
510.0000152587928
 31
0.0
  0
LINE
  5
16BBB
330
3E7
100
AcDbEntity
  8
SIZE
  6
CONTINUOUS
100
AcDbLine
 10
-131.9999992164957
 20
536.0664535278065
 30
0.0
 11
-131.9999992164957
 21
724.3747200251991
 31
0.0
  0
LINE
  5
16BBC
330
3E7
100
AcDbEntity
  8
SIZE
  6
CONTINUOUS
100
AcDbLine
 10
-148.9999992164954
 20
426.0000305175831
 30
0.0
 11
-340.6342599008311
 21
426.0000305175831
 31
0.0
  0
LINE
  5
16C2F
330
3E7
100
AcDbEntity
  8
SIZE
  6
CONTINUOUS
100
AcDbLine
 10
-204.9999999999982
 20
1062.000000000002
 30
0.0
 11
-802.000176855048
 21
1062.000000000002
 31
0.0
  0
ENDSEC
  0
SECTION
  2
OBJECTS
  0
DICTIONARY
  5
3D5
330
0
100
AcDbDictionary
  3
ACAD_GROUP
350
3D6
  3
ACAD_LAYOUT
350
3E2
  3
ACAD_MLINESTYLE
350
3DF
  3
ACAD_PLOTSETTINGS
350
3E1
  3
ACAD_PLOTSTYLENAME
350
3D7
  3
ACDBHEADERROUNDTRIPXREC
350
16C31
  0
DICTIONARY
  5
16A50
330
3E7
100
AcDbDictionary
280
     1
  3
ACAD_LAYOUTSELFREF
360
16C53
  0
DICTIONARY
  5
16A4E
330
3E3
100
AcDbDictionary
280
     1
  3
ACAD_LAYOUTSELFREF
360
16C52
  0
DICTIONARY
  5
3D6
102
{ACAD_REACTORS
330
3D5
102
}
330
3D5
100
AcDbDictionary
  0
DICTIONARY
  5
3E2
102
{ACAD_REACTORS
330
3D5
102
}
330
3D5
100
AcDbDictionary
  0
DICTIONARY
  5
3DF
102
{ACAD_REACTORS
330
3D5
102
}
330
3D5
100
AcDbDictionary
  3
STANDARD
350
3E0
  0
DICTIONARY
  5
3E1
102
{ACAD_REACTORS
330
3D5
102
}
330
3D5
100
AcDbDictionary
  0
ACDBDICTIONARYWDFLT
  5
3D7
102
{ACAD_REACTORS
330
3D5
102
}
330
3D5
100
AcDbDictionary
281
     1
  3
Normal
350
3D8
100
AcDbDictionaryWithDefault
340
3D8
  0
DICTIONARY
  5
16C31
102
{ACAD_REACTORS
330
3D5
102
}
330
3D5
100
AcDbDictionary
  3
CEPSNTYPE
350
16C3B
  3
DIMSTYLEDATA
350
16C3F
  3
FINGERPRINTGUID
350
16C3C
  3
HYPERLINKBASE
350
16C34
  3
INSUNITS
350
16C3A
  3
LAYOUTDICT
350
16C36
  3
LWETCUNION
350
16C39
  3
PLOTSETDICT
350
16C37
  3
PLOTSTYLNAMDICT
350
16C38
  3
PSVPSCALE
350
16C3E
  3
PUCSBASE
350
16C42
  3
PUCSORGBACK
350
16C48
  3
PUCSORGBOTTOM
350
16C44
  3
PUCSORGFRONT
350
16C47
  3
PUCSORGLEFT
350
16C45
  3
PUCSORGRIGHT
350
16C46
  3
PUCSORGTOP
350
16C43
  3
PUCSORTHOREF
350
16C40
  3
PUCSORTHOVIEW
350
16C41
  3
STYLESHEET
350
16C35
  3
TSTACKALIGN
350
16C32
  3
TSTACKSIZE
350
16C33
  3
UCSBASE
350
16C4B
  3
UCSORGBACK
350
16C51
  3
UCSORGBOTTOM
350
16C4D
  3
UCSORGFRONT
350
16C50
  3
UCSORGLEFT
350
16C4E
  3
UCSORGRIGHT
350
16C4F
  3
UCSORGTOP
350
16C4C
  3
UCSORTHOREF
350
16C49
  3
UCSORTHOVIEW
350
16C4A
  3
VERSIONGUID
350
16C3D
  0
XRECORD
  5
16C53
102
{ACAD_REACTORS
330
16A50
102
}
330
16A50
100
AcDbXrecord
340
3E7
  0
XRECORD
  5
16C52
102
{ACAD_REACTORS
330
16A4E
102
}
330
16A4E
100
AcDbXrecord
340
3E3
  0
MLINESTYLE
  5
3E0
102
{ACAD_REACTORS
330
3DF
102
}
330
3DF
100
AcDbMlineStyle
  2
STANDARD
 70
     0
  3

 62
   256
 51
90.0
 52
90.0
 71
     2
 49
0.5
 62
   256
  6
BYLAYER
 49
-0.5
 62
   256
  6
BYLAYER
  0
ACDBPLACEHOLDER
  5
3D8
102
{ACAD_REACTORS
330
3D7
102
}
330
3D7
100
AcDbPlaceHolder
280
     0
  0
XRECORD
  5
16C3B
102
{ACAD_REACTORS
330
16C31
102
}
330
16C31
100
AcDbXrecord
 90
        0
  0
XRECORD
  5
16C3F
102
{ACAD_REACTORS
330
16C31
102
}
330
16C31
100
AcDbXrecord
1000
DSTYLE
1002
{
1070
   341
340
4A9
1070
   342
340
4A9
1002
}
  0
XRECORD
  5
16C3C
102
{ACAD_REACTORS
330
16C31
102
}
330
16C31
100
AcDbXrecord
  1
{D2272796-D80D-4ABD-900F-0E7B08E93DCD}
  0
XRECORD
  5
16C34
102
{ACAD_REACTORS
330
16C31
102
}
330
16C31
100
AcDbXrecord
  1

  0
XRECORD
  5
16C3A
102
{ACAD_REACTORS
330
16C31
102
}
330
16C31
100
AcDbXrecord
 90
        0
  0
XRECORD
  5
16C36
102
{ACAD_REACTORS
330
16C31
102
}
330
16C31
100
AcDbXrecord
340
3E2
  0
XRECORD
  5
16C39
102
{ACAD_REACTORS
330
16C31
102
}
330
16C31
100
AcDbXrecord
 90
    10781
  0
XRECORD
  5
16C37
102
{ACAD_REACTORS
330
16C31
102
}
330
16C31
100
AcDbXrecord
340
3E1
  0
XRECORD
  5
16C38
102
{ACAD_REACTORS
330
16C31
102
}
330
16C31
100
AcDbXrecord
340
3D7
  0
XRECORD
  5
16C3E
102
{ACAD_REACTORS
330
16C31
102
}
330
16C31
100
AcDbXrecord
 40
0.0
  0
XRECORD
  5
16C42
102
{ACAD_REACTORS
330
16C31
102
}
330
16C31
100
AcDbXrecord
340
0
  0
XRECORD
  5
16C48
102
{ACAD_REACTORS
330
16C31
102
}
330
16C31
100
AcDbXrecord
 10
0.0
 20
0.0
 30
0.0
  0
XRECORD
  5
16C44
102
{ACAD_REACTORS
330
16C31
102
}
330
16C31
100
AcDbXrecord
 10
0.0
 20
0.0
 30
0.0
  0
XRECORD
  5
16C47
102
{ACAD_REACTORS
330
16C31
102
}
330
16C31
100
AcDbXrecord
 10
0.0
 20
0.0
 30
0.0
  0
XRECORD
  5
16C45
102
{ACAD_REACTORS
330
16C31
102
}
330
16C31
100
AcDbXrecord
 10
0.0
 20
0.0
 30
0.0
  0
XRECORD
  5
16C46
102
{ACAD_REACTORS
330
16C31
102
}
330
16C31
100
AcDbXrecord
 10
0.0
 20
0.0
 30
0.0
  0
XRECORD
  5
16C43
102
{ACAD_REACTORS
330
16C31
102
}
330
16C31
100
AcDbXrecord
 10
0.0
 20
0.0
 30
0.0
  0
XRECORD
  5
16C40
102
{ACAD_REACTORS
330
16C31
102
}
330
16C31
100
AcDbXrecord
340
0
  0
XRECORD
  5
16C41
102
{ACAD_REACTORS
330
16C31
102
}
330
16C31
100
AcDbXrecord
 70
     0
  0
XRECORD
  5
16C35
102
{ACAD_REACTORS
330
16C31
102
}
330
16C31
100
AcDbXrecord
  1

  0
XRECORD
  5
16C32
102
{ACAD_REACTORS
330
16C31
102
}
330
16C31
100
AcDbXrecord
 90
        1
  0
XRECORD
  5
16C33
102
{ACAD_REACTORS
330
16C31
102
}
330
16C31
100
AcDbXrecord
 90
       70
  0
XRECORD
  5
16C4B
102
{ACAD_REACTORS
330
16C31
102
}
330
16C31
100
AcDbXrecord
340
0
  0
XRECORD
  5
16C51
102
{ACAD_REACTORS
330
16C31
102
}
330
16C31
100
AcDbXrecord
 10
0.0
 20
0.0
 30
0.0
  0
XRECORD
  5
16C4D
102
{ACAD_REACTORS
330
16C31
102
}
330
16C31
100
AcDbXrecord
 10
0.0
 20
0.0
 30
0.0
  0
XRECORD
  5
16C50
102
{ACAD_REACTORS
330
16C31
102
}
330
16C31
100
AcDbXrecord
 10
0.0
 20
0.0
 30
0.0
  0
XRECORD
  5
16C4E
102
{ACAD_REACTORS
330
16C31
102
}
330
16C31
100
AcDbXrecord
 10
0.0
 20
0.0
 30
0.0
  0
XRECORD
  5
16C4F
102
{ACAD_REACTORS
330
16C31
102
}
330
16C31
100
AcDbXrecord
 10
0.0
 20
0.0
 30
0.0
  0
XRECORD
  5
16C4C
102
{ACAD_REACTORS
330
16C31
102
}
330
16C31
100
AcDbXrecord
 10
0.0
 20
0.0
 30
0.0
  0
XRECORD
  5
16C49
102
{ACAD_REACTORS
330
16C31
102
}
330
16C31
100
AcDbXrecord
340
0
  0
XRECORD
  5
16C4A
102
{ACAD_REACTORS
330
16C31
102
}
330
16C31
100
AcDbXrecord
 70
     0
  0
XRECORD
  5
16C3D
102
{ACAD_REACTORS
330
16C31
102
}
330
16C31
100
AcDbXrecord
  1
{38925714-5BF5-49AB-84F5-C3F215F2E379}
  0
ENDSEC
  0
EOF
