  0
SECTION
  2
HEADER
  9
$ACADVER
  1
AC1014
  9
$ACADMAINTVER
 70
     9
  9
$DWGCODEPAGE
  3
ANSI_932
  9
$INSBASE
 10
0.0
 20
0.0
 30
0.0
  9
$EXTMIN
 10
-944.0713526337347
 20
-498.4758300577523
 30
0.0
  9
$EXTMAX
 10
1041.87435716162
 20
1966.611112328544
 30
0.0
  9
$LIMMIN
 10
-1439.556645456899
 20
-932.0334443201572
  9
$LIMMAX
 10
1848.94389234704
 20
2243.303816672123
  9
$ORTHOMODE
 70
     1
  9
$REGENMODE
 70
     1
  9
$FILLMODE
 70
     1
  9
$QTEXTMODE
 70
     0
  9
$MIRRTEXT
 70
     0
  9
$DRAGMODE
 70
     2
  9
$LTSCALE
 40
20.0
  9
$OSMODE
 70
    39
  9
$ATTMODE
 70
     1
  9
$TEXTSIZE
 40
64.0
  9
$TRACEWID
 40
0.05
  9
$TEXTSTYLE
  7
STANDARD
  9
$CLAYER
  8
DETAIL
  9
$CELTYPE
  6
BYLAYER
  9
$CECOLOR
 62
   256
  9
$CELTSCALE
 40
1.0
  9
$DELOBJ
 70
     1
  9
$DISPSILH
 70
     0
  9
$DIMSCALE
 40
1.0
  9
$DIMASZ
 40
10.0
  9
$DIMEXO
 40
20.0
  9
$DIMDLI
 40
200.0
  9
$DIMRND
 40
0.0
  9
$DIMDLE
 40
0.0
  9
$DIMEXE
 40
30.0
  9
$DIMTP
 40
0.0
  9
$DIMTM
 40
0.0
  9
$DIMTXT
 40
64.0
  9
$DIMCEN
 40
0.09
  9
$DIMTSZ
 40
0.0
  9
$DIMTOL
 70
     0
  9
$DIMLIM
 70
     0
  9
$DIMTIH
 70
     0
  9
$DIMTOH
 70
     0
  9
$DIMSE1
 70
     0
  9
$DIMSE2
 70
     0
  9
$DIMTAD
 70
     1
  9
$DIMZIN
 70
     8
  9
$DIMBLK
  1
ORIGIN
  9
$DIMASO
 70
     1
  9
$DIMSHO
 70
     0
  9
$DIMPOST
  1

  9
$DIMAPOST
  1

  9
$DIMALT
 70
     0
  9
$DIMALTD
 70
     2
  9
$DIMALTF
 40
25.4
  9
$DIMLFAC
 40
1.0
  9
$DIMTOFL
 70
     1
  9
$DIMTVP
 40
0.0
  9
$DIMTIX
 70
     0
  9
$DIMSOXD
 70
     0
  9
$DIMSAH
 70
     0
  9
$DIMBLK1
  1

  9
$DIMBLK2
  1

  9
$DIMSTYLE
  2
STANDARD
  9
$DIMCLRD
 70
     0
  9
$DIMCLRE
 70
     0
  9
$DIMCLRT
 70
     0
  9
$DIMTFAC
 40
1.0
  9
$DIMGAP
 40
20.0
  9
$DIMJUST
 70
     0
  9
$DIMSD1
 70
     0
  9
$DIMSD2
 70
     0
  9
$DIMTOLJ
 70
     1
  9
$DIMTZIN
 70
     0
  9
$DIMALTZ
 70
     0
  9
$DIMALTTZ
 70
     0
  9
$DIMFIT
 70
     3
  9
$DIMUPT
 70
     0
  9
$DIMUNIT
 70
     2
  9
$DIMDEC
 70
     4
  9
$DIMTDEC
 70
     4
  9
$DIMALTU
 70
     2
  9
$DIMALTTD
 70
     2
  9
$DIMTXSTY
  7
STANDARD
  9
$DIMAUNIT
 70
     0
  9
$LUNITS
 70
     2
  9
$LUPREC
 70
     4
  9
$SKETCHINC
 40
0.1
  9
$FILLETRAD
 40
6.0
  9
$AUNITS
 70
     1
  9
$AUPREC
 70
     3
  9
$MENU
  1
ACAD
  9
$ELEVATION
 40
0.0
  9
$PELEVATION
 40
0.0
  9
$THICKNESS
 40
0.0
  9
$LIMCHECK
 70
     0
  9
$BLIPMODE
 70
     0
  9
$CHAMFERA
 40
0.0
  9
$CHAMFERB
 40
0.0
  9
$CHAMFERC
 40
0.0
  9
$CHAMFERD
 40
0.0
  9
$SKPOLY
 70
     0
  9
$TDCREATE
 40
2450330.393205995
  9
$TDUPDATE
 40
2456737.418311087
  9
$TDINDWG
 40
1.1656464005
  9
$TDUSRTIMER
 40
1.1656460995
  9
$USRTIMER
 70
     1
  9
$ANGBASE
 50
0.0
  9
$ANGDIR
 70
     0
  9
$PDMODE
 70
     3
  9
$PDSIZE
 40
-2.0
  9
$PLINEWID
 40
0.0
  9
$COORDS
 70
     2
  9
$SPLFRAME
 70
     0
  9
$SPLINETYPE
 70
     6
  9
$SPLINESEGS
 70
     8
  9
$ATTDIA
 70
     0
  9
$ATTREQ
 70
     1
  9
$HANDLING
 70
-16383
  9
$HANDSEED
  5
16C72
  9
$SURFTAB1
 70
     6
  9
$SURFTAB2
 70
     6
  9
$SURFTYPE
 70
     6
  9
$SURFU
 70
     6
  9
$SURFV
 70
     6
  9
$UCSNAME
  2

  9
$UCSORG
 10
0.0
 20
0.0
 30
0.0
  9
$UCSXDIR
 10
1.0
 20
0.0
 30
0.0
  9
$UCSYDIR
 10
0.0
 20
1.0
 30
0.0
  9
$PUCSNAME
  2

  9
$PUCSORG
 10
0.0
 20
0.0
 30
0.0
  9
$PUCSXDIR
 10
1.0
 20
0.0
 30
0.0
  9
$PUCSYDIR
 10
0.0
 20
1.0
 30
0.0
  9
$USERI1
 70
     0
  9
$USERI2
 70
     0
  9
$USERI3
 70
     0
  9
$USERI4
 70
     0
  9
$USERI5
 70
     0
  9
$USERR1
 40
20.0
  9
$USERR2
 40
0.0
  9
$USERR3
 40
0.0
  9
$USERR4
 40
0.0
  9
$USERR5
 40
0.0
  9
$WORLDVIEW
 70
     1
  9
$SHADEDGE
 70
     3
  9
$SHADEDIF
 70
    70
  9
$TILEMODE
 70
     1
  9
$MAXACTVP
 70
    64
  9
$PINSBASE
 10
0.0
 20
0.0
 30
0.0
  9
$PLIMCHECK
 70
     0
  9
$PEXTMIN
 10
1.000000000000000E+20
 20
1.000000000000000E+20
 30
1.000000000000000E+20
  9
$PEXTMAX
 10
-1.000000000000000E+20
 20
-1.000000000000000E+20
 30
-1.000000000000000E+20
  9
$PLIMMIN
 10
0.0
 20
0.0
  9
$PLIMMAX
 10
12.0
 20
9.0
  9
$UNITMODE
 70
     0
  9
$VISRETAIN
 70
     1
  9
$PLINEGEN
 70
     0
  9
$PSLTSCALE
 70
     1
  9
$TREEDEPTH
 70
  3020
  9
$PICKSTYLE
 70
     1
  9
$CMLSTYLE
  2
STANDARD
  9
$CMLJUST
 70
     0
  9
$CMLSCALE
 40
1.0
  9
$PROXYGRAPHICS
 70
     1
  9
$MEASUREMENT
 70
     0
  0
ENDSEC
  0
SECTION
  2
CLASSES
  0
CLASS
  1
ACDBDICTIONARYWDFLT
  2
AcDbDictionaryWithDefault
  3
AutoCAD 2000
 90
        0
280
     0
281
     0
  0
CLASS
  1
ACDBPLACEHOLDER
  2
AcDbPlaceHolder
  3
AutoCAD 2000
 90
        0
280
     0
281
     0
  0
CLASS
  1
LAYOUT
  2
AcDbLayout
  3
AutoCAD 2000
 90
        0
280
     0
281
     0
  0
CLASS
  1
LONG_TRANSACTION
  2
AcDbLongTransaction
  3
AutoCAD 2000
 90
        0
280
     0
281
     0
  0
CLASS
  1
LWPOLYLINE
  2
AcDbPolyline
  3
AutoCAD 2000
 90
        0
280
     0
281
     1
  0
CLASS
  1
HATCH
  2
AcDbHatch
  3
AutoCAD 2000
 90
        0
280
     0
281
     1
  0
CLASS
  1
XRECORD
  2
AcDbXrecord
  3
AutoCAD 2000
 90
        0
280
     0
281
     0
  0
CLASS
  1
LONG_TRANSACTION
  2
AcDbLongTransaction
  3
AutoCAD 2000
 90
        0
280
     0
281
     0
  0
CLASS
  1
LWPOLYLINE
  2
AcDbPolyline
  3
AutoCAD 2000
 90
        0
280
     0
281
     1
  0
CLASS
  1
HATCH
  2
AcDbHatch
  3
AutoCAD 2000
 90
        0
280
     0
281
     1
  0
CLASS
  1
XRECORD
  2
AcDbXrecord
  3
AutoCAD 2000
 90
        0
280
     0
281
     0
  0
CLASS
  1
LONG_TRANSACTION
  2
AcDbLongTransaction
  3
AutoCAD 2000
 90
        0
280
     0
281
     0
  0
CLASS
  1
LWPOLYLINE
  2
AcDbPolyline
  3
AutoCAD 2000
 90
        0
280
     0
281
     1
  0
CLASS
  1
HATCH
  2
AcDbHatch
  3
AutoCAD 2000
 90
        0
280
     0
281
     1
  0
CLASS
  1
XRECORD
  2
AcDbXrecord
  3
AutoCAD 2000
 90
        0
280
     0
281
     0
  0
CLASS
  1
LONG_TRANSACTION
  2
AcDbLongTransaction
  3
AutoCAD 2000
 90
        0
280
     0
281
     0
  0
CLASS
  1
LWPOLYLINE
  2
AcDbPolyline
  3
AutoCAD 2000
 90
        0
280
     0
281
     1
  0
CLASS
  1
HATCH
  2
AcDbHatch
  3
AutoCAD 2000
 90
        0
280
     0
281
     1
  0
CLASS
  1
XRECORD
  2
AcDbXrecord
  3
AutoCAD 2000
 90
        0
280
     0
281
     0
  0
ENDSEC
  0
SECTION
  2
TABLES
  0
TABLE
  2
VPORT
  5
3D1
330
0
100
AcDbSymbolTable
 70
     9
  0
VPORT
  5
16C4E
330
3D1
100
AcDbSymbolTableRecord
100
AcDbViewportTableRecord
  2
*ACTIVE
 70
     0
 10
0.0
 20
0.0
 11
1.0
 21
1.0
 12
290.1392500710126
 22
622.3072238830264
 13
0.0
 23
0.0
 14
50.0
 24
50.0
 15
100.0
 25
100.0
 16
0.0
 26
0.0
 36
1.0
 17
0.0
 27
0.0
 37
0.0
 40
2954.237714429618
 41
1.56020278833967
 42
50.0
 43
0.0
 44
0.0
 50
0.0
 51
0.0
 71
     0
 72
   500
 73
     1
 74
     0
 75
     0
 76
     0
 77
     0
 78
     0
  0
ENDTAB
  0
TABLE
  2
LTYPE
  5
3CE
330
0
100
AcDbSymbolTable
 70
     5
  0
LTYPE
  5
3DC
330
3CE
100
AcDbSymbolTableRecord
100
AcDbLinetypeTableRecord
  2
BYBLOCK
 70
     0
  3

 72
    65
 73
     0
 40
0.0
  0
LTYPE
  5
3DD
330
3CE
100
AcDbSymbolTableRecord
100
AcDbLinetypeTableRecord
  2
BYLAYER
 70
     0
  3

 72
    65
 73
     0
 40
0.0
  0
LTYPE
  5
3DE
330
3CE
100
AcDbSymbolTableRecord
100
AcDbLinetypeTableRecord
  2
CONTINUOUS
 70
     0
  3
実線
 72
    65
 73
     0
 40
0.0
  0
LTYPE
  5
3ED
330
3CE
100
AcDbSymbolTableRecord
100
AcDbLinetypeTableRecord
  2
DASHDOT
 70
     0
  3
____ _ ____ _ ____ _ ____ _ ____ _ ____ _ ____
 72
    65
 73
     4
 40
5.5
 49
4.0
 74
     0
 49
-0.6
 74
     0
 49
0.3
 74
     0
 49
-0.6
 74
     0
  0
LTYPE
  5
3EE
330
3CE
100
AcDbSymbolTableRecord
100
AcDbLinetypeTableRecord
  2
CONTINOUS
 70
     0
  3
Solid line
 72
    65
 73
     0
 40
0.0
  0
LTYPE
  5
26A7
330
3CE
100
AcDbSymbolTableRecord
100
AcDbLinetypeTableRecord
  2
DOT_CENTER
 70
     0
  3
Dot_Center
 72
    65
 73
     4
 40
14.0
 49
12.0
 74
     0
 49
-1.0
 74
     0
 49
0.0
 74
     0
 49
-1.0
 74
     0
  0
LTYPE
  5
26A8
330
3CE
100
AcDbSymbolTableRecord
100
AcDbLinetypeTableRecord
  2
PHANTOM
 70
     0
  3
Phantom
 72
    65
 73
     6
 40
13.0
 49
10.0
 74
     0
 49
-1.0
 74
     0
 49
0.0
 74
     0
 49
-1.0
 74
     0
 49
0.0
 74
     0
 49
-1.0
 74
     0
  0
ENDTAB
  0
TABLE
  2
LAYER
  5
3CB
330
0
100
AcDbSymbolTable
 70
    11
  0
LAYER
  5
3D9
330
3CB
100
AcDbSymbolTableRecord
100
AcDbLayerTableRecord
  2
0
 70
     0
 62
     7
  6
CONTINUOUS
  0
LAYER
  5
3EB
330
3CB
100
AcDbSymbolTableRecord
100
AcDbLayerTableRecord
  2
SIZE
 70
     0
 62
    32
  6
CONTINUOUS
  0
LAYER
  5
3F4
330
3CB
100
AcDbSymbolTableRecord
100
AcDbLayerTableRecord
  2
DETAIL
 70
     0
 62
     5
  6
CONTINUOUS
  0
LAYER
  5
3F5
330
3CB
100
AcDbSymbolTableRecord
100
AcDbLayerTableRecord
  2
OUTLINE
 70
     0
 62
     3
  6
CONTINUOUS
  0
LAYER
  5
3F6
330
3CB
100
AcDbSymbolTableRecord
100
AcDbLayerTableRecord
  2
BASIS
 70
     0
 62
     6
  6
CONTINUOUS
  0
LAYER
  5
3F7
330
3CB
100
AcDbSymbolTableRecord
100
AcDbLayerTableRecord
  2
NOTE
 70
     0
 62
     4
  6
CONTINUOUS
  0
LAYER
  5
3F8
330
3CB
100
AcDbSymbolTableRecord
100
AcDbLayerTableRecord
  2
ARRANGE
 70
     0
 62
     1
  6
CONTINUOUS
  0
LAYER
  5
3F9
330
3CB
100
AcDbSymbolTableRecord
100
AcDbLayerTableRecord
  2
FIX
 70
     0
 62
   241
  6
CONTINUOUS
  0
LAYER
  5
3FA
330
3CB
100
AcDbSymbolTableRecord
100
AcDbLayerTableRecord
  2
ETC
 70
     0
 62
    83
  6
CONTINUOUS
  0
LAYER
  5
3FB
330
3CB
100
AcDbSymbolTableRecord
100
AcDbLayerTableRecord
  2
SERVICESPACE
 70
     0
 62
     2
  6
DASHDOT
  0
LAYER
  5
3FD
330
3CB
100
AcDbSymbolTableRecord
100
AcDbLayerTableRecord
  2
DEFPOINTS
 70
     0
 62
     7
  6
CONTINUOUS
  0
ENDTAB
  0
TABLE
  2
STYLE
  5
3CC
330
0
100
AcDbSymbolTable
 70
     1
  0
STYLE
  5
3DA
330
3CC
100
AcDbSymbolTableRecord
100
AcDbTextStyleTableRecord
  2
STANDARD
 70
     0
 40
0.0
 41
0.9
 50
0.0
 71
     0
 42
64.0
  3
SIMPLEX
  4
BIGFONT
  0
ENDTAB
  0
TABLE
  2
VIEW
  5
3CF
330
0
100
AcDbSymbolTable
 70
     1
  0
VIEW
  5
3FF
330
3CF
100
AcDbSymbolTableRecord
100
AcDbViewTableRecord
  2
ALL
 70
     0
 40
4282.62
 10
0.0
 20
41.30990399999999
 41
5940.0
 11
0.0
 21
0.0
 31
1.0
 12
0.0
 22
0.0
 32
0.0
 42
50.0
 43
0.0
 44
0.0
 50
0.0
 71
     0
  0
ENDTAB
  0
TABLE
  2
UCS
  5
3D0
330
0
100
AcDbSymbolTable
 70
     0
  0
ENDTAB
  0
TABLE
  2
APPID
  5
3D2
330
0
100
AcDbSymbolTable
 70
     1
  0
APPID
  5
3DB
330
3D2
100
AcDbSymbolTableRecord
100
AcDbRegAppTableRecord
  2
ACAD
 70
     0
  0
ENDTAB
  0
TABLE
  2
DIMSTYLE
  5
3D3
330
0
100
AcDbSymbolTable
 70
     1
  0
DIMSTYLE
105
400
330
3D3
100
AcDbSymbolTableRecord
100
AcDbDimStyleTableRecord
  2
STANDARD
 70
     0
  3

  4

  5

  6

  7

 40
1.0
 41
0.18
 42
0.0625
 43
0.38
 44
0.18
 45
0.0
 46
0.0
 47
0.0
 48
0.0
140
0.18
141
0.09
142
0.0
143
25.4
144
1.0
145
0.0
146
1.0
147
0.09
 71
     0
 72
     0
 73
     1
 74
     1
 75
     0
 76
     0
 77
     0
 78
     0
170
     0
171
     2
172
     0
173
     0
174
     0
175
     0
176
     0
177
     0
178
     0
270
     2
271
     4
272
     4
273
     2
274
     2
340
3DA
275
     1
280
     0
281
     0
282
     0
283
     1
284
     8
285
     8
286
     8
287
     3
288
     0
  0
ENDTAB
  0
TABLE
  2
BLOCK_RECORD
  5
3CA
330
0
100
AcDbSymbolTable
 70
     1
  0
BLOCK_RECORD
  5
3E7
102
{ACAD_XDICTIONARY
360
16A74
102
}
330
3CA
100
AcDbSymbolTableRecord
100
AcDbBlockTableRecord
  2
*MODEL_SPACE
  0
BLOCK_RECORD
  5
3E3
102
{ACAD_XDICTIONARY
360
16A72
102
}
330
3CA
100
AcDbSymbolTableRecord
100
AcDbBlockTableRecord
  2
*PAPER_SPACE
  0
BLOCK_RECORD
  5
4A9
330
3CA
100
AcDbSymbolTableRecord
100
AcDbBlockTableRecord
  2
_ORIGIN
  0
ENDTAB
  0
ENDSEC
  0
SECTION
  2
BLOCKS
  0
BLOCK
  5
3E8
330
3E7
100
AcDbEntity
  8
0
100
AcDbBlockBegin
  2
*MODEL_SPACE
 70
     0
 10
0.0
 20
0.0
 30
0.0
  3
*MODEL_SPACE
  1

  0
ENDBLK
  5
3E9
330
3E7
100
AcDbEntity
  8
0
100
AcDbBlockEnd
  0
BLOCK
  5
3E4
330
3E3
100
AcDbEntity
 67
     1
  8
0
100
AcDbBlockBegin
  2
*PAPER_SPACE
 70
     0
 10
0.0
 20
0.0
 30
0.0
  3
*PAPER_SPACE
  1

  0
ENDBLK
  5
3E5
330
3E3
100
AcDbEntity
 67
     1
  8
0
100
AcDbBlockEnd
  0
BLOCK
  5
4AA
330
4A9
100
AcDbEntity
  8
0
100
AcDbBlockBegin
  2
_ORIGIN
 70
     0
 10
0.0
 20
0.0
 30
0.0
  3
_ORIGIN
  1

  0
CIRCLE
  5
4AB
330
4A9
100
AcDbEntity
  8
0
  6
BYBLOCK
 62
     0
100
AcDbCircle
 10
0.0
 20
0.0
 30
0.0
 40
0.5
  0
LINE
  5
4AC
330
4A9
100
AcDbEntity
  8
0
  6
BYBLOCK
 62
     0
100
AcDbLine
 10
0.0
 20
0.0
 30
0.0
 11
-1.0
 21
0.0
 31
0.0
  0
ENDBLK
  5
4AD
330
4A9
100
AcDbEntity
  8
0
100
AcDbBlockEnd
  0
ENDSEC
  0
SECTION
  2
ENTITIES
  0
TEXT
  5
116D
330
3E7
100
AcDbEntity
  8
ETC
  6
CONTINUOUS
100
AcDbText
 10
611.2457857330483
 20
1605.057327503278
 30
0.0
 40
64.0
  1
SPUZ6425
 41
0.9
100
AcDbText
  0
TEXT
  5
116E
330
3E7
100
AcDbEntity
  8
ETC
  6
CONTINUOUS
100
AcDbText
 10
609.7260023281724
 20
1743.207263813042
 30
0.0
 40
64.0
  1
PAC
 41
0.9
100
AcDbText
  0
ARC
  5
97C5
330
3E7
100
AcDbEntity
  8
DETAIL
  6
CONTINUOUS
100
AcDbCircle
 10
-59.00003111876504
 20
103.6000824959592
 30
0.0
 40
9.999993623296733
100
AcDbArc
 50
179.9999475270268
 51
270.0000365358216
  0
ARC
  5
97C6
330
3E7
100
AcDbEntity
  8
DETAIL
  6
CONTINUOUS
100
AcDbCircle
 10
-59.00000647948036
 20
276.6000909948659
 30
0.0
 40
9.99999420217118
100
AcDbArc
 50
89.99995084371134
 51
180.0000332191631
  0
ARC
  5
97C7
330
3E7
100
AcDbEntity
  8
DETAIL
  6
CONTINUOUS
100
AcDbCircle
 10
-58.99998748817598
 20
307.6000956089683
 30
0.0
 40
10.00000888208709
100
AcDbArc
 50
180.0000349534427
 51
269.9999491094836
  0
ARC
  5
97C8
330
3E7
100
AcDbEntity
  8
DETAIL
  6
CONTINUOUS
100
AcDbCircle
 10
-58.99997047829675
 20
480.6001269960643
 30
0.0
 40
10.0000018315613
100
AcDbArc
 50
89.99999455698453
 51
179.9999895059159
  0
ARC
  5
97C9
330
3E7
100
AcDbEntity
  8
DETAIL
  6
CONTINUOUS
100
AcDbCircle
 10
-58.99996674576687
 20
511.6001316101665
 30
0.0
 40
10.00000125268581
100
AcDbArc
 50
179.9999912402738
 51
269.9999928226525
  0
ARC
  5
97CA
330
3E7
100
AcDbEntity
  8
DETAIL
  6
CONTINUOUS
100
AcDbCircle
 10
-58.9999364666146
 20
715.6001580746212
 30
0.0
 40
10.00000316003571
100
AcDbArc
 50
180.000002168566
 51
269.9999818943083
  0
ARC
  5
97CB
330
3E7
100
AcDbEntity
  8
DETAIL
  6
CONTINUOUS
100
AcDbCircle
 10
-58.99994392256122
 20
684.6001535517916
 30
0.0
 40
10.0000000154821
100
AcDbArc
 50
89.99998415161824
 51
180.0000009571601
  0
ARC
  5
97CC
330
3E7
100
AcDbEntity
  8
DETAIL
  6
CONTINUOUS
100
AcDbCircle
 10
-58.9999176315614
 20
919.6001959831708
 30
0.0
 40
9.999993623297186
100
AcDbArc
 50
179.9999475270268
 51
270.0000365358216
  0
ARC
  5
97CD
330
3E7
100
AcDbEntity
  8
DETAIL
  6
CONTINUOUS
100
AcDbCircle
 10
-58.99990610528039
 20
888.6001913690641
 30
0.0
 40
10.00000946096327
100
AcDbArc
 50
90.00003827015357
 51
179.999945792747
  0
ARC
  5
97CE
330
3E7
100
AcDbEntity
  8
DETAIL
  6
CONTINUOUS
100
AcDbCircle
 10
-58.99988925974684
 20
1123.600224354976
 30
0.0
 40
9.999993623297186
100
AcDbArc
 50
179.9999475270268
 51
270.0000365358216
  0
ARC
  5
97CF
330
3E7
100
AcDbEntity
  8
DETAIL
  6
CONTINUOUS
100
AcDbCircle
 10
-58.99987773348403
 20
1092.600219740865
 30
0.0
 40
10.00000946096305
100
AcDbArc
 50
90.00003827015357
 51
179.999945792747
  0
ARC
  5
97D0
330
3E7
100
AcDbEntity
  8
DETAIL
  6
CONTINUOUS
100
AcDbCircle
 10
-58.99984936168767
 20
1296.600248112672
 30
0.0
 40
10.00000946096323
100
AcDbArc
 50
90.00003827015357
 51
179.999945792747
  0
LINE
  5
97E2
330
3E7
100
AcDbEntity
  8
DETAIL
  6
CONTINUOUS
100
AcDbLine
 10
-68.9999679984503
 20
511.6001331390271
 30
0.0
 11
-68.99994393805901
 21
684.6001533847311
 31
0.0
  0
LINE
  5
9978
330
3E7
100
AcDbEntity
  8
DETAIL
  6
CONTINUOUS
100
AcDbLine
 10
-116.0000312786978
 20
103.6000981908544
 30
0.0
 11
-116.0000072183065
 21
276.6000917336759
 31
0.0
  0
LINE
  5
9979
330
3E7
100
AcDbEntity
  8
DETAIL
  6
CONTINUOUS
100
AcDbLine
 10
-84.00000252939936
 20
276.6000872831954
 30
0.0
 11
-84.00002658979067
 21
103.6000937403738
 31
0.0
  0
LINE
  5
997A
330
3E7
100
AcDbEntity
  8
DETAIL
  6
CONTINUOUS
100
AcDbLine
 10
-69.00002474206122
 20
103.6000916542116
 30
0.0
 11
-69.00000068165173
 21
276.6000851970328
 31
0.0
  0
ARC
  5
99E7
330
3E7
100
AcDbEntity
  8
DETAIL
  6
CONTINUOUS
100
AcDbCircle
 10
-106.0000376554016
 20
103.6000890325975
 30
0.0
 40
9.999993623297186
100
AcDbArc
 50
179.9999475270268
 51
270.0000365358216
  0
ARC
  5
99E8
330
3E7
100
AcDbEntity
  8
DETAIL
  6
CONTINUOUS
100
AcDbCircle
 10
-94.00002002960535
 20
103.6000871801797
 30
0.0
 40
9.999993439808504
100
AcDbArc
 50
269.9999451097125
 51
0.0000375871711244
  0
LINE
  5
9A66
330
3E7
100
AcDbEntity
  8
DETAIL
  6
CONTINUOUS
100
AcDbLine
 10
-94.00002960976779
 20
93.60009374037415
 30
0.0
 11
-106.0000312786977
 21
93.60009540930604
 31
0.0
  0
LINE
  5
9A7E
330
3E7
100
AcDbEntity
  8
DETAIL
  6
CONTINUOUS
100
AcDbLine
 10
-116.0000029069015
 20
307.6000960450753
 30
0.0
 11
-115.999978846492
 21
480.6001353642659
 31
0.0
  0
LINE
  5
9A7F
330
3E7
100
AcDbEntity
  8
DETAIL
  6
CONTINUOUS
100
AcDbLine
 10
-83.99997415760299
 20
480.60013091379
 30
0.0
 11
-83.99999821799431
 21
307.6000915945948
 31
0.0
  0
LINE
  5
9A80
330
3E7
100
AcDbEntity
  8
DETAIL
  6
CONTINUOUS
100
AcDbLine
 10
-68.99999637026485
 20
307.6000895084325
 30
0.0
 11
-68.99997230985537
 21
480.6001288276275
 31
0.0
  0
ARC
  5
9A81
330
3E7
100
AcDbEntity
  8
DETAIL
  6
CONTINUOUS
100
AcDbCircle
 10
-106.0000130161351
 20
276.6000975315046
 30
0.0
 40
9.999994202171068
100
AcDbArc
 50
89.99995084371134
 51
180.0000332191631
  0
ARC
  5
9A82
330
3E7
100
AcDbEntity
  8
DETAIL
  6
CONTINUOUS
100
AcDbCircle
 10
-105.9999940248126
 20
307.6001021456113
 30
0.0
 40
10.00000888208709
100
AcDbArc
 50
180.0000349534427
 51
269.9999491094836
  0
ARC
  5
9A83
330
3E7
100
AcDbEntity
  8
DETAIL
  6
CONTINUOUS
100
AcDbCircle
 10
-93.99999654807109
 20
276.6000960460633
 30
0.0
 40
9.999994018682366
100
AcDbArc
 50
359.9999497924398
 51
90.00003563650365
  0
ARC
  5
9A84
330
3E7
100
AcDbEntity
  8
DETAIL
  6
CONTINUOUS
100
AcDbCircle
 10
-94.00000691660173
 20
307.6001002931933
 30
0.0
 40
10.00000869859885
100
AcDbArc
 50
270.0000325361546
 51
359.9999501607547
  0
LINE
  5
9A85
330
3E7
100
AcDbEntity
  8
DETAIL
  6
CONTINUOUS
100
AcDbLine
 10
-106.000004436744
 20
286.6000917336758
 30
0.0
 11
-94.0000027678143
 21
286.6000900647441
 31
0.0
  0
LINE
  5
9A86
330
3E7
100
AcDbEntity
  8
DETAIL
  6
CONTINUOUS
100
AcDbLine
 10
-94.00000123797145
 20
297.6000915945951
 30
0.0
 11
-106.0000029069015
 21
297.600093263527
 31
0.0
  0
ARC
  5
9A87
330
3E7
100
AcDbEntity
  8
DETAIL
  6
CONTINUOUS
100
AcDbCircle
 10
-105.999977014933
 20
480.6001335327072
 30
0.0
 40
10.0000018315613
100
AcDbArc
 50
89.99999455698453
 51
179.9999895059159
  0
ARC
  5
9A88
330
3E7
100
AcDbEntity
  8
DETAIL
  6
CONTINUOUS
100
AcDbCircle
 10
-93.99997580566195
 20
480.600132047266
 30
0.0
 40
10.00000164807268
100
AcDbArc
 50
359.9999935056611
 51
89.99999192323043
  0
LINE
  5
9A89
330
3E7
100
AcDbEntity
  8
DETAIL
  6
CONTINUOUS
100
AcDbLine
 10
-105.9999760649479
 20
490.6001353642658
 30
0.0
 11
-93.99997439601794
 21
490.6001336953385
 31
0.0
  0
LINE
  5
9B54
330
3E7
100
AcDbEntity
  8
DETAIL
  6
CONTINUOUS
100
AcDbLine
 10
-68.99988288304303
 20
1123.600233513229
 30
0.0
 11
-68.99985882265173
 21
1296.600257573632
 31
0.0
  0
LINE
  5
9B55
330
3E7
100
AcDbEntity
  8
DETAIL
  6
CONTINUOUS
100
AcDbLine
 10
-83.99986067038117
 20
1296.600259659794
 30
0.0
 11
-83.99988473079066
 21
1123.600235599391
 31
0.0
  0
LINE
  5
9B56
330
3E7
100
AcDbEntity
  8
DETAIL
  6
CONTINUOUS
100
AcDbLine
 10
-115.9998894196796
 20
1123.600240049871
 30
0.0
 11
-115.9998653592883
 21
1296.60026411027
 31
0.0
  0
ARC
  5
9B57
330
3E7
100
AcDbEntity
  8
DETAIL
  6
CONTINUOUS
100
AcDbCircle
 10
-105.9999241681979
 20
919.600202519814
 30
0.0
 40
9.999993623297644
100
AcDbArc
 50
179.9999475270268
 51
270.0000365358216
  0
ARC
  5
9B58
330
3E7
100
AcDbEntity
  8
DETAIL
  6
CONTINUOUS
100
AcDbCircle
 10
-93.99990654240172
 20
919.6002006673916
 30
0.0
 40
9.999993439808616
100
AcDbArc
 50
269.9999451097125
 51
0.0000375871711244
  0
LINE
  5
9B6C
330
3E7
100
AcDbEntity
  8
DETAIL
  6
CONTINUOUS
100
AcDbLine
 10
-68.99993962665394
 20
715.6001576961353
 30
0.0
 11
-68.99991556624446
 21
888.6002008300238
 31
0.0
  0
LINE
  5
9B6D
330
3E7
100
AcDbEntity
  8
DETAIL
  6
CONTINUOUS
100
AcDbLine
 10
-83.99991741399208
 20
888.6002029161859
 30
0.0
 11
-83.99994147440157
 21
715.6001597822978
 31
0.0
  0
LINE
  5
9B6E
330
3E7
100
AcDbEntity
  8
DETAIL
  6
CONTINUOUS
100
AcDbLine
 10
-115.9999461632905
 20
715.6001642327737
 30
0.0
 11
-115.9999221028809
 21
888.6002073666666
 31
0.0
  0
ARC
  5
9BA5
330
3E7
100
AcDbEntity
  8
DETAIL
  6
CONTINUOUS
100
AcDbCircle
 10
-93.99994445094126
 20
715.6001627588421
 30
0.0
 40
10.00000297654721
100
AcDbArc
 50
269.9999997512258
 51
359.9999829456576
  0
ARC
  5
9BA6
330
3E7
100
AcDbEntity
  8
DETAIL
  6
CONTINUOUS
100
AcDbCircle
 10
-105.9999430032509
 20
715.6001646112599
 30
0.0
 40
10.00000316003617
100
AcDbArc
 50
180.000002168566
 51
269.9999818943083
  0
LINE
  5
9BA7
330
3E7
100
AcDbEntity
  8
DETAIL
  6
CONTINUOUS
100
AcDbLine
 10
-93.99994449436055
 20
705.6001597822978
 30
0.0
 11
-105.9999461632905
 21
705.6001614512251
 31
0.0
  0
ARC
  5
9BA8
330
3E7
100
AcDbEntity
  8
DETAIL
  6
CONTINUOUS
100
AcDbCircle
 10
-105.9999126419352
 20
888.6001979057027
 30
0.0
 40
10.00000946096333
100
AcDbArc
 50
90.00003827015357
 51
179.999945792747
  0
ARC
  5
9BA9
330
3E7
100
AcDbEntity
  8
DETAIL
  6
CONTINUOUS
100
AcDbCircle
 10
-93.99992669145651
 20
888.6001964202661
 30
0.0
 40
10.00000927747471
100
AcDbArc
 50
0.0000372188561749
 51
89.99994821006144
  0
LINE
  5
9BAA
330
3E7
100
AcDbEntity
  8
DETAIL
  6
CONTINUOUS
100
AcDbLine
 10
-93.99991612256416
 20
909.6002072275862
 30
0.0
 11
-105.9999177914942
 21
909.6002088965176
 31
0.0
  0
LINE
  5
9BAB
330
3E7
100
AcDbEntity
  8
DETAIL
  6
CONTINUOUS
100
AcDbLine
 10
-105.9999193213368
 20
898.6002073666666
 30
0.0
 11
-93.99991765240702
 21
898.6002056977348
 31
0.0
  0
LINE
  5
9BAC
330
3E7
100
AcDbEntity
  8
DETAIL
  6
CONTINUOUS
100
AcDbLine
 10
-83.99988904219572
 20
1092.600231287988
 30
0.0
 11
-83.99991310258702
 21
919.6002072275861
 31
0.0
  0
LINE
  5
9BAD
330
3E7
100
AcDbEntity
  8
DETAIL
  6
CONTINUOUS
100
AcDbLine
 10
-115.9999177914942
 20
919.6002116780665
 30
0.0
 11
-115.9998937310847
 21
1092.600235738468
 31
0.0
  0
LINE
  5
9BAE
330
3E7
100
AcDbEntity
  8
DETAIL
  6
CONTINUOUS
100
AcDbLine
 10
-68.99991125483939
 20
919.600205141428
 30
0.0
 11
-68.99988719444809
 21
1092.60022920183
 31
0.0
  0
ARC
  5
9BAF
330
3E7
100
AcDbEntity
  8
DETAIL
  6
CONTINUOUS
100
AcDbCircle
 10
-105.9998842701206
 20
1092.600226277508
 30
0.0
 40
10.00000946096323
100
AcDbArc
 50
90.00003827015357
 51
179.999945792747
  0
ARC
  5
9BB0
330
3E7
100
AcDbEntity
  8
DETAIL
  6
CONTINUOUS
100
AcDbCircle
 10
-105.9998957963834
 20
1123.600230891615
 30
0.0
 40
9.999993623297644
100
AcDbArc
 50
179.9999475270268
 51
270.0000365358216
  0
ARC
  5
9BB1
330
3E7
100
AcDbEntity
  8
DETAIL
  6
CONTINUOUS
100
AcDbCircle
 10
-93.99989831966015
 20
1092.600224792066
 30
0.0
 40
10.00000927747425
100
AcDbArc
 50
0.0000372188561749
 51
89.99994821006144
  0
ARC
  5
9BB2
330
3E7
100
AcDbEntity
  8
DETAIL
  6
CONTINUOUS
100
AcDbCircle
 10
-93.9998781705872
 20
1123.600229039193
 30
0.0
 40
9.999993439808616
100
AcDbArc
 50
269.9999451097125
 51
0.0000375871711244
  0
LINE
  5
9BB3
330
3E7
100
AcDbEntity
  8
DETAIL
  6
CONTINUOUS
100
AcDbLine
 10
-105.9998909495407
 20
1102.600235738468
 30
0.0
 11
-93.99988928061066
 21
1102.600234069541
 31
0.0
  0
LINE
  5
9BB4
330
3E7
100
AcDbEntity
  8
DETAIL
  6
CONTINUOUS
100
AcDbLine
 10
-93.99988775074962
 20
1113.600235599392
 30
0.0
 11
-105.9998894196795
 21
1113.600237268319
 31
0.0
  0
ARC
  5
9C91
330
3E7
100
AcDbEntity
  8
DETAIL
  6
CONTINUOUS
100
AcDbCircle
 10
-105.9998558983243
 20
1296.600254649311
 30
0.0
 40
10.00000946096311
100
AcDbArc
 50
90.00003827015357
 51
179.999945792747
  0
ARC
  5
9C92
330
3E7
100
AcDbEntity
  8
DETAIL
  6
CONTINUOUS
100
AcDbCircle
 10
-93.99986994786377
 20
1296.600253163874
 30
0.0
 40
10.00000927747426
100
AcDbArc
 50
0.0000372188561749
 51
89.99994821006144
  0
LINE
  5
9C93
330
3E7
100
AcDbEntity
  8
DETAIL
  6
CONTINUOUS
100
AcDbLine
 10
-105.999862577726
 20
1306.60026411027
 30
0.0
 11
-93.99986090879613
 21
1306.600262441341
 31
0.0
  0
LINE
  5
9D54
330
3E7
100
AcDbEntity
  8
DETAIL
  6
CONTINUOUS
100
AcDbLine
 10
75.999984770835
 20
27.00002421354838
 30
0.0
 11
76.00016395872444
 21
1317.600020767945
 31
0.0
  0
LINE
  5
9D55
330
3E7
100
AcDbEntity
  8
DETAIL
  6
CONTINUOUS
100
AcDbLine
 10
-36.99993948756672
 20
684.6001489342552
 30
0.0
 11
-36.99996354797621
 21
511.6001286885512
 31
0.0
  0
LINE
  5
9D56
330
3E7
100
AcDbEntity
  8
DETAIL
  6
CONTINUOUS
100
AcDbLine
 10
57.00007358570656
 20
684.6001358609737
 30
0.0
 11
57.00004952531525
 21
511.6001156152697
 31
0.0
  0
LINE
  5
9D57
330
3E7
100
AcDbEntity
  8
DETAIL
  6
CONTINUOUS
100
AcDbLine
 10
25.00004507482298
 20
511.6001200657456
 30
0.0
 11
25.00006913523248
 21
684.6001403114496
 31
0.0
  0
LINE
  5
9D58
330
3E7
100
AcDbEntity
  8
DETAIL
  6
CONTINUOUS
100
AcDbLine
 10
-21.99996146181365
 20
511.6001266023886
 30
0.0
 11
-21.99993740140417
 21
684.6001468480928
 31
0.0
  0
LINE
  5
9D59
330
3E7
100
AcDbEntity
  8
DETAIL
  6
CONTINUOUS
100
AcDbLine
 10
10.00006704906991
 20
684.6001423976121
 30
0.0
 11
10.00004298866042
 21
511.6001221519081
 31
0.0
  0
LINE
  5
A0CA
330
3E7
100
AcDbEntity
  8
DETAIL
  6
CONTINUOUS
100
AcDbLine
 10
-36.99999623117764
 20
276.6000807465525
 30
0.0
 11
-37.00002029156893
 21
103.6000872037357
 31
0.0
  0
LINE
  5
A0CB
330
3E7
100
AcDbEntity
  8
DETAIL
  6
CONTINUOUS
100
AcDbLine
 10
57.00001684209563
 20
276.6000676732709
 30
0.0
 11
56.99999278170435
 21
103.6000741304542
 31
0.0
  0
LINE
  5
A0CC
330
3E7
100
AcDbEntity
  8
DETAIL
  6
CONTINUOUS
100
AcDbLine
 10
24.99998833123027
 20
103.60007858093
 30
0.0
 11
25.00001239162155
 21
276.6000721237515
 31
0.0
  0
LINE
  5
A0CD
330
3E7
100
AcDbEntity
  8
DETAIL
  6
CONTINUOUS
100
AcDbLine
 10
-22.00001820540637
 20
103.6000851175729
 30
0.0
 11
-21.99999414501506
 21
276.6000786603945
 31
0.0
  0
LINE
  5
A0CE
330
3E7
100
AcDbEntity
  8
DETAIL
  6
CONTINUOUS
100
AcDbLine
 10
10.00001030545899
 20
276.6000742099139
 30
0.0
 11
9.999986245067702
 21
103.6000806670924
 31
0.0
  0
ARC
  5
A0E2
330
3E7
100
AcDbEntity
  8
DETAIL
  6
CONTINUOUS
100
AcDbCircle
 10
-47.00001361216709
 20
103.6000805243292
 30
0.0
 40
9.999993320598989
100
AcDbArc
 50
269.9999457926689
 51
0.0000382702056744
  0
ARC
  5
A0E3
330
3E7
100
AcDbEntity
  8
DETAIL
  6
CONTINUOUS
100
AcDbCircle
 10
46.9999994611062
 20
103.6000674510478
 30
0.0
 40
9.999993320599044
100
AcDbArc
 50
269.9999457926689
 51
0.0000382702056744
  0
ARC
  5
A0E4
330
3E7
100
AcDbEntity
  8
DETAIL
  6
CONTINUOUS
100
AcDbCircle
 10
34.99998195452644
 20
103.6000694226774
 30
0.0
 40
9.999993623296733
100
AcDbArc
 50
179.9999475270268
 51
270.0000365358216
  0
ARC
  5
A0E5
330
3E7
100
AcDbEntity
  8
DETAIL
  6
CONTINUOUS
100
AcDbCircle
 10
-12.00002458212839
 20
103.6000759593207
 30
0.0
 40
9.999993623297186
100
AcDbArc
 50
179.9999475270268
 51
270.0000365358216
  0
ARC
  5
A0E6
330
3E7
100
AcDbEntity
  8
DETAIL
  6
CONTINUOUS
100
AcDbCircle
 10
-0.0000070755304478
 20
103.6000739876905
 30
0.0
 40
9.999993320599099
100
AcDbArc
 50
269.9999457926689
 51
0.0000382702056744
  0
LINE
  5
A0E9
330
3E7
100
AcDbEntity
  8
DETAIL
  6
CONTINUOUS
100
AcDbLine
 10
-0.0000165364763234
 20
93.60008066709267
 30
0.0
 11
-12.00001820540637
 21
93.60008233602457
 31
0.0
  0
LINE
  5
A102
330
3E7
100
AcDbEntity
  8
DETAIL
  6
CONTINUOUS
100
AcDbLine
 10
-47.00002307313115
 20
93.60008720373571
 30
0.0
 11
-59.00002474206122
 21
93.60008887266303
 31
0.0
  0
ARC
  5
A118
330
3E7
100
AcDbEntity
  8
DETAIL
  6
CONTINUOUS
100
AcDbCircle
 10
-1.000013100390787
 20
43.50004776024888
 30
0.0
 40
0.4999895266895031
100
AcDbArc
 50
359.9987838718478
 51
90.00120019105265
  0
ARC
  5
A119
330
3E7
100
AcDbEntity
  8
DETAIL
  6
CONTINUOUS
100
AcDbCircle
 10
0.9999663945491191
 20
43.50004717939554
 30
0.0
 40
0.4999898293875699
100
AcDbArc
 50
89.99881856070144
 51
180.001165502225
  0
ARC
  5
A11A
330
3E7
100
AcDbEntity
  8
DETAIL
  6
CONTINUOUS
100
AcDbCircle
 10
-1.000033605676435
 20
45.50004773592718
 30
0.0
 40
0.5000103101221974
100
AcDbArc
 50
270.0011654796094
 51
359.9988185832389
  0
ARC
  5
A11B
330
3E7
100
AcDbEntity
  8
DETAIL
  6
CONTINUOUS
100
AcDbCircle
 10
0.9999874561362958
 20
45.50004776046079
 30
0.0
 40
0.500010612820554
100
AcDbArc
 50
180.0012001641116
 51
269.9987838987628
  0
LINE
  5
A11D
330
3E7
100
AcDbEntity
  8
DETAIL
  6
CONTINUOUS
100
AcDbLine
 10
-0.0000240075569309
 20
39.88126216086129
 30
0.0
 11
-4.000024242694053
 21
42.19065024538849
 31
0.0
  0
LINE
  5
A11F
330
3E7
100
AcDbEntity
  8
DETAIL
  6
CONTINUOUS
100
AcDbLine
 10
-4.000024242694053
 20
42.19065024538849
 30
0.0
 11
-4.000023600317945
 21
46.80948633697878
 31
0.0
  0
LINE
  5
A120
330
3E7
100
AcDbEntity
  8
DETAIL
  6
CONTINUOUS
100
AcDbLine
 10
-2.450020723706983
 20
44.00003748849028
 30
0.0
 11
-2.450020584627054
 21
45.00003762756931
 31
0.0
  0
LINE
  5
A121
330
3E7
100
AcDbEntity
  8
DETAIL
  6
CONTINUOUS
100
AcDbLine
 10
0.4999763636187712
 20
42.05008563514637
 30
0.0
 11
-0.5000237754647971
 21
42.05008577422177
 31
0.0
  0
LINE
  5
A122
330
3E7
100
AcDbEntity
  8
DETAIL
  6
CONTINUOUS
100
AcDbLine
 10
0.5871271903488378
 20
43.78208049281056
 30
0.0
 11
-0.5871741204355203
 21
43.78208065612851
 31
0.0
  0
LINE
  5
A123
330
3E7
100
AcDbEntity
  8
DETAIL
  6
CONTINUOUS
100
AcDbLine
 10
-0.7179722969594878
 20
45.08719560192729
 30
0.0
 11
-0.7179724602683564
 21
43.91294006752104
 31
0.0
  0
LINE
  5
A124
330
3E7
100
AcDbEntity
  8
DETAIL
  6
CONTINUOUS
100
AcDbLine
 10
-2.450020723706983
 20
44.00003748849028
 30
0.0
 11
-1.000023573804355
 21
44.00003728683258
 31
0.0
  0
LINE
  5
A125
330
3E7
100
AcDbEntity
  8
DETAIL
  6
CONTINUOUS
100
AcDbLine
 10
-0.5000235738116317
 20
43.50003714775084
 30
0.0
 11
-0.5000237754647971
 21
42.05008577422177
 31
0.0
  0
LINE
  5
A127
330
3E7
100
AcDbEntity
  8
DETAIL
  6
CONTINUOUS
100
AcDbLine
 10
3.999976869938107
 20
42.19064913276723
 30
0.0
 11
-0.0000240075569309
 21
39.88126216086129
 31
0.0
  0
LINE
  5
A128
330
3E7
100
AcDbEntity
  8
DETAIL
  6
CONTINUOUS
100
AcDbLine
 10
3.999977512314217
 20
46.8094852243621
 30
0.0
 11
3.999976869938107
 21
42.19064913276723
 31
0.0
  0
LINE
  5
A129
330
3E7
100
AcDbEntity
  8
DETAIL
  6
CONTINUOUS
100
AcDbLine
 10
2.449973993327148
 20
45.00003694608949
 30
0.0
 11
2.449973854247218
 21
44.00003680701503
 31
0.0
  0
LINE
  5
A12A
330
3E7
100
AcDbEntity
  8
DETAIL
  6
CONTINUOUS
100
AcDbLine
 10
0.7179257298885206
 20
45.08719540222499
 30
0.0
 11
0.7179255665796518
 21
43.91293986781874
 31
0.0
  0
LINE
  5
A12B
330
3E7
100
AcDbEntity
  8
DETAIL
  6
CONTINUOUS
100
AcDbLine
 10
0.4999763636187712
 20
42.05008563514637
 30
0.0
 11
0.4999765652719363
 21
43.50003700867546
 31
0.0
  0
LINE
  5
A12C
330
3E7
100
AcDbEntity
  8
DETAIL
  6
CONTINUOUS
100
AcDbLine
 10
0.9999767043445899
 20
44.00003700867728
 30
0.0
 11
2.449973854247218
 21
44.00003680701503
 31
0.0
  0
LINE
  5
A12D
330
3E7
100
AcDbEntity
  8
DETAIL
  6
CONTINUOUS
100
AcDbLine
 10
-4.000023600317945
 20
46.80948633697878
 30
0.0
 11
-0.0000227228229051
 21
49.11887330888475
 31
0.0
  0
LINE
  5
A130
330
3E7
100
AcDbEntity
  8
DETAIL
  6
CONTINUOUS
100
AcDbLine
 10
-0.5000230939804169
 20
46.95004983460421
 30
0.0
 11
0.499977045084961
 21
46.95004969552428
 31
0.0
  0
LINE
  5
A131
330
3E7
100
AcDbEntity
  8
DETAIL
  6
CONTINUOUS
100
AcDbLine
 10
0.5871273900556844
 20
45.21799377845127
 30
0.0
 11
-0.5871739207286737
 21
45.21799394176921
 31
0.0
  0
LINE
  5
A132
330
3E7
100
AcDbEntity
  8
DETAIL
  6
CONTINUOUS
100
AcDbLine
 10
-0.5000230939804169
 20
46.95004983460421
 30
0.0
 11
-0.5000232956517721
 21
45.50003742590887
 31
0.0
  0
LINE
  5
A133
330
3E7
100
AcDbEntity
  8
DETAIL
  6
CONTINUOUS
100
AcDbLine
 10
-1.000023434724425
 20
45.00003742590705
 30
0.0
 11
-2.450020584627054
 21
45.00003762756931
 31
0.0
  0
LINE
  5
A134
330
3E7
100
AcDbEntity
  8
DETAIL
  6
CONTINUOUS
100
AcDbLine
 10
-0.0000227228229051
 20
49.11887330888475
 30
0.0
 11
3.999977512314217
 21
46.8094852243621
 31
0.0
  0
LINE
  5
A136
330
3E7
100
AcDbEntity
  8
DETAIL
  6
CONTINUOUS
100
AcDbLine
 10
0.4999768434317958
 20
45.50003728682895
 30
0.0
 11
0.499977045084961
 21
46.95004969552428
 31
0.0
  0
LINE
  5
A137
330
3E7
100
AcDbEntity
  8
DETAIL
  6
CONTINUOUS
100
AcDbLine
 10
0.9999768434245195
 20
45.00003714775174
 30
0.0
 11
2.449973993327148
 21
45.00003694608949
 31
0.0
  0
LINE
  5
A138
330
3E7
100
AcDbEntity
  8
DETAIL
  6
CONTINUOUS
100
AcDbLine
 10
46.99999000016032
 20
93.60007413045423
 30
0.0
 11
34.99998833123027
 21
93.60007579938155
 31
0.0
  0
LINE
  5
A13A
330
3E7
100
AcDbEntity
  8
DETAIL
  6
CONTINUOUS
100
AcDbLine
 10
75.999984770835
 20
27.00002421354838
 30
0.0
 11
76.99998490991856
 21
27.000024074473
 31
0.0
  0
LINE
  5
A13B
330
3E7
100
AcDbEntity
  8
DETAIL
  6
CONTINUOUS
100
AcDbLine
 10
76.99998477083862
 20
26.00002393539398
 30
0.0
 11
76.99998490991856
 21
27.000024074473
 31
0.0
  0
LINE
  5
A13C
330
3E7
100
AcDbEntity
  8
DETAIL
  6
CONTINUOUS
100
AcDbLine
 10
74.99998463176964
 20
27.00002435262831
 30
0.0
 11
74.99998449268969
 21
26.00002421354929
 31
0.0
  0
LINE
  5
A13D
330
3E7
100
AcDbEntity
  8
DETAIL
  6
CONTINUOUS
100
AcDbLine
 10
74.99998463176964
 20
27.00002435262831
 30
0.0
 11
75.999984770835
 21
27.00002421354838
 31
0.0
  0
LINE
  5
A22C
330
3E7
100
AcDbEntity
  8
DETAIL
  6
CONTINUOUS
100
AcDbLine
 10
-36.99996785938127
 20
480.6001243771468
 30
0.0
 11
-36.99999191977257
 21
307.6000850579566
 31
0.0
  0
LINE
  5
A22D
330
3E7
100
AcDbEntity
  8
DETAIL
  6
CONTINUOUS
100
AcDbLine
 10
-21.99998983361
 20
307.6000829717941
 30
0.0
 11
-21.99996577321872
 21
480.600122290989
 31
0.0
  0
LINE
  5
A22E
330
3E7
100
AcDbEntity
  8
DETAIL
  6
CONTINUOUS
100
AcDbLine
 10
10.00003867727355
 20
480.6001178405085
 30
0.0
 11
10.00001461686406
 21
307.6000785213135
 31
0.0
  0
LINE
  5
A22F
330
3E7
100
AcDbEntity
  8
DETAIL
  6
CONTINUOUS
100
AcDbLine
 10
25.00001670302662
 20
307.6000764351511
 30
0.0
 11
25.00004076343611
 21
480.600115754346
 31
0.0
  0
LINE
  5
A230
330
3E7
100
AcDbEntity
  8
DETAIL
  6
CONTINUOUS
100
AcDbLine
 10
57.00004521391019
 20
480.6001113038655
 30
0.0
 11
57.00002115350071
 21
307.6000719846752
 31
0.0
  0
ARC
  5
A231
330
3E7
100
AcDbEntity
  8
DETAIL
  6
CONTINUOUS
100
AcDbCircle
 10
47.00001257410986
 20
307.6000805640615
 30
0.0
 40
10.00000857938929
100
AcDbArc
 50
270.0000332191111
 51
359.9999508437634
  0
ARC
  5
A232
330
3E7
100
AcDbEntity
  8
DETAIL
  6
CONTINUOUS
100
AcDbCircle
 10
47.0000229426405
 20
276.6000765553508
 30
0.0
 40
9.99999389947235
100
AcDbArc
 50
359.9999491094052
 51
90.00003495344307
  0
LINE
  5
A233
330
3E7
100
AcDbEntity
  8
DETAIL
  6
CONTINUOUS
100
AcDbLine
 10
0.0000118353200378
 20
297.6000785213136
 30
0.0
 11
-11.99998983361001
 21
297.6000801902455
 31
0.0
  0
LINE
  5
A234
330
3E7
100
AcDbEntity
  8
DETAIL
  6
CONTINUOUS
100
AcDbLine
 10
-11.99999136347102
 20
286.6000786603945
 30
0.0
 11
0.0000103054589999
 21
286.6000769914626
 31
0.0
  0
ARC
  5
A235
330
3E7
100
AcDbEntity
  8
DETAIL
  6
CONTINUOUS
100
AcDbCircle
 10
-46.99999013065098
 20
276.6000896286322
 30
0.0
 40
9.999993899472283
100
AcDbArc
 50
359.9999491094052
 51
90.00003495344307
  0
ARC
  5
A236
330
3E7
100
AcDbEntity
  8
DETAIL
  6
CONTINUOUS
100
AcDbCircle
 10
-47.00000049916343
 20
307.6000936373428
 30
0.0
 40
10.00000857938941
100
AcDbArc
 50
270.0000332191111
 51
359.9999508437634
  0
ARC
  5
A237
330
3E7
100
AcDbEntity
  8
DETAIL
  6
CONTINUOUS
100
AcDbCircle
 10
-11.99998095152113
 20
307.6000890723298
 30
0.0
 40
10.00000888208709
100
AcDbArc
 50
180.0000349534427
 51
269.9999491094836
  0
ARC
  5
A238
330
3E7
100
AcDbEntity
  8
DETAIL
  6
CONTINUOUS
100
AcDbCircle
 10
-11.99999994284371
 20
276.600084458223
 30
0.0
 40
9.999994202171068
100
AcDbArc
 50
89.99995084371134
 51
180.0000332191631
  0
LINE
  5
A239
330
3E7
100
AcDbEntity
  8
DETAIL
  6
CONTINUOUS
100
AcDbLine
 10
-58.9999979001077
 20
286.600085197033
 30
0.0
 11
-46.99999623117764
 21
286.6000835281056
 31
0.0
  0
LINE
  5
A23A
330
3E7
100
AcDbEntity
  8
DETAIL
  6
CONTINUOUS
100
AcDbLine
 10
-46.99999470133479
 20
297.6000850579566
 30
0.0
 11
-58.99999637026485
 21
297.600086726884
 31
0.0
  0
ARC
  5
A23B
330
3E7
100
AcDbEntity
  8
DETAIL
  6
CONTINUOUS
100
AcDbCircle
 10
35.00000659379293
 20
276.6000779215846
 30
0.0
 40
9.99999420217118
100
AcDbArc
 50
89.99995084371134
 51
180.0000332191631
  0
ARC
  5
A23C
330
3E7
100
AcDbEntity
  8
DETAIL
  6
CONTINUOUS
100
AcDbCircle
 10
0.0000060374732129
 20
307.6000871007045
 30
0.0
 40
10.00000857938946
100
AcDbArc
 50
270.0000332191111
 51
359.9999508437634
  0
ARC
  5
A23D
330
3E7
100
AcDbEntity
  8
DETAIL
  6
CONTINUOUS
100
AcDbCircle
 10
0.0000164059856615
 20
276.6000830919938
 30
0.0
 40
9.999993899472734
100
AcDbArc
 50
359.9999491094052
 51
90.00003495344307
  0
ARC
  5
A23E
330
3E7
100
AcDbEntity
  8
DETAIL
  6
CONTINUOUS
100
AcDbCircle
 10
35.00002558511551
 20
307.6000825356866
 30
0.0
 40
10.00000888208709
100
AcDbArc
 50
180.0000349534427
 51
269.9999491094836
  0
LINE
  5
A23F
330
3E7
100
AcDbEntity
  8
DETAIL
  6
CONTINUOUS
100
AcDbLine
 10
47.00001837195668
 20
297.6000719846751
 30
0.0
 11
35.00001670302663
 21
297.6000736536022
 31
0.0
  0
LINE
  5
A240
330
3E7
100
AcDbEntity
  8
DETAIL
  6
CONTINUOUS
100
AcDbLine
 10
35.00001517316558
 20
286.6000721237515
 30
0.0
 11
47.00001684209563
 21
286.6000704548241
 31
0.0
  0
ARC
  5
A24C
330
3E7
100
AcDbEntity
  8
DETAIL
  6
CONTINUOUS
100
AcDbCircle
 10
47.00004368504958
 20
480.6001125565535
 30
0.0
 40
10.00000152886289
100
AcDbArc
 50
359.9999928226265
 51
89.99999124027404
  0
ARC
  5
A24D
330
3E7
100
AcDbEntity
  8
DETAIL
  6
CONTINUOUS
100
AcDbCircle
 10
47.00004857531165
 20
511.6001165652551
 30
0.0
 40
10.0000009499883
100
AcDbArc
 50
269.9999895059419
 51
359.9999945569583
  0
ARC
  5
A24E
330
3E7
100
AcDbEntity
  8
DETAIL
  6
CONTINUOUS
100
AcDbCircle
 10
-46.99996449796159
 20
511.6001296385365
 30
0.0
 40
10.0000009499883
100
AcDbArc
 50
269.9999895059419
 51
359.9999945569583
  0
ARC
  5
A24F
330
3E7
100
AcDbEntity
  8
DETAIL
  6
CONTINUOUS
100
AcDbCircle
 10
0.0000420386750193
 20
511.6001231018981
 30
0.0
 40
10.0000009499883
100
AcDbArc
 50
269.9999895059419
 51
359.9999945569583
  0
ARC
  5
A250
330
3E7
100
AcDbEntity
  8
DETAIL
  6
CONTINUOUS
100
AcDbCircle
 10
-11.99996020913022
 20
511.6001250735235
 30
0.0
 40
10.00000125268581
100
AcDbArc
 50
179.9999912402738
 51
269.9999928226525
  0
ARC
  5
A251
330
3E7
100
AcDbEntity
  8
DETAIL
  6
CONTINUOUS
100
AcDbCircle
 10
35.00004632750642
 20
511.600118536885
 30
0.0
 40
10.00000125268535
100
AcDbArc
 50
179.9999912402738
 51
269.9999928226525
  0
LINE
  5
A252
330
3E7
100
AcDbEntity
  8
DETAIL
  6
CONTINUOUS
100
AcDbLine
 10
0.000040207116399
 20
501.6001221519082
 30
0.0
 11
-11.99996146181365
 21
501.60012382084
 31
0.0
  0
LINE
  5
A253
330
3E7
100
AcDbEntity
  8
DETAIL
  6
CONTINUOUS
100
AcDbLine
 10
-11.99996299165648
 20
490.600122290989
 30
0.0
 11
0.000038677273551
 21
490.6001206220572
 31
0.0
  0
ARC
  5
A254
330
3E7
100
AcDbEntity
  8
DETAIL
  6
CONTINUOUS
100
AcDbCircle
 10
-46.99996938824186
 20
480.6001256298348
 30
0.0
 40
10.0000015288625
100
AcDbArc
 50
359.9999928226265
 51
89.99999124027404
  0
ARC
  5
A255
330
3E7
100
AcDbEntity
  8
DETAIL
  6
CONTINUOUS
100
AcDbCircle
 10
-11.9999639416419
 20
480.6001204594259
 30
0.0
 40
10.00000183156134
100
AcDbArc
 50
89.99999455698453
 51
179.9999895059159
  0
LINE
  5
A256
330
3E7
100
AcDbEntity
  8
DETAIL
  6
CONTINUOUS
100
AcDbLine
 10
-46.99996632952024
 20
501.6001286885511
 30
0.0
 11
-58.9999679984503
 21
501.6001303574785
 31
0.0
  0
LINE
  5
A257
330
3E7
100
AcDbEntity
  8
DETAIL
  6
CONTINUOUS
100
AcDbLine
 10
-58.99996952831134
 20
490.6001288276274
 30
0.0
 11
-46.99996785938128
 21
490.6001271586956
 31
0.0
  0
ARC
  5
A258
330
3E7
100
AcDbEntity
  8
DETAIL
  6
CONTINUOUS
100
AcDbCircle
 10
0.0000371484129573
 20
480.6001190931963
 30
0.0
 40
10.0000015288629
100
AcDbArc
 50
359.9999928226265
 51
89.99999124027404
  0
ARC
  5
A259
330
3E7
100
AcDbEntity
  8
DETAIL
  6
CONTINUOUS
100
AcDbCircle
 10
35.00004259499474
 20
480.6001139227828
 30
0.0
 40
10.00000183156124
100
AcDbArc
 50
89.99999455698453
 51
179.999989505942
  0
LINE
  5
A25A
330
3E7
100
AcDbEntity
  8
DETAIL
  6
CONTINUOUS
100
AcDbLine
 10
35.00004354498013
 20
490.6001157543458
 30
0.0
 11
47.00004521391019
 21
490.6001140854185
 31
0.0
  0
LINE
  5
A25B
330
3E7
100
AcDbEntity
  8
DETAIL
  6
CONTINUOUS
100
AcDbLine
 10
47.00004674375303
 20
501.6001156152697
 30
0.0
 11
35.00004507482298
 21
501.600117284197
 31
0.0
  0
LINE
  5
C6DF
330
3E7
100
AcDbEntity
  8
DETAIL
  6
CONTINUOUS
100
AcDbLine
 10
-36.99985437215946
 20
1296.600253123151
 30
0.0
 11
-36.99987843256895
 21
1123.600229062749
 31
0.0
  0
LINE
  5
C6E0
330
3E7
100
AcDbEntity
  8
DETAIL
  6
CONTINUOUS
100
AcDbLine
 10
57.00015870111382
 20
1296.60024004987
 30
0.0
 11
57.00013464072253
 21
1123.600215989468
 31
0.0
  0
LINE
  5
C6E1
330
3E7
100
AcDbEntity
  8
DETAIL
  6
CONTINUOUS
100
AcDbLine
 10
25.00013019023025
 20
1123.600220439948
 30
0.0
 11
25.00015425063975
 21
1296.60024450035
 31
0.0
  0
LINE
  5
C6E2
330
3E7
100
AcDbEntity
  8
DETAIL
  6
CONTINUOUS
100
AcDbLine
 10
10.00015216447718
 20
1296.600246586513
 30
0.0
 11
10.00012810406768
 21
1123.600222526109
 31
0.0
  0
LINE
  5
C6E3
330
3E7
100
AcDbEntity
  8
DETAIL
  6
CONTINUOUS
100
AcDbLine
 10
-21.99987634640637
 20
1123.600226976586
 30
0.0
 11
-21.99985228599689
 21
1296.600251036989
 31
0.0
  0
ARC
  5
C6ED
330
3E7
100
AcDbEntity
  8
DETAIL
  6
CONTINUOUS
100
AcDbCircle
 10
-46.99990012496345
 20
919.6001940115412
 30
0.0
 40
9.999993320599273
100
AcDbArc
 50
269.9999457926689
 51
0.0000382702056744
  0
ARC
  5
C6EE
330
3E7
100
AcDbEntity
  8
DETAIL
  6
CONTINUOUS
100
AcDbCircle
 10
47.00011294830983
 20
919.6001809382595
 30
0.0
 40
9.999993320599099
100
AcDbArc
 50
269.9999457926689
 51
0.0000382702056744
  0
ARC
  5
C6EF
330
3E7
100
AcDbEntity
  8
DETAIL
  6
CONTINUOUS
100
AcDbCircle
 10
35.00009544173008
 20
919.6001829098896
 30
0.0
 40
9.999993623297186
100
AcDbArc
 50
179.9999475270268
 51
270.0000365358216
  0
ARC
  5
C6F0
330
3E7
100
AcDbEntity
  8
DETAIL
  6
CONTINUOUS
100
AcDbCircle
 10
0.0001064116731868
 20
919.6001874749027
 30
0.0
 40
9.999993320599044
100
AcDbArc
 50
269.9999457926689
 51
0.0000382702056744
  0
ARC
  5
C6F1
330
3E7
100
AcDbEntity
  8
DETAIL
  6
CONTINUOUS
100
AcDbCircle
 10
-11.99991109490656
 20
919.6001894465323
 30
0.0
 40
9.999993623297626
100
AcDbArc
 50
179.9999475270268
 51
270.0000365358216
  0
LINE
  5
C707
330
3E7
100
AcDbEntity
  8
DETAIL
  6
CONTINUOUS
100
AcDbLine
 10
-36.99991111577036
 20
888.6001963795479
 30
0.0
 11
-36.99993517617986
 21
715.6001532456547
 31
0.0
  0
LINE
  5
C708
330
3E7
100
AcDbEntity
  8
DETAIL
  6
CONTINUOUS
100
AcDbLine
 10
25.00007344663754
 20
715.6001446228536
 30
0.0
 11
25.00009750702884
 21
888.6001877567421
 31
0.0
  0
LINE
  5
C709
330
3E7
100
AcDbEntity
  8
DETAIL
  6
CONTINUOUS
100
AcDbLine
 10
57.0001019575211
 20
888.6001833062662
 30
0.0
 11
57.00007789711161
 21
715.6001401723734
 31
0.0
  0
LINE
  5
C70A
330
3E7
100
AcDbEntity
  8
DETAIL
  6
CONTINUOUS
100
AcDbLine
 10
10.00009542086627
 20
888.6001898429048
 30
0.0
 11
10.00007136047497
 21
715.6001467090162
 31
0.0
  0
LINE
  5
C70B
330
3E7
100
AcDbEntity
  8
DETAIL
  6
CONTINUOUS
100
AcDbLine
 10
-21.99993309001729
 20
715.6001511594921
 30
0.0
 11
-21.9999090296078
 21
888.6001942933853
 31
0.0
  0
ARC
  5
C70C
330
3E7
100
AcDbEntity
  8
DETAIL
  6
CONTINUOUS
100
AcDbCircle
 10
47.00007503977031
 20
715.6001430297101
 30
0.0
 40
10.00000285733739
100
AcDbArc
 50
270.0000004341822
 51
359.9999836286661
  0
ARC
  5
C70D
330
3E7
100
AcDbEntity
  8
DETAIL
  6
CONTINUOUS
100
AcDbCircle
 10
47.00007387292497
 20
684.6001391122761
 30
0.0
 40
9.999999712783424
100
AcDbArc
 50
359.9999813714084
 51
90.00000164564037
  0
LINE
  5
C70E
330
3E7
100
AcDbEntity
  8
DETAIL
  6
CONTINUOUS
100
AcDbLine
 10
0.0000685789127601
 20
705.6001467090164
 30
0.0
 11
-11.99993309001726
 21
705.6001483779437
 31
0.0
  0
LINE
  5
C70F
330
3E7
100
AcDbEntity
  8
DETAIL
  6
CONTINUOUS
100
AcDbLine
 10
-11.99993461986014
 20
694.6001470306327
 30
0.0
 11
0.0000670490699122
 21
694.6001453617009
 31
0.0
  0
ARC
  5
C710
330
3E7
100
AcDbEntity
  8
DETAIL
  6
CONTINUOUS
100
AcDbCircle
 10
-46.99993803350298
 20
715.6001561029916
 30
0.0
 40
10.00000285733739
100
AcDbArc
 50
270.0000004341822
 51
359.9999836286661
  0
ARC
  5
C711
330
3E7
100
AcDbEntity
  8
DETAIL
  6
CONTINUOUS
100
AcDbCircle
 10
-46.9999392003483
 20
684.6001521855578
 30
0.0
 40
9.999999712783466
100
AcDbArc
 50
359.9999813714084
 51
90.00000164564037
  0
ARC
  5
C712
330
3E7
100
AcDbEntity
  8
DETAIL
  6
CONTINUOUS
100
AcDbCircle
 10
-11.99993738592456
 20
684.6001470151486
 30
0.0
 40
10.00000001548208
100
AcDbArc
 50
89.99998415161824
 51
180.0000009571601
  0
ARC
  5
C713
330
3E7
100
AcDbEntity
  8
DETAIL
  6
CONTINUOUS
100
AcDbCircle
 10
-11.99992992997793
 20
715.6001515379784
 30
0.0
 40
10.00000316003617
100
AcDbArc
 50
180.000002168566
 51
269.9999818943083
  0
LINE
  5
C714
330
3E7
100
AcDbEntity
  8
DETAIL
  6
CONTINUOUS
100
AcDbLine
 10
-58.99994115649679
 20
694.6001535672713
 30
0.0
 11
-46.99993948756673
 21
694.6001518983438
 31
0.0
  0
LINE
  5
C715
330
3E7
100
AcDbEntity
  8
DETAIL
  6
CONTINUOUS
100
AcDbLine
 10
-46.99993795772388
 20
705.6001532456547
 30
0.0
 11
-58.99993962665394
 21
705.6001549145868
 31
0.0
  0
ARC
  5
C716
330
3E7
100
AcDbEntity
  8
DETAIL
  6
CONTINUOUS
100
AcDbCircle
 10
0.000067336288339
 20
684.6001456489192
 30
0.0
 40
9.999999712783466
100
AcDbArc
 50
359.9999813714084
 51
90.00000164564037
  0
ARC
  5
C717
330
3E7
100
AcDbEntity
  8
DETAIL
  6
CONTINUOUS
100
AcDbCircle
 10
35.00007660665869
 20
715.60014500134
 30
0.0
 40
10.00000316003571
100
AcDbArc
 50
180.000002168566
 51
269.9999818943083
  0
ARC
  5
C718
330
3E7
100
AcDbEntity
  8
DETAIL
  6
CONTINUOUS
100
AcDbCircle
 10
35.00006915071208
 20
684.6001404785101
 30
0.0
 40
10.00000001548207
100
AcDbArc
 50
89.99998415161824
 51
180.0000009571601
  0
ARC
  5
C719
330
3E7
100
AcDbEntity
  8
DETAIL
  6
CONTINUOUS
100
AcDbCircle
 10
0.0000685031336616
 20
715.6001495663531
 30
0.0
 40
10.00000285733728
100
AcDbArc
 50
270.0000004341822
 51
359.9999836286661
  0
LINE
  5
C71A
330
3E7
100
AcDbEntity
  8
DETAIL
  6
CONTINUOUS
100
AcDbLine
 10
47.00007511556759
 20
705.6001401723732
 30
0.0
 11
35.00007344663754
 21
705.6001418413052
 31
0.0
  0
LINE
  5
C71B
330
3E7
100
AcDbEntity
  8
DETAIL
  6
CONTINUOUS
100
AcDbLine
 10
35.00007191677649
 20
694.6001404939895
 30
0.0
 11
47.00007358570656
 21
694.6001388250624
 31
0.0
  0
ARC
  5
C7C2
330
3E7
100
AcDbEntity
  8
DETAIL
  6
CONTINUOUS
100
AcDbCircle
 10
47.00009279925506
 20
888.6001769295535
 30
0.0
 40
10.00000915826533
100
AcDbArc
 50
0.0000365358216249
 51
89.99994752710504
  0
LINE
  5
C7C3
330
3E7
100
AcDbEntity
  8
DETAIL
  6
CONTINUOUS
100
AcDbLine
 10
-11.99990624806375
 20
898.6001942933853
 30
0.0
 11
0.0000954208662733
 21
898.6001926244535
 31
0.0
  0
LINE
  5
C7C4
330
3E7
100
AcDbEntity
  8
DETAIL
  6
CONTINUOUS
100
AcDbLine
 10
0.0000969507273112
 20
909.6001941543091
 30
0.0
 11
-11.99990471820274
 21
909.6001958232363
 31
0.0
  0
ARC
  5
C7C5
330
3E7
100
AcDbEntity
  8
DETAIL
  6
CONTINUOUS
100
AcDbCircle
 10
-46.99992027403641
 20
888.6001900028347
 30
0.0
 40
10.00000915826534
100
AcDbArc
 50
0.0000365358216249
 51
89.99994752710504
  0
ARC
  5
C7C6
330
3E7
100
AcDbEntity
  8
DETAIL
  6
CONTINUOUS
100
AcDbCircle
 10
-11.99989956864373
 20
888.6001848324212
 30
0.0
 40
10.00000946096333
100
AcDbArc
 50
90.00003827015357
 51
179.999945792747
  0
LINE
  5
C7C7
330
3E7
100
AcDbEntity
  8
DETAIL
  6
CONTINUOUS
100
AcDbLine
 10
-46.99990958590933
 20
909.6002006909476
 30
0.0
 11
-58.99991125483939
 21
909.6002023598792
 31
0.0
  0
LINE
  5
C7C8
330
3E7
100
AcDbEntity
  8
DETAIL
  6
CONTINUOUS
100
AcDbLine
 10
-58.99991278470043
 20
898.6002008300237
 30
0.0
 11
-46.99991111577037
 21
898.6001991610965
 31
0.0
  0
ARC
  5
C7C9
330
3E7
100
AcDbEntity
  8
DETAIL
  6
CONTINUOUS
100
AcDbCircle
 10
35.00010696799289
 20
888.6001782957828
 30
0.0
 40
10.00000946096323
100
AcDbArc
 50
90.00003827015357
 51
179.999945792747
  0
ARC
  5
C7CA
330
3E7
100
AcDbEntity
  8
DETAIL
  6
CONTINUOUS
100
AcDbCircle
 10
0.0000862626184244
 20
888.6001834661966
 30
0.0
 40
10.00000915826534
100
AcDbArc
 50
0.0000365358216249
 51
89.99994752710504
  0
LINE
  5
C7CB
330
3E7
100
AcDbEntity
  8
DETAIL
  6
CONTINUOUS
100
AcDbLine
 10
47.00010348736396
 20
909.6001876176661
 30
0.0
 11
35.00010181843389
 21
909.6001892865981
 31
0.0
  0
LINE
  5
C7CC
330
3E7
100
AcDbEntity
  8
DETAIL
  6
CONTINUOUS
100
AcDbLine
 10
35.00010028859103
 20
898.6001877567423
 30
0.0
 11
47.0001019575211
 21
898.6001860878149
 31
0.0
  0
LINE
  5
C89D
330
3E7
100
AcDbEntity
  8
DETAIL
  6
CONTINUOUS
100
AcDbLine
 10
-36.999882743974
 20
1092.600224751349
 30
0.0
 11
-36.99990680436531
 21
919.6002006909475
 31
0.0
  0
LINE
  5
C89E
330
3E7
100
AcDbEntity
  8
DETAIL
  6
CONTINUOUS
100
AcDbLine
 10
57.00013032931746
 20
1092.600211678067
 30
0.0
 11
57.00010626890795
 21
919.600187617666
 31
0.0
  0
LINE
  5
C89F
330
3E7
100
AcDbEntity
  8
DETAIL
  6
CONTINUOUS
100
AcDbLine
 10
25.0001018184339
 20
919.6001920681466
 30
0.0
 11
25.00012587884338
 21
1092.600216128547
 31
0.0
  0
LINE
  5
C8A0
330
3E7
100
AcDbEntity
  8
DETAIL
  6
CONTINUOUS
100
AcDbLine
 10
10.00012379268082
 20
1092.60021821471
 30
0.0
 11
10.00009973227133
 21
919.6001941543091
 31
0.0
  0
LINE
  5
C8A1
330
3E7
100
AcDbEntity
  8
DETAIL
  6
CONTINUOUS
100
AcDbLine
 10
-21.99990471820274
 20
919.600198604785
 30
0.0
 11
-21.99988065781144
 21
1092.600222665187
 31
0.0
  0
ARC
  5
C8AB
330
3E7
100
AcDbEntity
  8
DETAIL
  6
CONTINUOUS
100
AcDbCircle
 10
47.00014132012436
 20
1123.600209310066
 30
0.0
 40
9.999993320598989
100
AcDbArc
 50
269.9999457926689
 51
0.0000382702056744
  0
ARC
  5
C8AC
330
3E7
100
AcDbEntity
  8
DETAIL
  6
CONTINUOUS
100
AcDbCircle
 10
47.00012117105142
 20
1092.600205301355
 30
0.0
 40
10.00000915826483
100
AcDbArc
 50
0.0000365358216249
 51
89.99994752710504
  0
LINE
  5
C8AD
330
3E7
100
AcDbEntity
  8
DETAIL
  6
CONTINUOUS
100
AcDbLine
 10
0.0001253225236724
 20
1113.600222526111
 30
0.0
 11
-11.99987634640638
 21
1113.600224195038
 31
0.0
  0
LINE
  5
C8AE
330
3E7
100
AcDbEntity
  8
DETAIL
  6
CONTINUOUS
100
AcDbLine
 10
-11.99987787624922
 20
1102.600222665187
 30
0.0
 11
0.0001237926808244
 21
1102.600220996259
 31
0.0
  0
ARC
  5
C8AF
330
3E7
100
AcDbEntity
  8
DETAIL
  6
CONTINUOUS
100
AcDbCircle
 10
-46.99987175316709
 20
1123.600222383347
 30
0.0
 40
9.999993320599216
100
AcDbArc
 50
269.9999457926689
 51
0.0000382702056744
  0
ARC
  5
C8B0
330
3E7
100
AcDbEntity
  8
DETAIL
  6
CONTINUOUS
100
AcDbCircle
 10
-46.99989190222185
 20
1092.600218374635
 30
0.0
 40
10.00000915826489
100
AcDbArc
 50
0.0000365358216249
 51
89.99994752710504
  0
ARC
  5
C8B1
330
3E7
100
AcDbEntity
  8
DETAIL
  6
CONTINUOUS
100
AcDbCircle
 10
-11.9998827231102
 20
1123.600217818334
 30
0.0
 40
9.999993623297644
100
AcDbArc
 50
179.9999475270268
 51
270.0000365358216
  0
ARC
  5
C8B2
330
3E7
100
AcDbEntity
  8
DETAIL
  6
CONTINUOUS
100
AcDbCircle
 10
-11.99987119684738
 20
1092.600213204226
 30
0.0
 40
10.00000946096327
100
AcDbArc
 50
90.00003827015357
 51
179.999945792747
  0
LINE
  5
C8B3
330
3E7
100
AcDbEntity
  8
DETAIL
  6
CONTINUOUS
100
AcDbLine
 10
-46.99988121411297
 20
1113.600229062749
 30
0.0
 11
-58.99988288304303
 21
1113.600230731681
 31
0.0
  0
LINE
  5
C8B4
330
3E7
100
AcDbEntity
  8
DETAIL
  6
CONTINUOUS
100
AcDbLine
 10
-58.99988441290407
 20
1102.60022920183
 30
0.0
 11
-46.99988274397401
 21
1102.600227532896
 31
0.0
  0
ARC
  5
C8B5
330
3E7
100
AcDbEntity
  8
DETAIL
  6
CONTINUOUS
100
AcDbCircle
 10
35.00013533978926
 20
1092.600206667584
 30
0.0
 40
10.00000946096333
100
AcDbArc
 50
90.00003827015357
 51
179.999945792747
  0
ARC
  5
C8B6
330
3E7
100
AcDbEntity
  8
DETAIL
  6
CONTINUOUS
100
AcDbCircle
 10
35.00012381352644
 20
1123.600211281696
 30
0.0
 40
9.999993623297186
100
AcDbArc
 50
179.9999475270268
 51
270.0000365358216
  0
ARC
  5
C8B7
330
3E7
100
AcDbEntity
  8
DETAIL
  6
CONTINUOUS
100
AcDbCircle
 10
0.0001347834877379
 20
1123.600215846704
 30
0.0
 40
9.999993320599099
100
AcDbArc
 50
269.9999457926689
 51
0.0000382702056744
  0
ARC
  5
C8B8
330
3E7
100
AcDbEntity
  8
DETAIL
  6
CONTINUOUS
100
AcDbCircle
 10
0.0001146344147855
 20
1092.600211837998
 30
0.0
 40
10.00000915826489
100
AcDbArc
 50
0.0000365358216249
 51
89.99994752710504
  0
LINE
  5
C8B9
330
3E7
100
AcDbEntity
  8
DETAIL
  6
CONTINUOUS
100
AcDbLine
 10
35.00012866038741
 20
1102.600216128548
 30
0.0
 11
47.00013032931746
 21
1102.600214459614
 31
0.0
  0
LINE
  5
C8BA
330
3E7
100
AcDbEntity
  8
DETAIL
  6
CONTINUOUS
100
AcDbLine
 10
47.00013185916032
 20
1113.600215989466
 30
0.0
 11
35.00013019023025
 21
1113.600217658399
 31
0.0
  0
ARC
  5
D092
330
3E7
100
AcDbEntity
  8
DETAIL
  6
CONTINUOUS
100
AcDbCircle
 10
47.00014954284778
 20
1296.600233673161
 30
0.0
 40
10.00000915826493
100
AcDbArc
 50
0.0000365358216249
 51
89.99994752710504
  0
LINE
  5
D093
330
3E7
100
AcDbEntity
  8
DETAIL
  6
CONTINUOUS
100
AcDbLine
 10
-11.99984950445286
 20
1306.600251036988
 30
0.0
 11
0.0001521644771856
 21
1306.600249368061
 31
0.0
  0
ARC
  5
D094
330
3E7
100
AcDbEntity
  8
DETAIL
  6
CONTINUOUS
100
AcDbCircle
 10
-46.99986353042549
 20
1296.600246746443
 30
0.0
 40
10.00000915826488
100
AcDbArc
 50
0.0000365358216249
 51
89.99994752710504
  0
ARC
  5
D095
330
3E7
100
AcDbEntity
  8
DETAIL
  6
CONTINUOUS
100
AcDbCircle
 10
-11.99984282505101
 20
1296.600241576029
 30
0.0
 40
10.00000946096311
100
AcDbArc
 50
90.00003827015357
 51
179.999945792747
  0
LINE
  5
D096
330
3E7
100
AcDbEntity
  8
DETAIL
  6
CONTINUOUS
100
AcDbLine
 10
-58.99985604108952
 20
1306.600257573632
 30
0.0
 11
-46.99985437215945
 21
1306.6002559047
 31
0.0
  0
ARC
  5
D097
330
3E7
100
AcDbEntity
  8
DETAIL
  6
CONTINUOUS
100
AcDbCircle
 10
35.00016371160382
 20
1296.600235039391
 30
0.0
 40
10.00000946096323
100
AcDbArc
 50
90.00003827015357
 51
179.999945792747
  0
ARC
  5
D098
330
3E7
100
AcDbEntity
  8
DETAIL
  6
CONTINUOUS
100
AcDbCircle
 10
0.0001430062111467
 20
1296.6002402098
 30
0.0
 40
10.00000915826489
100
AcDbArc
 50
0.0000365358216249
 51
89.99994752710504
  0
LINE
  5
D099
330
3E7
100
AcDbEntity
  8
DETAIL
  6
CONTINUOUS
100
AcDbLine
 10
35.00015703218378
 20
1306.60024450035
 30
0.0
 11
47.00015870111382
 21
1306.600242831418
 31
0.0
  0
LINE
  5
14237
330
3E7
100
AcDbEntity
  8
DETAIL
  6
CONTINUOUS
100
AcDbLine
 10
-165.0000090308076
 20
1316.599974452464
 30
0.0
 11
-165.0000041863604
 21
611.4000156511925
 31
0.0
  0
LINE
  5
14238
330
3E7
100
AcDbEntity
  8
DETAIL
  6
CONTINUOUS
100
AcDbLine
 10
164.9999958136575
 20
611.4000255475594
 30
0.0
 11
164.9999909692104
 21
1316.600037754592
 31
0.0
  0
LINE
  5
1423A
330
3E7
100
AcDbEntity
  8
DETAIL
  6
CONTINUOUS
100
AcDbLine
 10
189.9999952081598
 20
699.5410689054834
 30
0.0
 11
189.9999910529384
 21
1304.411622398988
 31
0.0
  0
LINE
  5
1423B
330
3E7
100
AcDbEntity
  8
DETAIL
  6
CONTINUOUS
100
AcDbLine
 10
166.9999928325486
 20
1045.357392504657
 30
0.0
 11
166.9999958239694
 21
609.9000255612978
 31
0.0
  0
LINE
  5
1423C
330
3E7
100
AcDbEntity
  8
DETAIL
  6
CONTINUOUS
100
AcDbLine
 10
-166.9847425210664
 20
1303.313658520863
 30
0.0
 11
-167.0000041760449
 21
609.9000080080559
 31
0.0
  0
LINE
  5
1423F
330
3E7
100
AcDbEntity
  8
DETAIL
  6
CONTINUOUS
100
AcDbLine
 10
-165.0000037123572
 20
542.4000232805833
 30
0.0
 11
-165.0000012502714
 21
184.0000293840962
 31
0.0
  0
LINE
  5
14240
330
3E7
100
AcDbEntity
  8
DETAIL
  6
CONTINUOUS
100
AcDbLine
 10
-167.0000037226509
 20
543.8999927492687
 30
0.0
 11
-167.000001681299
 21
246.74267463403
 31
0.0
  0
LINE
  5
14243
330
3E7
100
AcDbEntity
  8
DETAIL
100
AcDbLine
 10
189.9999953996974
 20
671.6589673696842
 30
0.0
 11
189.9999995549221
 21
66.78839241850846
 31
0.0
  0
LINE
  5
14244
330
3E7
100
AcDbEntity
  8
DETAIL
  6
CONTINUOUS
100
AcDbLine
 10
164.9999987497285
 20
184.0000316510668
 30
0.0
 11
164.9999962876609
 21
542.4000255475585
 31
0.0
  0
LINE
  5
14245
330
3E7
100
AcDbEntity
  8
DETAIL
  6
CONTINUOUS
100
AcDbLine
 10
166.9999962773635
 20
543.9000103025058
 30
0.0
 11
166.9999983144989
 21
247.3570262937131
 31
0.0
  0
LINE
  5
14248
330
3E7
100
AcDbEntity
  8
DETAIL
  6
CONTINUOUS
100
AcDbLine
 10
10.69999678336898
 20
26.00000007350809
 30
0.0
 11
163.9999998351231
 21
26.00000112661837
 31
0.0
  0
LINE
  5
1424A
330
3E7
100
AcDbEntity
  8
DETAIL
  6
CONTINUOUS
100
AcDbLine
 10
212.5999908584562
 20
0.0000014604784155
 30
0.0
 11
-194.4000015121455
 21
-0.0000013354519979
 31
0.0
  0
LINE
  5
1424B
330
3E7
100
AcDbEntity
  8
DETAIL
  6
CONTINUOUS
100
AcDbLine
 10
-194.4000015231375
 20
1.600035285641751
 30
0.0
 11
212.5999908474641
 21
1.600038081572163
 31
0.0
  0
LINE
  5
1424C
330
3E7
100
AcDbEntity
  8
DETAIL
  6
CONTINUOUS
100
AcDbLine
 10
-155.1132585198192
 20
24.99999893443691
 30
0.0
 11
155.1132353156335
 21
25.00000106557171
 31
0.0
  0
LINE
  5
14257
330
3E7
100
AcDbEntity
  8
DETAIL
  6
CONTINUOUS
100
AcDbLine
 10
165.4999996410533
 20
54.25000113692203
 30
0.0
 11
165.4999997234881
 21
42.25000113691931
 31
0.0
  0
LINE
  5
14258
330
3E7
100
AcDbEntity
  8
DETAIL
  6
CONTINUOUS
100
AcDbLine
 10
166.2999874418945
 20
53.10565299788231
 30
0.0
 11
166.299987508877
 21
43.35498161116356
 31
0.0
  0
LINE
  5
14259
330
3E7
100
AcDbEntity
  8
DETAIL
  6
CONTINUOUS
100
AcDbLine
 10
169.1540524483824
 20
43.6312267479584
 30
0.0
 11
166.2999875069798
 21
43.63122672835196
 31
0.0
  0
LINE
  5
1425A
330
3E7
100
AcDbEntity
  8
DETAIL
  6
CONTINUOUS
100
AcDbLine
 10
169.7999874512114
 20
51.75000116646106
 30
0.0
 11
169.7999874992983
 21
44.75000116645833
 31
0.0
  0
LINE
  5
1425B
330
3E7
100
AcDbEntity
  8
DETAIL
  6
CONTINUOUS
100
AcDbLine
 10
169.1540524325173
 20
45.94061395499148
 30
0.0
 11
166.2999874911147
 21
45.94061393538502
 31
0.0
  0
LINE
  5
1425C
330
3E7
100
AcDbEntity
  8
DETAIL
  6
CONTINUOUS
100
AcDbLine
 10
169.1540523849234
 20
52.86883661123875
 30
0.0
 11
166.2999874435208
 21
52.86883659163231
 31
0.0
  0
LINE
  5
1425D
330
3E7
100
AcDbEntity
  8
DETAIL
  6
CONTINUOUS
100
AcDbLine
 10
169.1540524007884
 20
50.55944940421023
 30
0.0
 11
166.2999874593861
 21
50.55944938460335
 31
0.0
  0
LINE
  5
1425E
330
3E7
100
AcDbEntity
  8
DETAIL
  6
CONTINUOUS
100
AcDbLine
 10
166.2999874418945
 20
53.10565299788231
 30
0.0
 11
166.286559706974
 21
53.18505973607262
 31
0.0
  0
LINE
  5
1425F
330
3E7
100
AcDbEntity
  8
DETAIL
  6
CONTINUOUS
100
AcDbLine
 10
166.286559706974
 20
53.18505973607262
 30
0.0
 11
166.2634273826243
 21
53.20361442341255
 31
0.0
  0
LINE
  5
14260
330
3E7
100
AcDbEntity
  8
DETAIL
  6
CONTINUOUS
100
AcDbLine
 10
166.2634273826243
 20
53.20361442341255
 30
0.0
 11
166.2499996481255
 21
53.22155875926137
 31
0.0
  0
LINE
  5
14261
330
3E7
100
AcDbEntity
  8
DETAIL
  6
CONTINUOUS
100
AcDbLine
 10
166.299987508877
 20
43.35498161116356
 30
0.0
 11
166.2865597747768
 21
43.31500358372795
 31
0.0
  0
LINE
  5
14262
330
3E7
100
AcDbEntity
  8
DETAIL
  6
CONTINUOUS
100
AcDbLine
 10
166.2865597747768
 20
43.31500358372795
 30
0.0
 11
166.2499997164304
 21
43.2785045600408
 31
0.0
  0
LINE
  5
14263
330
3E7
100
AcDbEntity
  8
DETAIL
  6
CONTINUOUS
100
AcDbLine
 10
166.2499997164304
 20
43.2785045600408
 30
0.0
 11
166.1999508885019
 21
43.25000114172643
 31
0.0
  0
LINE
  5
14264
330
3E7
100
AcDbEntity
  8
DETAIL
  6
CONTINUOUS
100
AcDbLine
 10
166.2499996481255
 20
53.22155875926137
 30
0.0
 11
166.1999508198059
 21
53.25000114172643
 31
0.0
  0
LINE
  5
14265
330
3E7
100
AcDbEntity
  8
DETAIL
  6
CONTINUOUS
100
AcDbLine
 10
169.1540523849234
 20
52.86883661123875
 30
0.0
 11
169.7999874512114
 21
51.75000116646106
 31
0.0
  0
LINE
  5
14266
330
3E7
100
AcDbEntity
  8
DETAIL
  6
CONTINUOUS
100
AcDbLine
 10
169.1540524483824
 20
43.6312267479584
 30
0.0
 11
169.7999874992983
 21
44.75000116645833
 31
0.0
  0
LINE
  5
14267
330
3E7
100
AcDbEntity
  8
DETAIL
  6
CONTINUOUS
100
AcDbLine
 10
166.1999508885019
 20
43.25000114172643
 30
0.0
 11
165.4999997166195
 21
43.2500011369184
 31
0.0
  0
LINE
  5
14268
330
3E7
100
AcDbEntity
  8
DETAIL
  6
CONTINUOUS
100
AcDbLine
 10
166.1999508198059
 20
53.25000114172643
 30
0.0
 11
165.4999996479237
 21
53.2500011369184
 31
0.0
  0
LINE
  5
14269
330
3E7
100
AcDbEntity
  8
DETAIL
  6
CONTINUOUS
100
AcDbLine
 10
165.4999997234881
 20
42.25000113691931
 30
0.0
 11
164.9999997234954
 21
42.25000113348413
 31
0.0
  0
LINE
  5
1426A
330
3E7
100
AcDbEntity
  8
DETAIL
  6
CONTINUOUS
100
AcDbLine
 10
165.4999996410533
 20
54.25000113692203
 30
0.0
 11
164.9999996410606
 21
54.25000113348687
 31
0.0
  0
ARC
  5
1426B
330
3E7
100
AcDbEntity
  8
DETAIL
100
AcDbCircle
 10
167.46652875781
 20
51.71414299613207
 30
0.0
 40
2.044762415743188
100
AcDbArc
 50
325.6179867087606
 51
34.3820140784385
  0
ARC
  5
1426C
330
3E7
100
AcDbEntity
  8
DETAIL
100
AcDbCircle
 10
161.8679024033315
 20
48.25003162954407
 30
0.0
 40
7.643388793156777
100
AcDbArc
 50
342.4134706291253
 51
17.58653015811686
  0
ARC
  5
1426D
330
3E7
100
AcDbEntity
  8
DETAIL
100
AcDbCircle
 10
167.4665287741154
 20
44.78592033988252
 30
0.0
 40
2.044762441566529
100
AcDbArc
 50
325.6179872038018
 51
34.38201358339723
  0
ARC
  5
1426E
330
3E7
100
AcDbEntity
  8
DETAIL
100
AcDbCircle
 10
183.9999995549224
 20
66.78839237729062
 30
0.0
 40
6.0
100
AcDbArc
 50
270.0000003935995
 51
0.0000003935995917
  0
LINE
  5
1426F
330
3E7
100
AcDbEntity
  8
DETAIL
100
AcDbLine
 10
164.9999995961443
 20
60.78839224676812
 30
0.0
 11
183.9999995961406
 21
60.78839237729062
 31
0.0
  0
LINE
  5
14271
330
3E7
100
AcDbEntity
  8
DETAIL
  6
CONTINUOUS
100
AcDbLine
 10
164.9999998282583
 20
27.00000113348778
 30
0.0
 11
164.9999987497285
 21
184.0000316510668
 31
0.0
  0
ARC
  5
14272
330
3E7
100
AcDbEntity
  8
DETAIL
100
AcDbCircle
 10
163.9999895878318
 20
27.00001136703895
 30
0.0
 40
1.000010240473464
100
AcDbArc
 50
270.0005871204969
 51
359.9994136667282
  0
LINE
  5
14273
330
3E7
100
AcDbEntity
  8
DETAIL
  6
CONTINUOUS
100
AcDbLine
 10
212.5999908584562
 20
0.0000014604784155
 30
0.0
 11
212.5999908447174
 21
2.000001460481144
 31
0.0
  0
LINE
  5
14274
330
3E7
100
AcDbEntity
  8
DETAIL
  6
CONTINUOUS
100
AcDbLine
 10
212.5999908447174
 20
2.000001460481144
 30
0.0
 11
217.5999908447173
 21
2.00000149482912
 31
0.0
  0
ARC
  5
14275
330
3E7
100
AcDbEntity
  8
DETAIL
  6
CONTINUOUS
100
AcDbCircle
 10
214.5945915082884
 20
4.99819010066858
 30
0.0
 40
3.005399861696522
100
AcDbArc
 50
0.034532924522236
 51
92.80017737773471
  0
LINE
  5
14276
330
3E7
100
AcDbEntity
  8
DETAIL
  6
CONTINUOUS
100
AcDbLine
 10
217.5999908241083
 20
5.000001494826391
 30
0.0
 11
217.5999908447173
 21
2.00000149482912
 31
0.0
  0
LINE
  5
14277
330
3E7
100
AcDbEntity
  8
DETAIL
  6
CONTINUOUS
100
AcDbLine
 10
166.332046467558
 20
8.000001142637755
 30
0.0
 11
214.4477691238153
 21
8.000001473174052
 31
0.0
  0
LINE
  5
1427A
330
3E7
100
AcDbEntity
  8
DETAIL
  6
CONTINUOUS
100
AcDbLine
 10
159.1999967833544
 20
26.00000109364055
 30
0.0
 11
159.1999968427553
 21
17.35302843739327
 31
0.0
  0
LINE
  5
1427B
330
3E7
100
AcDbEntity
  8
DETAIL
  6
CONTINUOUS
100
AcDbLine
 10
160.7999877065265
 20
14.58178821401043
 30
0.0
 11
160.7999876280882
 21
26.00000110463179
 31
0.0
  0
LINE
  5
1427C
330
3E7
100
AcDbEntity
  8
DETAIL
  6
CONTINUOUS
100
AcDbLine
 10
155.651061864013
 20
23.50000106926063
 30
0.0
 11
163.7339629611668
 21
9.500001124790742
 31
0.0
  0
ARC
  5
1427D
330
3E7
100
AcDbEntity
  8
DETAIL
  6
CONTINUOUS
100
AcDbCircle
 10
166.3320511332294
 20
11.0000218770815
 30
0.0
 40
3.000020734447866
100
AcDbArc
 50
210.0002290222031
 51
269.9999108929624
  0
ARC
  5
1427E
330
3E7
100
AcDbEntity
  8
DETAIL
  6
CONTINUOUS
100
AcDbCircle
 10
153.0530042307399
 20
22.00003321166831
 30
0.0
 40
2.999967839764453
100
AcDbArc
 50
29.99964576968469
 51
90.00020272115461
  0
LINE
  5
1427F
330
3E7
100
AcDbEntity
  8
DETAIL
  6
CONTINUOUS
100
AcDbLine
 10
157.538101031423
 20
26.00000108222775
 30
0.0
 11
156.1524809307119
 21
23.60003769380273
 31
0.0
  0
ARC
  5
14280
330
3E7
100
AcDbEntity
  8
DETAIL
100
AcDbCircle
 10
155.472032656382
 20
27.36629426234367
 30
0.0
 40
2.393340557634501
100
AcDbArc
 50
261.3780067624658
 51
325.1888842694158
  0
LINE
  5
14281
330
3E7
100
AcDbEntity
  8
DETAIL
100
AcDbLine
 10
156.1524809307119
 20
23.60003769380273
 30
0.0
 11
155.8220182601798
 21
23.20389580853043
 31
0.0
  0
LINE
  5
14282
330
3E7
100
AcDbEntity
  8
BASIS
100
AcDbLine
 10
189.5999907311834
 20
18.52704517836173
 30
0.0
 11
189.5999909162437
 21
-8.412003905341407
 31
0.0
  0
ARC
  5
14283
330
3E7
100
AcDbEntity
  8
DETAIL
  6
CONTINUOUS
100
AcDbCircle
 10
164.0000015178045
 20
246.8426683847128
 30
0.0
 40
2.999990630933706
100
AcDbArc
 50
314.9997425779441
 51
351.8173304311661
  0
ARC
  5
14284
330
3E7
100
AcDbEntity
  8
DETAIL
  6
CONTINUOUS
100
AcDbCircle
 10
167.9999826271032
 20
242.3573425646368
 30
0.0
 40
2.999984278674363
100
AcDbArc
 50
134.9995256851753
 51
179.9990464733311
  0
LINE
  5
14285
330
3E7
100
AcDbEntity
  8
DETAIL
  6
CONTINUOUS
100
AcDbLine
 10
165.8786909612208
 20
244.4786693524174
 30
0.0
 11
166.1213057056484
 21
244.721345135335
 31
0.0
  0
LINE
  5
14286
330
3E7
100
AcDbEntity
  8
DETAIL
  6
CONTINUOUS
100
AcDbLine
 10
166.9999983144989
 20
247.3570262937131
 30
0.0
 11
166.969450225255
 21
246.4156810786615
 31
0.0
  0
ARC
  5
14288
330
3E7
100
AcDbEntity
  8
DETAIL
100
AcDbCircle
 10
167.4665276217383
 20
212.5359508574641
 30
0.0
 40
2.044762441566529
100
AcDbArc
 50
325.6179872038018
 51
34.38201358339723
  0
ARC
  5
14289
330
3E7
100
AcDbEntity
  8
DETAIL
100
AcDbCircle
 10
161.8679012509545
 20
216.0000621471258
 30
0.0
 40
7.643388793156777
100
AcDbArc
 50
342.4134706291253
 51
17.58653015811686
  0
ARC
  5
1428A
330
3E7
100
AcDbEntity
  8
DETAIL
100
AcDbCircle
 10
167.4665276054328
 20
219.4641735137138
 30
0.0
 40
2.044762415743188
100
AcDbArc
 50
325.6179867087606
 51
34.3820140784385
  0
LINE
  5
1428B
330
3E7
100
AcDbEntity
  8
DETAIL
  6
CONTINUOUS
100
AcDbLine
 10
165.4999984886762
 20
222.0000316545036
 30
0.0
 11
164.9999984886834
 21
222.0000316510686
 31
0.0
  0
LINE
  5
1428C
330
3E7
100
AcDbEntity
  8
DETAIL
  6
CONTINUOUS
100
AcDbLine
 10
165.4999985711109
 20
210.0000316545009
 30
0.0
 11
164.9999985711183
 21
210.0000316510659
 31
0.0
  0
LINE
  5
1428D
330
3E7
100
AcDbEntity
  8
DETAIL
  6
CONTINUOUS
100
AcDbLine
 10
166.1999496674288
 20
221.0000316593081
 30
0.0
 11
165.4999984955464
 21
221.0000316545
 31
0.0
  0
LINE
  5
1428E
330
3E7
100
AcDbEntity
  8
DETAIL
  6
CONTINUOUS
100
AcDbLine
 10
166.1999497361248
 20
211.0000316593082
 30
0.0
 11
165.4999985642425
 21
211.0000316545
 31
0.0
  0
LINE
  5
1428F
330
3E7
100
AcDbEntity
  8
DETAIL
  6
CONTINUOUS
100
AcDbLine
 10
169.1540512960051
 20
211.38125726554
 30
0.0
 11
169.799986346921
 21
212.5000316840401
 31
0.0
  0
LINE
  5
14290
330
3E7
100
AcDbEntity
  8
DETAIL
  6
CONTINUOUS
100
AcDbLine
 10
169.1540512325464
 20
220.6188671288205
 30
0.0
 11
169.7999862988343
 21
219.5000316840428
 31
0.0
  0
LINE
  5
14291
330
3E7
100
AcDbEntity
  8
DETAIL
  6
CONTINUOUS
100
AcDbLine
 10
166.2499984957485
 20
220.9715892768431
 30
0.0
 11
166.1999496674288
 21
221.0000316593081
 31
0.0
  0
LINE
  5
14292
330
3E7
100
AcDbEntity
  8
DETAIL
  6
CONTINUOUS
100
AcDbLine
 10
166.2499985640533
 20
211.0285350776224
 30
0.0
 11
166.1999497361248
 21
211.0000316593082
 31
0.0
  0
LINE
  5
14293
330
3E7
100
AcDbEntity
  8
DETAIL
  6
CONTINUOUS
100
AcDbLine
 10
166.2865586223996
 20
211.0650341013097
 30
0.0
 11
166.2499985640533
 21
211.0285350776224
 31
0.0
  0
LINE
  5
14294
330
3E7
100
AcDbEntity
  8
DETAIL
  6
CONTINUOUS
100
AcDbLine
 10
166.2999863565
 20
211.1050121287453
 30
0.0
 11
166.2865586223996
 21
211.0650341013097
 31
0.0
  0
LINE
  5
14295
330
3E7
100
AcDbEntity
  8
DETAIL
  6
CONTINUOUS
100
AcDbLine
 10
166.2634262302472
 20
220.9536449409942
 30
0.0
 11
166.2499984957485
 21
220.9715892768431
 31
0.0
  0
LINE
  5
14296
330
3E7
100
AcDbEntity
  8
DETAIL
  6
CONTINUOUS
100
AcDbLine
 10
166.2865585545969
 20
220.9350902536543
 30
0.0
 11
166.2634262302472
 21
220.9536449409942
 31
0.0
  0
LINE
  5
14297
330
3E7
100
AcDbEntity
  8
DETAIL
  6
CONTINUOUS
100
AcDbLine
 10
166.2999862895173
 20
220.8556835154638
 30
0.0
 11
166.2865585545969
 21
220.9350902536543
 31
0.0
  0
LINE
  5
14298
330
3E7
100
AcDbEntity
  8
DETAIL
  6
CONTINUOUS
100
AcDbLine
 10
169.1540512484116
 20
218.3094799217919
 30
0.0
 11
166.299986307009
 21
218.309479902185
 31
0.0
  0
LINE
  5
14299
330
3E7
100
AcDbEntity
  8
DETAIL
  6
CONTINUOUS
100
AcDbLine
 10
169.1540512325464
 20
220.6188671288205
 30
0.0
 11
166.2999862911434
 21
220.6188671092141
 31
0.0
  0
LINE
  5
1429A
330
3E7
100
AcDbEntity
  8
DETAIL
  6
CONTINUOUS
100
AcDbLine
 10
169.15405128014
 20
213.6906444725731
 30
0.0
 11
166.2999863387375
 21
213.6906444529667
 31
0.0
  0
LINE
  5
1429B
330
3E7
100
AcDbEntity
  8
DETAIL
  6
CONTINUOUS
100
AcDbLine
 10
169.7999862988343
 20
219.5000316840428
 30
0.0
 11
169.799986346921
 21
212.5000316840401
 31
0.0
  0
LINE
  5
1429C
330
3E7
100
AcDbEntity
  8
DETAIL
  6
CONTINUOUS
100
AcDbLine
 10
169.1540512960051
 20
211.38125726554
 30
0.0
 11
166.2999863546028
 21
211.3812572459337
 31
0.0
  0
LINE
  5
1429D
330
3E7
100
AcDbEntity
  8
DETAIL
  6
CONTINUOUS
100
AcDbLine
 10
166.2999862895173
 20
220.8556835154638
 30
0.0
 11
166.2999863565
 21
211.1050121287453
 31
0.0
  0
LINE
  5
1429E
330
3E7
100
AcDbEntity
  8
DETAIL
  6
CONTINUOUS
100
AcDbLine
 10
165.4999984886762
 20
222.0000316545036
 30
0.0
 11
165.4999985711109
 21
210.0000316545009
 31
0.0
  0
LINE
  5
1429F
330
3E7
100
AcDbEntity
  8
BASIS
100
AcDbLine
 10
233.4845160768508
 20
369.0000238147721
 30
0.0
 11
126.7878723431113
 21
369.0000230818081
 31
0.0
  0
LINE
  5
142A5
330
3E7
100
AcDbEntity
  8
DETAIL
  6
CONTINUOUS
100
AcDbLine
 10
-196.4000015671044
 20
7.999998650808263
 30
0.0
 11
-167.1320572311759
 21
7.999998851869802
 31
0.0
  0
LINE
  5
142A6
330
3E7
100
AcDbEntity
  8
DETAIL
  6
CONTINUOUS
100
AcDbLine
 10
-166.299988051287
 20
39.60494880875558
 30
0.0
 11
-166.2999881182713
 21
49.35565071305518
 31
0.0
  0
LINE
  5
142A7
330
3E7
100
AcDbEntity
  8
DETAIL
  6
CONTINUOUS
100
AcDbLine
 10
-169.7999880608749
 20
40.99999883354394
 30
0.0
 11
-169.7999881089615
 21
47.99999883354209
 31
0.0
  0
LINE
  5
142A8
330
3E7
100
AcDbEntity
  8
DETAIL
  6
CONTINUOUS
100
AcDbLine
 10
-165.5000002507349
 20
38.49999886308296
 30
0.0
 11
-165.5000003331714
 21
50.49999886308114
 31
0.0
  0
LINE
  5
142A9
330
3E7
100
AcDbEntity
  8
DETAIL
  6
CONTINUOUS
100
AcDbLine
 10
-169.1540529946069
 20
39.88119390634256
 30
0.0
 11
-166.2999880531879
 21
39.88119392594853
 31
0.0
  0
LINE
  5
142AA
330
3E7
100
AcDbEntity
  8
DETAIL
  6
CONTINUOUS
100
AcDbLine
 10
-169.1540530104703
 20
42.19061163094738
 30
0.0
 11
-166.2999880690513
 21
42.19061165055335
 31
0.0
  0
LINE
  5
142AB
330
3E7
100
AcDbEntity
  8
DETAIL
  6
CONTINUOUS
100
AcDbLine
 10
-169.1540530580659
 20
49.1188037696229
 30
0.0
 11
-166.299988116647
 21
49.11880378922887
 31
0.0
  0
LINE
  5
142AC
330
3E7
100
AcDbEntity
  8
DETAIL
  6
CONTINUOUS
100
AcDbLine
 10
-169.1540530422004
 20
46.80941656258982
 30
0.0
 11
-166.2999881007817
 21
46.80941658219579
 31
0.0
  0
LINE
  5
142AD
330
3E7
100
AcDbEntity
  8
DETAIL
  6
CONTINUOUS
100
AcDbLine
 10
-166.2999881182713
 20
49.35565071305518
 30
0.0
 11
-166.2865909020274
 21
49.43505745142965
 31
0.0
  0
LINE
  5
142AE
330
3E7
100
AcDbEntity
  8
DETAIL
  6
CONTINUOUS
100
AcDbLine
 10
-166.2865909020274
 20
49.43505745142965
 30
0.0
 11
-166.263428060365
 21
49.45358162150704
 31
0.0
  0
LINE
  5
142AF
330
3E7
100
AcDbEntity
  8
DETAIL
  6
CONTINUOUS
100
AcDbLine
 10
-166.263428060365
 20
49.45358162150704
 30
0.0
 11
-166.2500003261138
 21
49.47155647511682
 31
0.0
  0
LINE
  5
142B0
330
3E7
100
AcDbEntity
  8
DETAIL
  6
CONTINUOUS
100
AcDbLine
 10
-166.1999819470546
 20
39.49999885827356
 30
0.0
 11
-166.2500002578089
 21
39.52847175831994
 31
0.0
  0
LINE
  5
142B1
330
3E7
100
AcDbEntity
  8
DETAIL
  6
CONTINUOUS
100
AcDbLine
 10
-166.2500002578089
 20
39.52847175831994
 30
0.0
 11
-166.2806704240099
 21
39.55557136748302
 31
0.0
  0
LINE
  5
142B2
330
3E7
100
AcDbEntity
  8
DETAIL
  6
CONTINUOUS
100
AcDbLine
 10
-166.2806704240099
 20
39.55557136748302
 30
0.0
 11
-166.299988051287
 21
39.60494880875558
 31
0.0
  0
LINE
  5
142B3
330
3E7
100
AcDbEntity
  8
DETAIL
  6
CONTINUOUS
100
AcDbLine
 10
-166.2500003261138
 20
49.47155647511682
 30
0.0
 11
-166.1999820157507
 21
49.49999885827356
 31
0.0
  0
LINE
  5
142B4
330
3E7
100
AcDbEntity
  8
DETAIL
  6
CONTINUOUS
100
AcDbLine
 10
-169.1540529946069
 20
39.88119390634256
 30
0.0
 11
-169.7999880608749
 21
40.99999883354394
 31
0.0
  0
LINE
  5
142B5
330
3E7
100
AcDbEntity
  8
DETAIL
  6
CONTINUOUS
100
AcDbLine
 10
-169.1540530580659
 20
49.1188037696229
 30
0.0
 11
-169.7999881089615
 21
47.99999883354209
 31
0.0
  0
LINE
  5
142B6
330
3E7
100
AcDbEntity
  8
DETAIL
  6
CONTINUOUS
100
AcDbLine
 10
-166.1999819470546
 20
39.49999885827356
 30
0.0
 11
-165.5000002576052
 21
39.49999886308205
 31
0.0
  0
LINE
  5
142B7
330
3E7
100
AcDbEntity
  8
DETAIL
  6
CONTINUOUS
100
AcDbLine
 10
-166.1999820157507
 20
49.49999885827356
 30
0.0
 11
-165.5000003263012
 21
49.49999886308205
 31
0.0
  0
LINE
  5
142B8
330
3E7
100
AcDbEntity
  8
DETAIL
  6
CONTINUOUS
100
AcDbLine
 10
-165.5000002507349
 20
38.49999886308296
 30
0.0
 11
-165.000000250742
 21
38.49999886651811
 31
0.0
  0
LINE
  5
142B9
330
3E7
100
AcDbEntity
  8
DETAIL
  6
CONTINUOUS
100
AcDbLine
 10
-165.5000003331714
 20
50.49999886308114
 30
0.0
 11
-165.0000003331788
 21
50.4999988665163
 31
0.0
  0
ARC
  5
142BA
330
3E7
100
AcDbEntity
  8
DETAIL
100
AcDbCircle
 10
-167.4667040608983
 20
47.96411017769831
 30
0.0
 40
2.044618284539545
100
AcDbArc
 50
145.6152229987064
 51
214.3847777885134
  0
ARC
  5
142BB
330
3E7
100
AcDbEntity
  8
DETAIL
100
AcDbCircle
 10
-161.8686544903539
 20
44.50001414681582
 30
0.0
 40
7.642667831145472
100
AcDbArc
 50
162.4118774770995
 51
197.588123310093
  0
ARC
  5
142BC
330
3E7
100
AcDbEntity
  8
DETAIL
100
AcDbCircle
 10
-167.4666547047579
 20
41.03590278023648
 30
0.0
 40
2.044667594508958
100
AcDbArc
 50
145.6156504574601
 51
214.3843503297385
  0
LINE
  5
142BF
330
3E7
100
AcDbEntity
  8
DETAIL
  6
CONTINUOUS
100
AcDbLine
 10
-165.0000001717415
 20
26.9999988665172
 30
0.0
 11
-165.0000012502714
 21
184.0000293840962
 31
0.0
  0
ARC
  5
142C1
330
3E7
100
AcDbEntity
  8
DETAIL
  6
CONTINUOUS
100
AcDbCircle
 10
-163.9999965199729
 20
27.00001579184345
 30
0.0
 40
1.000003651910742
100
AcDbArc
 50
180.0009697462539
 51
261.8177758976666
  0
LINE
  5
142C2
330
3E7
100
AcDbEntity
  8
DETAIL
  6
CONTINUOUS
100
AcDbLine
 10
-164.5339737453759
 20
9.499998869718636
 30
0.0
 11
-156.4510728405694
 21
23.49999892524101
 31
0.0
  0
ARC
  5
142C3
330
3E7
100
AcDbEntity
  8
DETAIL
  6
CONTINUOUS
100
AcDbCircle
 10
-153.8530050763855
 20
22.00001359191899
 30
0.0
 40
2.999985351213464
100
AcDbArc
 50
89.99969973802299
 51
150.0001619211793
  0
ARC
  5
142C4
330
3E7
100
AcDbEntity
  8
DETAIL
  6
CONTINUOUS
100
AcDbCircle
 10
-141.3811688068181
 20
25.20000312860929
 30
0.0
 40
3.200004100020294
100
AcDbArc
 50
209.999285641926
 51
269.9993907257407
  0
ARC
  5
142C5
330
3E7
100
AcDbEntity
  8
DETAIL
  6
CONTINUOUS
100
AcDbCircle
 10
-145.9999753677675
 20
23.20000564999691
 30
0.0
 40
1.799993347122213
100
AcDbArc
 50
30.00122415634713
 51
90.00054624865267
  0
LINE
  5
142C6
330
3E7
100
AcDbEntity
  8
DETAIL
  6
CONTINUOUS
100
AcDbLine
 10
-144.4411546318115
 20
24.10003562883912
 30
0.0
 11
-144.152473598089
 21
23.600035630825
 31
0.0
  0
ARC
  5
142C7
330
3E7
100
AcDbEntity
  8
DETAIL
  6
CONTINUOUS
100
AcDbCircle
 10
-167.1320591164676
 20
11.0000146991574
 30
0.0
 40
3.000015847289091
100
AcDbArc
 50
270.0000360061325
 51
329.9998256530221
  0
LINE
  5
142C8
330
3E7
100
AcDbEntity
  8
DETAIL
  6
CONTINUOUS
100
AcDbLine
 10
-159.7999955302148
 20
17.69952282801659
 30
0.0
 11
-159.7999955872364
 21
25.99999890223534
 31
0.0
  0
LINE
  5
142C9
330
3E7
100
AcDbEntity
  8
DETAIL
  6
CONTINUOUS
100
AcDbLine
 10
-158.2000047045367
 20
20.47076307338192
 30
0.0
 11
-158.2000047425208
 21
25.99999891322659
 31
0.0
  0
LINE
  5
142CA
330
3E7
100
AcDbEntity
  8
DETAIL
  6
CONTINUOUS
100
AcDbLine
 10
-157.5381013611694
 20
25.99999891777815
 30
0.0
 11
-156.2477265899524
 21
23.76501357507732
 31
0.0
  0
ARC
  5
142CB
330
3E7
100
AcDbEntity
  8
DETAIL
100
AcDbCircle
 10
-154.9713814030964
 20
28.50322886991625
 30
0.0
 40
3.506101695200711
100
AcDbArc
 50
225.5583491655734
 51
267.6808487485696
  0
LINE
  5
142D7
330
3E7
100
AcDbEntity
  8
BASIS
100
AcDbLine
 10
-180.4000092592776
 20
17.13835448422742
 30
0.0
 11
-180.4000090427125
 21
-14.38666688040848
 31
0.0
  0
LINE
  5
142DF
330
3E7
100
AcDbEntity
  8
DETAIL
  6
CONTINUOUS
100
AcDbLine
 10
36.71929916802401
 20
23.60003687334346
 30
0.0
 11
35.5480192688392
 21
22.4287111817025
 31
0.0
  0
LINE
  5
142E0
330
3E7
100
AcDbEntity
  8
DETAIL
  6
CONTINUOUS
100
AcDbLine
 10
35.5480192688392
 20
22.4287111817025
 30
0.0
 11
33.94802079766487
 21
22.00000023321217
 31
0.0
  0
LINE
  5
142E1
330
3E7
100
AcDbEntity
  8
DETAIL
100
AcDbLine
 10
36.71929916802401
 20
23.60003687334346
 30
0.0
 11
37.97080977852056
 21
25.00000026084899
 31
0.0
  0
LINE
  5
142FD
330
3E7
100
AcDbEntity
  8
DETAIL
  6
CONTINUOUS
100
AcDbLine
 10
10.69999678336898
 20
26.00000007350809
 30
0.0
 11
-164.1423188905499
 21
26.01019174350585
 31
0.0
  0
LINE
  5
142FE
330
3E7
100
AcDbEntity
  8
DETAIL
  6
CONTINUOUS
100
AcDbLine
 10
33.94802079766487
 20
22.00000023321217
 30
0.0
 11
-141.381202835151
 21
21.99999902876878
 31
0.0
  0
ARC
  5
142FF
330
3E7
100
AcDbEntity
  8
DETAIL
  6
CONTINUOUS
100
AcDbCircle
 10
-196.4000110239267
 20
5.000008128239186
 30
0.0
 40
2.999990522584048
100
AcDbArc
 50
89.99981938743756
 51
180.0001813997876
  0
LINE
  5
14300
330
3E7
100
AcDbEntity
  8
DETAIL
  6
CONTINUOUS
100
AcDbLine
 10
-194.4000015121455
 20
-0.0000013354519979
 30
0.0
 11
-194.4000015258843
 21
1.999998664550729
 31
0.0
  0
LINE
  5
14301
330
3E7
100
AcDbEntity
  8
DETAIL
  6
CONTINUOUS
100
AcDbLine
 10
-199.4000015258843
 20
1.999998630202298
 30
0.0
 11
-199.4000015464934
 21
4.99999863019957
 31
0.0
  0
LINE
  5
14302
330
3E7
100
AcDbEntity
  8
DETAIL
  6
CONTINUOUS
100
AcDbLine
 10
-194.4000015258843
 20
1.999998664550729
 30
0.0
 11
-199.4000015258843
 21
1.999998630202298
 31
0.0
  0
LINE
  5
14312
330
3E7
100
AcDbEntity
  8
DETAIL
100
AcDbLine
 10
-167.0000016812955
 20
246.7426746340315
 30
0.0
 11
-165.0000016504924
 21
242.2573841204247
 31
0.0
  0
ARC
  5
14334
330
3E7
100
AcDbEntity
  8
DETAIL
100
AcDbCircle
 10
183.9999952081598
 20
699.5410688642654
 30
0.0
 40
6.0
100
AcDbArc
 50
270.0000003935985
 51
0.000000393599439
  0
LINE
  5
14335
330
3E7
100
AcDbEntity
  8
DETAIL
100
AcDbLine
 10
166.9999952493889
 20
693.5410687474828
 30
0.0
 11
183.999995249378
 21
693.5410688642654
 31
0.0
  0
ARC
  5
14336
330
3E7
100
AcDbEntity
  8
DETAIL
100
AcDbCircle
 10
183.9999953996974
 20
671.6589673284666
 30
0.0
 40
6.0
100
AcDbArc
 50
0.0000003935995917
 51
90.00000039359958
  0
LINE
  5
14337
330
3E7
100
AcDbEntity
  8
DETAIL
100
AcDbLine
 10
166.9999953584919
 20
677.6589672116837
 30
0.0
 11
183.9999953584792
 21
677.6589673284662
 31
0.0
  0
LINE
  5
14338
330
3E7
100
AcDbEntity
  8
DETAIL
  6
CONTINUOUS
100
AcDbLine
 10
94.80006581565612
 20
599.4001234840989
 30
0.0
 11
94.80006612478971
 21
554.4001234840989
 31
0.0
  0
LINE
  5
14339
330
3E7
100
AcDbEntity
  8
DETAIL
  6
CONTINUOUS
100
AcDbLine
 10
88.00006276389831
 20
599.4001234373854
 30
0.0
 11
88.00006307303192
 21
554.4001234373854
 31
0.0
  0
ARC
  5
1433A
330
3E7
100
AcDbEntity
  8
DETAIL
  6
CONTINUOUS
100
AcDbCircle
 10
100.000061409064
 20
554.4001218558499
 30
0.0
 40
11.9999983360275
100
AcDbArc
 50
179.9999924487208
 51
270.0000083385303
  0
ARC
  5
1433B
330
3E7
100
AcDbEntity
  8
DETAIL
  6
CONTINUOUS
100
AcDbCircle
 10
100.0000647305787
 20
599.4001215531383
 30
0.0
 40
12.0000019666824
100
AcDbArc
 50
90.00000978385903
 51
179.9999910033919
  0
ARC
  5
1433C
330
3E7
100
AcDbEntity
  8
DETAIL
  6
CONTINUOUS
100
AcDbCircle
 10
100.0000647305787
 20
599.4001215531383
 30
0.0
 40
5.199998914925261
100
AcDbArc
 50
90.00002206331688
 51
179.9999787238562
  0
ARC
  5
1433D
330
3E7
100
AcDbEntity
  8
DETAIL
  6
CONTINUOUS
100
AcDbCircle
 10
100.000061409064
 20
554.4001218558499
 30
0.0
 40
5.199995284270737
100
AcDbArc
 50
179.9999820592221
 51
270.0000187279508
  0
ARC
  5
1433E
330
3E7
100
AcDbEntity
  8
DETAIL
  6
CONTINUOUS
100
AcDbCircle
 10
165.2929038551735
 20
542.9000277381668
 30
0.0
 40
0.5000021888264758
100
AcDbArc
 50
269.9982683623256
 51
314.9985983245666
  0
LINE
  5
1433F
330
3E7
100
AcDbEntity
  8
DETAIL
  6
CONTINUOUS
100
AcDbLine
 10
165.6464501440805
 20
542.5464641506305
 30
0.0
 11
167.7071038164558
 21
544.6071331101006
 31
0.0
  0
LINE
  5
14340
330
3E7
100
AcDbEntity
  8
DETAIL
  6
CONTINUOUS
100
AcDbLine
 10
100.0000631554812
 20
542.4001235198228
 30
0.0
 11
165.2928886814879
 21
542.4000255495707
 31
0.0
  0
LINE
  5
14341
330
3E7
100
AcDbEntity
  8
DETAIL
  6
CONTINUOUS
100
AcDbLine
 10
100.0000607349466
 20
549.2001209677663
 30
0.0
 11
166.2395363413143
 21
549.1618511175943
 31
0.0
  0
ARC
  5
14342
330
3E7
100
AcDbEntity
  8
DETAIL
  6
CONTINUOUS
100
AcDbCircle
 10
166.999997809642
 20
545.3142384849538
 30
0.0
 40
0.9999984580013688
100
AcDbArc
 50
315.0000256028592
 51
0.0001243951024234
  0
ARC
  5
14343
330
3E7
100
AcDbEntity
  8
DETAIL
  6
CONTINUOUS
100
AcDbCircle
 10
166.0425443617368
 20
547.2142846087304
 30
0.0
 40
1.957503804968423
100
AcDbArc
 50
359.5827261178561
 51
84.22430389026919
  0
LINE
  5
14344
330
3E7
100
AcDbEntity
  8
DETAIL
  6
CONTINUOUS
100
AcDbLine
 10
165.9999958603748
 20
604.6000225026667
 30
0.0
 11
149.9999958603712
 21
604.6000223927531
 31
0.0
  0
LINE
  5
14345
330
3E7
100
AcDbEntity
  8
DETAIL
  6
CONTINUOUS
100
AcDbLine
 10
165.2928882697124
 20
611.4000255495668
 30
0.0
 11
149.9999958136575
 21
611.4000254445109
 31
0.0
  0
LINE
  5
14346
330
3E7
100
AcDbEntity
  8
DETAIL
  6
CONTINUOUS
100
AcDbLine
 10
149.9999958603712
 20
604.6000223927531
 30
0.0
 11
100.0000704065514
 21
604.6001225691402
 31
0.0
  0
LINE
  5
14347
330
3E7
100
AcDbEntity
  8
DETAIL
  6
CONTINUOUS
100
AcDbLine
 10
100.0000713522785
 20
611.400126566627
 30
0.0
 11
149.9999958136575
 21
611.4000254445109
 31
0.0
  0
ARC
  5
14348
330
3E7
100
AcDbEntity
  8
DETAIL
  6
CONTINUOUS
100
AcDbCircle
 10
166.9999948084478
 20
608.4858115742522
 30
0.0
 40
1.000001025243839
100
AcDbArc
 50
359.9999373197165
 51
44.99991425675314
  0
ARC
  5
14349
330
3E7
100
AcDbEntity
  8
DETAIL
  6
CONTINUOUS
100
AcDbCircle
 10
165.2928877967169
 20
610.9000225576231
 30
0.0
 40
0.5000029919483456
100
AcDbArc
 50
44.99896783179166
 51
89.99994579877697
  0
LINE
  5
1434A
330
3E7
100
AcDbEntity
  8
DETAIL
  6
CONTINUOUS
100
AcDbLine
 10
165.646449672089
 20
611.2535716945767
 30
0.0
 11
167.707103372777
 21
609.1929180222063
 31
0.0
  0
ARC
  5
1434B
330
3E7
100
AcDbEntity
  8
DETAIL
  6
CONTINUOUS
100
AcDbCircle
 10
165.9999962874316
 20
606.6000220618692
 30
0.0
 40
1.999999559201159
100
AcDbArc
 50
269.9999877656287
 51
0.0000130215965479
  0
LINE
  5
1434C
330
3E7
100
AcDbEntity
  8
DETAIL
  6
CONTINUOUS
100
AcDbLine
 10
167.9999958336884
 20
608.4858104802743
 30
0.0
 11
167.9999962676409
 21
545.3142406560552
 31
0.0
  0
LINE
  5
1434D
330
3E7
100
AcDbEntity
  8
DETAIL
  6
CONTINUOUS
100
AcDbLine
 10
-94.79996428864614
 20
599.400147868303
 30
0.0
 11
-94.79996397951254
 21
554.4001478683028
 31
0.0
  0
LINE
  5
1434E
330
3E7
100
AcDbEntity
  8
DETAIL
  6
CONTINUOUS
100
AcDbLine
 10
-87.99996123688833
 20
599.4001479150165
 30
0.0
 11
-87.99996092775472
 21
554.4001479150165
 31
0.0
  0
ARC
  5
1434F
330
3E7
100
AcDbEntity
  8
DETAIL
  6
CONTINUOUS
100
AcDbCircle
 10
-99.99995926378687
 20
554.4001461686105
 30
0.0
 40
11.9999983360275
100
AcDbArc
 50
269.9999924486689
 51
0.0000083384782189
  0
ARC
  5
14350
330
3E7
100
AcDbEntity
  8
DETAIL
  6
CONTINUOUS
100
AcDbCircle
 10
-99.99996320356878
 20
599.4001458658989
 30
0.0
 40
12.0000019666824
100
AcDbArc
 50
0.0000097838069453
 51
89.99999100334013
  0
ARC
  5
14351
330
3E7
100
AcDbEntity
  8
DETAIL
  6
CONTINUOUS
100
AcDbCircle
 10
-99.99996320356878
 20
599.4001458658989
 30
0.0
 40
5.199998914925261
100
AcDbArc
 50
0.0000220633429412
 51
89.99997872388231
  0
ARC
  5
14352
330
3E7
100
AcDbEntity
  8
DETAIL
  6
CONTINUOUS
100
AcDbCircle
 10
-99.99995926378687
 20
554.4001461686105
 30
0.0
 40
5.199995284270737
100
AcDbArc
 50
269.9999820592482
 51
0.0000187279769743
  0
LINE
  5
14353
330
3E7
100
AcDbEntity
  8
DETAIL
  6
CONTINUOUS
100
AcDbLine
 10
-99.99996802626991
 20
542.4001447857726
 30
0.0
 11
-165.2928922914725
 21
542.4000232785756
 31
0.0
  0
LINE
  5
14354
330
3E7
100
AcDbEntity
  8
DETAIL
  6
CONTINUOUS
100
AcDbLine
 10
-99.99996708053732
 20
549.200148783261
 30
0.0
 11
-166.2395400442019
 21
549.1618488335935
 31
0.0
  0
LINE
  5
14355
330
3E7
100
AcDbEntity
  8
DETAIL
  6
CONTINUOUS
100
AcDbLine
 10
-150.0000003249351
 20
604.6000203318704
 30
0.0
 11
-99.99996056327109
 21
604.6001503846354
 31
0.0
  0
LINE
  5
14356
330
3E7
100
AcDbEntity
  8
DETAIL
  6
CONTINUOUS
100
AcDbLine
 10
-99.9999613193122
 20
611.4001478325812
 30
0.0
 11
-150.0000003716486
 21
611.4000233836281
 31
0.0
  0
ARC
  5
14357
330
3E7
100
AcDbEntity
  8
DETAIL
  6
CONTINUOUS
100
AcDbCircle
 10
-166.042548037867
 20
547.2142823274362
 30
0.0
 40
1.957503804968423
100
AcDbArc
 50
95.77569689692998
 51
180.4172746693429
  0
LINE
  5
14358
330
3E7
100
AcDbEntity
  8
DETAIL
  6
CONTINUOUS
100
AcDbLine
 10
-168.0000003516397
 20
608.4858081720852
 30
0.0
 11
-167.9999999176652
 21
545.314238347866
 31
0.0
  0
ARC
  5
14359
330
3E7
100
AcDbEntity
  8
DETAIL
  6
CONTINUOUS
100
AcDbCircle
 10
-167.0000014596662
 20
545.3142361905046
 30
0.0
 40
0.9999984580013688
100
AcDbArc
 50
179.9998763920966
 51
224.9999751843399
  0
ARC
  5
1435A
330
3E7
100
AcDbEntity
  8
DETAIL
  6
CONTINUOUS
100
AcDbCircle
 10
-165.2929074720268
 20
542.9000254671717
 30
0.0
 40
0.5000021888264758
100
AcDbArc
 50
225.0014024626322
 51
270.0017324248735
  0
LINE
  5
1435B
330
3E7
100
AcDbEntity
  8
DETAIL
  6
CONTINUOUS
100
AcDbLine
 10
-165.6464537560768
 20
542.5464618747778
 30
0.0
 11
-167.7071074567629
 21
544.6071308059363
 31
0.0
  0
LINE
  5
1435C
330
3E7
100
AcDbEntity
  8
DETAIL
  6
CONTINUOUS
100
AcDbLine
 10
-166.0000003249388
 20
604.6000202219564
 30
0.0
 11
-150.0000003249351
 21
604.6000203318704
 31
0.0
  0
ARC
  5
1435D
330
3E7
100
AcDbEntity
  8
DETAIL
  6
CONTINUOUS
100
AcDbCircle
 10
-166.0000007794733
 20
606.600019781159
 30
0.0
 40
1.999999559201159
100
AcDbArc
 50
179.9999877656026
 51
270.0000130215705
  0
LINE
  5
1435E
330
3E7
100
AcDbEntity
  8
DETAIL
  6
CONTINUOUS
100
AcDbLine
 10
-165.6464542280682
 20
611.2535694187239
 30
0.0
 11
-167.7071079004416
 21
609.1929157180421
 31
0.0
  0
ARC
  5
1435F
330
3E7
100
AcDbEntity
  8
DETAIL
  6
CONTINUOUS
100
AcDbCircle
 10
-165.2928923478393
 20
610.9000202866281
 30
0.0
 40
0.5000029919483456
100
AcDbArc
 50
90.00005498842218
 51
135.0010329554071
  0
LINE
  5
14360
330
3E7
100
AcDbEntity
  8
DETAIL
  6
CONTINUOUS
100
AcDbLine
 10
-165.2928928277033
 20
611.400023278572
 30
0.0
 11
-150.0000003716486
 21
611.4000233836281
 31
0.0
  0
ARC
  5
14361
330
3E7
100
AcDbEntity
  8
DETAIL
  6
CONTINUOUS
100
AcDbCircle
 10
-166.999999326399
 20
608.4858092798031
 30
0.0
 40
1.000001025243839
100
AcDbArc
 50
135.0000865304459
 51
180.0000634674824
  0
LINE
  5
14365
330
3E7
100
AcDbEntity
  8
DETAIL
  6
CONTINUOUS
100
AcDbLine
 10
163.9999909623456
 20
1317.600037747723
 30
0.0
 11
-164.0000090376743
 21
1317.599974459333
 31
0.0
  0
LINE
  5
14366
330
3E7
100
AcDbEntity
  8
DETAIL
100
AcDbLine
 10
159.9999908222034
 20
1338.000001099147
 30
0.0
 11
-160.0000168071909
 21
1337.999998900872
 31
0.0
  0
ARC
  5
14367
330
3E7
100
AcDbEntity
  8
DETAIL
  6
CONTINUOUS
100
AcDbCircle
 10
167.9999874605673
 20
1049.842676249967
 30
0.0
 40
2.999994658931586
100
AcDbArc
 50
180.0004535787509
 51
225.0003929750489
  0
ARC
  5
14368
330
3E7
100
AcDbEntity
  8
DETAIL
  6
CONTINUOUS
100
AcDbCircle
 10
163.9999982811386
 20
1045.357368799875
 30
0.0
 40
2.99999455149649
100
AcDbArc
 50
0.0004527288596277
 51
45.00039382500982
  0
LINE
  5
14369
330
3E7
100
AcDbEntity
  8
DETAIL
  6
CONTINUOUS
100
AcDbLine
 10
165.8786854432583
 20
1047.721345133674
 30
0.0
 11
166.121300191018
 21
1047.478699871666
 31
0.0
  0
LINE
  5
1436A
330
3E7
100
AcDbEntity
  8
BASIS
100
AcDbLine
 10
223.4763666295275
 20
1001.000022104274
 30
0.0
 11
123.4482073512717
 21
1001.000021417119
 31
0.0
  0
ARC
  5
1436B
330
3E7
100
AcDbEntity
  8
DETAIL
100
AcDbCircle
 10
167.4665199786121
 20
1325.135956960989
 30
0.0
 40
2.044762441566529
100
AcDbArc
 50
325.6179872038018
 51
34.38201358339723
  0
ARC
  5
1436C
330
3E7
100
AcDbEntity
  8
DETAIL
100
AcDbCircle
 10
161.8678936078266
 20
1328.600068250651
 30
0.0
 40
7.643388793156777
100
AcDbArc
 50
342.4134706291253
 51
17.58653015811686
  0
ARC
  5
1436D
330
3E7
100
AcDbEntity
  8
DETAIL
100
AcDbCircle
 10
167.4665199623065
 20
1332.064179617239
 30
0.0
 40
2.044762415743188
100
AcDbArc
 50
325.6179867087606
 51
34.3820140784385
  0
LINE
  5
1436E
330
3E7
100
AcDbEntity
  8
DETAIL
  6
CONTINUOUS
100
AcDbLine
 10
165.4999908455502
 20
1334.600037758029
 30
0.0
 11
164.9999908455573
 21
1334.600037754594
 31
0.0
  0
LINE
  5
1436F
330
3E7
100
AcDbEntity
  8
DETAIL
  6
CONTINUOUS
100
AcDbLine
 10
165.4999909279849
 20
1322.600037758026
 30
0.0
 11
164.999990927992
 21
1322.600037754591
 31
0.0
  0
LINE
  5
14370
330
3E7
100
AcDbEntity
  8
DETAIL
  6
CONTINUOUS
100
AcDbLine
 10
166.1999420243009
 20
1333.600037762834
 30
0.0
 11
165.4999908524185
 21
1333.600037758025
 31
0.0
  0
LINE
  5
14371
330
3E7
100
AcDbEntity
  8
DETAIL
  6
CONTINUOUS
100
AcDbLine
 10
166.1999420929969
 20
1323.600037762834
 30
0.0
 11
165.4999909211146
 21
1323.600037758025
 31
0.0
  0
LINE
  5
14372
330
3E7
100
AcDbEntity
  8
DETAIL
  6
CONTINUOUS
100
AcDbLine
 10
169.1540436528794
 20
1323.981263369065
 30
0.0
 11
169.7999787037933
 21
1325.100037787565
 31
0.0
  0
LINE
  5
14373
330
3E7
100
AcDbEntity
  8
DETAIL
  6
CONTINUOUS
100
AcDbLine
 10
169.1540435894203
 20
1333.218873232346
 30
0.0
 11
169.7999786557065
 21
1332.100037787568
 31
0.0
  0
LINE
  5
14374
330
3E7
100
AcDbEntity
  8
DETAIL
  6
CONTINUOUS
100
AcDbLine
 10
166.2499908526223
 20
1333.571595380369
 30
0.0
 11
166.1999420243009
 21
1333.600037762834
 31
0.0
  0
LINE
  5
14375
330
3E7
100
AcDbEntity
  8
DETAIL
  6
CONTINUOUS
100
AcDbLine
 10
166.2499909209273
 20
1323.628541181148
 30
0.0
 11
166.1999420929969
 21
1323.600037762834
 31
0.0
  0
LINE
  5
14376
330
3E7
100
AcDbEntity
  8
DETAIL
  6
CONTINUOUS
100
AcDbLine
 10
166.2865509792734
 20
1323.665040204835
 30
0.0
 11
166.2499909209273
 21
1323.628541181148
 31
0.0
  0
LINE
  5
14377
330
3E7
100
AcDbEntity
  8
DETAIL
  6
CONTINUOUS
100
AcDbLine
 10
166.299978713374
 20
1323.705018232271
 30
0.0
 11
166.2865509792734
 21
1323.665040204835
 31
0.0
  0
LINE
  5
14378
330
3E7
100
AcDbEntity
  8
DETAIL
  6
CONTINUOUS
100
AcDbLine
 10
166.2634185871193
 20
1333.55365104452
 30
0.0
 11
166.2499908526223
 21
1333.571595380369
 31
0.0
  0
LINE
  5
14379
330
3E7
100
AcDbEntity
  8
DETAIL
  6
CONTINUOUS
100
AcDbLine
 10
166.2865509114708
 20
1333.535096357179
 30
0.0
 11
166.2634185871193
 21
1333.55365104452
 31
0.0
  0
LINE
  5
1437A
330
3E7
100
AcDbEntity
  8
DETAIL
  6
CONTINUOUS
100
AcDbLine
 10
166.2999786463896
 20
1333.45568961899
 30
0.0
 11
166.2865509114708
 21
1333.535096357179
 31
0.0
  0
LINE
  5
1437B
330
3E7
100
AcDbEntity
  8
DETAIL
  6
CONTINUOUS
100
AcDbLine
 10
169.1540436052834
 20
1330.909486025317
 30
0.0
 11
166.299978663881
 21
1330.909486005711
 31
0.0
  0
LINE
  5
1437C
330
3E7
100
AcDbEntity
  8
DETAIL
  6
CONTINUOUS
100
AcDbLine
 10
169.1540435894203
 20
1333.218873232346
 30
0.0
 11
166.2999786480176
 21
1333.218873212739
 31
0.0
  0
LINE
  5
1437D
330
3E7
100
AcDbEntity
  8
DETAIL
  6
CONTINUOUS
100
AcDbLine
 10
169.154043637014
 20
1326.290650576098
 30
0.0
 11
166.2999786956113
 21
1326.290650556492
 31
0.0
  0
LINE
  5
1437E
330
3E7
100
AcDbEntity
  8
DETAIL
  6
CONTINUOUS
100
AcDbLine
 10
169.7999786557065
 20
1332.100037787568
 30
0.0
 11
169.7999787037933
 21
1325.100037787565
 31
0.0
  0
LINE
  5
1437F
330
3E7
100
AcDbEntity
  8
DETAIL
  6
CONTINUOUS
100
AcDbLine
 10
169.1540436528794
 20
1323.981263369065
 30
0.0
 11
166.2999787114764
 21
1323.981263349459
 31
0.0
  0
LINE
  5
14380
330
3E7
100
AcDbEntity
  8
DETAIL
  6
CONTINUOUS
100
AcDbLine
 10
166.2999786463896
 20
1333.45568961899
 30
0.0
 11
166.299978713374
 21
1323.705018232271
 31
0.0
  0
LINE
  5
14381
330
3E7
100
AcDbEntity
  8
DETAIL
  6
CONTINUOUS
100
AcDbLine
 10
165.4999908455502
 20
1334.600037758029
 30
0.0
 11
165.4999909279849
 21
1322.600037758026
 31
0.0
  0
ARC
  5
14382
330
3E7
100
AcDbEntity
  8
DETAIL
  6
CONTINUOUS
100
AcDbCircle
 10
163.4999832455084
 20
1319.100008034034
 30
0.0
 40
1.500007706811639
100
AcDbArc
 50
300.0001703394003
 51
0.0011352359762984
  0
ARC
  5
14383
330
3E7
100
AcDbEntity
  8
DETAIL
  6
CONTINUOUS
100
AcDbCircle
 10
163.9999832017036
 20
1316.60002998021
 30
0.0
 40
1.000007767543177
100
AcDbArc
 50
0.0004454358536462
 51
89.99955535137161
  0
LINE
  5
14384
330
3E7
100
AcDbEntity
  8
DETAIL
  6
CONTINUOUS
100
AcDbLine
 10
163.9999909623546
 20
1317.600037747722
 30
0.0
 11
164.2499909609523
 21
1317.800965483816
 31
0.0
  0
LINE
  5
14385
330
3E7
100
AcDbEntity
  8
DETAIL
  6
CONTINUOUS
100
AcDbLine
 10
164.9999908455573
 20
1334.600037754594
 30
0.0
 11
164.9999909520356
 21
1319.100037754592
 31
0.0
  0
ARC
  5
14386
330
3E7
100
AcDbEntity
  8
DETAIL
  6
CONTINUOUS
100
AcDbCircle
 10
159.9999830890626
 20
1332.99999333166
 30
0.0
 40
5.000007767493124
100
AcDbArc
 50
0.0000894023161647
 51
89.99991138488303
  0
ARC
  5
14387
330
3E7
100
AcDbEntity
  8
DETAIL
100
AcDbCircle
 10
183.9999910529384
 20
1304.411622357767
 30
0.0
 40
6.0
100
AcDbArc
 50
0.000000393599439
 51
90.00000039359958
  0
LINE
  5
14388
330
3E7
100
AcDbEntity
  8
DETAIL
100
AcDbLine
 10
164.9999910117221
 20
1310.411622227248
 30
0.0
 11
183.9999910117221
 21
1310.411622357769
 31
0.0
  0
ARC
  5
14389
330
3E7
100
AcDbEntity
  8
DETAIL
  6
CONTINUOUS
100
AcDbCircle
 10
-174.0499958458931
 20
1196.108604217074
 30
0.0
 40
2.999984145325732
100
AcDbArc
 50
272.9998100190483
 51
359.9995480676412
  0
ARC
  5
1438A
330
3E7
100
AcDbEntity
  8
DETAIL
100
AcDbCircle
 10
-167.4666635260218
 20
1325.135939401344
 30
0.0
 40
2.044667594508958
100
AcDbArc
 50
145.6156504574601
 51
214.3843503297385
  0
ARC
  5
1438B
330
3E7
100
AcDbEntity
  8
DETAIL
100
AcDbCircle
 10
-161.8686633116194
 20
1328.600050767922
 30
0.0
 40
7.642667831145472
100
AcDbArc
 50
162.4118774770995
 51
197.588123310093
  0
ARC
  5
1438C
330
3E7
100
AcDbEntity
  8
DETAIL
100
AcDbCircle
 10
-167.4667128821619
 20
1332.064146798805
 30
0.0
 40
2.044618284539545
100
AcDbArc
 50
145.6152229987064
 51
214.3847777885134
  0
LINE
  5
1438D
330
3E7
100
AcDbEntity
  8
DETAIL
  6
CONTINUOUS
100
AcDbLine
 10
-165.5000091544351
 20
1334.600035484188
 30
0.0
 11
-165.0000091544425
 21
1334.600035487623
 31
0.0
  0
LINE
  5
1438E
330
3E7
100
AcDbEntity
  8
DETAIL
  6
CONTINUOUS
100
AcDbLine
 10
-165.5000090720004
 20
1322.60003548419
 30
0.0
 11
-165.0000090720076
 21
1322.600035487625
 31
0.0
  0
LINE
  5
1438F
330
3E7
100
AcDbEntity
  8
DETAIL
  6
CONTINUOUS
100
AcDbLine
 10
-166.199990837016
 20
1333.600035479381
 30
0.0
 11
-165.5000091475665
 21
1333.600035484189
 31
0.0
  0
LINE
  5
14390
330
3E7
100
AcDbEntity
  8
DETAIL
  6
CONTINUOUS
100
AcDbLine
 10
-166.1999907683201
 20
1323.600035479381
 30
0.0
 11
-165.5000090788707
 21
1323.600035484189
 31
0.0
  0
LINE
  5
14391
330
3E7
100
AcDbEntity
  8
DETAIL
  6
CONTINUOUS
100
AcDbLine
 10
-169.1540618793295
 20
1333.21884039073
 30
0.0
 11
-169.7999969302272
 21
1332.100035454649
 31
0.0
  0
LINE
  5
14392
330
3E7
100
AcDbEntity
  8
DETAIL
  6
CONTINUOUS
100
AcDbLine
 10
-169.1540618158706
 20
1323.98123052745
 30
0.0
 11
-169.7999968821404
 21
1325.100035454651
 31
0.0
  0
LINE
  5
14393
330
3E7
100
AcDbEntity
  8
DETAIL
  6
CONTINUOUS
100
AcDbLine
 10
-166.2500091473774
 20
1333.571593096223
 30
0.0
 11
-166.199990837016
 21
1333.600035479381
 31
0.0
  0
LINE
  5
14394
330
3E7
100
AcDbEntity
  8
DETAIL
  6
CONTINUOUS
100
AcDbLine
 10
-166.2806792452755
 20
1323.65560798859
 30
0.0
 11
-166.2999968725524
 21
1323.704985429863
 31
0.0
  0
LINE
  5
14395
330
3E7
100
AcDbEntity
  8
DETAIL
  6
CONTINUOUS
100
AcDbLine
 10
-166.2500090790727
 20
1323.628508379427
 30
0.0
 11
-166.2806792452755
 21
1323.65560798859
 31
0.0
  0
LINE
  5
14396
330
3E7
100
AcDbEntity
  8
DETAIL
  6
CONTINUOUS
100
AcDbLine
 10
-166.1999907683201
 20
1323.600035479381
 30
0.0
 11
-166.2500090790727
 21
1323.628508379427
 31
0.0
  0
LINE
  5
14397
330
3E7
100
AcDbEntity
  8
DETAIL
  6
CONTINUOUS
100
AcDbLine
 10
-166.2634368816288
 20
1333.553618242613
 30
0.0
 11
-166.2500091473774
 21
1333.571593096223
 31
0.0
  0
LINE
  5
14398
330
3E7
100
AcDbEntity
  8
DETAIL
  6
CONTINUOUS
100
AcDbLine
 10
-166.286599723291
 20
1333.535094072535
 30
0.0
 11
-166.2634368816288
 21
1333.553618242613
 31
0.0
  0
LINE
  5
14399
330
3E7
100
AcDbEntity
  8
DETAIL
  6
CONTINUOUS
100
AcDbLine
 10
-166.2999969395368
 20
1333.45568733416
 30
0.0
 11
-166.286599723291
 21
1333.535094072535
 31
0.0
  0
LINE
  5
1439A
330
3E7
100
AcDbEntity
  8
DETAIL
  6
CONTINUOUS
100
AcDbLine
 10
-169.1540618634644
 20
1330.909453183697
 30
0.0
 11
-166.2999969220454
 21
1330.909453203303
 31
0.0
  0
LINE
  5
1439B
330
3E7
100
AcDbEntity
  8
DETAIL
  6
CONTINUOUS
100
AcDbLine
 10
-169.1540618793295
 20
1333.21884039073
 30
0.0
 11
-166.2999969379104
 21
1333.218840410336
 31
0.0
  0
LINE
  5
1439C
330
3E7
100
AcDbEntity
  8
DETAIL
  6
CONTINUOUS
100
AcDbLine
 10
-169.1540618317358
 20
1326.290648252054
 30
0.0
 11
-166.2999968903168
 21
1326.290648271661
 31
0.0
  0
LINE
  5
1439D
330
3E7
100
AcDbEntity
  8
DETAIL
  6
CONTINUOUS
100
AcDbLine
 10
-169.1540618158706
 20
1323.98123052745
 30
0.0
 11
-166.2999968744516
 21
1323.981230547055
 31
0.0
  0
LINE
  5
1439E
330
3E7
100
AcDbEntity
  8
DETAIL
  6
CONTINUOUS
100
AcDbLine
 10
-165.5000090720004
 20
1322.60003548419
 30
0.0
 11
-165.5000091544351
 21
1334.600035484188
 31
0.0
  0
LINE
  5
1439F
330
3E7
100
AcDbEntity
  8
DETAIL
  6
CONTINUOUS
100
AcDbLine
 10
-169.7999968821404
 20
1325.100035454651
 30
0.0
 11
-169.7999969302272
 21
1332.100035454649
 31
0.0
  0
LINE
  5
143A0
330
3E7
100
AcDbEntity
  8
DETAIL
  6
CONTINUOUS
100
AcDbLine
 10
-166.2999968725524
 20
1323.704985429863
 30
0.0
 11
-166.2999969395368
 21
1333.45568733416
 31
0.0
  0
ARC
  5
143A1
330
3E7
100
AcDbEntity
  8
DETAIL
  6
CONTINUOUS
100
AcDbCircle
 10
-160.0000048879552
 20
1332.999987015989
 30
0.0
 40
5.000011884897076
100
AcDbArc
 50
90.00013658404482
 51
179.9998642032064
  0
LINE
  5
143A2
330
3E7
100
AcDbEntity
  8
DETAIL
  6
CONTINUOUS
100
AcDbLine
 10
-165.0000166773694
 20
1319.100035487621
 30
0.0
 11
-165.0000091544425
 21
1334.600035487623
 31
0.0
  0
ARC
  5
143A3
330
3E7
100
AcDbEntity
  8
DETAIL
  6
CONTINUOUS
100
AcDbCircle
 10
-163.5000027947005
 20
1319.100009353382
 30
0.0
 40
1.500013882898251
100
AcDbArc
 50
179.9990017547217
 51
239.9996942442832
  0
ARC
  5
143A4
330
3E7
100
AcDbEntity
  8
DETAIL
  6
CONTINUOUS
100
AcDbCircle
 10
-164.0000314779335
 20
1316.599996906477
 30
0.0
 40
0.9999775531100691
100
AcDbArc
 50
89.99871423821293
 51
180.0012865490123
  0
LINE
  5
143A5
330
3E7
100
AcDbEntity
  8
DETAIL
  6
CONTINUOUS
100
AcDbLine
 10
-164.2500166684385
 20
1317.800963227149
 30
0.0
 11
-164.0000089366111
 21
1317.599974459333
 31
0.0
  0
LINE
  5
143A6
330
3E7
100
AcDbEntity
  8
DETAIL
100
AcDbLine
 10
-166.9847425210664
 20
1303.313658520863
 30
0.0
 11
-165.0000089706445
 21
1307.842650233714
 31
0.0
  0
LINE
  5
143A7
330
3E7
100
AcDbEntity
  8
DETAIL
  6
CONTINUOUS
100
AcDbLine
 10
-179.761236098162
 20
1225.499995320621
 30
0.0
 11
-167.000008850813
 21
1225.499999038928
 31
0.0
  0
LINE
  5
143A8
330
3E7
100
AcDbEntity
  8
DETAIL
  6
CONTINUOUS
100
AcDbLine
 10
-179.8265121322471
 20
1222.499998950818
 30
0.0
 11
-167.000008830204
 21
1222.499999038932
 31
0.0
  0
ARC
  5
143A9
330
3E7
100
AcDbEntity
  8
DETAIL
100
AcDbCircle
 10
-179.1793028551345
 20
1223.986624861364
 30
0.0
 40
1.621399533208238
100
AcDbArc
 50
111.0331469249487
 51
246.4738825955923
  0
LINE
  5
143AC
330
3E7
100
AcDbEntity
  8
DETAIL
  6
CONTINUOUS
100
AcDbLine
 10
-175.3000118166983
 20
1213.000060017068
 30
0.0
 11
-175.3000118819582
 21
1222.499998981914
 31
0.0
  0
LINE
  5
143AD
330
3E7
100
AcDbEntity
  8
DETAIL
  6
CONTINUOUS
100
AcDbLine
 10
-177.8000118166983
 20
1213.000059999893
 30
0.0
 11
-177.8000118819582
 21
1222.49999896474
 31
0.0
  0
LINE
  5
143B1
330
3E7
100
AcDbEntity
  8
DETAIL
  6
CONTINUOUS
100
AcDbLine
 10
-183.0500118166946
 20
1212.999998928672
 30
0.0
 11
-171.0500118166874
 21
1212.999999011107
 31
0.0
  0
LINE
  5
143B2
330
3E7
100
AcDbEntity
  8
DETAIL
  6
CONTINUOUS
100
AcDbLine
 10
-183.0500117067803
 20
1196.999998928672
 30
0.0
 11
-171.0500117067731
 21
1196.999999011108
 31
0.0
  0
LINE
  5
143B3
330
3E7
100
AcDbEntity
  8
DETAIL
  6
CONTINUOUS
100
AcDbLine
 10
-177.0500117067767
 20
1196.99999896989
 30
0.0
 11
-177.050011816691
 21
1212.999998969888
 31
0.0
  0
LINE
  5
143B4
330
3E7
100
AcDbEntity
  8
DETAIL
  6
CONTINUOUS
100
AcDbLine
 10
-179.0500117205228
 20
1198.999998956149
 30
0.0
 11
-183.0500117205192
 21
1198.999998928671
 31
0.0
  0
LINE
  5
143B5
330
3E7
100
AcDbEntity
  8
DETAIL
  6
CONTINUOUS
100
AcDbLine
 10
-179.0500118029576
 20
1210.999998956152
 30
0.0
 11
-179.0500117205228
 21
1198.999998956149
 31
0.0
  0
LINE
  5
143B6
330
3E7
100
AcDbEntity
  8
DETAIL
  6
CONTINUOUS
100
AcDbLine
 10
-179.0500118029576
 20
1210.999998956152
 30
0.0
 11
-183.0500118029539
 21
1210.999998928673
 31
0.0
  0
LINE
  5
143B7
330
3E7
100
AcDbEntity
  8
DETAIL
  6
CONTINUOUS
100
AcDbLine
 10
-180.5500118029539
 20
1210.999998945847
 30
0.0
 11
-180.5500117205191
 21
1198.999998945845
 31
0.0
  0
LINE
  5
143B8
330
3E7
100
AcDbEntity
  8
DETAIL
  6
CONTINUOUS
100
AcDbLine
 10
-183.0500118922573
 20
1223.999995436539
 30
0.0
 11
-183.0500117006558
 21
1196.10858047164
 31
0.0
  0
LINE
  5
143B9
330
3E7
100
AcDbEntity
  8
DETAIL
  6
CONTINUOUS
100
AcDbLine
 10
-171.050011878513
 20
1221.999999011108
 30
0.0
 11
-175.3000118785238
 21
1221.999998981911
 31
0.0
  0
LINE
  5
143BA
330
3E7
100
AcDbEntity
  8
DETAIL
  6
CONTINUOUS
100
AcDbLine
 10
-177.8000118785239
 20
1221.999998964738
 30
0.0
 11
-179.0500118785239
 21
1221.99999895615
 31
0.0
  0
ARC
  5
143BB
330
3E7
100
AcDbEntity
  8
DETAIL
100
AcDbCircle
 10
-179.0500118922609
 20
1223.99999895615
 30
0.0
 40
2.000000000001364
100
AcDbArc
 50
90.00000039365168
 51
270.0000003935475
  0
LINE
  5
143BC
330
3E7
100
AcDbEntity
  8
DETAIL
  6
CONTINUOUS
100
AcDbLine
 10
-179.0500119060034
 20
1225.999998956152
 30
0.0
 11
-177.8000119060034
 21
1225.999998964738
 31
0.0
  0
LINE
  5
143BD
330
3E7
100
AcDbEntity
  8
DETAIL
  6
CONTINUOUS
100
AcDbLine
 10
-179.0500118351556
 20
1215.686766534274
 30
0.0
 11
-179.0500118785239
 21
1221.99999895615
 31
0.0
  0
ARC
  5
143BE
330
3E7
100
AcDbEntity
  8
DETAIL
100
AcDbCircle
 10
-184.0338309056205
 20
1216.085250533745
 30
0.0
 40
4.999724194891213
100
AcDbArc
 50
334.428499548028
 51
355.4286092981493
  0
LINE
  5
143BF
330
3E7
100
AcDbEntity
  8
DETAIL
  6
CONTINUOUS
100
AcDbLine
 10
-179.050011919742
 20
1227.99999895615
 30
0.0
 11
-174.4500058157225
 21
1227.927184046346
 31
0.0
  0
ARC
  5
143C0
330
3E7
100
AcDbEntity
  8
DETAIL
100
AcDbCircle
 10
-179.050008400136
 20
1223.999995464032
 30
0.0
 40
4.000003492118366
100
AcDbArc
 50
90.00000039352139
 51
180.0000003938111
  0
ARC
  5
143C1
330
3E7
100
AcDbEntity
  8
DETAIL
  6
CONTINUOUS
100
AcDbCircle
 10
-175.0500228874025
 20
1224.000005257222
 30
0.0
 40
4.000018921055627
100
AcDbArc
 50
34.61541674015082
 51
76.15367584371028
  0
LINE
  5
143C2
330
3E7
100
AcDbEntity
  8
DETAIL
  6
CONTINUOUS
100
AcDbLine
 10
-171.3527691657545
 20
1225.499999009026
 30
0.0
 11
-171.7580731261274
 21
1226.272276838276
 31
0.0
  0
LINE
  5
143C3
330
3E7
100
AcDbEntity
  8
DETAIL
  6
CONTINUOUS
100
AcDbLine
 10
-174.0927441577059
 20
1227.883788052705
 30
0.0
 11
-174.4500058157225
 21
1227.927184046346
 31
0.0
  0
ARC
  5
143C4
330
3E7
100
AcDbEntity
  8
DETAIL
  6
CONTINUOUS
100
AcDbCircle
 10
-180.0500145851983
 20
1196.108599588556
 30
0.0
 40
2.999997115517551
100
AcDbArc
 50
180.000365106561
 51
252.0001057574182
  0
LINE
  5
143C5
330
3E7
100
AcDbEntity
  8
DETAIL
  6
CONTINUOUS
100
AcDbLine
 10
-177.8000116792136
 20
1192.986571230361
 30
0.0
 11
-180.2070169901305
 21
1193.112730881793
 31
0.0
  0
LINE
  5
143C6
330
3E7
100
AcDbEntity
  8
DETAIL
  6
CONTINUOUS
100
AcDbLine
 10
-180.9770594105556
 20
1193.255431071817
 30
0.0
 11
-180.2070169901305
 21
1193.112730881793
 31
0.0
  0
LINE
  5
143C7
330
3E7
100
AcDbEntity
  8
DETAIL
  6
CONTINUOUS
100
AcDbLine
 10
-177.8000116792136
 20
1192.986571230361
 30
0.0
 11
-173.892998740626
 21
1193.112730925168
 31
0.0
  0
LINE
  5
143C8
330
3E7
100
AcDbEntity
  8
DETAIL
  6
CONTINUOUS
100
AcDbLine
 10
-171.0500118819469
 20
1222.49999901111
 30
0.0
 11
-171.0500117006613
 21
1196.108580554075
 31
0.0
  0
LINE
  5
15AD7
330
3E7
100
AcDbEntity
  8
BASIS
  6
DASHDOT
100
AcDbLine
 10
0.0
 20
-50.63582150517323
 30
0.0
 11
0.0
 21
1379.74572070575
 31
0.0
  0
LINE
  5
15AD9
330
3E7
100
AcDbEntity
  8
NOTE
  6
CONTINUOUS
100
AcDbLine
 10
994.471894858456
 20
-290.0777526975234
 30
0.0
 11
409.6650928584566
 21
-290.0777526975238
 31
0.0
  0
TEXT
  5
15ADA
330
3E7
100
AcDbEntity
  8
NOTE
  6
CONTINUOUS
100
AcDbText
 10
439.8973038584554
 20
-274.9754516975225
 30
0.0
 40
64.0
  1
AH 2-12×36
 41
0.9
100
AcDbText
  0
LINE
  5
15ADD
330
3E7
100
AcDbEntity
  8
NOTE
  6
CONTINUOUS
100
AcDbLine
 10
-400.4651111415442
 20
-290.0777552392783
 30
0.0
 11
-180.4000091415437
 21
-0.0000012392774806
 31
0.0
  0
POINT
  5
15ADF
330
3E7
100
AcDbEntity
  8
ARRANGE
  6
CONTINUOUS
100
AcDbPoint
 10
0.0
 20
0.0000014948263924
 30
0.0
  0
LINE
  5
15AE0
330
3E7
100
AcDbEntity
  8
NOTE
  6
CONTINUOUS
100
AcDbLine
 10
409.6650928584566
 20
-290.0777526975238
 30
0.0
 11
189.599990858456
 21
0.000001302477358
 31
0.0
  0
LINE
  5
15AE4
330
3E7
100
AcDbEntity
  8
NOTE
  6
CONTINUOUS
100
AcDbLine
 10
-615.6626448156229
 20
696.1845881685819
 30
0.0
 11
-212.3558987285017
 21
696.1845881685819
 31
0.0
  0
LINE
  5
15AEC
330
3E7
100
AcDbEntity
  8
NOTE
  6
CONTINOUS
100
AcDbLine
 10
108.9999992164957
 20
446.0000320124097
 30
0.0
 11
108.9999992164957
 21
406.0000320124099
 31
0.0
  0
LINE
  5
15AED
330
3E7
100
AcDbEntity
  8
NOTE
  6
CONTINOUS
100
AcDbLine
 10
131.9999992164956
 20
530.0000167536179
 30
0.0
 11
131.9999992164956
 21
490.0000167536189
 31
0.0
  0
LINE
  5
15AEE
330
3E7
100
AcDbEntity
  8
NOTE
  6
CONTINUOUS
100
AcDbLine
 10
108.9999992164932
 20
426.0000320124093
 30
0.0
 11
69.6497788607636
 21
418.8194938151158
 31
0.0
  0
LINE
  5
15AEF
330
3E7
100
AcDbEntity
  8
NOTE
  6
CONTINUOUS
100
AcDbLine
 10
108.9999992164932
 20
426.0000320124093
 30
0.0
 11
78.511977848539
 21
400.1063921899801
 31
0.0
  0
LINE
  5
15AF0
330
3E7
100
AcDbEntity
  8
NOTE
  6
CONTINUOUS
100
AcDbLine
 10
-244.7966028440796
 20
258.448119302136
 30
0.0
 11
108.9999992164932
 21
426.0000320124093
 31
0.0
  0
LINE
  5
15AF9
330
3E7
100
AcDbEntity
  8
NOTE
  6
CONTINUOUS
100
AcDbLine
 10
-212.3558987285017
 20
696.1845881685819
 30
0.0
 11
131.999999216497
 21
510.0000167536191
 31
0.0
  0
LINE
  5
15B5A
330
3E7
100
AcDbEntity
  8
NOTE
  6
CONTINOUS
100
AcDbLine
 10
189.599990858456
 20
-19.99999869752262
 30
0.0
 11
189.599990858456
 21
20.00000130247735
 31
0.0
  0
LINE
  5
15B5B
330
3E7
100
AcDbEntity
  8
NOTE
  6
CONTINOUS
100
AcDbLine
 10
209.5999908584563
 20
0.000001302477358
 30
0.0
 11
169.599990858456
 21
0.000001302477358
 31
0.0
  0
LINE
  5
15B5C
330
3E7
100
AcDbEntity
  8
NOTE
  6
CONTINUOUS
100
AcDbLine
 10
189.599990858456
 20
0.000001302477358
 30
0.0
 11
204.7042308584567
 21
-37.03865369752202
 31
0.0
  0
LINE
  5
15B5D
330
3E7
100
AcDbEntity
  8
NOTE
  6
CONTINUOUS
100
AcDbLine
 10
189.599990858456
 20
0.000001302477358
 30
0.0
 11
221.1999738584562
 21
-24.5242936975228
 31
0.0
  0
CIRCLE
  5
15B5E
330
3E7
100
AcDbEntity
  8
ARRANGE
  6
CONTINUOUS
100
AcDbCircle
 10
0.0
 20
0.0000014948263924
 30
0.0
 40
40.0
  0
CIRCLE
  5
15B5F
330
3E7
100
AcDbEntity
  8
FIX
  6
CONTINUOUS
100
AcDbCircle
 10
189.599990858456
 20
0.000001302477358
 30
0.0
 40
40.0
  0
LINE
  5
15B9D
330
3E7
100
AcDbEntity
  8
NOTE
  6
CONTINOUS
100
AcDbLine
 10
128.9999992164954
 20
426.0000320124096
 30
0.0
 11
88.99999921649579
 21
426.0000320124096
 31
0.0
  0
LINE
  5
15B9E
330
3E7
100
AcDbEntity
  8
NOTE
  6
CONTINOUS
100
AcDbLine
 10
151.9999992164956
 20
510.0000167536191
 30
0.0
 11
111.9999992164956
 21
510.0000167536191
 31
0.0
  0
LINE
  5
15B9F
330
3E7
100
AcDbEntity
  8
NOTE
  6
CONTINUOUS
100
AcDbLine
 10
131.999999216497
 20
510.0000167536191
 30
0.0
 11
102.9365201926927
 21
537.4829961750746
 31
0.0
  0
LINE
  5
15BA0
330
3E7
100
AcDbEntity
  8
NOTE
  6
CONTINUOUS
100
AcDbLine
 10
131.999999216497
 20
510.0000167536191
 30
0.0
 11
93.08879742272646
 21
519.2692349057066
 31
0.0
  0
LINE
  5
15BDB
330
3E7
100
AcDbEntity
  8
NOTE
  6
CONTINOUS
100
AcDbLine
 10
-180.4000091415437
 20
-20.00000123927748
 30
0.0
 11
-180.4000091415437
 21
19.99999876072251
 31
0.0
  0
LINE
  5
15BDC
330
3E7
100
AcDbEntity
  8
NOTE
  6
CONTINUOUS
100
AcDbLine
 10
-180.4000091415437
 20
-0.0000012392774806
 30
0.0
 11
-195.5042491415442
 21
-37.03865623927685
 31
0.0
  0
LINE
  5
15BDD
330
3E7
100
AcDbEntity
  8
NOTE
  6
CONTINUOUS
100
AcDbLine
 10
-180.4000091415437
 20
-0.0000012392774806
 30
0.0
 11
-211.9999921415435
 21
-24.52429623927764
 31
0.0
  0
LINE
  5
15BDE
330
3E7
100
AcDbEntity
  8
NOTE
  6
CONTINOUS
100
AcDbLine
 10
-160.4000091415437
 20
-0.0000012392774806
 30
0.0
 11
-200.4000091415437
 21
-0.0000012392774806
 31
0.0
  0
CIRCLE
  5
15BDF
330
3E7
100
AcDbEntity
  8
FIX
  6
CONTINUOUS
100
AcDbCircle
 10
-180.4000091415437
 20
-0.0000012392774806
 30
0.0
 40
40.0
  0
TEXT
  5
15BE0
330
3E7
100
AcDbEntity
  8
NOTE
  6
CONTINUOUS
100
AcDbText
 10
-643.496499953515
 20
273.9437178166846
 30
0.0
 40
64.0
  1
RG%%C15.88
 41
0.9
100
AcDbText
  0
TEXT
  5
15C0C
330
3E7
100
AcDbEntity
  8
NOTE
  6
CONTINUOUS
100
AcDbText
 10
-571.6596954647878
 20
712.771286156998
 30
0.0
 40
64.0
  1
RL%%C9.52
 41
0.9
100
AcDbText
  0
LINE
  5
15C0D
330
3E7
100
AcDbEntity
  8
NOTE
  6
CONTINUOUS
100
AcDbLine
 10
-244.7966028440796
 20
258.448119302136
 30
0.0
 11
-666.2796588812232
 21
258.448119302136
 31
0.0
  0
LINE
  5
15C2A
330
3E7
100
AcDbEntity
  8
NOTE
  6
CONTINUOUS
100
AcDbLine
 10
-227.5236068742706
 20
1267.956972423475
 30
0.0
 11
165.0000072474353
 21
1061.999994810369
 31
0.0
  0
LINE
  5
15C2F
330
3E7
100
AcDbEntity
  8
NOTE
  6
CONTINOUS
100
AcDbLine
 10
164.9999927937784
 20
1082.000008141274
 30
0.0
 11
164.9999927937784
 21
1042.000008141274
 31
0.0
  0
LINE
  5
15C30
330
3E7
100
AcDbEntity
  8
NOTE
  6
CONTINUOUS
100
AcDbLine
 10
165.0000072474353
 20
1061.999994810369
 30
0.0
 11
125.9764738224002
 21
1070.784291550104
 31
0.0
  0
LINE
  5
15C31
330
3E7
100
AcDbEntity
  8
NOTE
  6
CONTINUOUS
100
AcDbLine
 10
165.0000072474353
 20
1061.999994810369
 30
0.0
 11
135.5967854694042
 21
1089.119185799761
 31
0.0
  0
TEXT
  5
15C52
330
3E7
100
AcDbEntity
  8
NOTE
  6
CONTINUOUS
100
AcDbText
 10
-453.688025962554
 20
1283.059273423475
 30
0.0
 40
64.0
  1
EL,CL
 41
0.9
100
AcDbText
  0
LINE
  5
15C53
330
3E7
100
AcDbEntity
  8
NOTE
  6
CONTINUOUS
100
AcDbLine
 10
-468.4683309625543
 20
1267.956972423475
 30
0.0
 11
-227.5236068742706
 21
1267.956972423475
 31
0.0
  0
TEXT
  5
15C93
330
3E7
100
AcDbEntity
  8
NOTE
  6
CONTINUOUS
100
AcDbText
 10
-925.4458941415432
 20
-274.9754542392774
 30
0.0
 40
64.0
  1
AH 2-U cut
 41
0.9
100
AcDbText
  0
LINE
  5
15C94
330
3E7
100
AcDbEntity
  8
NOTE
  6
CONTINUOUS
100
AcDbLine
 10
-944.0713526337347
 20
-290.0777552392783
 30
0.0
 11
-400.4651111415442
 21
-290.0777552392783
 31
0.0
  0
LINE
  5
16705
330
3E7
100
AcDbEntity
  8
NOTE
  6
CONTINOUS
100
AcDbLine
 10
184.999999999998
 20
1062.000001494828
 30
0.0
 11
144.9999999999981
 21
1062.000001494828
 31
0.0
  0
LINE
  5
167AE
330
3E7
100
AcDbEntity
  8
SIZE
  6
CONTINUOUS
100
AcDbLine
 10
189.5999908447174
 20
-39.9999985051736
 30
0.0
 11
189.5999908447174
 21
-362.8288005401809
 31
0.0
  0
LINE
  5
167AF
330
3E7
100
AcDbEntity
  8
SIZE
  6
CONTINUOUS
100
AcDbLine
 10
217.5999908447173
 20
-17.99999850517087
 30
0.0
 11
217.5999908447173
 21
-362.8288005401809
 31
0.0
  0
LINE
  5
167B0
330
3E7
100
AcDbEntity
  8
SIZE
  6
CONTINUOUS
100
AcDbLine
 10
179.5999908447174
 20
-332.8288005401809
 30
0.0
 11
169.5999908447174
 21
-332.8288005401809
 31
0.0
  0
LINE
  5
167B1
330
3E7
100
AcDbEntity
  8
SIZE
  6
CONTINUOUS
100
AcDbLine
 10
227.5999908447174
 20
-332.8288005401809
 30
0.0
 11
370.8571337018602
 21
-332.8288005401809
 31
0.0
  0
LINE
  5
167B2
330
3E7
100
AcDbEntity
  8
SIZE
  6
CONTINUOUS
100
AcDbLine
 10
189.5999908447174
 20
-332.8288005401809
 30
0.0
 11
217.5999908447173
 21
-332.8288005401809
 31
0.0
  0
LINE
  5
167B6
330
3E7
100
AcDbEntity
  8
SIZE
  6
CONTINUOUS
100
AcDbLine
 10
-180.4000091552825
 20
-39.9999985051736
 30
0.0
 11
-180.4000091552825
 21
-362.8288005401809
 31
0.0
  0
LINE
  5
167B7
330
3E7
100
AcDbEntity
  8
SIZE
  6
CONTINUOUS
100
AcDbLine
 10
189.5999908447174
 20
-39.9999985051736
 30
0.0
 11
189.5999908447174
 21
-362.8288005401809
 31
0.0
  0
LINE
  5
167B8
330
3E7
100
AcDbEntity
  8
SIZE
  6
CONTINUOUS
100
AcDbLine
 10
-170.4000091552825
 20
-332.8288005401809
 30
0.0
 11
179.5999908447174
 21
-332.8288005401809
 31
0.0
  0
LINE
  5
167BC
330
3E7
100
AcDbEntity
  8
SIZE
  6
CONTINUOUS
100
AcDbLine
 10
-180.4000091552825
 20
-39.9999985051736
 30
0.0
 11
-180.4000091552825
 21
-362.8288005401809
 31
0.0
  0
LINE
  5
167BD
330
3E7
100
AcDbEntity
  8
SIZE
  6
CONTINUOUS
100
AcDbLine
 10
-199.4000091552825
 20
-17.99999850517087
 30
0.0
 11
-199.4000091552825
 21
-362.8288005401809
 31
0.0
  0
LINE
  5
167BE
330
3E7
100
AcDbEntity
  8
SIZE
  6
CONTINUOUS
100
AcDbLine
 10
-170.4000091552825
 20
-332.8288005401809
 30
0.0
 11
-160.4000091552823
 21
-332.8288005401809
 31
0.0
  0
LINE
  5
167BF
330
3E7
100
AcDbEntity
  8
SIZE
  6
CONTINUOUS
100
AcDbLine
 10
-209.4000091552825
 20
-332.8288005401809
 30
0.0
 11
-338.9428662981397
 21
-332.8288005401809
 31
0.0
  0
LINE
  5
167C0
330
3E7
100
AcDbEntity
  8
SIZE
  6
CONTINUOUS
100
AcDbLine
 10
-180.4000091552825
 20
-332.8288005401809
 30
0.0
 11
-199.4000091552825
 21
-332.8288005401809
 31
0.0
  0
LINE
  5
167C4
330
3E7
100
AcDbEntity
  8
SIZE
  6
CONTINUOUS
100
AcDbLine
 10
-199.4000091552825
 20
-17.99999850517087
 30
0.0
 11
-199.4000091552825
 21
-498.4758300577523
 31
0.0
  0
LINE
  5
167C5
330
3E7
100
AcDbEntity
  8
SIZE
  6
CONTINUOUS
100
AcDbLine
 10
217.5999908447173
 20
-17.99999850517087
 30
0.0
 11
217.5999908447173
 21
-498.4758300577523
 31
0.0
  0
LINE
  5
167C6
330
3E7
100
AcDbEntity
  8
SIZE
  6
CONTINUOUS
100
AcDbLine
 10
-189.4000091552825
 20
-468.4758300577523
 30
0.0
 11
207.5999908447174
 21
-468.4758300577523
 31
0.0
  0
LINE
  5
167CA
330
3E7
100
AcDbEntity
  8
SIZE
100
AcDbLine
 10
243.4763735060041
 20
1001.000021874317
 30
0.0
 11
630.2067963446972
 21
1001.000021874317
 31
0.0
  0
LINE
  5
167CB
330
3E7
100
AcDbEntity
  8
SIZE
100
AcDbLine
 10
253.4845186117399
 20
369.0000235160569
 30
0.0
 11
630.2067963446971
 21
369.0000235160568
 31
0.0
  0
LINE
  5
167CC
330
3E7
100
AcDbEntity
  8
SIZE
100
AcDbLine
 10
600.2067963446973
 20
991.0000218743167
 30
0.0
 11
600.206796344697
 21
379.0000235160568
 31
0.0
  0
LINE
  5
167D0
330
3E7
100
AcDbEntity
  8
SIZE
  6
CONTINUOUS
100
AcDbLine
 10
232.5999908584563
 20
0.0000014604784099
 30
0.0
 11
942.5583915024837
 21
0.0000014604782088
 31
0.0
  0
LINE
  5
167D1
330
3E7
100
AcDbEntity
  8
SIZE
  6
CONTINUOUS
100
AcDbLine
 10
180.0000000137405
 20
1338.000001460488
 30
0.0
 11
942.5583915024841
 21
1338.000001460488
 31
0.0
  0
LINE
  5
167D2
330
3E7
100
AcDbEntity
  8
SIZE
  6
CONTINUOUS
100
AcDbLine
 10
912.5583915024837
 20
10.00000146047821
 30
0.0
 11
912.5583915024838
 21
1328.000001460488
 31
0.0
  0
LINE
  5
167D7
330
3E7
100
AcDbEntity
  8
SIZE
  6
CONTINUOUS
100
AcDbLine
 10
232.5999908584563
 20
0.0000014604784099
 30
0.0
 11
787.1995666632864
 21
0.0000014604782528
 31
0.0
  0
LINE
  5
167D8
330
3E7
100
AcDbEntity
  8
SIZE
  6
CONTINUOUS
100
AcDbLine
 10
757.1995666632867
 20
1062.000001494828
 30
0.0
 11
757.1995666632864
 21
10.00000146047826
 31
0.0
  0
LINE
  5
167DC
330
3E7
100
AcDbEntity
  8
SIZE
  6
CONTINUOUS
100
AcDbLine
 10
164.999999999998
 20
631.4000259088961
 30
0.0
 11
164.999999999998
 21
865.3976246498912
 31
0.0
  0
LINE
  5
167DE
330
3E7
100
AcDbEntity
  8
SIZE
  6
CONTINUOUS
100
AcDbLine
 10
98.9999992164958
 20
835.3976246498913
 30
0.0
 11
88.99999921649579
 21
835.3976246498913
 31
0.0
  0
LINE
  5
167DF
330
3E7
100
AcDbEntity
  8
SIZE
  6
CONTINUOUS
100
AcDbLine
 10
174.999999999998
 20
835.3976246498913
 30
0.0
 11
339.1600335607309
 21
835.3976246498913
 31
0.0
  0
LINE
  5
167E0
330
3E7
100
AcDbEntity
  8
SIZE
  6
CONTINUOUS
100
AcDbLine
 10
108.9999992164957
 20
835.3976246498913
 30
0.0
 11
164.999999999998
 21
835.3976246498913
 31
0.0
  0
LINE
  5
167E4
330
3E7
100
AcDbEntity
  8
SIZE
  6
CONTINUOUS
100
AcDbLine
 10
232.5999908447174
 20
0.0000014948263868
 30
0.0
 11
469.5688003232262
 21
0.0000014948263197
 31
0.0
  0
LINE
  5
167E6
330
3E7
100
AcDbEntity
  8
SIZE
  6
CONTINUOUS
100
AcDbLine
 10
439.5688003232262
 20
10.00000149482632
 30
0.0
 11
439.5688003232264
 21
510.0000167536188
 31
0.0
  0
LINE
  5
167EA
330
3E7
100
AcDbEntity
  8
SIZE
  6
CONTINUOUS
100
AcDbLine
 10
232.5999908584563
 20
0.0000014604784099
 30
0.0
 11
630.2067963446971
 21
0.0000014604782972
 31
0.0
  0
LINE
  5
167EB
330
3E7
100
AcDbEntity
  8
SIZE
  6
CONTINUOUS
100
AcDbLine
 10
253.4845186117399
 20
369.0000235160569
 30
0.0
 11
630.2067963446972
 21
369.0000235160568
 31
0.0
  0
LINE
  5
167EC
330
3E7
100
AcDbEntity
  8
SIZE
  6
CONTINUOUS
100
AcDbLine
 10
600.206796344697
 20
10.0000014604783
 30
0.0
 11
600.2067963446973
 21
359.0000235160568
 31
0.0
  0
LINE
  5
167F0
330
3E7
100
AcDbEntity
  8
SIZE
  6
CONTINUOUS
100
AcDbLine
 10
232.5999908447174
 20
0.0000014948263868
 30
0.0
 11
344.6282005078009
 21
0.000001494826355
 31
0.0
  0
LINE
  5
167F2
330
3E7
100
AcDbEntity
  8
SIZE
  6
CONTINUOUS
100
AcDbLine
 10
314.628200507801
 20
10.00000149482636
 30
0.0
 11
314.6282005078011
 21
426.0000320124099
 31
0.0
  0
LINE
  5
167F6
330
3E7
100
AcDbEntity
  8
SIZE
  6
CONTINUOUS
100
AcDbLine
 10
164.999999999998
 20
631.4000259089007
 30
0.0
 11
164.999999999998
 21
724.3747215200252
 31
0.0
  0
LINE
  5
167F8
330
3E7
100
AcDbEntity
  8
SIZE
  6
CONTINUOUS
100
AcDbLine
 10
114.9999992164957
 20
694.3747215200252
 30
0.0
 11
104.9999992164957
 21
694.3747215200252
 31
0.0
  0
LINE
  5
167F9
330
3E7
100
AcDbEntity
  8
SIZE
  6
CONTINUOUS
100
AcDbLine
 10
174.999999999998
 20
694.3747215200252
 30
0.0
 11
345.1172324672951
 21
694.3747215200252
 31
0.0
  0
LINE
  5
167FA
330
3E7
100
AcDbEntity
  8
SIZE
  6
CONTINUOUS
100
AcDbLine
 10
124.9999992164958
 20
694.3747215200252
 30
0.0
 11
164.999999999998
 21
694.3747215200252
 31
0.0
  0
LINE
  5
167FE
330
3E7
100
AcDbEntity
  8
SIZE
  6
CONTINUOUS
100
AcDbLine
 10
164.9999900620549
 20
1353.008263249799
 30
0.0
 11
164.9999900620549
 21
1678.317923999562
 31
0.0
  0
LINE
  5
167FF
330
3E7
100
AcDbEntity
  8
SIZE
  6
CONTINUOUS
100
AcDbLine
 10
189.9999908455556
 20
1324.411622227248
 30
0.0
 11
189.9999908455557
 21
1678.317923999562
 31
0.0
  0
LINE
  5
16800
330
3E7
100
AcDbEntity
  8
SIZE
  6
CONTINUOUS
100
AcDbLine
 10
154.9999900620551
 20
1648.317923999562
 30
0.0
 11
144.9999900620551
 21
1648.317923999562
 31
0.0
  0
LINE
  5
16801
330
3E7
100
AcDbEntity
  8
SIZE
  6
CONTINUOUS
100
AcDbLine
 10
199.9999908455554
 20
1648.317923999562
 30
0.0
 11
348.2571329191978
 21
1648.317923999562
 31
0.0
  0
LINE
  5
16802
330
3E7
100
AcDbEntity
  8
SIZE
  6
CONTINUOUS
100
AcDbLine
 10
164.9999900620549
 20
1648.317923999562
 30
0.0
 11
189.9999908455557
 21
1648.317923999562
 31
0.0
  0
LINE
  5
16806
330
3E7
100
AcDbEntity
  8
SIZE
  6
CONTINUOUS
100
AcDbLine
 10
-165.0000099379449
 20
1353.008263249799
 30
0.0
 11
-165.0000099379449
 21
1678.317923999562
 31
0.0
  0
LINE
  5
16807
330
3E7
100
AcDbEntity
  8
SIZE
  6
CONTINUOUS
100
AcDbLine
 10
164.9999900620549
 20
1353.008263249799
 30
0.0
 11
164.9999900620549
 21
1678.317923999562
 31
0.0
  0
LINE
  5
16808
330
3E7
100
AcDbEntity
  8
SIZE
  6
CONTINUOUS
100
AcDbLine
 10
-155.0000099379448
 20
1648.317923999562
 30
0.0
 11
154.9999900620551
 21
1648.317923999562
 31
0.0
  0
TEXT
  5
1680C
330
3E7
100
AcDbEntity
  8
SIZE
100
AcDbText
 10
-59.47143772671111
 20
-448.4758300577523
 30
0.0
 40
64.0
  1
417
 41
0.9
100
AcDbText
  0
TEXT
  5
1680D
330
3E7
100
AcDbEntity
  8
SIZE
100
AcDbText
 10
-69.45715201242539
 20
-312.8288005401809
 30
0.0
 40
64.0
  1
370
 41
0.9
100
AcDbText
  0
CIRCLE
  5
1680E
330
3E7
100
AcDbEntity
  8
SIZE
  6
BYBLOCK
100
AcDbCircle
 10
-199.4000091552825
 20
-468.4758300577523
 30
0.0
 40
5.0
  0
LINE
  5
1680F
330
3E7
100
AcDbEntity
  8
SIZE
  6
BYBLOCK
100
AcDbLine
 10
-199.4000091552825
 20
-468.4758300577523
 30
0.0
 11
-189.4000091552825
 21
-468.4758300577523
 31
0.0
  0
CIRCLE
  5
16810
330
3E7
100
AcDbEntity
  8
SIZE
  6
BYBLOCK
100
AcDbCircle
 10
-199.4000091552825
 20
-332.8288005401809
 30
0.0
 40
5.0
  0
LINE
  5
16811
330
3E7
100
AcDbEntity
  8
SIZE
  6
BYBLOCK
100
AcDbLine
 10
-199.4000091552825
 20
-332.8288005401809
 30
0.0
 11
-209.4000091552825
 21
-332.8288005401809
 31
0.0
  0
CIRCLE
  5
16812
330
3E7
100
AcDbEntity
  8
SIZE
  6
BYBLOCK
100
AcDbCircle
 10
-180.4000091552825
 20
-332.8288005401809
 30
0.0
 40
5.0
  0
LINE
  5
16813
330
3E7
100
AcDbEntity
  8
SIZE
  6
BYBLOCK
100
AcDbLine
 10
-180.4000091552825
 20
-332.8288005401809
 30
0.0
 11
-170.4000091552825
 21
-332.8288005401809
 31
0.0
  0
CIRCLE
  5
16814
330
3E7
100
AcDbEntity
  8
SIZE
  6
BYBLOCK
100
AcDbCircle
 10
-180.4000091552825
 20
-332.8288005401809
 30
0.0
 40
5.0
  0
LINE
  5
16815
330
3E7
100
AcDbEntity
  8
SIZE
  6
BYBLOCK
100
AcDbLine
 10
-180.4000091552825
 20
-332.8288005401809
 30
0.0
 11
-170.4000091552825
 21
-332.8288005401809
 31
0.0
  0
TEXT
  5
16816
330
3E7
100
AcDbEntity
  8
SIZE
100
AcDbText
 10
-318.9428662981398
 20
-312.8288005401809
 30
0.0
 40
64.0
  1
19
 41
0.9
100
AcDbText
  0
CIRCLE
  5
16817
330
3E7
100
AcDbEntity
  8
SIZE
  6
BYBLOCK
100
AcDbCircle
 10
217.5999908447173
 20
-468.4758300577523
 30
0.0
 40
5.0
  0
LINE
  5
16818
330
3E7
100
AcDbEntity
  8
SIZE
  6
BYBLOCK
100
AcDbLine
 10
217.5999908447173
 20
-468.4758300577523
 30
0.0
 11
207.5999908447174
 21
-468.4758300577523
 31
0.0
  0
CIRCLE
  5
16819
330
3E7
100
AcDbEntity
  8
SIZE
  6
BYBLOCK
100
AcDbCircle
 10
217.5999908447173
 20
-332.8288005401809
 30
0.0
 40
5.0
  0
LINE
  5
1681A
330
3E7
100
AcDbEntity
  8
SIZE
  6
BYBLOCK
100
AcDbLine
 10
217.5999908447173
 20
-332.8288005401809
 30
0.0
 11
227.5999908447174
 21
-332.8288005401809
 31
0.0
  0
CIRCLE
  5
1681B
330
3E7
100
AcDbEntity
  8
SIZE
  6
BYBLOCK
100
AcDbCircle
 10
189.5999908447174
 20
-332.8288005401809
 30
0.0
 40
5.0
  0
LINE
  5
1681C
330
3E7
100
AcDbEntity
  8
SIZE
  6
BYBLOCK
100
AcDbLine
 10
189.5999908447174
 20
-332.8288005401809
 30
0.0
 11
179.5999908447174
 21
-332.8288005401809
 31
0.0
  0
CIRCLE
  5
1681D
330
3E7
100
AcDbEntity
  8
SIZE
  6
BYBLOCK
100
AcDbCircle
 10
189.5999908447174
 20
-332.8288005401809
 30
0.0
 40
5.0
  0
LINE
  5
1681E
330
3E7
100
AcDbEntity
  8
SIZE
  6
BYBLOCK
100
AcDbLine
 10
189.5999908447174
 20
-332.8288005401809
 30
0.0
 11
179.5999908447174
 21
-332.8288005401809
 31
0.0
  0
TEXT
  5
1681F
330
3E7
100
AcDbEntity
  8
SIZE
100
AcDbText
 10
257.5999908447174
 20
-312.8288005401809
 30
0.0
 40
64.0
  1
28
 41
0.9
100
AcDbText
  0
TEXT
  5
16820
330
3E7
100
AcDbEntity
  8
SIZE
100
AcDbText
 10
423.2292856336631
 20
124.935435205875
 30
0.0
 40
64.0
  1
510
 50
90.0
 41
0.9
100
AcDbText
  0
CIRCLE
  5
16821
330
3E7
100
AcDbEntity
  8
SIZE
  6
BYBLOCK
100
AcDbCircle
 10
314.628200507801
 20
0.0000014948263635
 30
0.0
 40
5.0
  0
LINE
  5
16822
330
3E7
100
AcDbEntity
  8
SIZE
  6
BYBLOCK
100
AcDbLine
 10
314.628200507801
 20
0.0000014948263635
 30
0.0
 11
314.628200507801
 21
10.00000149482636
 31
0.0
  0
TEXT
  5
16823
330
3E7
100
AcDbEntity
  8
SIZE
100
AcDbText
 10
297.8407510680971
 20
126.8978481010599
 30
0.0
 40
64.0
  1
426
 50
90.0
 41
0.9
100
AcDbText
  0
CIRCLE
  5
16824
330
3E7
100
AcDbEntity
  8
SIZE
  6
BYBLOCK
100
AcDbCircle
 10
314.6282005078011
 20
426.0000320124099
 30
0.0
 40
5.0
  0
CIRCLE
  5
16826
330
3E7
100
AcDbEntity
  8
SIZE
  6
BYBLOCK
100
AcDbCircle
 10
131.9999992164957
 20
694.3747215200252
 30
0.0
 40
5.0
  0
LINE
  5
16827
330
3E7
100
AcDbEntity
  8
SIZE
  6
BYBLOCK
100
AcDbLine
 10
124.9999992164958
 20
694.3747215200252
 30
0.0
 11
114.9999992164957
 21
694.3747215200252
 31
0.0
  0
CIRCLE
  5
16828
330
3E7
100
AcDbEntity
  8
SIZE
  6
BYBLOCK
100
AcDbCircle
 10
164.999999999998
 20
694.3747215200252
 30
0.0
 40
5.0
  0
LINE
  5
16829
330
3E7
100
AcDbEntity
  8
SIZE
  6
BYBLOCK
100
AcDbLine
 10
164.999999999998
 20
694.3747215200252
 30
0.0
 11
174.999999999998
 21
694.3747215200252
 31
0.0
  0
CIRCLE
  5
1682A
330
3E7
100
AcDbEntity
  8
SIZE
  6
BYBLOCK
100
AcDbCircle
 10
108.9999992164957
 20
835.3976246498913
 30
0.0
 40
5.0
  0
LINE
  5
1682B
330
3E7
100
AcDbEntity
  8
SIZE
  6
BYBLOCK
100
AcDbLine
 10
108.9999992164957
 20
835.3976246498913
 30
0.0
 11
98.9999992164958
 21
835.3976246498913
 31
0.0
  0
CIRCLE
  5
1682C
330
3E7
100
AcDbEntity
  8
SIZE
  6
BYBLOCK
100
AcDbCircle
 10
164.999999999998
 20
835.3976246498913
 30
0.0
 40
5.0
  0
LINE
  5
1682D
330
3E7
100
AcDbEntity
  8
SIZE
  6
BYBLOCK
100
AcDbLine
 10
164.999999999998
 20
835.3976246498913
 30
0.0
 11
174.999999999998
 21
835.3976246498913
 31
0.0
  0
TEXT
  5
1682E
330
3E7
100
AcDbEntity
  8
SIZE
100
AcDbText
 10
231.8600896101524
 20
714.3747215200257
 30
0.0
 40
64.0
  1
33
 41
0.9
100
AcDbText
  0
CIRCLE
  5
1682F
330
3E7
100
AcDbEntity
  8
SIZE
  6
BYBLOCK
100
AcDbCircle
 10
757.1995666632864
 20
0.0000014604782613
 30
0.0
 40
5.0
  0
LINE
  5
16830
330
3E7
100
AcDbEntity
  8
SIZE
  6
BYBLOCK
100
AcDbLine
 10
757.1995666632864
 20
0.0000014604782613
 30
0.0
 11
757.1995666632864
 21
10.00000146047826
 31
0.0
  0
CIRCLE
  5
16831
330
3E7
100
AcDbEntity
  8
SIZE
  6
BYBLOCK
100
AcDbCircle
 10
439.5688003232262
 20
0.0000014948263282
 30
0.0
 40
5.0
  0
LINE
  5
16832
330
3E7
100
AcDbEntity
  8
SIZE
  6
BYBLOCK
100
AcDbLine
 10
439.5688003232262
 20
0.0000014948263282
 30
0.0
 11
439.5688003232262
 21
10.00000149482632
 31
0.0
  0
CIRCLE
  5
16833
330
3E7
100
AcDbEntity
  8
SIZE
  6
BYBLOCK
100
AcDbCircle
 10
600.206796344697
 20
0.0000014604783057
 30
0.0
 40
5.0
  0
LINE
  5
16834
330
3E7
100
AcDbEntity
  8
SIZE
  6
BYBLOCK
100
AcDbLine
 10
600.206796344697
 20
0.0000014604783057
 30
0.0
 11
600.206796344697
 21
10.0000014604783
 31
0.0
  0
TEXT
  5
16835
330
3E7
100
AcDbEntity
  8
SIZE
100
AcDbText
 10
580.2067963446971
 20
111.8142982025556
 30
0.0
 40
64.0
  1
369
 50
90.0
 41
0.9
100
AcDbText
  0
CIRCLE
  5
16836
330
3E7
100
AcDbEntity
  8
SIZE
  6
BYBLOCK
100
AcDbCircle
 10
912.5583915024837
 20
0.0000014604782173
 30
0.0
 40
5.0
  0
LINE
  5
16837
330
3E7
100
AcDbEntity
  8
SIZE
  6
BYBLOCK
100
AcDbLine
 10
912.5583915024837
 20
0.0000014604782173
 30
0.0
 11
912.5583915024837
 21
10.00000146047821
 31
0.0
  0
TEXT
  5
16838
330
3E7
100
AcDbEntity
  8
SIZE
100
AcDbText
 10
737.1995666632864
 20
445.4447547831054
 30
0.0
 40
64.0
  1
1062
 50
90.0
 41
0.9
100
AcDbText
  0
CIRCLE
  5
16839
330
3E7
100
AcDbEntity
  8
SIZE
  6
BYBLOCK
100
AcDbCircle
 10
439.5688003232264
 20
510.0000167536188
 30
0.0
 40
5.0
  0
LINE
  5
1683A
330
3E7
100
AcDbEntity
  8
SIZE
  6
BYBLOCK
100
AcDbLine
 10
439.5688003232264
 20
424.0000167536187
 30
0.0
 11
439.5688003232264
 21
424.0000167536187
 31
0.0
  0
CIRCLE
  5
1683B
330
3E7
100
AcDbEntity
  8
SIZE
  6
BYBLOCK
100
AcDbCircle
 10
600.2067963446973
 20
369.0000235160568
 30
0.0
 40
5.0
  0
LINE
  5
1683C
330
3E7
100
AcDbEntity
  8
SIZE
  6
BYBLOCK
100
AcDbLine
 10
600.2067963446973
 20
369.0000235160568
 30
0.0
 11
600.2067963446973
 21
359.0000235160568
 31
0.0
  0
CIRCLE
  5
1683D
330
3E7
100
AcDbEntity
  8
SIZE
  6
BYBLOCK
100
AcDbCircle
 10
600.206796344697
 20
369.0000235160568
 30
0.0
 40
5.0
  0
LINE
  5
1683E
330
3E7
100
AcDbEntity
  8
SIZE
  6
BYBLOCK
100
AcDbLine
 10
600.206796344697
 20
369.0000235160568
 30
0.0
 11
600.206796344697
 21
379.0000235160568
 31
0.0
  0
TEXT
  5
1683F
330
3E7
100
AcDbEntity
  8
SIZE
100
AcDbText
 10
580.2067963446967
 20
610.9428798380442
 30
0.0
 40
64.0
  1
632
 50
90.0
 41
0.9
100
AcDbText
  0
TEXT
  5
16840
330
3E7
100
AcDbEntity
  8
SIZE
100
AcDbText
 10
892.5583915024835
 20
573.0000014604858
 30
0.0
 40
64.0
  1
1338
 50
90.0
 41
0.9
100
AcDbText
  0
TEXT
  5
16841
330
3E7
100
AcDbEntity
  8
SIZE
100
AcDbText
 10
228.6457478464452
 20
855.3976246498914
 30
0.0
 40
64.0
  1
56
 41
0.9
100
AcDbText
  0
TEXT
  5
16842
330
3E7
100
AcDbEntity
  8
SIZE
100
AcDbText
 10
-74.05715279508775
 20
1668.317923999563
 30
0.0
 40
64.0
  1
330
 41
0.9
100
AcDbText
  0
CIRCLE
  5
16843
330
3E7
100
AcDbEntity
  8
SIZE
  6
BYBLOCK
100
AcDbCircle
 10
-165.0000099379449
 20
1648.317923999562
 30
0.0
 40
5.0
  0
LINE
  5
16844
330
3E7
100
AcDbEntity
  8
SIZE
  6
BYBLOCK
100
AcDbLine
 10
-165.0000099379449
 20
1648.317923999562
 30
0.0
 11
-155.0000099379448
 21
1648.317923999562
 31
0.0
  0
CIRCLE
  5
16845
330
3E7
100
AcDbEntity
  8
SIZE
  6
BYBLOCK
100
AcDbCircle
 10
164.9999900620549
 20
1648.317923999562
 30
0.0
 40
5.0
  0
LINE
  5
16846
330
3E7
100
AcDbEntity
  8
SIZE
  6
BYBLOCK
100
AcDbLine
 10
164.9999900620549
 20
1648.317923999562
 30
0.0
 11
154.9999900620551
 21
1648.317923999562
 31
0.0
  0
CIRCLE
  5
16847
330
3E7
100
AcDbEntity
  8
SIZE
  6
BYBLOCK
100
AcDbCircle
 10
189.9999908455557
 20
1648.317923999562
 30
0.0
 40
5.0
  0
LINE
  5
16848
330
3E7
100
AcDbEntity
  8
SIZE
  6
BYBLOCK
100
AcDbLine
 10
189.9999908455557
 20
1648.317923999562
 30
0.0
 11
199.9999908455554
 21
1648.317923999562
 31
0.0
  0
CIRCLE
  5
16849
330
3E7
100
AcDbEntity
  8
SIZE
  6
BYBLOCK
100
AcDbCircle
 10
164.9999900620549
 20
1648.317923999562
 30
0.0
 40
5.0
  0
LINE
  5
1684A
330
3E7
100
AcDbEntity
  8
SIZE
  6
BYBLOCK
100
AcDbLine
 10
164.9999900620549
 20
1648.317923999562
 30
0.0
 11
154.9999900620551
 21
1648.317923999562
 31
0.0
  0
TEXT
  5
1684B
330
3E7
100
AcDbEntity
  8
SIZE
100
AcDbText
 10
234.999990062055
 20
1668.317923999563
 30
0.0
 40
64.0
  1
25
 41
0.9
100
AcDbText
  0
CIRCLE
  5
1684C
330
3E7
100
AcDbEntity
  8
SIZE
  6
BYBLOCK
100
AcDbCircle
 10
757.1995666632867
 20
1062.000001494828
 30
0.0
 40
5.0
  0
CIRCLE
  5
1684E
330
3E7
100
AcDbEntity
  8
SIZE
  6
BYBLOCK
100
AcDbCircle
 10
600.2067963446973
 20
1001.000021874317
 30
0.0
 40
5.0
  0
LINE
  5
1684F
330
3E7
100
AcDbEntity
  8
SIZE
  6
BYBLOCK
100
AcDbLine
 10
600.2067963446973
 20
1001.000021874317
 30
0.0
 11
600.2067963446973
 21
991.0000218743167
 31
0.0
  0
CIRCLE
  5
16850
330
3E7
100
AcDbEntity
  8
SIZE
  6
BYBLOCK
100
AcDbCircle
 10
912.5583915024838
 20
1338.000001460488
 30
0.0
 40
5.0
  0
LINE
  5
16851
330
3E7
100
AcDbEntity
  8
SIZE
  6
BYBLOCK
100
AcDbLine
 10
912.5583915024838
 20
1338.000001460488
 30
0.0
 11
912.5583915024838
 21
1328.000001460488
 31
0.0
  0
LINE
  5
16853
330
3E7
100
AcDbEntity
  8
OUTLINE
  6
CONTINUOUS
100
AcDbLine
 10
166.9999928325486
 20
1045.357392504657
 30
0.0
 11
166.9999958239691
 21
609.9000255612978
 31
0.0
  0
LINE
  5
1685B
330
3E7
100
AcDbEntity
  8
OUTLINE
  6
CONTINUOUS
100
AcDbLine
 10
-165.0000090308076
 20
1316.599974452464
 30
0.0
 11
-165.0000041863604
 21
611.4000156511925
 31
0.0
  0
LINE
  5
1685C
330
3E7
100
AcDbEntity
  8
OUTLINE
  6
CONTINUOUS
100
AcDbLine
 10
164.9999958136575
 20
611.4000255475594
 30
0.0
 11
164.9999909692104
 21
1316.600037754592
 31
0.0
  0
LINE
  5
1685D
330
3E7
100
AcDbEntity
  8
OUTLINE
  6
CONTINUOUS
100
AcDbLine
 10
189.9999952081596
 20
699.5410689054834
 30
0.0
 11
189.9999910529384
 21
1304.411622398988
 31
0.0
  0
LINE
  5
1685E
330
3E7
100
AcDbEntity
  8
OUTLINE
  6
CONTINUOUS
100
AcDbLine
 10
-166.9847425210664
 20
1303.313658520863
 30
0.0
 11
-167.0000041760449
 21
609.9000080080559
 31
0.0
  0
LINE
  5
16863
330
3E7
100
AcDbEntity
  8
OUTLINE
  6
CONTINUOUS
100
AcDbLine
 10
164.9999987497284
 20
184.0000316510668
 30
0.0
 11
164.9999962876607
 21
542.4000255475585
 31
0.0
  0
LINE
  5
16864
330
3E7
100
AcDbEntity
  8
OUTLINE
  6
CONTINUOUS
100
AcDbLine
 10
166.9999962773635
 20
543.9000103025058
 30
0.0
 11
166.9999983144988
 21
247.3570262937129
 31
0.0
  0
LINE
  5
1686C
330
3E7
100
AcDbEntity
  8
OUTLINE
  6
CONTINUOUS
100
AcDbLine
 10
-165.0000037123573
 20
542.4000232805833
 30
0.0
 11
-165.0000012502714
 21
184.0000293840962
 31
0.0
  0
LINE
  5
1686D
330
3E7
100
AcDbEntity
  8
OUTLINE
  6
CONTINUOUS
100
AcDbLine
 10
-167.0000037226509
 20
543.8999927492687
 30
0.0
 11
-167.0000016812991
 21
246.7426746340299
 31
0.0
  0
LINE
  5
16870
330
3E7
100
AcDbEntity
  8
OUTLINE
100
AcDbLine
 10
189.9999953996971
 20
671.6589673696842
 30
0.0
 11
189.9999995549219
 21
66.78839241850846
 31
0.0
  0
LINE
  5
16874
330
3E7
100
AcDbEntity
  8
OUTLINE
  6
CONTINUOUS
100
AcDbLine
 10
33.94802079766475
 20
22.00000023321217
 30
0.0
 11
-141.3812028351513
 21
21.99999902876878
 31
0.0
  0
LINE
  5
16875
330
3E7
100
AcDbEntity
  8
OUTLINE
  6
CONTINUOUS
100
AcDbLine
 10
10.69999678336887
 20
26.00000007350809
 30
0.0
 11
163.9999998351229
 21
26.00000112661837
 31
0.0
  0
LINE
  5
16876
330
3E7
100
AcDbEntity
  8
OUTLINE
  6
CONTINUOUS
100
AcDbLine
 10
212.5999908584562
 20
0.0000014604784155
 30
0.0
 11
-194.4000015121455
 21
-0.0000013354519979
 31
0.0
  0
LINE
  5
16877
330
3E7
100
AcDbEntity
  8
OUTLINE
  6
CONTINUOUS
100
AcDbLine
 10
-194.4000015231378
 20
1.600035285641751
 30
0.0
 11
212.599990847464
 21
1.600038081572164
 31
0.0
  0
LINE
  5
16878
330
3E7
100
AcDbEntity
  8
OUTLINE
  6
CONTINUOUS
100
AcDbLine
 10
-155.1132585198194
 20
24.99999893443691
 30
0.0
 11
155.1132353156334
 21
25.00000106557171
 31
0.0
  0
LINE
  5
16879
330
3E7
100
AcDbEntity
  8
OUTLINE
  6
CONTINUOUS
100
AcDbLine
 10
-165.0000001717418
 20
26.9999988665172
 30
0.0
 11
-165.0000012502714
 21
184.0000293840962
 31
0.0
  0
LINE
  5
1687A
330
3E7
100
AcDbEntity
  8
OUTLINE
  6
CONTINUOUS
100
AcDbLine
 10
10.69999678336887
 20
26.00000007350809
 30
0.0
 11
-164.14231889055
 21
26.01019174350585
 31
0.0
  0
LINE
  5
1687B
330
3E7
100
AcDbEntity
  8
OUTLINE
  6
CONTINUOUS
100
AcDbLine
 10
-196.4000015671046
 20
7.999998650808264
 30
0.0
 11
-167.132057231176
 21
7.999998851869803
 31
0.0
  0
LINE
  5
1687C
330
3E7
100
AcDbEntity
  8
OUTLINE
  6
CONTINUOUS
100
AcDbLine
 10
-166.299988051287
 20
39.60494880875558
 30
0.0
 11
-166.2999881182714
 21
49.35565071305518
 31
0.0
  0
LINE
  5
1687D
330
3E7
100
AcDbEntity
  8
OUTLINE
  6
CONTINUOUS
100
AcDbLine
 10
-169.7999880608749
 20
40.99999883354394
 30
0.0
 11
-169.7999881089617
 21
47.99999883354211
 31
0.0
  0
LINE
  5
1687E
330
3E7
100
AcDbEntity
  8
OUTLINE
  6
CONTINUOUS
100
AcDbLine
 10
-165.5000002507349
 20
38.49999886308296
 30
0.0
 11
-165.5000003331715
 21
50.49999886308114
 31
0.0
  0
LINE
  5
1687F
330
3E7
100
AcDbEntity
  8
OUTLINE
  6
CONTINUOUS
100
AcDbLine
 10
-169.1540529946069
 20
39.88119390634256
 30
0.0
 11
-166.2999880531879
 21
39.88119392594853
 31
0.0
  0
LINE
  5
16880
330
3E7
100
AcDbEntity
  8
OUTLINE
  6
CONTINUOUS
100
AcDbLine
 10
-169.1540530104704
 20
42.19061163094738
 30
0.0
 11
-166.2999880690514
 21
42.19061165055335
 31
0.0
  0
LINE
  5
16881
330
3E7
100
AcDbEntity
  8
OUTLINE
  6
CONTINUOUS
100
AcDbLine
 10
-169.1540530580661
 20
49.1188037696229
 30
0.0
 11
-166.299988116647
 21
49.11880378922887
 31
0.0
  0
LINE
  5
16882
330
3E7
100
AcDbEntity
  8
OUTLINE
  6
CONTINUOUS
100
AcDbLine
 10
-169.1540530422008
 20
46.80941656258982
 30
0.0
 11
-166.2999881007818
 21
46.80941658219579
 31
0.0
  0
LINE
  5
16883
330
3E7
100
AcDbEntity
  8
OUTLINE
  6
CONTINUOUS
100
AcDbLine
 10
-166.2999881182714
 20
49.35565071305518
 30
0.0
 11
-166.2865909020274
 21
49.43505745142965
 31
0.0
  0
LINE
  5
16884
330
3E7
100
AcDbEntity
  8
OUTLINE
  6
CONTINUOUS
100
AcDbLine
 10
-166.2865909020274
 20
49.43505745142965
 30
0.0
 11
-166.2634280603651
 21
49.45358162150704
 31
0.0
  0
LINE
  5
16885
330
3E7
100
AcDbEntity
  8
OUTLINE
  6
CONTINUOUS
100
AcDbLine
 10
-166.2634280603651
 20
49.45358162150704
 30
0.0
 11
-166.2500003261139
 21
49.47155647511682
 31
0.0
  0
LINE
  5
16886
330
3E7
100
AcDbEntity
  8
OUTLINE
  6
CONTINUOUS
100
AcDbLine
 10
-166.1999819470548
 20
39.49999885827356
 30
0.0
 11
-166.250000257809
 21
39.52847175831994
 31
0.0
  0
LINE
  5
16887
330
3E7
100
AcDbEntity
  8
OUTLINE
  6
CONTINUOUS
100
AcDbLine
 10
-166.250000257809
 20
39.52847175831994
 30
0.0
 11
-166.2806704240101
 21
39.55557136748302
 31
0.0
  0
LINE
  5
16888
330
3E7
100
AcDbEntity
  8
OUTLINE
  6
CONTINUOUS
100
AcDbLine
 10
-166.2806704240101
 20
39.55557136748302
 30
0.0
 11
-166.299988051287
 21
39.60494880875558
 31
0.0
  0
LINE
  5
16889
330
3E7
100
AcDbEntity
  8
OUTLINE
  6
CONTINUOUS
100
AcDbLine
 10
-166.2500003261139
 20
49.47155647511682
 30
0.0
 11
-166.1999820157508
 21
49.49999885827356
 31
0.0
  0
LINE
  5
1688A
330
3E7
100
AcDbEntity
  8
OUTLINE
  6
CONTINUOUS
100
AcDbLine
 10
-169.1540529946069
 20
39.88119390634256
 30
0.0
 11
-169.7999880608749
 21
40.99999883354394
 31
0.0
  0
LINE
  5
1688B
330
3E7
100
AcDbEntity
  8
OUTLINE
  6
CONTINUOUS
100
AcDbLine
 10
-169.1540530580661
 20
49.1188037696229
 30
0.0
 11
-169.7999881089617
 21
47.99999883354211
 31
0.0
  0
LINE
  5
1688C
330
3E7
100
AcDbEntity
  8
OUTLINE
  6
CONTINUOUS
100
AcDbLine
 10
-166.1999819470548
 20
39.49999885827356
 30
0.0
 11
-165.5000002576054
 21
39.49999886308205
 31
0.0
  0
LINE
  5
1688D
330
3E7
100
AcDbEntity
  8
OUTLINE
  6
CONTINUOUS
100
AcDbLine
 10
-166.1999820157508
 20
49.49999885827356
 30
0.0
 11
-165.5000003263013
 21
49.49999886308205
 31
0.0
  0
LINE
  5
1688E
330
3E7
100
AcDbEntity
  8
OUTLINE
  6
CONTINUOUS
100
AcDbLine
 10
-165.5000002507349
 20
38.49999886308296
 30
0.0
 11
-165.0000002507423
 21
38.49999886651811
 31
0.0
  0
LINE
  5
1688F
330
3E7
100
AcDbEntity
  8
OUTLINE
  6
CONTINUOUS
100
AcDbLine
 10
-165.5000003331715
 20
50.49999886308114
 30
0.0
 11
-165.0000003331788
 21
50.4999988665163
 31
0.0
  0
ARC
  5
16890
330
3E7
100
AcDbEntity
  8
OUTLINE
100
AcDbCircle
 10
-167.4667040608984
 20
47.96411017769832
 30
0.0
 40
2.044618284539545
100
AcDbArc
 50
145.6152229987064
 51
214.3847777885134
  0
ARC
  5
16891
330
3E7
100
AcDbEntity
  8
OUTLINE
100
AcDbCircle
 10
-161.868654490354
 20
44.50001414681582
 30
0.0
 40
7.642667831145472
100
AcDbArc
 50
162.4118774770995
 51
197.588123310093
  0
ARC
  5
16892
330
3E7
100
AcDbEntity
  8
OUTLINE
100
AcDbCircle
 10
-167.4666547047581
 20
41.03590278023648
 30
0.0
 40
2.044667594508958
100
AcDbArc
 50
145.6156504574601
 51
214.3843503297385
  0
ARC
  5
16893
330
3E7
100
AcDbEntity
  8
OUTLINE
  6
CONTINUOUS
100
AcDbCircle
 10
-163.9999965199731
 20
27.00001579184345
 30
0.0
 40
1.000003651910742
100
AcDbArc
 50
180.0009697462538
 51
261.8177758976666
  0
LINE
  5
16894
330
3E7
100
AcDbEntity
  8
OUTLINE
  6
CONTINUOUS
100
AcDbLine
 10
-164.5339737453761
 20
9.499998869718636
 30
0.0
 11
-156.4510728405695
 21
23.49999892524101
 31
0.0
  0
ARC
  5
16895
330
3E7
100
AcDbEntity
  8
OUTLINE
  6
CONTINUOUS
100
AcDbCircle
 10
-153.8530050763857
 20
22.000013591919
 30
0.0
 40
2.999985351213464
100
AcDbArc
 50
89.99969973802299
 51
150.0001619211793
  0
ARC
  5
16896
330
3E7
100
AcDbEntity
  8
OUTLINE
  6
CONTINUOUS
100
AcDbCircle
 10
-167.1320591164676
 20
11.0000146991574
 30
0.0
 40
3.000015847289091
100
AcDbArc
 50
270.0000360061325
 51
329.9998256530221
  0
LINE
  5
16897
330
3E7
100
AcDbEntity
  8
OUTLINE
  6
CONTINUOUS
100
AcDbLine
 10
-159.7999955302149
 20
17.69952282801659
 30
0.0
 11
-159.7999955872365
 21
25.99999890223534
 31
0.0
  0
LINE
  5
16898
330
3E7
100
AcDbEntity
  8
OUTLINE
  6
CONTINUOUS
100
AcDbLine
 10
-158.2000047045368
 20
20.47076307338192
 30
0.0
 11
-158.2000047425209
 21
25.99999891322659
 31
0.0
  0
LINE
  5
16899
330
3E7
100
AcDbEntity
  8
OUTLINE
  6
CONTINUOUS
100
AcDbLine
 10
-157.5381013611695
 20
25.99999891777815
 30
0.0
 11
-156.2477265899525
 21
23.76501357507732
 31
0.0
  0
ARC
  5
1689A
330
3E7
100
AcDbEntity
  8
OUTLINE
100
AcDbCircle
 10
-154.9713814030965
 20
28.50322886991625
 30
0.0
 40
3.506101695200711
100
AcDbArc
 50
225.5583491655734
 51
267.6808487485696
  0
ARC
  5
1689B
330
3E7
100
AcDbEntity
  8
OUTLINE
  6
CONTINUOUS
100
AcDbCircle
 10
-196.4000110239268
 20
5.000008128239186
 30
0.0
 40
2.999990522584048
100
AcDbArc
 50
89.99981938743756
 51
180.0001813997875
  0
LINE
  5
1689C
330
3E7
100
AcDbEntity
  8
OUTLINE
  6
CONTINUOUS
100
AcDbLine
 10
-194.4000015121455
 20
-0.0000013354519979
 30
0.0
 11
-194.4000015258843
 21
1.999998664550729
 31
0.0
  0
LINE
  5
1689D
330
3E7
100
AcDbEntity
  8
OUTLINE
  6
CONTINUOUS
100
AcDbLine
 10
-199.4000015258843
 20
1.999998630202298
 30
0.0
 11
-199.4000015464935
 21
4.99999863019957
 31
0.0
  0
LINE
  5
1689E
330
3E7
100
AcDbEntity
  8
OUTLINE
  6
CONTINUOUS
100
AcDbLine
 10
-194.4000015258843
 20
1.999998664550729
 30
0.0
 11
-199.4000015258843
 21
1.999998630202298
 31
0.0
  0
ARC
  5
1689F
330
3E7
100
AcDbEntity
  8
OUTLINE
  6
CONTINUOUS
100
AcDbCircle
 10
-141.3811688068181
 20
25.20000312860929
 30
0.0
 40
3.200004100020294
100
AcDbArc
 50
209.999285641926
 51
269.9993907257407
  0
ARC
  5
168A0
330
3E7
100
AcDbEntity
  8
OUTLINE
  6
CONTINUOUS
100
AcDbCircle
 10
-145.9999753677676
 20
23.20000564999691
 30
0.0
 40
1.799993347122213
100
AcDbArc
 50
30.00122415634713
 51
90.00054624865267
  0
LINE
  5
168A1
330
3E7
100
AcDbEntity
  8
OUTLINE
  6
CONTINUOUS
100
AcDbLine
 10
-144.4411546318115
 20
24.10003562883912
 30
0.0
 11
-144.1524735980893
 21
23.600035630825
 31
0.0
  0
LINE
  5
168C7
330
3E7
100
AcDbEntity
  8
OUTLINE
100
AcDbLine
 10
-167.0000016812955
 20
246.7426746340315
 30
0.0
 11
-165.0000016504928
 21
242.2573841204245
 31
0.0
  0
LINE
  5
168EA
330
3E7
100
AcDbEntity
  8
OUTLINE
  6
CONTINUOUS
100
AcDbLine
 10
164.9999998282581
 20
27.00000113348778
 30
0.0
 11
164.9999987497284
 21
184.0000316510668
 31
0.0
  0
LINE
  5
168EB
330
3E7
100
AcDbEntity
  8
OUTLINE
  6
CONTINUOUS
100
AcDbLine
 10
212.5999908447173
 20
2.000001460481144
 30
0.0
 11
217.5999908447173
 21
2.00000149482912
 31
0.0
  0
LINE
  5
168EC
330
3E7
100
AcDbEntity
  8
OUTLINE
  6
CONTINUOUS
100
AcDbLine
 10
166.3320464675579
 20
8.000001142637755
 30
0.0
 11
214.447769123815
 21
8.000001473174052
 31
0.0
  0
LINE
  5
168ED
330
3E7
100
AcDbEntity
  8
OUTLINE
  6
CONTINUOUS
100
AcDbLine
 10
75.99998477083487
 20
27.00002421354838
 30
0.0
 11
76.99998490991845
 21
27.000024074473
 31
0.0
  0
LINE
  5
168EE
330
3E7
100
AcDbEntity
  8
OUTLINE
  6
CONTINUOUS
100
AcDbLine
 10
76.99998477083852
 20
26.00002393539398
 30
0.0
 11
76.99998490991845
 21
27.000024074473
 31
0.0
  0
LINE
  5
168EF
330
3E7
100
AcDbEntity
  8
OUTLINE
  6
CONTINUOUS
100
AcDbLine
 10
74.9999846317695
 20
27.00002435262831
 30
0.0
 11
74.99998449268956
 21
26.00002421354929
 31
0.0
  0
LINE
  5
168F0
330
3E7
100
AcDbEntity
  8
OUTLINE
  6
CONTINUOUS
100
AcDbLine
 10
74.9999846317695
 20
27.00002435262831
 30
0.0
 11
75.99998477083487
 21
27.00002421354838
 31
0.0
  0
LINE
  5
168F1
330
3E7
100
AcDbEntity
  8
OUTLINE
  6
CONTINUOUS
100
AcDbLine
 10
36.71929916802389
 20
23.60003687334346
 30
0.0
 11
35.54801926883907
 21
22.4287111817025
 31
0.0
  0
LINE
  5
168F2
330
3E7
100
AcDbEntity
  8
OUTLINE
  6
CONTINUOUS
100
AcDbLine
 10
35.54801926883907
 20
22.4287111817025
 30
0.0
 11
33.94802079766475
 21
22.00000023321217
 31
0.0
  0
LINE
  5
168F3
330
3E7
100
AcDbEntity
  8
OUTLINE
100
AcDbLine
 10
36.71929916802389
 20
23.60003687334346
 30
0.0
 11
37.97080977852043
 21
25.00000026084899
 31
0.0
  0
LINE
  5
168F4
330
3E7
100
AcDbEntity
  8
OUTLINE
  6
CONTINUOUS
100
AcDbLine
 10
165.4999996410531
 20
54.25000113692203
 30
0.0
 11
165.499999723488
 21
42.25000113691931
 31
0.0
  0
LINE
  5
168F5
330
3E7
100
AcDbEntity
  8
OUTLINE
  6
CONTINUOUS
100
AcDbLine
 10
166.2999874418945
 20
53.10565299788231
 30
0.0
 11
166.2999875088768
 21
43.35498161116356
 31
0.0
  0
LINE
  5
168F6
330
3E7
100
AcDbEntity
  8
OUTLINE
  6
CONTINUOUS
100
AcDbLine
 10
169.1540524483824
 20
43.6312267479584
 30
0.0
 11
166.2999875069798
 21
43.63122672835196
 31
0.0
  0
LINE
  5
168F7
330
3E7
100
AcDbEntity
  8
OUTLINE
  6
CONTINUOUS
100
AcDbLine
 10
169.7999874512114
 20
51.75000116646106
 30
0.0
 11
169.7999874992982
 21
44.75000116645833
 31
0.0
  0
LINE
  5
168F8
330
3E7
100
AcDbEntity
  8
OUTLINE
  6
CONTINUOUS
100
AcDbLine
 10
169.1540524325171
 20
45.94061395499148
 30
0.0
 11
166.2999874911145
 21
45.94061393538503
 31
0.0
  0
LINE
  5
168F9
330
3E7
100
AcDbEntity
  8
OUTLINE
  6
CONTINUOUS
100
AcDbLine
 10
169.1540523849233
 20
52.86883661123875
 30
0.0
 11
166.2999874435206
 21
52.86883659163231
 31
0.0
  0
LINE
  5
168FA
330
3E7
100
AcDbEntity
  8
OUTLINE
  6
CONTINUOUS
100
AcDbLine
 10
169.1540524007884
 20
50.55944940421023
 30
0.0
 11
166.2999874593858
 21
50.55944938460335
 31
0.0
  0
LINE
  5
168FB
330
3E7
100
AcDbEntity
  8
OUTLINE
  6
CONTINUOUS
100
AcDbLine
 10
166.2999874418945
 20
53.10565299788231
 30
0.0
 11
166.2865597069739
 21
53.18505973607262
 31
0.0
  0
LINE
  5
168FC
330
3E7
100
AcDbEntity
  8
OUTLINE
  6
CONTINUOUS
100
AcDbLine
 10
166.2865597069739
 20
53.18505973607262
 30
0.0
 11
166.263427382624
 21
53.20361442341255
 31
0.0
  0
LINE
  5
168FD
330
3E7
100
AcDbEntity
  8
OUTLINE
  6
CONTINUOUS
100
AcDbLine
 10
166.263427382624
 20
53.20361442341255
 30
0.0
 11
166.2499996481253
 21
53.22155875926137
 31
0.0
  0
LINE
  5
168FE
330
3E7
100
AcDbEntity
  8
OUTLINE
  6
CONTINUOUS
100
AcDbLine
 10
166.2999875088768
 20
43.35498161116356
 30
0.0
 11
166.2865597747766
 21
43.31500358372795
 31
0.0
  0
LINE
  5
168FF
330
3E7
100
AcDbEntity
  8
OUTLINE
  6
CONTINUOUS
100
AcDbLine
 10
166.2865597747766
 20
43.31500358372795
 30
0.0
 11
166.2499997164303
 21
43.2785045600408
 31
0.0
  0
LINE
  5
16900
330
3E7
100
AcDbEntity
  8
OUTLINE
  6
CONTINUOUS
100
AcDbLine
 10
166.2499997164303
 20
43.2785045600408
 30
0.0
 11
166.1999508885018
 21
43.25000114172643
 31
0.0
  0
LINE
  5
16901
330
3E7
100
AcDbEntity
  8
OUTLINE
  6
CONTINUOUS
100
AcDbLine
 10
166.2499996481253
 20
53.22155875926137
 30
0.0
 11
166.1999508198058
 21
53.25000114172643
 31
0.0
  0
LINE
  5
16902
330
3E7
100
AcDbEntity
  8
OUTLINE
  6
CONTINUOUS
100
AcDbLine
 10
169.1540523849233
 20
52.86883661123875
 30
0.0
 11
169.7999874512114
 21
51.75000116646106
 31
0.0
  0
LINE
  5
16903
330
3E7
100
AcDbEntity
  8
OUTLINE
  6
CONTINUOUS
100
AcDbLine
 10
169.1540524483824
 20
43.6312267479584
 30
0.0
 11
169.7999874992982
 21
44.75000116645833
 31
0.0
  0
LINE
  5
16904
330
3E7
100
AcDbEntity
  8
OUTLINE
  6
CONTINUOUS
100
AcDbLine
 10
166.1999508885018
 20
43.25000114172643
 30
0.0
 11
165.4999997166195
 21
43.2500011369184
 31
0.0
  0
LINE
  5
16905
330
3E7
100
AcDbEntity
  8
OUTLINE
  6
CONTINUOUS
100
AcDbLine
 10
166.1999508198058
 20
53.25000114172643
 30
0.0
 11
165.4999996479235
 21
53.2500011369184
 31
0.0
  0
LINE
  5
16906
330
3E7
100
AcDbEntity
  8
OUTLINE
  6
CONTINUOUS
100
AcDbLine
 10
165.499999723488
 20
42.25000113691931
 30
0.0
 11
164.9999997234953
 21
42.25000113348413
 31
0.0
  0
LINE
  5
16907
330
3E7
100
AcDbEntity
  8
OUTLINE
  6
CONTINUOUS
100
AcDbLine
 10
165.4999996410531
 20
54.25000113692203
 30
0.0
 11
164.9999996410604
 21
54.25000113348687
 31
0.0
  0
ARC
  5
16908
330
3E7
100
AcDbEntity
  8
OUTLINE
100
AcDbCircle
 10
167.4665287578099
 20
51.71414299613207
 30
0.0
 40
2.044762415743188
100
AcDbArc
 50
325.6179867087606
 51
34.3820140784385
  0
ARC
  5
16909
330
3E7
100
AcDbEntity
  8
OUTLINE
100
AcDbCircle
 10
161.8679024033314
 20
48.25003162954407
 30
0.0
 40
7.643388793156777
100
AcDbArc
 50
342.4134706291253
 51
17.58653015811686
  0
ARC
  5
1690A
330
3E7
100
AcDbEntity
  8
OUTLINE
100
AcDbCircle
 10
167.4665287741153
 20
44.78592033988252
 30
0.0
 40
2.044762441566529
100
AcDbArc
 50
325.6179872038018
 51
34.38201358339723
  0
ARC
  5
1690B
330
3E7
100
AcDbEntity
  8
OUTLINE
100
AcDbCircle
 10
183.9999995549221
 20
66.78839237729062
 30
0.0
 40
6.0
100
AcDbArc
 50
270.0000003935995
 51
0.0000003935995917
  0
LINE
  5
1690C
330
3E7
100
AcDbEntity
  8
OUTLINE
100
AcDbLine
 10
164.9999995961441
 20
60.78839224676812
 30
0.0
 11
183.9999995961406
 21
60.78839237729062
 31
0.0
  0
ARC
  5
1690D
330
3E7
100
AcDbEntity
  8
OUTLINE
100
AcDbCircle
 10
163.9999895878316
 20
27.00001136703895
 30
0.0
 40
1.000010240473464
100
AcDbArc
 50
270.0005871204969
 51
359.9994136667282
  0
LINE
  5
1690E
330
3E7
100
AcDbEntity
  8
OUTLINE
  6
CONTINUOUS
100
AcDbLine
 10
212.5999908584562
 20
0.0000014604784155
 30
0.0
 11
212.5999908447173
 21
2.000001460481144
 31
0.0
  0
LINE
  5
1690F
330
3E7
100
AcDbEntity
  8
OUTLINE
  6
CONTINUOUS
100
AcDbLine
 10
159.1999967833543
 20
26.00000109364055
 30
0.0
 11
159.1999968427551
 21
17.35302843739327
 31
0.0
  0
LINE
  5
16910
330
3E7
100
AcDbEntity
  8
OUTLINE
  6
CONTINUOUS
100
AcDbLine
 10
160.7999877065265
 20
14.58178821401043
 30
0.0
 11
160.7999876280881
 21
26.00000110463179
 31
0.0
  0
LINE
  5
16911
330
3E7
100
AcDbEntity
  8
OUTLINE
  6
CONTINUOUS
100
AcDbLine
 10
155.6510618640128
 20
23.50000106926063
 30
0.0
 11
163.7339629611665
 21
9.500001124790742
 31
0.0
  0
ARC
  5
16912
330
3E7
100
AcDbEntity
  8
OUTLINE
  6
CONTINUOUS
100
AcDbCircle
 10
166.3320511332293
 20
11.0000218770815
 30
0.0
 40
3.000020734447866
100
AcDbArc
 50
210.0002290222031
 51
269.9999108929624
  0
ARC
  5
16913
330
3E7
100
AcDbEntity
  8
OUTLINE
  6
CONTINUOUS
100
AcDbCircle
 10
153.0530042307399
 20
22.00003321166831
 30
0.0
 40
2.999967839764453
100
AcDbArc
 50
29.99964576968469
 51
90.00020272115461
  0
LINE
  5
16914
330
3E7
100
AcDbEntity
  8
OUTLINE
  6
CONTINUOUS
100
AcDbLine
 10
157.538101031423
 20
26.00000108222775
 30
0.0
 11
156.1524809307119
 21
23.60003769380273
 31
0.0
  0
ARC
  5
16915
330
3E7
100
AcDbEntity
  8
OUTLINE
100
AcDbCircle
 10
155.4720326563819
 20
27.36629426234367
 30
0.0
 40
2.393340557634501
100
AcDbArc
 50
261.3780067624658
 51
325.1888842694158
  0
LINE
  5
16916
330
3E7
100
AcDbEntity
  8
OUTLINE
100
AcDbLine
 10
156.1524809307119
 20
23.60003769380273
 30
0.0
 11
155.8220182601797
 21
23.20389580853043
 31
0.0
  0
ARC
  5
16917
330
3E7
100
AcDbEntity
  8
OUTLINE
  6
CONTINUOUS
100
AcDbCircle
 10
214.5945915082883
 20
4.99819010066858
 30
0.0
 40
3.005399861696522
100
AcDbArc
 50
0.034532924522236
 51
92.80017737773471
  0
LINE
  5
16918
330
3E7
100
AcDbEntity
  8
OUTLINE
  6
CONTINUOUS
100
AcDbLine
 10
217.5999908241081
 20
5.000001494826391
 30
0.0
 11
217.5999908447173
 21
2.00000149482912
 31
0.0
  0
ARC
  5
16920
330
3E7
100
AcDbEntity
  8
OUTLINE
  6
CONTINUOUS
100
AcDbCircle
 10
164.0000015178044
 20
246.8426683847128
 30
0.0
 40
2.999990630933706
100
AcDbArc
 50
314.9997425779441
 51
351.8173304311661
  0
ARC
  5
16921
330
3E7
100
AcDbEntity
  8
OUTLINE
  6
CONTINUOUS
100
AcDbCircle
 10
167.999982627103
 20
242.3573425646368
 30
0.0
 40
2.999984278674363
100
AcDbArc
 50
134.9995256851753
 51
179.9990464733311
  0
LINE
  5
16922
330
3E7
100
AcDbEntity
  8
OUTLINE
  6
CONTINUOUS
100
AcDbLine
 10
165.8786909612206
 20
244.4786693524174
 30
0.0
 11
166.1213057056481
 21
244.721345135335
 31
0.0
  0
LINE
  5
16923
330
3E7
100
AcDbEntity
  8
OUTLINE
  6
CONTINUOUS
100
AcDbLine
 10
166.9999983144988
 20
247.3570262937129
 30
0.0
 11
166.9694502252548
 21
246.4156810786614
 31
0.0
  0
ARC
  5
16924
330
3E7
100
AcDbEntity
  8
OUTLINE
100
AcDbCircle
 10
167.4665276217381
 20
212.535950857464
 30
0.0
 40
2.044762441566529
100
AcDbArc
 50
325.6179872038018
 51
34.38201358339723
  0
ARC
  5
16925
330
3E7
100
AcDbEntity
  8
OUTLINE
100
AcDbCircle
 10
161.8679012509543
 20
216.0000621471258
 30
0.0
 40
7.643388793156777
100
AcDbArc
 50
342.4134706291253
 51
17.58653015811686
  0
ARC
  5
16926
330
3E7
100
AcDbEntity
  8
OUTLINE
100
AcDbCircle
 10
167.4665276054328
 20
219.4641735137138
 30
0.0
 40
2.044762415743188
100
AcDbArc
 50
325.6179867087606
 51
34.3820140784385
  0
LINE
  5
16927
330
3E7
100
AcDbEntity
  8
OUTLINE
  6
CONTINUOUS
100
AcDbLine
 10
165.499998488676
 20
222.0000316545035
 30
0.0
 11
164.9999984886834
 21
222.0000316510686
 31
0.0
  0
LINE
  5
16928
330
3E7
100
AcDbEntity
  8
OUTLINE
  6
CONTINUOUS
100
AcDbLine
 10
165.4999985711107
 20
210.0000316545008
 30
0.0
 11
164.9999985711181
 21
210.0000316510659
 31
0.0
  0
LINE
  5
16929
330
3E7
100
AcDbEntity
  8
OUTLINE
  6
CONTINUOUS
100
AcDbLine
 10
166.1999496674286
 20
221.0000316593081
 30
0.0
 11
165.4999984955464
 21
221.0000316544999
 31
0.0
  0
LINE
  5
1692A
330
3E7
100
AcDbEntity
  8
OUTLINE
  6
CONTINUOUS
100
AcDbLine
 10
166.1999497361247
 20
211.0000316593082
 30
0.0
 11
165.4999985642423
 21
211.0000316544998
 31
0.0
  0
LINE
  5
1692B
330
3E7
100
AcDbEntity
  8
OUTLINE
  6
CONTINUOUS
100
AcDbLine
 10
169.154051296005
 20
211.3812572655398
 30
0.0
 11
169.7999863469209
 21
212.5000316840401
 31
0.0
  0
LINE
  5
1692C
330
3E7
100
AcDbEntity
  8
OUTLINE
  6
CONTINUOUS
100
AcDbLine
 10
169.1540512325462
 20
220.6188671288205
 30
0.0
 11
169.799986298834
 21
219.5000316840428
 31
0.0
  0
LINE
  5
1692D
330
3E7
100
AcDbEntity
  8
OUTLINE
  6
CONTINUOUS
100
AcDbLine
 10
166.2499984957483
 20
220.9715892768431
 30
0.0
 11
166.1999496674286
 21
221.0000316593081
 31
0.0
  0
LINE
  5
1692E
330
3E7
100
AcDbEntity
  8
OUTLINE
  6
CONTINUOUS
100
AcDbLine
 10
166.2499985640531
 20
211.0285350776222
 30
0.0
 11
166.1999497361247
 21
211.0000316593082
 31
0.0
  0
LINE
  5
1692F
330
3E7
100
AcDbEntity
  8
OUTLINE
  6
CONTINUOUS
100
AcDbLine
 10
166.2865586223996
 20
211.0650341013097
 30
0.0
 11
166.2499985640531
 21
211.0285350776222
 31
0.0
  0
LINE
  5
16930
330
3E7
100
AcDbEntity
  8
OUTLINE
  6
CONTINUOUS
100
AcDbLine
 10
166.2999863564999
 20
211.1050121287453
 30
0.0
 11
166.2865586223996
 21
211.0650341013097
 31
0.0
  0
LINE
  5
16931
330
3E7
100
AcDbEntity
  8
OUTLINE
  6
CONTINUOUS
100
AcDbLine
 10
166.2634262302471
 20
220.9536449409942
 30
0.0
 11
166.2499984957483
 21
220.9715892768431
 31
0.0
  0
LINE
  5
16932
330
3E7
100
AcDbEntity
  8
OUTLINE
  6
CONTINUOUS
100
AcDbLine
 10
166.2865585545968
 20
220.9350902536543
 30
0.0
 11
166.2634262302471
 21
220.9536449409942
 31
0.0
  0
LINE
  5
16933
330
3E7
100
AcDbEntity
  8
OUTLINE
  6
CONTINUOUS
100
AcDbLine
 10
166.2999862895173
 20
220.8556835154638
 30
0.0
 11
166.2865585545968
 21
220.9350902536543
 31
0.0
  0
LINE
  5
16934
330
3E7
100
AcDbEntity
  8
OUTLINE
  6
CONTINUOUS
100
AcDbLine
 10
169.1540512484114
 20
218.3094799217919
 30
0.0
 11
166.2999863070089
 21
218.309479902185
 31
0.0
  0
LINE
  5
16935
330
3E7
100
AcDbEntity
  8
OUTLINE
  6
CONTINUOUS
100
AcDbLine
 10
169.1540512325462
 20
220.6188671288205
 30
0.0
 11
166.2999862911433
 21
220.6188671092141
 31
0.0
  0
LINE
  5
16936
330
3E7
100
AcDbEntity
  8
OUTLINE
  6
CONTINUOUS
100
AcDbLine
 10
169.1540512801398
 20
213.690644472573
 30
0.0
 11
166.2999863387375
 21
213.6906444529667
 31
0.0
  0
LINE
  5
16937
330
3E7
100
AcDbEntity
  8
OUTLINE
  6
CONTINUOUS
100
AcDbLine
 10
169.799986298834
 20
219.5000316840428
 30
0.0
 11
169.7999863469209
 21
212.5000316840401
 31
0.0
  0
LINE
  5
16938
330
3E7
100
AcDbEntity
  8
OUTLINE
  6
CONTINUOUS
100
AcDbLine
 10
169.154051296005
 20
211.3812572655398
 30
0.0
 11
166.2999863546026
 21
211.3812572459337
 31
0.0
  0
LINE
  5
16939
330
3E7
100
AcDbEntity
  8
OUTLINE
  6
CONTINUOUS
100
AcDbLine
 10
166.2999862895173
 20
220.8556835154638
 30
0.0
 11
166.2999863564999
 21
211.1050121287453
 31
0.0
  0
LINE
  5
1693A
330
3E7
100
AcDbEntity
  8
OUTLINE
  6
CONTINUOUS
100
AcDbLine
 10
165.499998488676
 20
222.0000316545035
 30
0.0
 11
165.4999985711107
 21
210.0000316545008
 31
0.0
  0
LINE
  5
16946
330
3E7
100
AcDbEntity
  8
OUTLINE
  6
CONTINUOUS
100
AcDbLine
 10
-168.0000003516398
 20
608.4858081720852
 30
0.0
 11
-167.9999999176653
 21
545.314238347866
 31
0.0
  0
ARC
  5
1694A
330
3E7
100
AcDbEntity
  8
OUTLINE
  6
CONTINUOUS
100
AcDbCircle
 10
-167.0000014596663
 20
545.3142361905046
 30
0.0
 40
0.9999984580013688
100
AcDbArc
 50
179.9998763920966
 51
224.9999751843399
  0
ARC
  5
1694B
330
3E7
100
AcDbEntity
  8
OUTLINE
  6
CONTINUOUS
100
AcDbCircle
 10
-165.2929074720269
 20
542.9000254671717
 30
0.0
 40
0.5000021888264758
100
AcDbArc
 50
225.0014024626323
 51
270.0017324248735
  0
LINE
  5
1694C
330
3E7
100
AcDbEntity
  8
OUTLINE
  6
CONTINUOUS
100
AcDbLine
 10
-165.646453756077
 20
542.5464618747778
 30
0.0
 11
-167.707107456763
 21
544.6071308059363
 31
0.0
  0
LINE
  5
16962
330
3E7
100
AcDbEntity
  8
OUTLINE
  6
CONTINUOUS
100
AcDbLine
 10
-165.6464542280683
 20
611.2535694187239
 30
0.0
 11
-167.7071079004418
 21
609.1929157180421
 31
0.0
  0
ARC
  5
16963
330
3E7
100
AcDbEntity
  8
OUTLINE
  6
CONTINUOUS
100
AcDbCircle
 10
-165.2928923478394
 20
610.9000202866281
 30
0.0
 40
0.5000029919483456
100
AcDbArc
 50
90.00005498842217
 51
135.0010329554071
  0
ARC
  5
16965
330
3E7
100
AcDbEntity
  8
OUTLINE
  6
CONTINUOUS
100
AcDbCircle
 10
-166.9999993263992
 20
608.4858092798031
 30
0.0
 40
1.000001025243839
100
AcDbArc
 50
135.0000865304459
 51
180.0000634674824
  0
LINE
  5
1697D
330
3E7
100
AcDbEntity
  8
OUTLINE
  6
CONTINUOUS
100
AcDbLine
 10
167.9999958336883
 20
608.4858104802743
 30
0.0
 11
167.9999962676409
 21
545.3142406560552
 31
0.0
  0
ARC
  5
16986
330
3E7
100
AcDbEntity
  8
OUTLINE
  6
CONTINUOUS
100
AcDbCircle
 10
165.2929038551733
 20
542.9000277381668
 30
0.0
 40
0.5000021888264758
100
AcDbArc
 50
269.9982683623256
 51
314.9985983245666
  0
LINE
  5
16987
330
3E7
100
AcDbEntity
  8
OUTLINE
  6
CONTINUOUS
100
AcDbLine
 10
165.6464501440804
 20
542.5464641506305
 30
0.0
 11
167.7071038164556
 21
544.6071331101006
 31
0.0
  0
ARC
  5
16988
330
3E7
100
AcDbEntity
  8
OUTLINE
  6
CONTINUOUS
100
AcDbCircle
 10
166.9999978096419
 20
545.3142384849538
 30
0.0
 40
0.9999984580013688
100
AcDbArc
 50
315.0000256028592
 51
0.0001243951024234
  0
ARC
  5
16992
330
3E7
100
AcDbEntity
  8
OUTLINE
100
AcDbCircle
 10
183.9999952081596
 20
699.5410688642654
 30
0.0
 40
6.0
100
AcDbArc
 50
270.0000003935985
 51
0.000000393599439
  0
LINE
  5
16993
330
3E7
100
AcDbEntity
  8
OUTLINE
100
AcDbLine
 10
166.9999952493889
 20
693.5410687474828
 30
0.0
 11
183.999995249378
 21
693.5410688642654
 31
0.0
  0
ARC
  5
16994
330
3E7
100
AcDbEntity
  8
OUTLINE
100
AcDbCircle
 10
183.9999953996971
 20
671.6589673284666
 30
0.0
 40
6.0
100
AcDbArc
 50
0.0000003935995917
 51
90.00000039359958
  0
LINE
  5
16995
330
3E7
100
AcDbEntity
  8
OUTLINE
100
AcDbLine
 10
166.9999953584919
 20
677.6589672116837
 30
0.0
 11
183.999995358479
 21
677.6589673284662
 31
0.0
  0
ARC
  5
16998
330
3E7
100
AcDbEntity
  8
OUTLINE
  6
CONTINUOUS
100
AcDbCircle
 10
166.9999948084475
 20
608.4858115742522
 30
0.0
 40
1.000001025243839
100
AcDbArc
 50
359.9999373197165
 51
44.99991425675314
  0
ARC
  5
16999
330
3E7
100
AcDbEntity
  8
OUTLINE
  6
CONTINUOUS
100
AcDbCircle
 10
165.2928877967168
 20
610.9000225576231
 30
0.0
 40
0.5000029919483456
100
AcDbArc
 50
44.99896783179166
 51
89.99994579877697
  0
LINE
  5
1699A
330
3E7
100
AcDbEntity
  8
OUTLINE
  6
CONTINUOUS
100
AcDbLine
 10
165.646449672089
 20
611.2535716945767
 30
0.0
 11
167.7071033727769
 21
609.1929180222063
 31
0.0
  0
LINE
  5
1699E
330
3E7
100
AcDbEntity
  8
OUTLINE
  6
CONTINUOUS
100
AcDbLine
 10
163.9999909623455
 20
1317.600037747723
 30
0.0
 11
-164.0000090376743
 21
1317.599974459333
 31
0.0
  0
LINE
  5
1699F
330
3E7
100
AcDbEntity
  8
OUTLINE
100
AcDbLine
 10
159.9999908222033
 20
1338.000001099147
 30
0.0
 11
-160.000016807191
 21
1337.999998900872
 31
0.0
  0
ARC
  5
169C5
330
3E7
100
AcDbEntity
  8
OUTLINE
  6
CONTINUOUS
100
AcDbCircle
 10
-174.0499958458931
 20
1196.108604161796
 30
0.0
 40
2.999984145325732
100
AcDbArc
 50
272.9998100190483
 51
359.9995480676412
  0
ARC
  5
169C6
330
3E7
100
AcDbEntity
  8
OUTLINE
100
AcDbCircle
 10
-167.4666635260219
 20
1325.135939401344
 30
0.0
 40
2.044667594508958
100
AcDbArc
 50
145.6156504574601
 51
214.3843503297385
  0
ARC
  5
169C7
330
3E7
100
AcDbEntity
  8
OUTLINE
100
AcDbCircle
 10
-161.8686633116194
 20
1328.600050767922
 30
0.0
 40
7.642667831145472
100
AcDbArc
 50
162.4118774770995
 51
197.588123310093
  0
ARC
  5
169C8
330
3E7
100
AcDbEntity
  8
OUTLINE
100
AcDbCircle
 10
-167.466712882162
 20
1332.064146798805
 30
0.0
 40
2.044618284539545
100
AcDbArc
 50
145.6152229987064
 51
214.3847777885134
  0
LINE
  5
169C9
330
3E7
100
AcDbEntity
  8
OUTLINE
  6
CONTINUOUS
100
AcDbLine
 10
-165.5000091544352
 20
1334.600035484188
 30
0.0
 11
-165.0000091544426
 21
1334.600035487623
 31
0.0
  0
LINE
  5
169CA
330
3E7
100
AcDbEntity
  8
OUTLINE
  6
CONTINUOUS
100
AcDbLine
 10
-165.5000090720005
 20
1322.60003548419
 30
0.0
 11
-165.0000090720078
 21
1322.600035487625
 31
0.0
  0
LINE
  5
169CB
330
3E7
100
AcDbEntity
  8
OUTLINE
  6
CONTINUOUS
100
AcDbLine
 10
-166.1999908370163
 20
1333.600035479381
 30
0.0
 11
-165.5000091475668
 21
1333.600035484189
 31
0.0
  0
LINE
  5
169CC
330
3E7
100
AcDbEntity
  8
OUTLINE
  6
CONTINUOUS
100
AcDbLine
 10
-166.1999907683203
 20
1323.600035479381
 30
0.0
 11
-165.5000090788709
 21
1323.600035484189
 31
0.0
  0
LINE
  5
169CD
330
3E7
100
AcDbEntity
  8
OUTLINE
  6
CONTINUOUS
100
AcDbLine
 10
-169.1540618793298
 20
1333.21884039073
 30
0.0
 11
-169.7999969302274
 21
1332.100035454649
 31
0.0
  0
LINE
  5
169CE
330
3E7
100
AcDbEntity
  8
OUTLINE
  6
CONTINUOUS
100
AcDbLine
 10
-169.1540618158706
 20
1323.98123052745
 30
0.0
 11
-169.7999968821406
 21
1325.100035454651
 31
0.0
  0
LINE
  5
169CF
330
3E7
100
AcDbEntity
  8
OUTLINE
  6
CONTINUOUS
100
AcDbLine
 10
-166.2500091473775
 20
1333.571593096223
 30
0.0
 11
-166.1999908370163
 21
1333.600035479381
 31
0.0
  0
LINE
  5
169D0
330
3E7
100
AcDbEntity
  8
OUTLINE
  6
CONTINUOUS
100
AcDbLine
 10
-166.2806792452756
 20
1323.65560798859
 30
0.0
 11
-166.2999968725526
 21
1323.704985429863
 31
0.0
  0
LINE
  5
169D1
330
3E7
100
AcDbEntity
  8
OUTLINE
  6
CONTINUOUS
100
AcDbLine
 10
-166.2500090790728
 20
1323.628508379427
 30
0.0
 11
-166.2806792452756
 21
1323.65560798859
 31
0.0
  0
LINE
  5
169D2
330
3E7
100
AcDbEntity
  8
OUTLINE
  6
CONTINUOUS
100
AcDbLine
 10
-166.1999907683203
 20
1323.600035479381
 30
0.0
 11
-166.2500090790728
 21
1323.628508379427
 31
0.0
  0
LINE
  5
169D3
330
3E7
100
AcDbEntity
  8
OUTLINE
  6
CONTINUOUS
100
AcDbLine
 10
-166.2634368816289
 20
1333.553618242613
 30
0.0
 11
-166.2500091473775
 21
1333.571593096223
 31
0.0
  0
LINE
  5
169D4
330
3E7
100
AcDbEntity
  8
OUTLINE
  6
CONTINUOUS
100
AcDbLine
 10
-166.2865997232911
 20
1333.535094072535
 30
0.0
 11
-166.2634368816289
 21
1333.553618242613
 31
0.0
  0
LINE
  5
169D5
330
3E7
100
AcDbEntity
  8
OUTLINE
  6
CONTINUOUS
100
AcDbLine
 10
-166.2999969395369
 20
1333.45568733416
 30
0.0
 11
-166.2865997232911
 21
1333.535094072535
 31
0.0
  0
LINE
  5
169D6
330
3E7
100
AcDbEntity
  8
OUTLINE
  6
CONTINUOUS
100
AcDbLine
 10
-169.1540618634645
 20
1330.909453183697
 30
0.0
 11
-166.2999969220454
 21
1330.909453203303
 31
0.0
  0
LINE
  5
169D7
330
3E7
100
AcDbEntity
  8
OUTLINE
  6
CONTINUOUS
100
AcDbLine
 10
-169.1540618793298
 20
1333.21884039073
 30
0.0
 11
-166.2999969379106
 21
1333.218840410336
 31
0.0
  0
LINE
  5
169D8
330
3E7
100
AcDbEntity
  8
OUTLINE
  6
CONTINUOUS
100
AcDbLine
 10
-169.1540618317359
 20
1326.290648252054
 30
0.0
 11
-166.2999968903169
 21
1326.290648271661
 31
0.0
  0
LINE
  5
169D9
330
3E7
100
AcDbEntity
  8
OUTLINE
  6
CONTINUOUS
100
AcDbLine
 10
-169.1540618158706
 20
1323.98123052745
 30
0.0
 11
-166.2999968744516
 21
1323.981230547055
 31
0.0
  0
LINE
  5
169DA
330
3E7
100
AcDbEntity
  8
OUTLINE
  6
CONTINUOUS
100
AcDbLine
 10
-165.5000090720005
 20
1322.60003548419
 30
0.0
 11
-165.5000091544352
 21
1334.600035484188
 31
0.0
  0
LINE
  5
169DB
330
3E7
100
AcDbEntity
  8
OUTLINE
  6
CONTINUOUS
100
AcDbLine
 10
-169.7999968821406
 20
1325.100035454651
 30
0.0
 11
-169.7999969302274
 21
1332.100035454649
 31
0.0
  0
LINE
  5
169DC
330
3E7
100
AcDbEntity
  8
OUTLINE
  6
CONTINUOUS
100
AcDbLine
 10
-166.2999968725526
 20
1323.704985429863
 30
0.0
 11
-166.2999969395369
 21
1333.45568733416
 31
0.0
  0
ARC
  5
169DD
330
3E7
100
AcDbEntity
  8
OUTLINE
  6
CONTINUOUS
100
AcDbCircle
 10
-160.0000048879555
 20
1332.999987015989
 30
0.0
 40
5.000011884897076
100
AcDbArc
 50
90.00013658404482
 51
179.9998642032064
  0
LINE
  5
169DE
330
3E7
100
AcDbEntity
  8
OUTLINE
  6
CONTINUOUS
100
AcDbLine
 10
-165.0000166773699
 20
1319.100035487621
 30
0.0
 11
-165.0000091544426
 21
1334.600035487623
 31
0.0
  0
ARC
  5
169DF
330
3E7
100
AcDbEntity
  8
OUTLINE
  6
CONTINUOUS
100
AcDbCircle
 10
-163.5000027947008
 20
1319.100009353382
 30
0.0
 40
1.500013882898251
100
AcDbArc
 50
179.9990017547217
 51
239.9996942442832
  0
ARC
  5
169E0
330
3E7
100
AcDbEntity
  8
OUTLINE
  6
CONTINUOUS
100
AcDbCircle
 10
-164.0000314779337
 20
1316.599996906477
 30
0.0
 40
0.9999775531100691
100
AcDbArc
 50
89.99871423821293
 51
180.0012865490123
  0
LINE
  5
169E1
330
3E7
100
AcDbEntity
  8
OUTLINE
  6
CONTINUOUS
100
AcDbLine
 10
-164.2500166684385
 20
1317.800963227149
 30
0.0
 11
-164.0000089366113
 21
1317.599974459333
 31
0.0
  0
LINE
  5
169E2
330
3E7
100
AcDbEntity
  8
OUTLINE
100
AcDbLine
 10
-166.9847425210664
 20
1303.313658520863
 30
0.0
 11
-165.0000089706446
 21
1307.842650233714
 31
0.0
  0
LINE
  5
169E3
330
3E7
100
AcDbEntity
  8
OUTLINE
  6
CONTINUOUS
100
AcDbLine
 10
-179.761236098162
 20
1225.499995265343
 30
0.0
 11
-167.0000088508133
 21
1225.49999898365
 31
0.0
  0
LINE
  5
169E4
330
3E7
100
AcDbEntity
  8
OUTLINE
  6
CONTINUOUS
100
AcDbLine
 10
-179.8265121322474
 20
1222.499998895541
 30
0.0
 11
-167.000008830204
 21
1222.499998983654
 31
0.0
  0
ARC
  5
169E5
330
3E7
100
AcDbEntity
  8
OUTLINE
100
AcDbCircle
 10
-179.1793028551347
 20
1223.986624806085
 30
0.0
 40
1.621399533208238
100
AcDbArc
 50
111.0331469249487
 51
246.4738825955923
  0
LINE
  5
169E8
330
3E7
100
AcDbEntity
  8
OUTLINE
  6
CONTINUOUS
100
AcDbLine
 10
-175.3000118166984
 20
1213.00005996179
 30
0.0
 11
-175.3000118819583
 21
1222.499998926636
 31
0.0
  0
LINE
  5
169E9
330
3E7
100
AcDbEntity
  8
OUTLINE
  6
CONTINUOUS
100
AcDbLine
 10
-177.8000118166984
 20
1213.000059944615
 30
0.0
 11
-177.8000118819583
 21
1222.499998909462
 31
0.0
  0
LINE
  5
169ED
330
3E7
100
AcDbEntity
  8
OUTLINE
  6
CONTINUOUS
100
AcDbLine
 10
-183.0500118166948
 20
1212.999998873393
 30
0.0
 11
-171.0500118166875
 21
1212.999998955829
 31
0.0
  0
LINE
  5
169EE
330
3E7
100
AcDbEntity
  8
OUTLINE
  6
CONTINUOUS
100
AcDbLine
 10
-183.0500117067805
 20
1196.999998873393
 30
0.0
 11
-171.0500117067731
 21
1196.99999895583
 31
0.0
  0
LINE
  5
169EF
330
3E7
100
AcDbEntity
  8
OUTLINE
  6
CONTINUOUS
100
AcDbLine
 10
-177.0500117067768
 20
1196.999998914612
 30
0.0
 11
-177.0500118166911
 21
1212.999998914611
 31
0.0
  0
LINE
  5
169F0
330
3E7
100
AcDbEntity
  8
OUTLINE
  6
CONTINUOUS
100
AcDbLine
 10
-179.050011720523
 20
1198.99999890087
 30
0.0
 11
-183.0500117205193
 21
1198.999998873393
 31
0.0
  0
LINE
  5
169F1
330
3E7
100
AcDbEntity
  8
OUTLINE
  6
CONTINUOUS
100
AcDbLine
 10
-179.0500118029576
 20
1210.999998900874
 30
0.0
 11
-179.050011720523
 21
1198.99999890087
 31
0.0
  0
LINE
  5
169F2
330
3E7
100
AcDbEntity
  8
OUTLINE
  6
CONTINUOUS
100
AcDbLine
 10
-179.0500118029576
 20
1210.999998900874
 30
0.0
 11
-183.050011802954
 21
1210.999998873394
 31
0.0
  0
LINE
  5
169F3
330
3E7
100
AcDbEntity
  8
OUTLINE
  6
CONTINUOUS
100
AcDbLine
 10
-180.550011802954
 20
1210.999998890569
 30
0.0
 11
-180.5500117205193
 21
1198.999998890567
 31
0.0
  0
LINE
  5
169F4
330
3E7
100
AcDbEntity
  8
OUTLINE
  6
CONTINUOUS
100
AcDbLine
 10
-183.0500118922574
 20
1223.999995381261
 30
0.0
 11
-183.0500117006558
 21
1196.108580416363
 31
0.0
  0
LINE
  5
169F5
330
3E7
100
AcDbEntity
  8
OUTLINE
  6
CONTINUOUS
100
AcDbLine
 10
-171.050011878513
 20
1221.99999895583
 30
0.0
 11
-175.3000118785239
 21
1221.999998926634
 31
0.0
  0
LINE
  5
169F6
330
3E7
100
AcDbEntity
  8
OUTLINE
  6
CONTINUOUS
100
AcDbLine
 10
-177.800011878524
 20
1221.99999890946
 30
0.0
 11
-179.050011878524
 21
1221.999998900872
 31
0.0
  0
ARC
  5
169F7
330
3E7
100
AcDbEntity
  8
OUTLINE
100
AcDbCircle
 10
-179.050011892261
 20
1223.999998900872
 30
0.0
 40
2.000000000001364
100
AcDbArc
 50
90.00000039365168
 51
270.0000003935475
  0
LINE
  5
169F8
330
3E7
100
AcDbEntity
  8
OUTLINE
  6
CONTINUOUS
100
AcDbLine
 10
-179.0500119060035
 20
1225.999998900874
 30
0.0
 11
-177.8000119060035
 21
1225.999998909459
 31
0.0
  0
LINE
  5
169F9
330
3E7
100
AcDbEntity
  8
OUTLINE
  6
CONTINUOUS
100
AcDbLine
 10
-179.0500118351556
 20
1215.686766478995
 30
0.0
 11
-179.050011878524
 21
1221.999998900872
 31
0.0
  0
ARC
  5
169FA
330
3E7
100
AcDbEntity
  8
OUTLINE
100
AcDbCircle
 10
-184.0338309056205
 20
1216.085250478467
 30
0.0
 40
4.999724194891213
100
AcDbArc
 50
334.428499548028
 51
355.4286092981493
  0
LINE
  5
169FB
330
3E7
100
AcDbEntity
  8
OUTLINE
  6
CONTINUOUS
100
AcDbLine
 10
-179.0500119197423
 20
1227.999998900872
 30
0.0
 11
-177.8000119197423
 21
1227.999998909458
 31
0.0
  0
ARC
  5
169FC
330
3E7
100
AcDbEntity
  8
OUTLINE
100
AcDbCircle
 10
-179.0500084001361
 20
1223.999995408753
 30
0.0
 40
4.000003492118366
100
AcDbArc
 50
90.00000039352139
 51
180.0000003938111
  0
ARC
  5
169FD
330
3E7
100
AcDbEntity
  8
OUTLINE
  6
CONTINUOUS
100
AcDbCircle
 10
-175.0500228874026
 20
1224.000005201944
 30
0.0
 40
4.000018921055627
100
AcDbArc
 50
34.61541674015082
 51
76.15367584371028
  0
LINE
  5
169FE
330
3E7
100
AcDbEntity
  8
OUTLINE
  6
CONTINUOUS
100
AcDbLine
 10
-171.3527691657547
 20
1225.499998953748
 30
0.0
 11
-171.7580731261278
 21
1226.272276782998
 31
0.0
  0
LINE
  5
169FF
330
3E7
100
AcDbEntity
  8
OUTLINE
  6
CONTINUOUS
100
AcDbLine
 10
-174.0927441577059
 20
1227.883787997427
 30
0.0
 11
-177.8000119197423
 21
1227.999998909458
 31
0.0
  0
ARC
  5
16A00
330
3E7
100
AcDbEntity
  8
OUTLINE
  6
CONTINUOUS
100
AcDbCircle
 10
-180.0500145851984
 20
1196.108599533278
 30
0.0
 40
2.999997115517551
100
AcDbArc
 50
180.000365106561
 51
252.0001057574182
  0
LINE
  5
16A01
330
3E7
100
AcDbEntity
  8
OUTLINE
  6
CONTINUOUS
100
AcDbLine
 10
-177.8000116792136
 20
1192.986571175083
 30
0.0
 11
-180.2070169901309
 21
1193.112730826515
 31
0.0
  0
LINE
  5
16A02
330
3E7
100
AcDbEntity
  8
OUTLINE
  6
CONTINUOUS
100
AcDbLine
 10
-180.9770594105557
 20
1193.25543101654
 30
0.0
 11
-180.2070169901309
 21
1193.112730826515
 31
0.0
  0
LINE
  5
16A03
330
3E7
100
AcDbEntity
  8
OUTLINE
  6
CONTINUOUS
100
AcDbLine
 10
-177.8000116792136
 20
1192.986571175083
 30
0.0
 11
-173.8929987406264
 21
1193.112730869889
 31
0.0
  0
LINE
  5
16A04
330
3E7
100
AcDbEntity
  8
OUTLINE
  6
CONTINUOUS
100
AcDbLine
 10
-171.0500118819473
 20
1222.499998955832
 30
0.0
 11
-171.0500117006614
 21
1196.108580498798
 31
0.0
  0
ARC
  5
16A25
330
3E7
100
AcDbEntity
  8
OUTLINE
  6
CONTINUOUS
100
AcDbCircle
 10
167.9999874605671
 20
1049.842676249967
 30
0.0
 40
2.999994658931586
100
AcDbArc
 50
180.0004535787509
 51
225.0003929750489
  0
ARC
  5
16A26
330
3E7
100
AcDbEntity
  8
OUTLINE
  6
CONTINUOUS
100
AcDbCircle
 10
163.9999982811384
 20
1045.357368799875
 30
0.0
 40
2.99999455149649
100
AcDbArc
 50
0.0004527288596277
 51
45.00039382500982
  0
LINE
  5
16A27
330
3E7
100
AcDbEntity
  8
OUTLINE
  6
CONTINUOUS
100
AcDbLine
 10
165.878685443258
 20
1047.721345133674
 30
0.0
 11
166.121300191018
 21
1047.478699871666
 31
0.0
  0
ARC
  5
16A2D
330
3E7
100
AcDbEntity
  8
OUTLINE
100
AcDbCircle
 10
167.4665199786119
 20
1325.135956960989
 30
0.0
 40
2.044762441566529
100
AcDbArc
 50
325.6179872038018
 51
34.38201358339723
  0
ARC
  5
16A2E
330
3E7
100
AcDbEntity
  8
OUTLINE
100
AcDbCircle
 10
161.8678936078264
 20
1328.600068250651
 30
0.0
 40
7.643388793156777
100
AcDbArc
 50
342.4134706291253
 51
17.58653015811686
  0
ARC
  5
16A2F
330
3E7
100
AcDbEntity
  8
OUTLINE
100
AcDbCircle
 10
167.4665199623063
 20
1332.064179617239
 30
0.0
 40
2.044762415743188
100
AcDbArc
 50
325.6179867087606
 51
34.3820140784385
  0
LINE
  5
16A30
330
3E7
100
AcDbEntity
  8
OUTLINE
  6
CONTINUOUS
100
AcDbLine
 10
165.49999084555
 20
1334.600037758029
 30
0.0
 11
164.9999908455571
 21
1334.600037754594
 31
0.0
  0
LINE
  5
16A31
330
3E7
100
AcDbEntity
  8
OUTLINE
  6
CONTINUOUS
100
AcDbLine
 10
165.4999909279848
 20
1322.600037758026
 30
0.0
 11
164.9999909279919
 21
1322.600037754591
 31
0.0
  0
LINE
  5
16A32
330
3E7
100
AcDbEntity
  8
OUTLINE
  6
CONTINUOUS
100
AcDbLine
 10
166.1999420243008
 20
1333.600037762834
 30
0.0
 11
165.4999908524185
 21
1333.600037758025
 31
0.0
  0
LINE
  5
16A33
330
3E7
100
AcDbEntity
  8
OUTLINE
  6
CONTINUOUS
100
AcDbLine
 10
166.1999420929968
 20
1323.600037762834
 30
0.0
 11
165.4999909211144
 21
1323.600037758025
 31
0.0
  0
LINE
  5
16A34
330
3E7
100
AcDbEntity
  8
OUTLINE
  6
CONTINUOUS
100
AcDbLine
 10
169.1540436528791
 20
1323.981263369065
 30
0.0
 11
169.7999787037931
 21
1325.100037787565
 31
0.0
  0
LINE
  5
16A35
330
3E7
100
AcDbEntity
  8
OUTLINE
  6
CONTINUOUS
100
AcDbLine
 10
169.1540435894201
 20
1333.218873232346
 30
0.0
 11
169.7999786557064
 21
1332.100037787568
 31
0.0
  0
LINE
  5
16A36
330
3E7
100
AcDbEntity
  8
OUTLINE
  6
CONTINUOUS
100
AcDbLine
 10
166.2499908526223
 20
1333.571595380369
 30
0.0
 11
166.1999420243008
 21
1333.600037762834
 31
0.0
  0
LINE
  5
16A37
330
3E7
100
AcDbEntity
  8
OUTLINE
  6
CONTINUOUS
100
AcDbLine
 10
166.249990920927
 20
1323.628541181148
 30
0.0
 11
166.1999420929968
 21
1323.600037762834
 31
0.0
  0
LINE
  5
16A38
330
3E7
100
AcDbEntity
  8
OUTLINE
  6
CONTINUOUS
100
AcDbLine
 10
166.2865509792733
 20
1323.665040204835
 30
0.0
 11
166.249990920927
 21
1323.628541181148
 31
0.0
  0
LINE
  5
16A39
330
3E7
100
AcDbEntity
  8
OUTLINE
  6
CONTINUOUS
100
AcDbLine
 10
166.2999787133738
 20
1323.705018232271
 30
0.0
 11
166.2865509792733
 21
1323.665040204835
 31
0.0
  0
LINE
  5
16A3A
330
3E7
100
AcDbEntity
  8
OUTLINE
  6
CONTINUOUS
100
AcDbLine
 10
166.2634185871191
 20
1333.55365104452
 30
0.0
 11
166.2499908526223
 21
1333.571595380369
 31
0.0
  0
LINE
  5
16A3B
330
3E7
100
AcDbEntity
  8
OUTLINE
  6
CONTINUOUS
100
AcDbLine
 10
166.2865509114706
 20
1333.535096357179
 30
0.0
 11
166.2634185871191
 21
1333.55365104452
 31
0.0
  0
LINE
  5
16A3C
330
3E7
100
AcDbEntity
  8
OUTLINE
  6
CONTINUOUS
100
AcDbLine
 10
166.2999786463896
 20
1333.45568961899
 30
0.0
 11
166.2865509114706
 21
1333.535096357179
 31
0.0
  0
LINE
  5
16A3D
330
3E7
100
AcDbEntity
  8
OUTLINE
  6
CONTINUOUS
100
AcDbLine
 10
169.1540436052835
 20
1330.909486025317
 30
0.0
 11
166.299978663881
 21
1330.909486005711
 31
0.0
  0
LINE
  5
16A3E
330
3E7
100
AcDbEntity
  8
OUTLINE
  6
CONTINUOUS
100
AcDbLine
 10
169.1540435894201
 20
1333.218873232346
 30
0.0
 11
166.2999786480176
 21
1333.218873212739
 31
0.0
  0
LINE
  5
16A3F
330
3E7
100
AcDbEntity
  8
OUTLINE
  6
CONTINUOUS
100
AcDbLine
 10
169.1540436370138
 20
1326.290650576098
 30
0.0
 11
166.2999786956111
 21
1326.290650556492
 31
0.0
  0
LINE
  5
16A40
330
3E7
100
AcDbEntity
  8
OUTLINE
  6
CONTINUOUS
100
AcDbLine
 10
169.7999786557064
 20
1332.100037787568
 30
0.0
 11
169.7999787037931
 21
1325.100037787565
 31
0.0
  0
LINE
  5
16A41
330
3E7
100
AcDbEntity
  8
OUTLINE
  6
CONTINUOUS
100
AcDbLine
 10
169.1540436528791
 20
1323.981263369065
 30
0.0
 11
166.2999787114763
 21
1323.981263349459
 31
0.0
  0
LINE
  5
16A42
330
3E7
100
AcDbEntity
  8
OUTLINE
  6
CONTINUOUS
100
AcDbLine
 10
166.2999786463896
 20
1333.45568961899
 30
0.0
 11
166.2999787133738
 21
1323.705018232271
 31
0.0
  0
LINE
  5
16A43
330
3E7
100
AcDbEntity
  8
OUTLINE
  6
CONTINUOUS
100
AcDbLine
 10
165.49999084555
 20
1334.600037758029
 30
0.0
 11
165.4999909279848
 21
1322.600037758026
 31
0.0
  0
ARC
  5
16A44
330
3E7
100
AcDbEntity
  8
OUTLINE
  6
CONTINUOUS
100
AcDbCircle
 10
163.4999832455083
 20
1319.100008034034
 30
0.0
 40
1.500007706811639
100
AcDbArc
 50
300.0001703394003
 51
0.0011352359762984
  0
ARC
  5
16A45
330
3E7
100
AcDbEntity
  8
OUTLINE
  6
CONTINUOUS
100
AcDbCircle
 10
163.9999832017034
 20
1316.60002998021
 30
0.0
 40
1.000007767543177
100
AcDbArc
 50
0.0004454358536462
 51
89.99955535137161
  0
LINE
  5
16A46
330
3E7
100
AcDbEntity
  8
OUTLINE
  6
CONTINUOUS
100
AcDbLine
 10
163.9999909623544
 20
1317.600037747722
 30
0.0
 11
164.2499909609521
 21
1317.800965483816
 31
0.0
  0
LINE
  5
16A47
330
3E7
100
AcDbEntity
  8
OUTLINE
  6
CONTINUOUS
100
AcDbLine
 10
164.9999908455571
 20
1334.600037754594
 30
0.0
 11
164.9999909520355
 21
1319.100037754592
 31
0.0
  0
ARC
  5
16A48
330
3E7
100
AcDbEntity
  8
OUTLINE
  6
CONTINUOUS
100
AcDbCircle
 10
159.9999830890625
 20
1332.99999333166
 30
0.0
 40
5.000007767493124
100
AcDbArc
 50
0.0000894023161647
 51
89.99991138488303
  0
ARC
  5
16A49
330
3E7
100
AcDbEntity
  8
OUTLINE
100
AcDbCircle
 10
183.9999910529384
 20
1304.411622357767
 30
0.0
 40
6.0
100
AcDbArc
 50
0.000000393599439
 51
90.00000039359958
  0
LINE
  5
16A4A
330
3E7
100
AcDbEntity
  8
OUTLINE
100
AcDbLine
 10
164.999991011722
 20
1310.411622227248
 30
0.0
 11
183.9999910117219
 21
1310.411622357769
 31
0.0
  0
LINE
  5
16AFD
330
3E7
100
AcDbEntity
  8
SIZE
  6
CONTINUOUS
100
AcDbLine
 10
108.9999992164957
 20
452.3993223567531
 30
0.0
 11
108.9999992164957
 21
865.3976246498912
 31
0.0
  0
LINE
  5
16B4E
330
3E7
100
AcDbEntity
  8
SIZE
  6
CONTINUOUS
100
AcDbLine
 10
152.8285478622674
 20
510.0000167536191
 30
0.0
 11
467.7027773182599
 21
510.0000167536187
 31
0.0
  0
LINE
  5
16B4F
330
3E7
100
AcDbEntity
  8
SIZE
  6
CONTINUOUS
100
AcDbLine
 10
135.8530236867263
 20
426.0000320124096
 30
0.0
 11
339.0818560244223
 21
426.0000320124096
 31
0.0
  0
LINE
  5
16B50
330
3E7
100
AcDbEntity
  8
SIZE
  6
CONTINUOUS
100
AcDbLine
 10
131.9999992164957
 20
535.3958457739536
 30
0.0
 11
131.9999992164957
 21
724.3747215200252
 31
0.0
  0
LINE
  5
16BE1
330
3E7
100
AcDbEntity
  8
SIZE
  6
CONTINUOUS
100
AcDbLine
 10
204.9999999999982
 20
1062.000001494828
 30
0.0
 11
787.1995666632868
 21
1062.000001494828
 31
0.0
  0
ENDSEC
  0
SECTION
  2
OBJECTS
  0
DICTIONARY
  5
3D5
330
0
100
AcDbDictionary
  3
ACAD_GROUP
350
3D6
  3
ACAD_LAYOUT
350
3E2
  3
ACAD_MLINESTYLE
350
3DF
  3
ACAD_PLOTSETTINGS
350
3E1
  3
ACAD_PLOTSTYLENAME
350
3D7
  3
ACDBHEADERROUNDTRIPXREC
350
16C4F
  0
DICTIONARY
  5
16A74
330
3E7
100
AcDbDictionary
280
     1
  3
ACAD_LAYOUTSELFREF
360
16C71
  0
DICTIONARY
  5
16A72
330
3E3
100
AcDbDictionary
280
     1
  3
ACAD_LAYOUTSELFREF
360
16C70
  0
DICTIONARY
  5
3D6
102
{ACAD_REACTORS
330
3D5
102
}
330
3D5
100
AcDbDictionary
  0
DICTIONARY
  5
3E2
102
{ACAD_REACTORS
330
3D5
102
}
330
3D5
100
AcDbDictionary
  0
DICTIONARY
  5
3DF
102
{ACAD_REACTORS
330
3D5
102
}
330
3D5
100
AcDbDictionary
  3
STANDARD
350
3E0
  0
DICTIONARY
  5
3E1
102
{ACAD_REACTORS
330
3D5
102
}
330
3D5
100
AcDbDictionary
  0
ACDBDICTIONARYWDFLT
  5
3D7
102
{ACAD_REACTORS
330
3D5
102
}
330
3D5
100
AcDbDictionary
281
     1
  3
Normal
350
3D8
100
AcDbDictionaryWithDefault
340
3D8
  0
DICTIONARY
  5
16C4F
102
{ACAD_REACTORS
330
3D5
102
}
330
3D5
100
AcDbDictionary
  3
CEPSNTYPE
350
16C59
  3
DIMSTYLEDATA
350
16C5D
  3
FINGERPRINTGUID
350
16C5A
  3
HYPERLINKBASE
350
16C52
  3
INSUNITS
350
16C58
  3
LAYOUTDICT
350
16C54
  3
LWETCUNION
350
16C57
  3
PLOTSETDICT
350
16C55
  3
PLOTSTYLNAMDICT
350
16C56
  3
PSVPSCALE
350
16C5C
  3
PUCSBASE
350
16C60
  3
PUCSORGBACK
350
16C66
  3
PUCSORGBOTTOM
350
16C62
  3
PUCSORGFRONT
350
16C65
  3
PUCSORGLEFT
350
16C63
  3
PUCSORGRIGHT
350
16C64
  3
PUCSORGTOP
350
16C61
  3
PUCSORTHOREF
350
16C5E
  3
PUCSORTHOVIEW
350
16C5F
  3
STYLESHEET
350
16C53
  3
TSTACKALIGN
350
16C50
  3
TSTACKSIZE
350
16C51
  3
UCSBASE
350
16C69
  3
UCSORGBACK
350
16C6F
  3
UCSORGBOTTOM
350
16C6B
  3
UCSORGFRONT
350
16C6E
  3
UCSORGLEFT
350
16C6C
  3
UCSORGRIGHT
350
16C6D
  3
UCSORGTOP
350
16C6A
  3
UCSORTHOREF
350
16C67
  3
UCSORTHOVIEW
350
16C68
  3
VERSIONGUID
350
16C5B
  0
XRECORD
  5
16C71
102
{ACAD_REACTORS
330
16A74
102
}
330
16A74
100
AcDbXrecord
340
3E7
  0
XRECORD
  5
16C70
102
{ACAD_REACTORS
330
16A72
102
}
330
16A72
100
AcDbXrecord
340
3E3
  0
MLINESTYLE
  5
3E0
102
{ACAD_REACTORS
330
3DF
102
}
330
3DF
100
AcDbMlineStyle
  2
STANDARD
 70
     0
  3

 62
   256
 51
90.0
 52
90.0
 71
     2
 49
0.5
 62
   256
  6
BYLAYER
 49
-0.5
 62
   256
  6
BYLAYER
  0
ACDBPLACEHOLDER
  5
3D8
102
{ACAD_REACTORS
330
3D7
102
}
330
3D7
100
AcDbPlaceHolder
280
     0
  0
XRECORD
  5
16C59
102
{ACAD_REACTORS
330
16C4F
102
}
330
16C4F
100
AcDbXrecord
 90
        0
  0
XRECORD
  5
16C5D
102
{ACAD_REACTORS
330
16C4F
102
}
330
16C4F
100
AcDbXrecord
1000
DSTYLE
1002
{
1070
   341
340
4A9
1070
   342
340
4A9
1002
}
  0
XRECORD
  5
16C5A
102
{ACAD_REACTORS
330
16C4F
102
}
330
16C4F
100
AcDbXrecord
  1
{D2272796-D80D-4ABD-900F-0E7B08E93DCD}
  0
XRECORD
  5
16C52
102
{ACAD_REACTORS
330
16C4F
102
}
330
16C4F
100
AcDbXrecord
  1

  0
XRECORD
  5
16C58
102
{ACAD_REACTORS
330
16C4F
102
}
330
16C4F
100
AcDbXrecord
 90
        0
  0
XRECORD
  5
16C54
102
{ACAD_REACTORS
330
16C4F
102
}
330
16C4F
100
AcDbXrecord
340
3E2
  0
XRECORD
  5
16C57
102
{ACAD_REACTORS
330
16C4F
102
}
330
16C4F
100
AcDbXrecord
 90
    10781
  0
XRECORD
  5
16C55
102
{ACAD_REACTORS
330
16C4F
102
}
330
16C4F
100
AcDbXrecord
340
3E1
  0
XRECORD
  5
16C56
102
{ACAD_REACTORS
330
16C4F
102
}
330
16C4F
100
AcDbXrecord
340
3D7
  0
XRECORD
  5
16C5C
102
{ACAD_REACTORS
330
16C4F
102
}
330
16C4F
100
AcDbXrecord
 40
0.0
  0
XRECORD
  5
16C60
102
{ACAD_REACTORS
330
16C4F
102
}
330
16C4F
100
AcDbXrecord
340
0
  0
XRECORD
  5
16C66
102
{ACAD_REACTORS
330
16C4F
102
}
330
16C4F
100
AcDbXrecord
 10
0.0
 20
0.0
 30
0.0
  0
XRECORD
  5
16C62
102
{ACAD_REACTORS
330
16C4F
102
}
330
16C4F
100
AcDbXrecord
 10
0.0
 20
0.0
 30
0.0
  0
XRECORD
  5
16C65
102
{ACAD_REACTORS
330
16C4F
102
}
330
16C4F
100
AcDbXrecord
 10
0.0
 20
0.0
 30
0.0
  0
XRECORD
  5
16C63
102
{ACAD_REACTORS
330
16C4F
102
}
330
16C4F
100
AcDbXrecord
 10
0.0
 20
0.0
 30
0.0
  0
XRECORD
  5
16C64
102
{ACAD_REACTORS
330
16C4F
102
}
330
16C4F
100
AcDbXrecord
 10
0.0
 20
0.0
 30
0.0
  0
XRECORD
  5
16C61
102
{ACAD_REACTORS
330
16C4F
102
}
330
16C4F
100
AcDbXrecord
 10
0.0
 20
0.0
 30
0.0
  0
XRECORD
  5
16C5E
102
{ACAD_REACTORS
330
16C4F
102
}
330
16C4F
100
AcDbXrecord
340
0
  0
XRECORD
  5
16C5F
102
{ACAD_REACTORS
330
16C4F
102
}
330
16C4F
100
AcDbXrecord
 70
     0
  0
XRECORD
  5
16C53
102
{ACAD_REACTORS
330
16C4F
102
}
330
16C4F
100
AcDbXrecord
  1

  0
XRECORD
  5
16C50
102
{ACAD_REACTORS
330
16C4F
102
}
330
16C4F
100
AcDbXrecord
 90
        1
  0
XRECORD
  5
16C51
102
{ACAD_REACTORS
330
16C4F
102
}
330
16C4F
100
AcDbXrecord
 90
       70
  0
XRECORD
  5
16C69
102
{ACAD_REACTORS
330
16C4F
102
}
330
16C4F
100
AcDbXrecord
340
0
  0
XRECORD
  5
16C6F
102
{ACAD_REACTORS
330
16C4F
102
}
330
16C4F
100
AcDbXrecord
 10
0.0
 20
0.0
 30
0.0
  0
XRECORD
  5
16C6B
102
{ACAD_REACTORS
330
16C4F
102
}
330
16C4F
100
AcDbXrecord
 10
0.0
 20
0.0
 30
0.0
  0
XRECORD
  5
16C6E
102
{ACAD_REACTORS
330
16C4F
102
}
330
16C4F
100
AcDbXrecord
 10
0.0
 20
0.0
 30
0.0
  0
XRECORD
  5
16C6C
102
{ACAD_REACTORS
330
16C4F
102
}
330
16C4F
100
AcDbXrecord
 10
0.0
 20
0.0
 30
0.0
  0
XRECORD
  5
16C6D
102
{ACAD_REACTORS
330
16C4F
102
}
330
16C4F
100
AcDbXrecord
 10
0.0
 20
0.0
 30
0.0
  0
XRECORD
  5
16C6A
102
{ACAD_REACTORS
330
16C4F
102
}
330
16C4F
100
AcDbXrecord
 10
0.0
 20
0.0
 30
0.0
  0
XRECORD
  5
16C67
102
{ACAD_REACTORS
330
16C4F
102
}
330
16C4F
100
AcDbXrecord
340
0
  0
XRECORD
  5
16C68
102
{ACAD_REACTORS
330
16C4F
102
}
330
16C4F
100
AcDbXrecord
 70
     0
  0
XRECORD
  5
16C5B
102
{ACAD_REACTORS
330
16C4F
102
}
330
16C4F
100
AcDbXrecord
  1
{EAD55BAE-13EF-4634-801B-7658F904D399}
  0
ENDSEC
  0
EOF
