  0
SECTION
  2
HEADER
  9
$ACADVER
  1
AC1014
  9
$ACADMAINTVER
 70
     9
  9
$DWGCODEPAGE
  3
ANSI_932
  9
$INSBASE
 10
0.0
 20
0.0
 30
0.0
  9
$EXTMIN
 10
-1121.129615977485
 20
-870.8050716686038
 30
0.0
  9
$EXTMAX
 10
1281.883360860225
 20
1007.212554574824
 30
0.0
  9
$LIMMIN
 10
-1688.076637317749
 20
-1360.835870435432
  9
$LIMMAX
 10
1936.685692813604
 20
1345.327338753799
  9
$ORTHOMODE
 70
     1
  9
$REGENMODE
 70
     1
  9
$FILLMODE
 70
     1
  9
$QTEXTMODE
 70
     0
  9
$MIRRTEXT
 70
     0
  9
$DRAGMODE
 70
     2
  9
$LTSCALE
 40
20.0
  9
$OSMODE
 70
    39
  9
$ATTMODE
 70
     1
  9
$TEXTSIZE
 40
64.0
  9
$TRACEWID
 40
0.05
  9
$TEXTSTYLE
  7
STANDARD
  9
$CLAYER
  8
DETAIL
  9
$CELTYPE
  6
BYLAYER
  9
$CECOLOR
 62
   256
  9
$CELTSCALE
 40
1.0
  9
$DELOBJ
 70
     1
  9
$DISPSILH
 70
     0
  9
$DIMSCALE
 40
1.0
  9
$DIMASZ
 40
10.0
  9
$DIMEXO
 40
20.0
  9
$DIMDLI
 40
200.0
  9
$DIMRND
 40
0.0
  9
$DIMDLE
 40
0.0
  9
$DIMEXE
 40
30.0
  9
$DIMTP
 40
0.0
  9
$DIMTM
 40
0.0
  9
$DIMTXT
 40
64.0
  9
$DIMCEN
 40
0.09
  9
$DIMTSZ
 40
0.0
  9
$DIMTOL
 70
     0
  9
$DIMLIM
 70
     0
  9
$DIMTIH
 70
     0
  9
$DIMTOH
 70
     0
  9
$DIMSE1
 70
     0
  9
$DIMSE2
 70
     0
  9
$DIMTAD
 70
     1
  9
$DIMZIN
 70
     8
  9
$DIMBLK
  1
ORIGIN
  9
$DIMASO
 70
     1
  9
$DIMSHO
 70
     0
  9
$DIMPOST
  1

  9
$DIMAPOST
  1

  9
$DIMALT
 70
     0
  9
$DIMALTD
 70
     2
  9
$DIMALTF
 40
25.4
  9
$DIMLFAC
 40
1.0
  9
$DIMTOFL
 70
     1
  9
$DIMTVP
 40
0.0
  9
$DIMTIX
 70
     0
  9
$DIMSOXD
 70
     0
  9
$DIMSAH
 70
     0
  9
$DIMBLK1
  1

  9
$DIMBLK2
  1

  9
$DIMSTYLE
  2
STANDARD
  9
$DIMCLRD
 70
     0
  9
$DIMCLRE
 70
     0
  9
$DIMCLRT
 70
     0
  9
$DIMTFAC
 40
1.0
  9
$DIMGAP
 40
20.0
  9
$DIMJUST
 70
     0
  9
$DIMSD1
 70
     0
  9
$DIMSD2
 70
     0
  9
$DIMTOLJ
 70
     1
  9
$DIMTZIN
 70
     0
  9
$DIMALTZ
 70
     0
  9
$DIMALTTZ
 70
     0
  9
$DIMFIT
 70
     3
  9
$DIMUPT
 70
     0
  9
$DIMUNIT
 70
     2
  9
$DIMDEC
 70
     4
  9
$DIMTDEC
 70
     4
  9
$DIMALTU
 70
     2
  9
$DIMALTTD
 70
     2
  9
$DIMTXSTY
  7
STANDARD
  9
$DIMAUNIT
 70
     0
  9
$LUNITS
 70
     2
  9
$LUPREC
 70
     4
  9
$SKETCHINC
 40
0.1
  9
$FILLETRAD
 40
6.0
  9
$AUNITS
 70
     1
  9
$AUPREC
 70
     3
  9
$MENU
  1
ACAD
  9
$ELEVATION
 40
0.0
  9
$PELEVATION
 40
0.0
  9
$THICKNESS
 40
0.0
  9
$LIMCHECK
 70
     0
  9
$BLIPMODE
 70
     0
  9
$CHAMFERA
 40
0.0
  9
$CHAMFERB
 40
0.0
  9
$CHAMFERC
 40
0.0
  9
$CHAMFERD
 40
0.0
  9
$SKPOLY
 70
     0
  9
$TDCREATE
 40
2450330.393205995
  9
$TDUPDATE
 40
2456737.423647095
  9
$TDINDWG
 40
1.1691549537
  9
$TDUSRTIMER
 40
1.1691544907
  9
$USRTIMER
 70
     1
  9
$ANGBASE
 50
0.0
  9
$ANGDIR
 70
     0
  9
$PDMODE
 70
     3
  9
$PDSIZE
 40
-2.0
  9
$PLINEWID
 40
0.0
  9
$COORDS
 70
     2
  9
$SPLFRAME
 70
     0
  9
$SPLINETYPE
 70
     6
  9
$SPLINESEGS
 70
     8
  9
$ATTDIA
 70
     0
  9
$ATTREQ
 70
     1
  9
$HANDLING
 70
-16383
  9
$HANDSEED
  5
16D9D
  9
$SURFTAB1
 70
     6
  9
$SURFTAB2
 70
     6
  9
$SURFTYPE
 70
     6
  9
$SURFU
 70
     6
  9
$SURFV
 70
     6
  9
$UCSNAME
  2

  9
$UCSORG
 10
0.0
 20
0.0
 30
0.0
  9
$UCSXDIR
 10
1.0
 20
0.0
 30
0.0
  9
$UCSYDIR
 10
0.0
 20
1.0
 30
0.0
  9
$PUCSNAME
  2

  9
$PUCSORG
 10
0.0
 20
0.0
 30
0.0
  9
$PUCSXDIR
 10
1.0
 20
0.0
 30
0.0
  9
$PUCSYDIR
 10
0.0
 20
1.0
 30
0.0
  9
$USERI1
 70
     0
  9
$USERI2
 70
     0
  9
$USERI3
 70
     0
  9
$USERI4
 70
     0
  9
$USERI5
 70
     0
  9
$USERR1
 40
20.0
  9
$USERR2
 40
0.0
  9
$USERR3
 40
0.0
  9
$USERR4
 40
0.0
  9
$USERR5
 40
0.0
  9
$WORLDVIEW
 70
     1
  9
$SHADEDGE
 70
     3
  9
$SHADEDIF
 70
    70
  9
$TILEMODE
 70
     1
  9
$MAXACTVP
 70
    64
  9
$PINSBASE
 10
0.0
 20
0.0
 30
0.0
  9
$PLIMCHECK
 70
     0
  9
$PEXTMIN
 10
1.000000000000000E+20
 20
1.000000000000000E+20
 30
1.000000000000000E+20
  9
$PEXTMAX
 10
-1.000000000000000E+20
 20
-1.000000000000000E+20
 30
-1.000000000000000E+20
  9
$PLIMMIN
 10
0.0
 20
0.0
  9
$PLIMMAX
 10
12.0
 20
9.0
  9
$UNITMODE
 70
     0
  9
$VISRETAIN
 70
     1
  9
$PLINEGEN
 70
     0
  9
$PSLTSCALE
 70
     1
  9
$TREEDEPTH
 70
  3020
  9
$PICKSTYLE
 70
     1
  9
$CMLSTYLE
  2
STANDARD
  9
$CMLJUST
 70
     0
  9
$CMLSCALE
 40
1.0
  9
$PROXYGRAPHICS
 70
     1
  9
$MEASUREMENT
 70
     0
  0
ENDSEC
  0
SECTION
  2
CLASSES
  0
CLASS
  1
ACDBDICTIONARYWDFLT
  2
AcDbDictionaryWithDefault
  3
AutoCAD 2000
 90
        0
280
     0
281
     0
  0
CLASS
  1
ACDBPLACEHOLDER
  2
AcDbPlaceHolder
  3
AutoCAD 2000
 90
        0
280
     0
281
     0
  0
CLASS
  1
LAYOUT
  2
AcDbLayout
  3
AutoCAD 2000
 90
        0
280
     0
281
     0
  0
CLASS
  1
LONG_TRANSACTION
  2
AcDbLongTransaction
  3
AutoCAD 2000
 90
        0
280
     0
281
     0
  0
CLASS
  1
LWPOLYLINE
  2
AcDbPolyline
  3
AutoCAD 2000
 90
        0
280
     0
281
     1
  0
CLASS
  1
HATCH
  2
AcDbHatch
  3
AutoCAD 2000
 90
        0
280
     0
281
     1
  0
CLASS
  1
XRECORD
  2
AcDbXrecord
  3
AutoCAD 2000
 90
        0
280
     0
281
     0
  0
CLASS
  1
LONG_TRANSACTION
  2
AcDbLongTransaction
  3
AutoCAD 2000
 90
        0
280
     0
281
     0
  0
CLASS
  1
LWPOLYLINE
  2
AcDbPolyline
  3
AutoCAD 2000
 90
        0
280
     0
281
     1
  0
CLASS
  1
HATCH
  2
AcDbHatch
  3
AutoCAD 2000
 90
        0
280
     0
281
     1
  0
CLASS
  1
XRECORD
  2
AcDbXrecord
  3
AutoCAD 2000
 90
        0
280
     0
281
     0
  0
CLASS
  1
LONG_TRANSACTION
  2
AcDbLongTransaction
  3
AutoCAD 2000
 90
        0
280
     0
281
     0
  0
CLASS
  1
LWPOLYLINE
  2
AcDbPolyline
  3
AutoCAD 2000
 90
        0
280
     0
281
     1
  0
CLASS
  1
HATCH
  2
AcDbHatch
  3
AutoCAD 2000
 90
        0
280
     0
281
     1
  0
CLASS
  1
XRECORD
  2
AcDbXrecord
  3
AutoCAD 2000
 90
        0
280
     0
281
     0
  0
CLASS
  1
LONG_TRANSACTION
  2
AcDbLongTransaction
  3
AutoCAD 2000
 90
        0
280
     0
281
     0
  0
CLASS
  1
LWPOLYLINE
  2
AcDbPolyline
  3
AutoCAD 2000
 90
        0
280
     0
281
     1
  0
CLASS
  1
HATCH
  2
AcDbHatch
  3
AutoCAD 2000
 90
        0
280
     0
281
     1
  0
CLASS
  1
XRECORD
  2
AcDbXrecord
  3
AutoCAD 2000
 90
        0
280
     0
281
     0
  0
ENDSEC
  0
SECTION
  2
TABLES
  0
TABLE
  2
VPORT
  5
3D1
330
0
100
AcDbSymbolTable
 70
    10
  0
VPORT
  5
16D79
330
3D1
100
AcDbSymbolTableRecord
100
AcDbViewportTableRecord
  2
*ACTIVE
 70
     0
 10
0.0
 20
0.0
 11
1.0
 21
1.0
 12
337.3139446537261
 22
47.05291886277609
 13
0.0
 23
0.0
 14
50.0
 24
50.0
 15
100.0
 25
100.0
 16
0.0
 26
0.0
 36
1.0
 17
0.0
 27
0.0
 37
0.0
 40
2538.9796394132
 41
1.56020278833967
 42
50.0
 43
0.0
 44
0.0
 50
0.0
 51
0.0
 71
     0
 72
   500
 73
     1
 74
     0
 75
     0
 76
     0
 77
     0
 78
     0
  0
ENDTAB
  0
TABLE
  2
LTYPE
  5
3CE
330
0
100
AcDbSymbolTable
 70
     5
  0
LTYPE
  5
3DC
330
3CE
100
AcDbSymbolTableRecord
100
AcDbLinetypeTableRecord
  2
BYBLOCK
 70
     0
  3

 72
    65
 73
     0
 40
0.0
  0
LTYPE
  5
3DD
330
3CE
100
AcDbSymbolTableRecord
100
AcDbLinetypeTableRecord
  2
BYLAYER
 70
     0
  3

 72
    65
 73
     0
 40
0.0
  0
LTYPE
  5
3DE
330
3CE
100
AcDbSymbolTableRecord
100
AcDbLinetypeTableRecord
  2
CONTINUOUS
 70
     0
  3
実線
 72
    65
 73
     0
 40
0.0
  0
LTYPE
  5
3ED
330
3CE
100
AcDbSymbolTableRecord
100
AcDbLinetypeTableRecord
  2
DASHDOT
 70
     0
  3
____ _ ____ _ ____ _ ____ _ ____ _ ____ _ ____
 72
    65
 73
     4
 40
5.5
 49
4.0
 74
     0
 49
-0.6
 74
     0
 49
0.3
 74
     0
 49
-0.6
 74
     0
  0
LTYPE
  5
3EE
330
3CE
100
AcDbSymbolTableRecord
100
AcDbLinetypeTableRecord
  2
CONTINOUS
 70
     0
  3
Solid line
 72
    65
 73
     0
 40
0.0
  0
LTYPE
  5
26A7
330
3CE
100
AcDbSymbolTableRecord
100
AcDbLinetypeTableRecord
  2
DOT_CENTER
 70
     0
  3
Dot_Center
 72
    65
 73
     4
 40
14.0
 49
12.0
 74
     0
 49
-1.0
 74
     0
 49
0.0
 74
     0
 49
-1.0
 74
     0
  0
LTYPE
  5
26A8
330
3CE
100
AcDbSymbolTableRecord
100
AcDbLinetypeTableRecord
  2
PHANTOM
 70
     0
  3
Phantom
 72
    65
 73
     6
 40
13.0
 49
10.0
 74
     0
 49
-1.0
 74
     0
 49
0.0
 74
     0
 49
-1.0
 74
     0
 49
0.0
 74
     0
 49
-1.0
 74
     0
  0
ENDTAB
  0
TABLE
  2
LAYER
  5
3CB
330
0
100
AcDbSymbolTable
 70
    11
  0
LAYER
  5
3D9
330
3CB
100
AcDbSymbolTableRecord
100
AcDbLayerTableRecord
  2
0
 70
     0
 62
     7
  6
CONTINUOUS
  0
LAYER
  5
3EB
330
3CB
100
AcDbSymbolTableRecord
100
AcDbLayerTableRecord
  2
SIZE
 70
     0
 62
    32
  6
CONTINUOUS
  0
LAYER
  5
3F4
330
3CB
100
AcDbSymbolTableRecord
100
AcDbLayerTableRecord
  2
DETAIL
 70
     0
 62
     5
  6
CONTINUOUS
  0
LAYER
  5
3F5
330
3CB
100
AcDbSymbolTableRecord
100
AcDbLayerTableRecord
  2
OUTLINE
 70
     0
 62
     3
  6
CONTINUOUS
  0
LAYER
  5
3F6
330
3CB
100
AcDbSymbolTableRecord
100
AcDbLayerTableRecord
  2
BASIS
 70
     0
 62
     6
  6
CONTINUOUS
  0
LAYER
  5
3F7
330
3CB
100
AcDbSymbolTableRecord
100
AcDbLayerTableRecord
  2
NOTE
 70
     0
 62
     4
  6
CONTINUOUS
  0
LAYER
  5
3F8
330
3CB
100
AcDbSymbolTableRecord
100
AcDbLayerTableRecord
  2
ARRANGE
 70
     0
 62
     1
  6
CONTINUOUS
  0
LAYER
  5
3F9
330
3CB
100
AcDbSymbolTableRecord
100
AcDbLayerTableRecord
  2
FIX
 70
     0
 62
   241
  6
CONTINUOUS
  0
LAYER
  5
3FA
330
3CB
100
AcDbSymbolTableRecord
100
AcDbLayerTableRecord
  2
ETC
 70
     0
 62
    83
  6
CONTINUOUS
  0
LAYER
  5
3FB
330
3CB
100
AcDbSymbolTableRecord
100
AcDbLayerTableRecord
  2
SERVICESPACE
 70
     0
 62
     2
  6
DASHDOT
  0
LAYER
  5
3FD
330
3CB
100
AcDbSymbolTableRecord
100
AcDbLayerTableRecord
  2
DEFPOINTS
 70
     0
 62
     7
  6
CONTINUOUS
  0
ENDTAB
  0
TABLE
  2
STYLE
  5
3CC
330
0
100
AcDbSymbolTable
 70
     1
  0
STYLE
  5
3DA
330
3CC
100
AcDbSymbolTableRecord
100
AcDbTextStyleTableRecord
  2
STANDARD
 70
     0
 40
0.0
 41
0.9
 50
0.0
 71
     0
 42
64.0
  3
SIMPLEX
  4
BIGFONT
  0
ENDTAB
  0
TABLE
  2
VIEW
  5
3CF
330
0
100
AcDbSymbolTable
 70
     1
  0
VIEW
  5
3FF
330
3CF
100
AcDbSymbolTableRecord
100
AcDbViewTableRecord
  2
ALL
 70
     0
 40
4282.62
 10
0.0
 20
41.30990399999999
 41
5940.0
 11
0.0
 21
0.0
 31
1.0
 12
0.0
 22
0.0
 32
0.0
 42
50.0
 43
0.0
 44
0.0
 50
0.0
 71
     0
  0
ENDTAB
  0
TABLE
  2
UCS
  5
3D0
330
0
100
AcDbSymbolTable
 70
     0
  0
ENDTAB
  0
TABLE
  2
APPID
  5
3D2
330
0
100
AcDbSymbolTable
 70
     1
  0
APPID
  5
3DB
330
3D2
100
AcDbSymbolTableRecord
100
AcDbRegAppTableRecord
  2
ACAD
 70
     0
  0
ENDTAB
  0
TABLE
  2
DIMSTYLE
  5
3D3
330
0
100
AcDbSymbolTable
 70
     1
  0
DIMSTYLE
105
400
330
3D3
100
AcDbSymbolTableRecord
100
AcDbDimStyleTableRecord
  2
STANDARD
 70
     0
  3

  4

  5

  6

  7

 40
1.0
 41
0.18
 42
0.0625
 43
0.38
 44
0.18
 45
0.0
 46
0.0
 47
0.0
 48
0.0
140
0.18
141
0.09
142
0.0
143
25.4
144
1.0
145
0.0
146
1.0
147
0.09
 71
     0
 72
     0
 73
     1
 74
     1
 75
     0
 76
     0
 77
     0
 78
     0
170
     0
171
     2
172
     0
173
     0
174
     0
175
     0
176
     0
177
     0
178
     0
270
     2
271
     4
272
     4
273
     2
274
     2
340
3DA
275
     1
280
     0
281
     0
282
     0
283
     1
284
     8
285
     8
286
     8
287
     3
288
     0
  0
ENDTAB
  0
TABLE
  2
BLOCK_RECORD
  5
3CA
330
0
100
AcDbSymbolTable
 70
     1
  0
BLOCK_RECORD
  5
3E7
102
{ACAD_XDICTIONARY
360
16A9C
102
}
330
3CA
100
AcDbSymbolTableRecord
100
AcDbBlockTableRecord
  2
*MODEL_SPACE
  0
BLOCK_RECORD
  5
3E3
102
{ACAD_XDICTIONARY
360
16A9A
102
}
330
3CA
100
AcDbSymbolTableRecord
100
AcDbBlockTableRecord
  2
*PAPER_SPACE
  0
BLOCK_RECORD
  5
4A9
330
3CA
100
AcDbSymbolTableRecord
100
AcDbBlockTableRecord
  2
_ORIGIN
  0
ENDTAB
  0
ENDSEC
  0
SECTION
  2
BLOCKS
  0
BLOCK
  5
3E8
330
3E7
100
AcDbEntity
  8
0
100
AcDbBlockBegin
  2
*MODEL_SPACE
 70
     0
 10
0.0
 20
0.0
 30
0.0
  3
*MODEL_SPACE
  1

  0
ENDBLK
  5
3E9
330
3E7
100
AcDbEntity
  8
0
100
AcDbBlockEnd
  0
BLOCK
  5
3E4
330
3E3
100
AcDbEntity
 67
     1
  8
0
100
AcDbBlockBegin
  2
*PAPER_SPACE
 70
     0
 10
0.0
 20
0.0
 30
0.0
  3
*PAPER_SPACE
  1

  0
ENDBLK
  5
3E5
330
3E3
100
AcDbEntity
 67
     1
  8
0
100
AcDbBlockEnd
  0
BLOCK
  5
4AA
330
4A9
100
AcDbEntity
  8
0
100
AcDbBlockBegin
  2
_ORIGIN
 70
     0
 10
0.0
 20
0.0
 30
0.0
  3
_ORIGIN
  1

  0
CIRCLE
  5
4AB
330
4A9
100
AcDbEntity
  8
0
  6
BYBLOCK
 62
     0
100
AcDbCircle
 10
0.0
 20
0.0
 30
0.0
 40
0.5
  0
LINE
  5
4AC
330
4A9
100
AcDbEntity
  8
0
  6
BYBLOCK
 62
     0
100
AcDbLine
 10
0.0
 20
0.0
 30
0.0
 11
-1.0
 21
0.0
 31
0.0
  0
ENDBLK
  5
4AD
330
4A9
100
AcDbEntity
  8
0
100
AcDbBlockEnd
  0
ENDSEC
  0
SECTION
  2
ENTITIES
  0
TEXT
  5
144A
330
3E7
100
AcDbEntity
  8
ETC
  6
CONTINUOUS
100
AcDbText
 10
853.9976465745112
 20
817.849844981537
 30
0.0
 40
64.0
  1
SPUZ6426
 41
0.9
100
AcDbText
  0
TEXT
  5
144B
330
3E7
100
AcDbEntity
  8
ETC
  6
CONTINUOUS
100
AcDbText
 10
865.8203905745121
 20
943.212554574824
 30
0.0
 40
64.0
  1
PAC
 41
0.9
100
AcDbText
  0
LINE
  5
9D8B
330
3E7
100
AcDbEntity
  8
DETAIL
  6
CONTINUOUS
100
AcDbLine
 10
-328.3999633789079
 20
194.3999977471694
 30
0.0
 11
-328.3999633789079
 21
-212.5999946234367
 31
0.0
  0
LINE
  5
9D8C
330
3E7
100
AcDbEntity
  8
DETAIL
  6
CONTINUOUS
100
AcDbLine
 10
-271.5999755859426
 20
-212.5999946234367
 30
0.0
 11
-271.5999755859426
 21
194.3999977471694
 31
0.0
  0
CIRCLE
  5
9D94
330
3E7
100
AcDbEntity
  8
DETAIL
  6
CONTINUOUS
100
AcDbCircle
 10
-479.9999755859444
 20
-11.00000408141476
 30
0.0
 40
16.5
  0
CIRCLE
  5
9DCF
330
3E7
100
AcDbEntity
  8
DETAIL
  6
CONTINUOUS
100
AcDbCircle
 10
-369.9999755859443
 20
124.9999959186252
 30
0.0
 40
16.5
  0
LINE
  5
9DD0
330
3E7
100
AcDbEntity
  8
BASIS
  6
DOT_CENTER
100
AcDbLine
 10
-369.9999755859443
 20
106.8499959186244
 30
0.0
 11
-369.9999755859443
 21
143.1499959186256
 31
0.0
  0
LINE
  5
9DD5
330
3E7
100
AcDbEntity
  8
BASIS
  6
DOT_CENTER
100
AcDbLine
 10
-351.8499755859575
 20
124.9999959186252
 30
0.0
 11
-388.1499755859495
 21
124.9999959186252
 31
0.0
  0
LINE
  5
9E13
330
3E7
100
AcDbEntity
  8
DETAIL
  6
CONTINUOUS
100
AcDbLine
 10
-324.9999694824346
 20
197.799991643652
 30
0.0
 11
-310.9999694824381
 21
197.799991643652
 31
0.0
  0
ARC
  5
9E15
330
3E7
100
AcDbEntity
  8
DETAIL
  6
CONTINUOUS
100
AcDbCircle
 10
-324.9999716199108
 20
194.399999884659
 30
0.0
 40
3.399991758995373
100
AcDbArc
 50
89.99996397954834
 51
180.0000360203995
  0
LINE
  5
9E20
330
3E7
100
AcDbEntity
  8
DETAIL
  6
CONTINUOUS
100
AcDbLine
 10
-310.4288940429813
 20
158.1999855401369
 30
0.0
 11
-289.5710449218876
 21
158.1999855401369
 31
0.0
  0
ARC
  5
9E28
330
3E7
100
AcDbEntity
  8
DETAIL
  6
CONTINUOUS
100
AcDbCircle
 10
-274.9999734484499
 20
194.399993781154
 30
0.0
 40
3.399997862503181
100
AcDbArc
 50
0.0000668341816535
 51
89.99993316584442
  0
ARC
  5
9E29
330
3E7
100
AcDbEntity
  8
DETAIL
  6
CONTINUOUS
100
AcDbCircle
 10
-288.9999716199253
 20
194.399999884659
 30
0.0
 40
3.399991758996283
100
AcDbArc
 50
89.99996397954834
 51
180.0000360203995
  0
ARC
  5
9E2B
330
3E7
100
AcDbEntity
  8
DETAIL
  6
CONTINUOUS
100
AcDbCircle
 10
-299.9999694824346
 20
180.3999977471685
 30
0.0
 40
7.600006103516081
100
AcDbArc
 50
180.0
 51
0.0
  0
ARC
  5
9E2D
330
3E7
100
AcDbEntity
  8
DETAIL
  6
CONTINUOUS
100
AcDbCircle
 10
-310.9999734484536
 20
194.399993781154
 30
0.0
 40
3.399997862503181
100
AcDbArc
 50
0.0000668341816535
 51
89.99993316584442
  0
LINE
  5
9E36
330
3E7
100
AcDbEntity
  8
DETAIL
  6
CONTINUOUS
100
AcDbLine
 10
-288.9999694824306
 20
197.799991643652
 30
0.0
 11
-274.9999694824345
 21
197.799991643652
 31
0.0
  0
LINE
  5
9E39
330
3E7
100
AcDbEntity
  8
DETAIL
  6
CONTINUOUS
100
AcDbLine
 10
-292.3999633789226
 20
180.3999977471685
 30
0.0
 11
-292.3999633789226
 21
194.3999977471694
 31
0.0
  0
LINE
  5
9E42
330
3E7
100
AcDbEntity
  8
DETAIL
  6
CONTINUOUS
100
AcDbLine
 10
-289.4999694824237
 20
137.123218572361
 30
0.0
 11
-289.4999694824237
 21
158.2141228082045
 31
0.0
  0
LINE
  5
9E43
330
3E7
100
AcDbEntity
  8
DETAIL
  6
CONTINUOUS
100
AcDbLine
 10
-295.4999694824273
 20
131.1232185723619
 30
0.0
 11
-304.4999694824237
 21
131.1232185723619
 31
0.0
  0
LINE
  5
9E49
330
3E7
100
AcDbEntity
  8
DETAIL
  6
CONTINUOUS
100
AcDbLine
 10
-307.5999755859466
 20
194.3999977471694
 30
0.0
 11
-307.5999755859466
 21
180.3999977471685
 31
0.0
  0
LINE
  5
9E4C
330
3E7
100
AcDbEntity
  8
DETAIL
  6
CONTINUOUS
100
AcDbLine
 10
-310.4999694824273
 20
158.2141228082045
 30
0.0
 11
-310.4999694824273
 21
137.123218572361
 31
0.0
  0
LINE
  5
9E52
330
3E7
100
AcDbEntity
  8
BASIS
  6
DOT_CENTER
100
AcDbLine
 10
-479.9999755859444
 20
-29.15000408141532
 30
0.0
 11
-479.9999755859444
 21
7.149995918585772
 31
0.0
  0
LINE
  5
9E59
330
3E7
100
AcDbEntity
  8
DETAIL
  6
CONTINUOUS
100
AcDbLine
 10
-296.2471923828179
 20
104.6999950768813
 30
0.0
 11
-303.752746582033
 21
104.6999950768813
 31
0.0
  0
LINE
  5
9E5B
330
3E7
100
AcDbEntity
  8
DETAIL
  6
CONTINUOUS
100
AcDbLine
 10
-292.4944152832193
 20
98.19999507688045
 30
0.0
 11
-296.2471923828179
 21
104.6999950768813
 31
0.0
  0
LINE
  5
9E5C
330
3E7
100
AcDbEntity
  8
DETAIL
  6
CONTINUOUS
100
AcDbLine
 10
-303.752746582033
 20
91.69999603055748
 30
0.0
 11
-296.2471923828179
 21
91.69999603055748
 31
0.0
  0
LINE
  5
9E5E
330
3E7
100
AcDbEntity
  8
DETAIL
  6
CONTINUOUS
100
AcDbLine
 10
-296.2471923828179
 20
91.69999603055748
 30
0.0
 11
-292.4944152832193
 21
98.19999507688045
 31
0.0
  0
LINE
  5
9E5F
330
3E7
100
AcDbEntity
  8
DETAIL
  6
CONTINUOUS
100
AcDbLine
 10
-303.752746582033
 20
104.6999950768813
 30
0.0
 11
-307.5055236816497
 21
98.19999507688045
 31
0.0
  0
LINE
  5
9E62
330
3E7
100
AcDbEntity
  8
DETAIL
  6
CONTINUOUS
100
AcDbLine
 10
-307.5055236816497
 20
98.19999507688045
 30
0.0
 11
-303.752746582033
 21
91.69999603055748
 31
0.0
  0
CIRCLE
  5
A900
330
3E7
100
AcDbEntity
  8
DETAIL
  6
CONTINUOUS
100
AcDbCircle
 10
-49.9999755859444
 20
124.9999959186252
 30
0.0
 40
16.5
  0
CIRCLE
  5
A901
330
3E7
100
AcDbEntity
  8
DETAIL
  6
CONTINUOUS
100
AcDbCircle
 10
-209.9999755859444
 20
124.9999959186252
 30
0.0
 40
16.5
  0
LINE
  5
A902
330
3E7
100
AcDbEntity
  8
BASIS
  6
DOT_CENTER
100
AcDbLine
 10
-49.9999755859444
 20
106.8499959186244
 30
0.0
 11
-49.9999755859444
 21
143.1499959186256
 31
0.0
  0
LINE
  5
A903
330
3E7
100
AcDbEntity
  8
BASIS
  6
DOT_CENTER
100
AcDbLine
 10
-209.9999755859444
 20
106.8499959186244
 30
0.0
 11
-209.9999755859444
 21
143.1499959186256
 31
0.0
  0
LINE
  5
A904
330
3E7
100
AcDbEntity
  8
BASIS
  6
DOT_CENTER
100
AcDbLine
 10
-191.8499755859574
 20
124.9999959186252
 30
0.0
 11
-228.1499755859495
 21
124.9999959186252
 31
0.0
  0
LINE
  5
A905
330
3E7
100
AcDbEntity
  8
BASIS
  6
DOT_CENTER
100
AcDbLine
 10
-31.84997558595751
 20
124.9999959186252
 30
0.0
 11
-68.14997558594949
 21
124.9999959186252
 31
0.0
  0
CIRCLE
  5
A90A
330
3E7
100
AcDbEntity
  8
DETAIL
  6
CONTINUOUS
100
AcDbCircle
 10
110.0000244140554
 20
124.9999959186252
 30
0.0
 40
16.5
  0
LINE
  5
A90B
330
3E7
100
AcDbEntity
  8
BASIS
  6
DOT_CENTER
100
AcDbLine
 10
110.0000244140554
 20
106.8499959186244
 30
0.0
 11
110.0000244140554
 21
143.1499959186256
 31
0.0
  0
LINE
  5
A90C
330
3E7
100
AcDbEntity
  8
BASIS
  6
DOT_CENTER
100
AcDbLine
 10
128.1500244140424
 20
124.9999959186252
 30
0.0
 11
91.85002441405051
 21
124.9999959186252
 31
0.0
  0
LINE
  5
AD20
330
3E7
100
AcDbEntity
  8
DETAIL
  6
CONTINUOUS
100
AcDbLine
 10
311.000030517569
 20
197.799991643652
 30
0.0
 11
325.0000305175654
 21
197.799991643652
 31
0.0
  0
ARC
  5
AD82
330
3E7
100
AcDbEntity
  8
DETAIL
  6
CONTINUOUS
100
AcDbCircle
 10
311.0000283800745
 20
194.399999884659
 30
0.0
 40
3.399991758996738
100
AcDbArc
 50
89.99996397954834
 51
180.0000360203995
  0
ARC
  5
AD83
330
3E7
100
AcDbEntity
  8
DETAIL
  6
CONTINUOUS
100
AcDbCircle
 10
300.0000305175654
 20
180.3999977471685
 30
0.0
 40
7.600006103515852
100
AcDbArc
 50
180.0
 51
0.0
  0
ARC
  5
AD85
330
3E7
100
AcDbEntity
  8
DETAIL
  6
CONTINUOUS
100
AcDbCircle
 10
275.0000207506837
 20
194.3999922552766
 30
0.0
 40
3.399999388391393
100
AcDbArc
 50
89.99983541126322
 51
179.9999074522446
  0
ARC
  5
AD86
330
3E7
100
AcDbEntity
  8
DETAIL
  6
CONTINUOUS
100
AcDbCircle
 10
289.0000265515463
 20
194.399993781154
 30
0.0
 40
3.399997862503181
100
AcDbArc
 50
0.0000668341816535
 51
89.99993316584442
  0
LINE
  5
AD8F
330
3E7
100
AcDbEntity
  8
DETAIL
  6
CONTINUOUS
100
AcDbLine
 10
307.6000366210773
 20
180.3999977471685
 30
0.0
 11
307.6000366210773
 21
194.3999977471694
 31
0.0
  0
LINE
  5
AD98
330
3E7
100
AcDbEntity
  8
DETAIL
  6
CONTINUOUS
100
AcDbLine
 10
292.4000244140533
 20
194.3999977471694
 30
0.0
 11
292.4000244140533
 21
180.3999977471685
 31
0.0
  0
LINE
  5
AD9F
330
3E7
100
AcDbEntity
  8
DETAIL
  6
CONTINUOUS
100
AcDbLine
 10
275.0000305175654
 20
197.799991643652
 30
0.0
 11
289.0000305175616
 21
197.799991643652
 31
0.0
  0
ARC
  5
ADB0
330
3E7
100
AcDbEntity
  8
DETAIL
  6
CONTINUOUS
100
AcDbCircle
 10
325.0000265515498
 20
194.399993781154
 30
0.0
 40
3.399997862503181
100
AcDbArc
 50
0.0000668341816535
 51
89.99993316584442
  0
LINE
  5
AEC3
330
3E7
100
AcDbEntity
  8
DETAIL
  6
CONTINUOUS
100
AcDbLine
 10
307.6000366210773
 20
-203.599994623436
 30
0.0
 11
307.6000366210773
 21
-179.5999946234348
 31
0.0
  0
LINE
  5
AED4
330
3E7
100
AcDbEntity
  8
DETAIL
  6
CONTINUOUS
100
AcDbLine
 10
292.4000244140533
 20
-179.5999946234348
 30
0.0
 11
292.4000244140533
 21
-203.599994623436
 31
0.0
  0
LINE
  5
AEF8
330
3E7
100
AcDbEntity
  8
DETAIL
  6
CONTINUOUS
100
AcDbLine
 10
325.0000305175654
 20
-216.0000190375003
 30
0.0
 11
275.0000305175654
 21
-216.0000190375003
 31
0.0
  0
ARC
  5
AEFA
330
3E7
100
AcDbEntity
  8
DETAIL
  6
CONTINUOUS
100
AcDbCircle
 10
275.0000303662254
 20
-212.6000100335331
 30
0.0
 40
3.400009003964218
100
AcDbArc
 50
179.9997403143285
 51
270.0000025503778
  0
ARC
  5
AEFE
330
3E7
100
AcDbEntity
  8
DETAIL
  6
CONTINUOUS
100
AcDbCircle
 10
325.0000169360264
 20
-212.6000115594514
 30
0.0
 40
3.400007478077102
100
AcDbArc
 50
270.0002288716808
 51
0.000285400000598
  0
LINE
  5
AF05
330
3E7
100
AcDbEntity
  8
DETAIL
  6
CONTINUOUS
100
AcDbLine
 10
525.0000305175651
 20
-79.14999767519384
 30
0.0
 11
459.200012207033
 21
-79.14999767519565
 31
0.0
  0
LINE
  5
AF22
330
3E7
100
AcDbEntity
  8
DETAIL
  6
CONTINUOUS
100
AcDbLine
 10
444.1500244140643
 20
-165.0000037787085
 30
0.0
 11
444.1500244140643
 21
-94.20000072694984
 31
0.0
  0
LINE
  5
13FDF
330
3E7
100
AcDbEntity
  8
DETAIL
  6
CONTINUOUS
100
AcDbLine
 10
225.900024414057
 20
177.0499992730455
 30
0.0
 11
180.8972778320258
 21
177.0499992730455
 31
0.0
  0
LINE
  5
13FE0
330
3E7
100
AcDbEntity
  8
DETAIL
  6
CONTINUOUS
100
AcDbLine
 10
184.0586269399663
 20
183.0499992730447
 30
0.0
 11
221.9000235221191
 21
183.0499992730447
 31
0.0
  0
LINE
  5
13FE1
330
3E7
100
AcDbEntity
  8
DETAIL
  6
CONTINUOUS
100
AcDbLine
 10
221.900024414057
 20
171.0499992730483
 30
0.0
 11
184.0586242675799
 21
171.0499992730464
 31
0.0
  0
LINE
  5
13FE2
330
3E7
100
AcDbEntity
  8
DETAIL
  6
CONTINUOUS
100
AcDbLine
 10
231.3883209228495
 20
177.7999992730435
 30
0.0
 11
207.9000244140643
 21
177.7999992730435
 31
0.0
  0
LINE
  5
13FE3
330
3E7
100
AcDbEntity
  8
DETAIL
  6
CONTINUOUS
100
AcDbLine
 10
231.3883209228495
 20
180.7999992730455
 30
0.0
 11
207.9000244140643
 21
180.7999992730455
 31
0.0
  0
LINE
  5
13FE4
330
3E7
100
AcDbEntity
  8
DETAIL
  6
CONTINUOUS
100
AcDbLine
 10
510.0000305175781
 20
165.0000038506838
 30
0.0
 11
335.0000305175654
 21
165.0000038506838
 31
0.0
  0
LINE
  5
13FE5
330
3E7
100
AcDbEntity
  8
DETAIL
  6
CONTINUOUS
100
AcDbLine
 10
-510.0000000000018
 20
-165.0000037787085
 30
0.0
 11
-334.9999694824326
 21
-165.0000037787076
 31
0.0
  0
LINE
  5
13FE6
330
3E7
100
AcDbEntity
  8
DETAIL
  6
CONTINUOUS
100
AcDbLine
 10
-525.0000000000018
 20
150.0000038506831
 30
0.0
 11
-525.0000000000018
 21
-150.0000037787085
 31
0.0
  0
LINE
  5
13FE7
330
3E7
100
AcDbEntity
  8
DETAIL
  6
CONTINUOUS
100
AcDbLine
 10
143.1392621403009
 20
-190.0000037787085
 30
0.0
 11
-264.9999694824328
 21
-190.0000037787085
 31
0.0
  0
LINE
  5
13FE8
330
3E7
100
AcDbEntity
  8
DETAIL
  6
CONTINUOUS
100
AcDbLine
 10
-274.9999694824345
 20
-217.5999946234369
 30
0.0
 11
-324.9999694824346
 21
-217.5999946234369
 31
0.0
  0
LINE
  5
13FEA
330
3E7
100
AcDbEntity
  8
DETAIL
  6
CONTINUOUS
100
AcDbLine
 10
-334.9999694824326
 20
-190.0000037787085
 30
0.0
 11
-334.9999694824346
 21
-209.5999946234394
 31
0.0
  0
LINE
  5
13FED
330
3E7
100
AcDbEntity
  8
DETAIL
  6
CONTINUOUS
100
AcDbLine
 10
-331.9999694824255
 20
-212.5999946234394
 30
0.0
 11
-329.9999694824346
 21
-212.5999946234367
 31
0.0
  0
ARC
  5
13FEE
330
3E7
100
AcDbEntity
  8
DETAIL
  6
CONTINUOUS
100
AcDbCircle
 10
-324.9999772631436
 20
-212.6000024041502
 30
0.0
 40
4.999992219293091
100
AcDbArc
 50
179.9999108394603
 51
270.0000891605656
  0
ARC
  5
13FEF
330
3E7
100
AcDbEntity
  8
DETAIL
  6
CONTINUOUS
100
AcDbCircle
 10
-331.9999772631688
 20
-209.6000024041805
 30
0.0
 40
2.999992219268819
100
AcDbArc
 50
179.9998513984144
 51
270.0001486016375
  0
ARC
  5
13FF0
330
3E7
100
AcDbEntity
  8
DETAIL
100
AcDbCircle
 10
-469.1577148437553
 20
-184.0000037787085
 30
0.0
 40
6.0
100
AcDbArc
 50
180.0000000000054
 51
270.0
  0
LINE
  5
13FF1
330
3E7
100
AcDbEntity
  8
DETAIL
100
AcDbLine
 10
-475.1577148437553
 20
-184.0000037787094
 30
0.0
 11
-475.1577148437553
 21
-165.0000037787085
 31
0.0
  0
ARC
  5
13FF2
330
3E7
100
AcDbEntity
  8
DETAIL
  6
CONTINUOUS
100
AcDbCircle
 10
-509.9999879443221
 20
-149.9999917230243
 30
0.0
 40
15.00001205569363
100
AcDbArc
 50
180.0000460492953
 51
269.9999539507304
  0
LINE
  5
13FF3
330
3E7
100
AcDbEntity
  8
BASIS
100
AcDbLine
 10
-162.999978587506
 20
-256.0219598076709
 30
0.0
 11
-162.999978587506
 21
-123.9780477497461
 31
0.0
  0
LINE
  5
13FF6
330
3E7
100
AcDbEntity
  8
BASIS
  6
DOT_CENTER
100
AcDbLine
 10
-299.9999694824346
 20
-146.1145808421215
 30
0.0
 11
-299.9999694824346
 21
-225.1634313506301
 31
0.0
  0
LINE
  5
13FF7
330
3E7
100
AcDbEntity
  8
DETAIL
  6
CONTINUOUS
100
AcDbLine
 10
-264.9999694824328
 20
-190.0000037787085
 30
0.0
 11
-264.9999694824344
 21
-209.5999946234394
 31
0.0
  0
LINE
  5
13FF8
330
3E7
100
AcDbEntity
  8
DETAIL
  6
CONTINUOUS
100
AcDbLine
 10
-267.9999694824345
 20
-212.5999946234359
 30
0.0
 11
-269.9999694824345
 21
-212.5999946234367
 31
0.0
  0
ARC
  5
13FF9
330
3E7
100
AcDbEntity
  8
DETAIL
  6
CONTINUOUS
100
AcDbCircle
 10
-274.9999678052354
 20
-212.5999963006361
 30
0.0
 40
4.999998322800193
100
AcDbArc
 50
269.9999807807131
 51
0.0000192193129332
  0
ARC
  5
13FFA
330
3E7
100
AcDbEntity
  8
DETAIL
  6
CONTINUOUS
100
AcDbCircle
 10
-267.9999678052098
 20
-209.5999963006613
 30
0.0
 40
2.999998322775367
100
AcDbArc
 50
269.9999679673341
 51
0.0000320326658989
  0
ARC
  5
13FFB
330
3E7
100
AcDbEntity
  8
DETAIL
100
AcDbCircle
 10
143.1392621403009
 20
-184.0000037787085
 30
0.0
 40
6.0
100
AcDbArc
 50
270.0
 51
359.9999999999888
  0
LINE
  5
13FFC
330
3E7
100
AcDbEntity
  8
DETAIL
100
AcDbLine
 10
149.139262140301
 20
-184.0000037787094
 30
0.0
 11
149.1392621403026
 21
-165.0000037787085
 31
0.0
  0
LINE
  5
13FFD
330
3E7
100
AcDbEntity
  8
BASIS
  6
DOT_CENTER
100
AcDbLine
 10
-275.4814364189714
 20
180.4514525419134
 30
0.0
 11
-324.5185330634466
 21
180.4514525419134
 31
0.0
  0
ARC
  5
13FFE
330
3E7
100
AcDbEntity
  8
DETAIL
  6
CONTINUOUS
100
AcDbCircle
 10
-299.9999847412091
 20
180.3999959186475
 30
0.0
 40
6.000003639181832
100
AcDbArc
 50
220.9090919934946
 51
319.0909080065053
  0
LINE
  5
13FFF
330
3E7
100
AcDbEntity
  8
DETAIL
  6
CONTINUOUS
100
AcDbLine
 10
191.9000244140605
 20
180.7999992730455
 30
0.0
 11
-264.9999694824344
 21
180.7999992730455
 31
0.0
  0
LINE
  5
14000
330
3E7
100
AcDbEntity
  8
DETAIL
  6
CONTINUOUS
100
AcDbLine
 10
191.9000244140605
 20
177.7999992730435
 30
0.0
 11
-264.999938964851
 21
177.7999992730435
 31
0.0
  0
ARC
  5
14001
330
3E7
100
AcDbEntity
  8
DETAIL
100
AcDbCircle
 10
-461.0286861700878
 20
176.2148421830343
 30
0.0
 40
4.597585737168428
100
AcDbArc
 50
94.21388350712204
 51
145.785977364908
  0
ARC
  5
14002
330
3E7
100
AcDbEntity
  8
DETAIL
100
AcDbCircle
 10
-461.2821022024927
 20
176.653785474863
 30
0.0
 40
1.149317962738672
100
AcDbArc
 50
94.21199355029655
 51
145.7878673211844
  0
ARC
  5
14003
330
3E7
100
AcDbEntity
  8
DETAIL
100
AcDbCircle
 10
-471.6433771034753
 20
169.0000099905899
 30
0.0
 40
1.000013769316874
100
AcDbArc
 50
270.000316350984
 51
329.9995445210357
  0
ARC
  5
14004
330
3E7
100
AcDbEntity
  8
DETAIL
100
AcDbCircle
 10
-471.6433454072066
 20
168.9999677084333
 30
0.0
 40
3.999971487232676
100
AcDbArc
 50
269.9996250705566
 51
330.0002358015441
  0
ARC
  5
14005
330
3E7
100
AcDbEntity
  8
DETAIL
100
AcDbCircle
 10
-490.1494163783882
 20
166.4632912041985
 30
0.0
 40
1.55096918218183
100
AcDbArc
 50
109.3579073171617
 51
250.6420926828409
  0
ARC
  5
14006
330
3E7
100
AcDbEntity
  8
DETAIL
100
AcDbCircle
 10
-497.7494529994856
 20
166.4632912041985
 30
0.0
 40
1.55096918218183
100
AcDbArc
 50
109.3579073171617
 51
250.6420926828409
  0
LINE
  5
14007
330
3E7
100
AcDbEntity
  8
DETAIL
  6
CONTINUOUS
100
AcDbLine
 10
-305.3886718750088
 20
177.7999992730435
 30
0.0
 11
-304.5344848632903
 21
176.4708290459939
 31
0.0
  0
LINE
  5
14008
330
3E7
100
AcDbEntity
  8
DETAIL
  6
CONTINUOUS
100
AcDbLine
 10
-331.9999694824236
 20
194.3999977471694
 30
0.0
 11
-328.3999633789079
 21
194.3999977471694
 31
0.0
  0
LINE
  5
1400A
330
3E7
100
AcDbEntity
  8
DETAIL
  6
CONTINUOUS
100
AcDbLine
 10
-324.9999694824346
 20
199.3999977471694
 30
0.0
 11
-310.99996948242
 21
199.3999977471694
 31
0.0
  0
LINE
  5
1400E
330
3E7
100
AcDbEntity
  8
DETAIL
  6
CONTINUOUS
100
AcDbLine
 10
-305.9999694824198
 20
194.3999977471694
 30
0.0
 11
-305.9999694824198
 21
180.7999992730455
 31
0.0
  0
ARC
  5
1400F
330
3E7
100
AcDbEntity
  8
DETAIL
  6
CONTINUOUS
100
AcDbCircle
 10
-324.9999716199108
 20
194.3999998846548
 30
0.0
 40
4.999997862511465
100
AcDbArc
 50
89.99997550611787
 51
180.0000244938299
  0
ARC
  5
14010
330
3E7
100
AcDbEntity
  8
DETAIL
  6
CONTINUOUS
100
AcDbCircle
 10
-331.9999716198817
 20
191.3999998846255
 30
0.0
 40
2.999997862540873
100
AcDbArc
 50
89.99995917748845
 51
180.0000408225114
  0
LINE
  5
14011
330
3E7
100
AcDbEntity
  8
DETAIL
  6
CONTINUOUS
100
AcDbLine
 10
-334.9999694824346
 20
191.3999977471675
 30
0.0
 11
-334.9999694824326
 21
-190.0000037787085
 31
0.0
  0
ARC
  5
14013
330
3E7
100
AcDbEntity
  8
DETAIL
  6
CONTINUOUS
100
AcDbCircle
 10
-310.9999734484353
 20
194.399993781154
 30
0.0
 40
5.000003966017835
100
AcDbArc
 50
0.0000454471622229
 51
89.99995455281171
  0
LINE
  5
14014
330
3E7
100
AcDbEntity
  8
DETAIL
  6
CONTINUOUS
100
AcDbLine
 10
-462.2325439453216
 20
177.2999992730464
 30
0.0
 11
-468.1792602539116
 21
166.9999962212895
 31
0.0
  0
LINE
  5
14015
330
3E7
100
AcDbEntity
  8
DETAIL
  6
CONTINUOUS
100
AcDbLine
 10
-470.7773437499978
 20
168.4999962212905
 30
0.0
 11
-464.830627441408
 21
178.7999992730474
 31
0.0
  0
LINE
  5
14016
330
3E7
100
AcDbEntity
  8
DETAIL
  6
CONTINUOUS
100
AcDbLine
 10
-498.2635498046893
 20
167.9265785577134
 30
0.0
 11
-471.643371582033
 21
167.9999962212886
 31
0.0
  0
ARC
  5
14017
330
3E7
100
AcDbEntity
  8
DETAIL
  6
CONTINUOUS
100
AcDbCircle
 10
-509.9999838269122
 20
149.9999876775982
 30
0.0
 40
15.00001617309575
100
AcDbArc
 50
90.00006177654723
 51
179.9999382234267
  0
LINE
  5
14018
330
3E7
100
AcDbEntity
  8
DETAIL
  6
CONTINUOUS
100
AcDbLine
 10
-271.5999755859426
 20
194.3999977471694
 30
0.0
 11
-267.9999694824273
 21
194.3999977471694
 31
0.0
  0
LINE
  5
1401A
330
3E7
100
AcDbEntity
  8
DETAIL
  6
CONTINUOUS
100
AcDbLine
 10
-295.4654846191461
 20
176.4708290459939
 30
0.0
 11
-294.6112670898418
 21
177.7999992730435
 31
0.0
  0
LINE
  5
1401B
330
3E7
100
AcDbEntity
  8
DETAIL
  6
CONTINUOUS
100
AcDbLine
 10
-293.9999694824308
 20
180.7999992730455
 30
0.0
 11
-293.9999694824308
 21
194.3999977471694
 31
0.0
  0
LINE
  5
1401F
330
3E7
100
AcDbEntity
  8
DETAIL
  6
CONTINUOUS
100
AcDbLine
 10
-288.9999694824306
 20
199.3999977471694
 30
0.0
 11
-274.9999694824345
 21
199.3999977471694
 31
0.0
  0
ARC
  5
14020
330
3E7
100
AcDbEntity
  8
DETAIL
  6
CONTINUOUS
100
AcDbCircle
 10
-288.9999716199253
 20
194.3999998846548
 30
0.0
 40
4.999997862511465
100
AcDbArc
 50
89.99997550611787
 51
180.0000244938299
  0
ARC
  5
14021
330
3E7
100
AcDbEntity
  8
DETAIL
  6
CONTINUOUS
100
AcDbCircle
 10
-267.999973448479
 20
191.3999937811249
 30
0.0
 40
3.000003966047763
100
AcDbArc
 50
0.0000757457827885
 51
89.99992425416509
  0
ARC
  5
14022
330
3E7
100
AcDbEntity
  8
DETAIL
  6
CONTINUOUS
100
AcDbCircle
 10
-274.9999734484499
 20
194.399993781154
 30
0.0
 40
5.000003966017835
100
AcDbArc
 50
0.0000454471622229
 51
89.99995455281171
  0
LINE
  5
14023
330
3E7
100
AcDbEntity
  8
BASIS
  6
DOT_CENTER
100
AcDbLine
 10
-299.9999847412091
 20
201.0404141190046
 30
0.0
 11
-299.9999847412091
 21
159.8624909648233
 31
0.0
  0
LINE
  5
14024
330
3E7
100
AcDbEntity
  8
DETAIL
  6
CONTINUOUS
100
AcDbLine
 10
-264.9999694824344
 20
191.3999977471675
 30
0.0
 11
-264.9999694824328
 21
-190.0000037787085
 31
0.0
  0
LINE
  5
14026
330
3E7
100
AcDbEntity
  8
DETAIL
  6
CONTINUOUS
100
AcDbLine
 10
191.9000244140605
 20
183.0499992730447
 30
0.0
 11
191.9000244140605
 21
171.0901063689916
 31
0.0
  0
LINE
  5
14027
330
3E7
100
AcDbEntity
  8
DETAIL
  6
CONTINUOUS
100
AcDbLine
 10
181.3069915771466
 20
181.2451973321284
 30
0.0
 11
181.1656188964825
 21
180.7999992730455
 31
0.0
  0
LINE
  5
14028
330
3E7
100
AcDbEntity
  8
DETAIL
  6
CONTINUOUS
100
AcDbLine
 10
180.9365844726544
 20
177.7999992730435
 30
0.0
 11
180.8972778320258
 21
177.0499992730455
 31
0.0
  0
LINE
  5
14029
330
3E7
100
AcDbEntity
  8
DETAIL
  6
CONTINUOUS
100
AcDbLine
 10
207.9000244140643
 20
183.0499992730447
 30
0.0
 11
207.9000244140643
 21
171.0687159178223
 31
0.0
  0
ARC
  5
1402A
330
3E7
100
AcDbEntity
  8
DETAIL
  6
CONTINUOUS
100
AcDbCircle
 10
184.0586269399663
 20
180.0500005002285
 30
0.0
 40
2.999998772820216
100
AcDbArc
 50
90.00005103892624
 51
156.521862997538
  0
LINE
  5
1402B
330
3E7
100
AcDbEntity
  8
DETAIL
  6
CONTINUOUS
100
AcDbLine
 10
180.8972778320258
 20
177.0499992730455
 30
0.0
 11
181.0627288818228
 21
173.892986333595
 31
0.0
  0
LINE
  5
1402C
330
3E7
100
AcDbEntity
  8
DETAIL
  6
CONTINUOUS
100
AcDbLine
 10
205.900024414057
 20
175.0499992730428
 30
0.0
 11
193.9000244140496
 21
175.0499992730428
 31
0.0
  0
LINE
  5
1402D
330
3E7
100
AcDbEntity
  8
DETAIL
  6
CONTINUOUS
100
AcDbLine
 10
193.9000244140496
 20
171.0874325625955
 30
0.0
 11
193.9000244140496
 21
175.0499992730428
 31
0.0
  0
LINE
  5
1402E
330
3E7
100
AcDbEntity
  8
DETAIL
  6
CONTINUOUS
100
AcDbLine
 10
205.900024414057
 20
171.081371343358
 30
0.0
 11
205.900024414057
 21
175.0499992730428
 31
0.0
  0
LINE
  5
1402F
330
3E7
100
AcDbEntity
  8
DETAIL
  6
CONTINUOUS
100
AcDbLine
 10
184.0586242675799
 20
171.0499992730464
 30
0.0
 11
183.2821655273419
 21
171.152217900977
 31
0.0
  0
ARC
  5
14030
330
3E7
100
AcDbEntity
  8
DETAIL
  6
CONTINUOUS
100
AcDbCircle
 10
184.0586184914515
 20
174.0499977279347
 30
0.0
 40
3.000001188498706
100
AcDbArc
 50
183.000066236981
 51
255.0000885561678
  0
LINE
  5
14031
330
3E7
100
AcDbEntity
  8
DETAIL
  6
CONTINUOUS
100
AcDbLine
 10
525.0000305175651
 20
-150.0000037787085
 30
0.0
 11
525.0000305175651
 21
150.0000038506831
 31
0.0
  0
LINE
  5
14032
330
3E7
100
AcDbEntity
  8
DETAIL
  6
CONTINUOUS
100
AcDbLine
 10
335.0000305175654
 20
-167.0000190374994
 30
0.0
 11
335.0000305175654
 21
-209.5999946234394
 31
0.0
  0
LINE
  5
14033
330
3E7
100
AcDbEntity
  8
DETAIL
  6
CONTINUOUS
100
AcDbLine
 10
294.0000305175654
 20
-179.5999946234394
 30
0.0
 11
294.0000305175654
 21
-203.599994623436
 31
0.0
  0
LINE
  5
14034
330
3E7
100
AcDbEntity
  8
DETAIL
  6
CONTINUOUS
100
AcDbLine
 10
306.0000305175654
 20
-203.599994623436
 30
0.0
 11
306.0000305175654
 21
-179.5999946234394
 31
0.0
  0
LINE
  5
14035
330
3E7
100
AcDbEntity
  8
BASIS
  6
DOT_CENTER
100
AcDbLine
 10
300.0000305175654
 20
-212.3281799389868
 30
0.0
 11
300.0000305175654
 21
-166.8718093078923
 31
0.0
  0
LINE
  5
14036
330
3E7
100
AcDbEntity
  8
DETAIL
  6
CONTINUOUS
100
AcDbLine
 10
265.0000305175653
 20
-167.0000190374994
 30
0.0
 11
265.0000305175653
 21
-209.5999946234394
 31
0.0
  0
LINE
  5
14037
330
3E7
100
AcDbEntity
  8
DETAIL
  6
CONTINUOUS
100
AcDbLine
 10
271.6000213622954
 20
-212.5999946234339
 30
0.0
 11
271.600021362299
 21
194.3999977471694
 31
0.0
  0
LINE
  5
14038
330
3E7
100
AcDbEntity
  8
DETAIL
  6
CONTINUOUS
100
AcDbLine
 10
328.4000244140516
 20
194.3999977471709
 30
0.0
 11
328.4000244140607
 21
-212.5999946234378
 31
0.0
  0
LINE
  5
14039
330
3E7
100
AcDbEntity
  8
DETAIL
  6
CONTINUOUS
100
AcDbLine
 10
325.0000305175654
 20
-217.5999946234369
 30
0.0
 11
275.0000305175654
 21
-217.5999946234369
 31
0.0
  0
LINE
  5
1403B
330
3E7
100
AcDbEntity
  8
DETAIL
  6
CONTINUOUS
100
AcDbLine
 10
332.0000305175653
 20
-212.5999946234378
 30
0.0
 11
328.4000244140568
 21
-212.5999946234367
 31
0.0
  0
ARC
  5
1403C
330
3E7
100
AcDbEntity
  8
DETAIL
  6
CONTINUOUS
100
AcDbCircle
 10
300.0000305175654
 20
-203.599994623436
 30
0.0
 40
6.0
100
AcDbArc
 50
180.0
 51
0.0
  0
ARC
  5
1403D
330
3E7
100
AcDbEntity
  8
DETAIL
  6
CONTINUOUS
100
AcDbCircle
 10
325.0000321947645
 20
-212.5999963006361
 30
0.0
 40
4.999998322800193
100
AcDbArc
 50
269.9999807807131
 51
0.0000192193129332
  0
LINE
  5
1403F
330
3E7
100
AcDbEntity
  8
DETAIL
  6
CONTINUOUS
100
AcDbLine
 10
271.600021362299
 20
-212.5999946234367
 30
0.0
 11
268.0000305175763
 21
-212.5999946234367
 31
0.0
  0
ARC
  5
14040
330
3E7
100
AcDbEntity
  8
DETAIL
  6
CONTINUOUS
100
AcDbCircle
 10
268.0000227368308
 20
-209.6000024041805
 30
0.0
 40
2.999992219268133
100
AcDbArc
 50
179.9998513984144
 51
270.0001486016375
  0
ARC
  5
14041
330
3E7
100
AcDbEntity
  8
DETAIL
  6
CONTINUOUS
100
AcDbCircle
 10
275.0000227368563
 20
-212.6000024041502
 30
0.0
 40
4.999992219292976
100
AcDbArc
 50
179.9999108394603
 51
270.0000891605656
  0
ARC
  5
14042
330
3E7
100
AcDbEntity
  8
DETAIL
  6
CONTINUOUS
100
AcDbCircle
 10
332.0000321947897
 20
-209.5999963006613
 30
0.0
 40
2.999998322775367
100
AcDbArc
 50
269.9999679673341
 51
0.0000320326658989
  0
LINE
  5
14043
330
3E7
100
AcDbEntity
  8
BASIS
  6
DOT_CENTER
100
AcDbLine
 10
501.4000141626437
 20
-109.0000040814119
 30
0.0
 11
464.0000407689858
 21
-109.0000040814119
 31
0.0
  0
LINE
  5
14046
330
3E7
100
AcDbEntity
  8
DETAIL
  6
CONTINUOUS
100
AcDbLine
 10
339.1213378906268
 20
-165.8786964056653
 30
0.0
 11
338.8786621093622
 21
-166.1213111517588
 31
0.0
  0
LINE
  5
14047
330
3E7
100
AcDbEntity
  8
DETAIL
  6
CONTINUOUS
100
AcDbLine
 10
336.2430419921818
 20
-167.000003778711
 30
0.0
 11
337.1843261718622
 21
-166.9694556830098
 31
0.0
  0
ARC
  5
14048
330
3E7
100
AcDbEntity
  8
DETAIL
  6
CONTINUOUS
100
AcDbCircle
 10
341.2426704177942
 20
-168.0000018791806
 30
0.0
 40
2.999998100476906
100
AcDbArc
 50
89.99989756571372
 51
135.0003653530949
  0
ARC
  5
14049
330
3E7
100
AcDbEntity
  8
DETAIL
  6
CONTINUOUS
100
AcDbCircle
 10
336.7573466785306
 20
-164.0000226266774
 30
0.0
 40
2.999974027183649
100
AcDbArc
 50
278.1825644195619
 51
315.0003633585593
  0
LINE
  5
1404A
330
3E7
100
AcDbEntity
  8
DETAIL
  6
CONTINUOUS
100
AcDbLine
 10
217.2426757812518
 20
-167.000003778711
 30
0.0
 11
223.9999999999945
 21
-167.000003778711
 31
0.0
  0
LINE
  5
1404B
330
3E7
100
AcDbEntity
  8
DETAIL
  6
CONTINUOUS
100
AcDbLine
 10
265.0000305175669
 20
-167.000003778711
 30
0.0
 11
223.9999999999945
 21
-167.000003778711
 31
0.0
  0
LINE
  5
1404C
330
3E7
100
AcDbEntity
  8
BASIS
  6
DOT_CENTER
100
AcDbLine
 10
288.5858757775968
 20
-189.5999946234394
 30
0.0
 11
311.4141852575337
 21
-189.5999946234394
 31
0.0
  0
ARC
  5
1404D
330
3E7
100
AcDbEntity
  8
DETAIL
  6
CONTINUOUS
100
AcDbCircle
 10
300.0000305175654
 20
-179.5999946234394
 30
0.0
 40
6.0
100
AcDbArc
 50
0.0
 51
180.0
  0
LINE
  5
1404E
330
3E7
100
AcDbEntity
  8
DETAIL
  6
CONTINUOUS
100
AcDbLine
 10
335.0000305175654
 20
-167.000003778711
 30
0.0
 11
336.2430419921818
 21
-167.000003778711
 31
0.0
  0
LINE
  5
1404F
330
3E7
100
AcDbEntity
  8
DETAIL
  6
CONTINUOUS
100
AcDbLine
 10
214.8786621093659
 20
-165.8786964056653
 30
0.0
 11
215.121337890612
 21
-166.1213111517588
 31
0.0
  0
ARC
  5
14050
330
3E7
100
AcDbEntity
  8
DETAIL
  6
CONTINUOUS
100
AcDbCircle
 10
212.7573367328277
 20
-167.9999846161071
 30
0.0
 40
2.999980837422236
100
AcDbArc
 50
44.99949807818187
 51
90.00023900305164
  0
ARC
  5
14051
330
3E7
100
AcDbEntity
  8
DETAIL
  6
CONTINUOUS
100
AcDbCircle
 10
217.2426702037573
 20
-164.0000061949729
 30
0.0
 40
2.999997583740558
100
AcDbArc
 50
224.9996305590268
 51
270.0001065221237
  0
ARC
  5
14052
330
3E7
100
AcDbEntity
  8
DETAIL
100
AcDbCircle
 10
510.5502903990145
 20
-150.5502647796975
 30
0.0
 40
14.46021357597423
100
AcDbArc
 50
267.8190548570494
 51
2.180828574516186
  0
LINE
  5
14053
330
3E7
100
AcDbEntity
  8
DETAIL
  6
CONTINUOUS
100
AcDbLine
 10
525.878723144522
 20
-35.87868114687717
 30
0.0
 11
526.1213378906155
 21
-36.12132641054722
 31
0.0
  0
LINE
  5
14054
330
3E7
100
AcDbEntity
  8
DETAIL
  6
CONTINUOUS
100
AcDbLine
 10
526.9999999999871
 20
-45.00000377871312
 30
0.0
 11
526.9999999999871
 21
-38.75702282168186
 31
0.0
  0
LINE
  5
14055
330
3E7
100
AcDbEntity
  8
DETAIL
  6
CONTINUOUS
100
AcDbLine
 10
526.9999999999871
 20
-57.00000377871129
 30
0.0
 11
526.9999999999871
 21
-45.00000377871312
 31
0.0
  0
LINE
  5
14056
330
3E7
100
AcDbEntity
  8
DETAIL
  6
CONTINUOUS
100
AcDbLine
 10
526.9999999999871
 20
-38.75702282168186
 30
0.0
 11
526.9694824218621
 21
-37.81569286562353
 31
0.0
  0
ARC
  5
14057
330
3E7
100
AcDbEntity
  8
DETAIL
  6
CONTINUOUS
100
AcDbCircle
 10
528.0000045470642
 20
-33.75731543216625
 30
0.0
 40
3.000004547383368
100
AcDbArc
 50
180.0008228210425
 51
225.0011386125625
  0
ARC
  5
14058
330
3E7
100
AcDbEntity
  8
DETAIL
  6
CONTINUOUS
100
AcDbCircle
 10
524.000025163712
 20
-38.24264626588863
 30
0.0
 40
2.999994268992653
100
AcDbArc
 50
8.182005363900422
 51
45.00009626795092
  0
LINE
  5
14059
330
3E7
100
AcDbEntity
  8
DETAIL
  6
CONTINUOUS
100
AcDbLine
 10
525.878723144522
 20
-66.12132641054721
 30
0.0
 11
526.1213378906155
 21
-65.87868114687717
 31
0.0
  0
LINE
  5
1405A
330
3E7
100
AcDbEntity
  8
DETAIL
  6
CONTINUOUS
100
AcDbLine
 10
526.9999999999871
 20
-63.75735851503939
 30
0.0
 11
526.9999999999871
 21
-57.00000377871129
 31
0.0
  0
ARC
  5
1405B
330
3E7
100
AcDbEntity
  8
DETAIL
  6
CONTINUOUS
100
AcDbCircle
 10
528.0000047609592
 20
-68.24269221385657
 30
0.0
 40
3.000004761271591
100
AcDbArc
 50
134.9988630794738
 51
179.9991754869125
  0
ARC
  5
1405C
330
3E7
100
AcDbEntity
  8
DETAIL
  6
CONTINUOUS
100
AcDbCircle
 10
524.0000155509533
 20
-63.75738479171921
 30
0.0
 40
2.999984449147368
100
AcDbArc
 50
315.000350915865
 51
0.0005018502232593
  0
ARC
  5
1405E
330
3E7
100
AcDbEntity
  8
DETAIL
100
AcDbCircle
 10
221.9000260200973
 20
175.0499976670107
 30
0.0
 40
3.999998393963075
100
AcDbArc
 50
269.9999769951578
 51
0.0000230048047259
  0
ARC
  5
1405F
330
3E7
100
AcDbEntity
  8
DETAIL
100
AcDbCircle
 10
231.3882859354817
 20
176.799921849567
 30
0.0
 40
4.000077423630019
100
AcDbArc
 50
30.00064027546269
 51
89.99949885256873
  0
ARC
  5
14060
330
3E7
100
AcDbEntity
  8
DETAIL
100
AcDbCircle
 10
231.3883154014183
 20
176.7999855037533
 30
0.0
 40
1.000013769305619
100
AcDbArc
 50
30.00045547894405
 51
89.99968364964113
  0
LINE
  5
14061
330
3E7
100
AcDbEntity
  8
DETAIL
  6
CONTINUOUS
100
AcDbLine
 10
335.0000305175654
 20
191.3999977471675
 30
0.0
 11
335.0000305175654
 21
-167.0000190374994
 31
0.0
  0
LINE
  5
14062
330
3E7
100
AcDbEntity
  8
BASIS
  6
DOT_CENTER
100
AcDbLine
 10
300.0000305175654
 20
202.8427815268222
 30
0.0
 11
300.0000305175654
 21
157.9572139675146
 31
0.0
  0
LINE
  5
14063
330
3E7
100
AcDbEntity
  8
BASIS
  6
DOT_CENTER
100
AcDbLine
 10
324.518578839803
 20
180.3999977471685
 30
0.0
 11
275.4814821953276
 21
180.3999977471685
 31
0.0
  0
LINE
  5
14064
330
3E7
100
AcDbEntity
  8
DETAIL
  6
CONTINUOUS
100
AcDbLine
 10
275.0000305175654
 20
199.3999977471694
 30
0.0
 11
289.0000305175798
 21
199.3999977471694
 31
0.0
  0
LINE
  5
14065
330
3E7
100
AcDbEntity
  8
DETAIL
  6
CONTINUOUS
100
AcDbLine
 10
294.0000305175798
 20
194.3999977471694
 30
0.0
 11
294.0000305175798
 21
180.3999977471685
 31
0.0
  0
LINE
  5
14067
330
3E7
100
AcDbEntity
  8
DETAIL
  6
CONTINUOUS
100
AcDbLine
 10
306.000030517569
 20
180.3999977471685
 30
0.0
 11
306.000030517569
 21
194.3999977471694
 31
0.0
  0
LINE
  5
14069
330
3E7
100
AcDbEntity
  8
DETAIL
  6
CONTINUOUS
100
AcDbLine
 10
332.0000305175635
 20
194.3999977471694
 30
0.0
 11
328.4000244140568
 21
194.3999977471694
 31
0.0
  0
LINE
  5
1406A
330
3E7
100
AcDbEntity
  8
DETAIL
  6
CONTINUOUS
100
AcDbLine
 10
311.000030517569
 20
199.3999977471694
 30
0.0
 11
325.0000305175654
 21
199.3999977471694
 31
0.0
  0
ARC
  5
1406B
330
3E7
100
AcDbEntity
  8
DETAIL
  6
CONTINUOUS
100
AcDbCircle
 10
300.0000305175654
 20
180.3999977471685
 30
0.0
 40
6.0
100
AcDbArc
 50
180.0
 51
0.0
  0
ARC
  5
1406C
330
3E7
100
AcDbEntity
  8
DETAIL
  6
CONTINUOUS
100
AcDbCircle
 10
289.0000265515463
 20
194.399993781154
 30
0.0
 40
5.000003966018521
100
AcDbArc
 50
0.0000454471622229
 51
89.99995455281171
  0
ARC
  5
1406D
330
3E7
100
AcDbEntity
  8
DETAIL
  6
CONTINUOUS
100
AcDbCircle
 10
311.0000283800745
 20
194.3999998846548
 30
0.0
 40
4.999997862511465
100
AcDbArc
 50
89.99997550611787
 51
180.0000244938299
  0
ARC
  5
1406E
330
3E7
100
AcDbEntity
  8
DETAIL
  6
CONTINUOUS
100
AcDbCircle
 10
325.0000265515498
 20
194.399993781154
 30
0.0
 40
5.000003966018521
100
AcDbArc
 50
0.0000454471622229
 51
89.99995455281171
  0
LINE
  5
1406F
330
3E7
100
AcDbEntity
  8
DETAIL
  6
CONTINUOUS
100
AcDbLine
 10
239.355743408194
 20
165.000003850683
 30
0.0
 11
232.2543487548846
 21
177.2999992730464
 31
0.0
  0
LINE
  5
14070
330
3E7
100
AcDbEntity
  8
DETAIL
  6
CONTINUOUS
100
AcDbLine
 10
234.8524322509711
 20
178.7999992730474
 30
0.0
 11
242.8198547363153
 21
165.000003850683
 31
0.0
  0
LINE
  5
14071
330
3E7
100
AcDbEntity
  8
DETAIL
  6
CONTINUOUS
100
AcDbLine
 10
239.355743408194
 20
165.000003850683
 30
0.0
 11
232.2543487548846
 21
177.2999992730464
 31
0.0
  0
LINE
  5
14072
330
3E7
100
AcDbEntity
  8
DETAIL
  6
CONTINUOUS
100
AcDbLine
 10
234.8524322509711
 20
178.7999992730474
 30
0.0
 11
242.8198547363153
 21
165.000003850683
 31
0.0
  0
LINE
  5
14073
330
3E7
100
AcDbEntity
  8
DETAIL
  6
CONTINUOUS
100
AcDbLine
 10
239.355743408194
 20
165.000003850683
 30
0.0
 11
232.2543487548846
 21
177.2999992730464
 31
0.0
  0
LINE
  5
14074
330
3E7
100
AcDbEntity
  8
DETAIL
  6
CONTINUOUS
100
AcDbLine
 10
234.8524322509711
 20
178.7999992730474
 30
0.0
 11
242.8198547363153
 21
165.000003850683
 31
0.0
  0
LINE
  5
14075
330
3E7
100
AcDbEntity
  8
DETAIL
  6
CONTINUOUS
100
AcDbLine
 10
225.4563751220648
 20
180.7999992730455
 30
0.0
 11
225.1679077148383
 21
181.3567161919909
 31
0.0
  0
LINE
  5
14076
330
3E7
100
AcDbEntity
  8
DETAIL
  6
CONTINUOUS
100
AcDbLine
 10
218.5945892333966
 20
180.9770470025394
 30
0.0
 11
218.6363983154278
 21
180.7999992730455
 31
0.0
  0
ARC
  5
14077
330
3E7
100
AcDbEntity
  8
DETAIL
  6
CONTINUOUS
100
AcDbCircle
 10
221.9000235221191
 20
179.0499963080365
 30
0.0
 40
4.000002965009712
100
AcDbArc
 50
35.2173367001566
 51
89.99998722393188
  0
LINE
  5
14078
330
3E7
100
AcDbEntity
  8
DETAIL
  6
CONTINUOUS
100
AcDbLine
 10
225.900024414057
 20
175.0499992730428
 30
0.0
 11
225.900024414057
 21
177.7999992730435
 31
0.0
  0
LINE
  5
14079
330
3E7
100
AcDbEntity
  8
DETAIL
  6
CONTINUOUS
100
AcDbLine
 10
220.6500244140606
 20
171.0499992730464
 30
0.0
 11
220.6500244140606
 21
165.000003850683
 31
0.0
  0
LINE
  5
1407A
330
3E7
100
AcDbEntity
  8
DETAIL
  6
CONTINUOUS
100
AcDbLine
 10
223.1500244140605
 20
171.277248418556
 30
0.0
 11
223.1500244140605
 21
165.000003850683
 31
0.0
  0
LINE
  5
1407B
330
3E7
100
AcDbEntity
  8
DETAIL
  6
CONTINUOUS
100
AcDbLine
 10
265.0000305175653
 20
191.3999977471675
 30
0.0
 11
265.0000305175653
 21
-167.0000190374994
 31
0.0
  0
LINE
  5
1407C
330
3E7
100
AcDbEntity
  8
DETAIL
  6
CONTINUOUS
100
AcDbLine
 10
268.0000305175763
 20
194.3999977471694
 30
0.0
 11
271.600021362299
 21
194.3999977471694
 31
0.0
  0
ARC
  5
1407F
330
3E7
100
AcDbEntity
  8
DETAIL
  6
CONTINUOUS
100
AcDbCircle
 10
268.0000283801181
 20
191.3999998846255
 30
0.0
 40
2.999997862540873
100
AcDbArc
 50
89.99995917748845
 51
180.0000408225114
  0
ARC
  5
14080
330
3E7
100
AcDbEntity
  8
DETAIL
  6
CONTINUOUS
100
AcDbCircle
 10
275.0000283800891
 20
194.3999998846548
 30
0.0
 40
4.999997862511465
100
AcDbArc
 50
89.99997550611787
 51
180.0000244938299
  0
ARC
  5
14081
330
3E7
100
AcDbEntity
  8
DETAIL
  6
CONTINUOUS
100
AcDbCircle
 10
332.0000265515208
 20
191.3999937811249
 30
0.0
 40
3.000003966047536
100
AcDbArc
 50
0.0000757457827885
 51
89.99992425426931
  0
ARC
  5
14082
330
3E7
100
AcDbEntity
  8
DETAIL
  6
CONTINUOUS
100
AcDbCircle
 10
215.7414204740033
 20
180.0500018147713
 30
0.0
 40
2.999997458277343
100
AcDbArc
 50
17.99989939344546
 51
89.99992195297833
  0
ARC
  5
14083
330
3E7
100
AcDbEntity
  8
DETAIL
100
AcDbCircle
 10
510.0000234997875
 20
149.9999968329128
 30
0.0
 40
15.00000701777258
100
AcDbArc
 50
359.9999999998773
 51
89.99997319402831
  0
CIRCLE
  5
14090
330
3E7
100
AcDbEntity
  8
DETAIL
100
AcDbCircle
 10
-299.9999832104748
 20
98.19999151656794
 30
0.0
 40
6.500014123494312
  0
CIRCLE
  5
14091
330
3E7
100
AcDbEntity
  8
DETAIL
100
AcDbCircle
 10
-299.9999755859443
 20
-76.70000072694984
 30
0.0
 40
6.500014123494312
  0
LINE
  5
14092
330
3E7
100
AcDbEntity
  8
DETAIL
  6
CONTINUOUS
100
AcDbLine
 10
-296.2471847582873
 20
-70.19999716663642
 30
0.0
 11
-303.7527389575025
 21
-70.19999716663642
 31
0.0
  0
LINE
  5
14093
330
3E7
100
AcDbEntity
  8
DETAIL
  6
CONTINUOUS
100
AcDbLine
 10
-303.7527389575025
 20
-70.19999716663642
 30
0.0
 11
-307.5055160571191
 21
-76.69999716663733
 31
0.0
  0
LINE
  5
14094
330
3E7
100
AcDbEntity
  8
DETAIL
  6
CONTINUOUS
100
AcDbLine
 10
-307.5055160571191
 20
-76.69999716663733
 30
0.0
 11
-303.7527389575025
 21
-83.19999621296028
 31
0.0
  0
LINE
  5
14095
330
3E7
100
AcDbEntity
  8
DETAIL
  6
CONTINUOUS
100
AcDbLine
 10
-303.7527389575025
 20
-83.19999621296028
 30
0.0
 11
-296.2471847582873
 21
-83.19999621296028
 31
0.0
  0
LINE
  5
14096
330
3E7
100
AcDbEntity
  8
DETAIL
  6
CONTINUOUS
100
AcDbLine
 10
-296.2471847582873
 20
-83.19999621296028
 30
0.0
 11
-292.4944076586888
 21
-76.69999716663733
 31
0.0
  0
LINE
  5
14097
330
3E7
100
AcDbEntity
  8
DETAIL
  6
CONTINUOUS
100
AcDbLine
 10
-292.4944076586888
 20
-76.69999716663733
 30
0.0
 11
-296.2471847582873
 21
-70.19999716663642
 31
0.0
  0
CIRCLE
  5
14098
330
3E7
100
AcDbEntity
  8
DETAIL
100
AcDbCircle
 10
300.0000294337933
 20
98.19999881672721
 30
0.0
 40
6.500014123494312
  0
LINE
  5
14099
330
3E7
100
AcDbEntity
  8
DETAIL
  6
CONTINUOUS
100
AcDbLine
 10
303.7528202614503
 20
104.7000023770406
 30
0.0
 11
296.2472660622351
 21
104.7000023770406
 31
0.0
  0
LINE
  5
1409A
330
3E7
100
AcDbEntity
  8
DETAIL
  6
CONTINUOUS
100
AcDbLine
 10
296.2472660622351
 20
104.7000023770406
 30
0.0
 11
292.4944889626185
 21
98.20000237703972
 31
0.0
  0
LINE
  5
1409B
330
3E7
100
AcDbEntity
  8
DETAIL
  6
CONTINUOUS
100
AcDbLine
 10
292.4944889626185
 20
98.20000237703972
 30
0.0
 11
296.2472660622351
 21
91.70000333071676
 31
0.0
  0
LINE
  5
1409C
330
3E7
100
AcDbEntity
  8
DETAIL
  6
CONTINUOUS
100
AcDbLine
 10
296.2472660622351
 20
91.70000333071676
 30
0.0
 11
303.7528202614503
 21
91.70000333071676
 31
0.0
  0
LINE
  5
1409D
330
3E7
100
AcDbEntity
  8
DETAIL
  6
CONTINUOUS
100
AcDbLine
 10
303.7528202614503
 20
91.70000333071676
 30
0.0
 11
307.5055973610488
 21
98.20000237703972
 31
0.0
  0
LINE
  5
1409E
330
3E7
100
AcDbEntity
  8
DETAIL
  6
CONTINUOUS
100
AcDbLine
 10
307.5055973610488
 20
98.20000237703972
 30
0.0
 11
303.7528202614503
 21
104.7000023770406
 31
0.0
  0
CIRCLE
  5
1409F
330
3E7
100
AcDbEntity
  8
DETAIL
100
AcDbCircle
 10
300.0000308378348
 20
-76.70000037265618
 30
0.0
 40
6.500014123494312
  0
LINE
  5
140A0
330
3E7
100
AcDbEntity
  8
DETAIL
  6
CONTINUOUS
100
AcDbLine
 10
303.7528216654918
 20
-70.19999681234276
 30
0.0
 11
296.2472674662766
 21
-70.19999681234276
 31
0.0
  0
LINE
  5
140A1
330
3E7
100
AcDbEntity
  8
DETAIL
  6
CONTINUOUS
100
AcDbLine
 10
296.2472674662766
 20
-70.19999681234276
 30
0.0
 11
292.4944903666601
 21
-76.69999681234367
 31
0.0
  0
LINE
  5
140A2
330
3E7
100
AcDbEntity
  8
DETAIL
  6
CONTINUOUS
100
AcDbLine
 10
292.4944903666601
 20
-76.69999681234367
 30
0.0
 11
296.2472674662766
 21
-83.19999585866662
 31
0.0
  0
LINE
  5
140A3
330
3E7
100
AcDbEntity
  8
DETAIL
  6
CONTINUOUS
100
AcDbLine
 10
296.2472674662766
 20
-83.19999585866662
 30
0.0
 11
303.7528216654918
 21
-83.19999585866662
 31
0.0
  0
LINE
  5
140A4
330
3E7
100
AcDbEntity
  8
DETAIL
  6
CONTINUOUS
100
AcDbLine
 10
303.7528216654918
 20
-83.19999585866662
 30
0.0
 11
307.5055987650901
 21
-76.69999681234367
 31
0.0
  0
LINE
  5
140A5
330
3E7
100
AcDbEntity
  8
DETAIL
  6
CONTINUOUS
100
AcDbLine
 10
307.5055987650901
 20
-76.69999681234367
 30
0.0
 11
303.7528216654918
 21
-70.19999681234276
 31
0.0
  0
ARC
  5
140A7
330
3E7
100
AcDbEntity
  8
DETAIL
100
AcDbCircle
 10
-304.3998046371216
 20
137.2233834176659
 30
0.0
 40
6.100987144400357
100
AcDbArc
 50
180.9407134628049
 51
269.0592865372201
  0
ARC
  5
140A8
330
3E7
100
AcDbEntity
  8
DETAIL
100
AcDbCircle
 10
-295.499965990386
 20
137.1232150803234
 30
0.0
 40
5.999996507962912
100
AcDbArc
 50
269.9999666534424
 51
0.000033346518268
  0
ARC
  5
140A9
330
3E7
100
AcDbEntity
  8
DETAIL
100
AcDbCircle
 10
304.5000340096139
 20
137.1232150803234
 30
0.0
 40
5.999996507962912
100
AcDbArc
 50
269.9999666534424
 51
0.000033346518268
  0
ARC
  5
140AA
330
3E7
100
AcDbEntity
  8
DETAIL
100
AcDbCircle
 10
295.6001953628783
 20
137.2233834176659
 30
0.0
 40
6.100987144400357
100
AcDbArc
 50
180.9407134628049
 51
269.0592865372201
  0
LINE
  5
140AB
330
3E7
100
AcDbEntity
  8
DETAIL
  6
CONTINUOUS
100
AcDbLine
 10
304.5000305175726
 20
131.1232185723619
 30
0.0
 11
295.5000305175762
 21
131.1232185723619
 31
0.0
  0
LINE
  5
140AC
330
3E7
100
AcDbEntity
  8
DETAIL
  6
CONTINUOUS
100
AcDbLine
 10
310.5000305175763
 20
137.123218572361
 30
0.0
 11
310.5000305175763
 21
158.2141228082045
 31
0.0
  0
LINE
  5
140AD
330
3E7
100
AcDbEntity
  8
DETAIL
  6
CONTINUOUS
100
AcDbLine
 10
289.5000305175726
 20
158.2141228082045
 30
0.0
 11
289.5000305175726
 21
137.123218572361
 31
0.0
  0
LINE
  5
140AE
330
3E7
100
AcDbEntity
  8
DETAIL
  6
CONTINUOUS
100
AcDbLine
 10
289.5711059570185
 20
158.1999855401369
 30
0.0
 11
310.4289550781122
 21
158.1999855401369
 31
0.0
  0
ARC
  5
140AF
330
3E7
100
AcDbEntity
  8
DETAIL
100
AcDbCircle
 10
-144.8937649089801
 20
71.37908274194069
 30
0.0
 40
5.999996507962912
100
AcDbArc
 50
359.9999666534817
 51
90.00003334655737
  0
ARC
  5
140B0
330
3E7
100
AcDbEntity
  8
DETAIL
100
AcDbCircle
 10
-153.7936035557159
 20
71.27891440459824
 30
0.0
 40
6.100987144400357
100
AcDbArc
 50
90.94071346277978
 51
179.0592865371948
  0
LINE
  5
140B1
330
3E7
100
AcDbEntity
  8
DETAIL
  6
CONTINUOUS
100
AcDbLine
 10
-144.8937684010215
 20
77.37907924990214
 30
0.0
 11
-153.8937684010179
 21
77.37907924990214
 31
0.0
  0
LINE
  5
140B2
330
3E7
100
AcDbEntity
  8
DETAIL
  6
CONTINUOUS
100
AcDbLine
 10
-138.8937684010179
 20
71.37907924990305
 30
0.0
 11
-138.8937684010179
 21
50.28817501405956
 31
0.0
  0
LINE
  5
140B3
330
3E7
100
AcDbEntity
  8
DETAIL
  6
CONTINUOUS
100
AcDbLine
 10
-159.8937684010214
 20
50.28817501405956
 30
0.0
 11
-159.8937684010214
 21
71.37907924990305
 31
0.0
  0
LINE
  5
140B4
330
3E7
100
AcDbEntity
  8
DETAIL
  6
CONTINUOUS
100
AcDbLine
 10
-159.8226929615757
 20
50.30231228212688
 30
0.0
 11
-138.964843840482
 21
50.30231228212688
 31
0.0
  0
LINE
  5
140B6
330
3E7
100
AcDbEntity
  8
DETAIL
  6
CONTINUOUS
100
AcDbLine
 10
-289.4999694824237
 20
-138.1232337591736
 30
0.0
 11
-289.4999694824237
 21
-159.2141379950168
 31
0.0
  0
LINE
  5
140B7
330
3E7
100
AcDbEntity
  8
DETAIL
  6
CONTINUOUS
100
AcDbLine
 10
-310.4999694824273
 20
-159.2141379950168
 30
0.0
 11
-310.4999694824273
 21
-138.1232337591736
 31
0.0
  0
LINE
  5
140B8
330
3E7
100
AcDbEntity
  8
DETAIL
  6
CONTINUOUS
100
AcDbLine
 10
-310.4288940429813
 20
-159.2000007269498
 30
0.0
 11
-289.5710449218876
 21
-159.2000007269498
 31
0.0
  0
LINE
  5
140B9
330
3E7
100
AcDbEntity
  8
DETAIL
  6
CONTINUOUS
100
AcDbLine
 10
-295.4999694824273
 20
-132.1232337591744
 30
0.0
 11
-304.4999694824237
 21
-132.1232337591744
 31
0.0
  0
ARC
  5
140BA
330
3E7
100
AcDbEntity
  8
DETAIL
100
AcDbCircle
 10
-295.499965990386
 20
-138.1232302671369
 30
0.0
 40
5.999996507962912
100
AcDbArc
 50
359.9999666534817
 51
90.00003334655737
  0
ARC
  5
140BB
330
3E7
100
AcDbEntity
  8
DETAIL
100
AcDbCircle
 10
-304.3998046371216
 20
-138.2233986044784
 30
0.0
 40
6.100987144400357
100
AcDbArc
 50
90.94071346277978
 51
179.0592865371948
  0
LINE
  5
140BC
330
3E7
100
AcDbEntity
  8
DETAIL
  6
CONTINUOUS
100
AcDbLine
 10
310.5000305175763
 20
-138.1232337591736
 30
0.0
 11
310.5000305175763
 21
-159.2141379950168
 31
0.0
  0
LINE
  5
140BD
330
3E7
100
AcDbEntity
  8
DETAIL
  6
CONTINUOUS
100
AcDbLine
 10
289.5000305175726
 20
-159.2141379950168
 30
0.0
 11
289.5000305175726
 21
-138.1232337591736
 31
0.0
  0
LINE
  5
140BE
330
3E7
100
AcDbEntity
  8
DETAIL
  6
CONTINUOUS
100
AcDbLine
 10
289.5711059570185
 20
-159.2000007269498
 30
0.0
 11
310.4289550781122
 21
-159.2000007269498
 31
0.0
  0
LINE
  5
140BF
330
3E7
100
AcDbEntity
  8
DETAIL
  6
CONTINUOUS
100
AcDbLine
 10
304.5000305175726
 20
-132.1232337591744
 30
0.0
 11
295.5000305175762
 21
-132.1232337591744
 31
0.0
  0
ARC
  5
140C0
330
3E7
100
AcDbEntity
  8
DETAIL
100
AcDbCircle
 10
304.5000340096139
 20
-138.1232302671369
 30
0.0
 40
5.999996507962912
100
AcDbArc
 50
359.9999666534817
 51
90.00003334655737
  0
ARC
  5
140C1
330
3E7
100
AcDbEntity
  8
DETAIL
100
AcDbCircle
 10
295.6001953628783
 20
-138.2233986044784
 30
0.0
 40
6.100987144400357
100
AcDbArc
 50
90.94071346277978
 51
179.0592865371948
  0
ARC
  5
140C3
330
3E7
100
AcDbEntity
  8
DETAIL
100
AcDbCircle
 10
300.0000305175671
 20
-179.599994623436
 30
0.0
 40
7.600006103517443
100
AcDbArc
 50
0.0000000000068745
 51
179.9999999999929
  0
ARC
  5
140C4
330
3E7
100
AcDbEntity
  8
DETAIL
100
AcDbCircle
 10
300.0000305175671
 20
-203.5999946234348
 30
0.0
 40
7.600006103517443
100
AcDbArc
 50
180.0000000000068
 51
359.9999999999931
  0
LINE
  5
140C8
330
3E7
100
AcDbEntity
  8
DETAIL
  6
CONTINUOUS
100
AcDbLine
 10
265.0000305175669
 20
165.000003850683
 30
0.0
 11
-264.9999694824344
 21
165.000003850683
 31
0.0
  0
LINE
  5
140C9
330
3E7
100
AcDbEntity
  8
DETAIL
  6
CONTINUOUS
100
AcDbLine
 10
335.0000305175654
 20
-165.0000037787085
 30
0.0
 11
509.9999999999872
 21
-165.0000037787085
 31
0.0
  0
LINE
  5
140CC
330
3E7
100
AcDbEntity
  8
DETAIL
  6
CONTINUOUS
100
AcDbLine
 10
-265.0000000000018
 20
-165.0000037787085
 30
0.0
 11
265.0000305175653
 21
-165.0000037787085
 31
0.0
  0
LINE
  5
140CD
330
3E7
100
AcDbEntity
  8
DETAIL
  6
CONTINUOUS
100
AcDbLine
 10
-334.9999694824326
 20
-190.0000037787085
 30
0.0
 11
-469.1577148437553
 21
-190.0000037787085
 31
0.0
  0
LINE
  5
140CE
330
3E7
100
AcDbEntity
  8
DETAIL
  6
CONTINUOUS
100
AcDbLine
 10
-334.9999694824346
 20
180.7999992730465
 30
0.0
 11
-461.3665161132866
 21
180.7999992730455
 31
0.0
  0
LINE
  5
140CF
330
3E7
100
AcDbEntity
  8
DETAIL
  6
CONTINUOUS
100
AcDbLine
 10
-334.9999694824346
 20
177.7999992730428
 30
0.0
 11
-461.3665161132866
 21
177.7999992730435
 31
0.0
  0
LINE
  5
140D0
330
3E7
100
AcDbEntity
  8
DETAIL
  6
CONTINUOUS
100
AcDbLine
 10
-334.9999694824326
 20
165.000003850683
 30
0.0
 11
-510.0000000000018
 21
165.000003850683
 31
0.0
  0
LINE
  5
140DC
330
3E7
100
AcDbEntity
  8
BASIS
  6
DOT_CENTER
100
AcDbLine
 10
-311.4141242224031
 20
-189.5999946234394
 30
0.0
 11
-288.585814742466
 21
-189.5999946234394
 31
0.0
  0
ARC
  5
140DD
330
3E7
100
AcDbEntity
  8
DETAIL
  6
CONTINUOUS
100
AcDbCircle
 10
-299.9999694824346
 20
-179.5999946234394
 30
0.0
 40
6.0
100
AcDbArc
 50
0.0
 51
180.0
  0
LINE
  5
140DE
330
3E7
100
AcDbEntity
  8
DETAIL
  6
CONTINUOUS
100
AcDbLine
 10
-293.9999694824346
 20
-203.599994623436
 30
0.0
 11
-293.9999694824346
 21
-179.5999946234394
 31
0.0
  0
ARC
  5
140DF
330
3E7
100
AcDbEntity
  8
DETAIL
100
AcDbCircle
 10
-299.9999694824328
 20
-179.599994623436
 30
0.0
 40
7.600006103517443
100
AcDbArc
 50
0.0000000000068745
 51
179.9999999999929
  0
LINE
  5
140E0
330
3E7
100
AcDbEntity
  8
DETAIL
  6
CONTINUOUS
100
AcDbLine
 10
-292.3999633789226
 20
-203.599994623436
 30
0.0
 11
-292.3999633789226
 21
-179.5999946234348
 31
0.0
  0
LINE
  5
140E1
330
3E7
100
AcDbEntity
  8
DETAIL
  6
CONTINUOUS
100
AcDbLine
 10
-305.9999694824345
 20
-179.5999946234394
 30
0.0
 11
-305.9999694824345
 21
-203.599994623436
 31
0.0
  0
LINE
  5
140E2
330
3E7
100
AcDbEntity
  8
DETAIL
  6
CONTINUOUS
100
AcDbLine
 10
-307.5999755859466
 20
-179.5999946234348
 30
0.0
 11
-307.5999755859466
 21
-203.599994623436
 31
0.0
  0
ARC
  5
140E3
330
3E7
100
AcDbEntity
  8
DETAIL
  6
CONTINUOUS
100
AcDbCircle
 10
-299.9999694824346
 20
-203.599994623436
 30
0.0
 40
6.0
100
AcDbArc
 50
180.0
 51
0.0
  0
ARC
  5
140E4
330
3E7
100
AcDbEntity
  8
DETAIL
100
AcDbCircle
 10
-299.9999694824328
 20
-203.5999946234348
 30
0.0
 40
7.600006103517443
100
AcDbArc
 50
180.0000000000068
 51
359.9999999999931
  0
ARC
  5
140E6
330
3E7
100
AcDbEntity
  8
DETAIL
100
AcDbCircle
 10
459.4462480217335
 20
-94.44622103074378
 30
0.0
 40
15.29820515678972
100
AcDbArc
 50
90.92225735316972
 51
179.0778013136881
  0
LINE
  5
1556A
330
3E7
100
AcDbEntity
  8
SERVICESPACE
  6
DASHDOT
100
AcDbLine
 10
525.0000305175651
 20
315.0000038506831
 30
0.0
 11
-525.0000000000018
 21
315.0000038506831
 31
0.0
  0
LINE
  5
1556B
330
3E7
100
AcDbEntity
  8
SERVICESPACE
  6
DASHDOT
100
AcDbLine
 10
-525.0000000000018
 20
315.0000038506831
 30
0.0
 11
525.0000305175651
 21
165.000003850683
 31
0.0
  0
LINE
  5
1556C
330
3E7
100
AcDbEntity
  8
SERVICESPACE
  6
DASHDOT
100
AcDbLine
 10
-525.0000000000018
 20
165.000003850683
 30
0.0
 11
525.0000305175651
 21
315.0000038506831
 31
0.0
  0
LINE
  5
1556D
330
3E7
100
AcDbEntity
  8
SERVICESPACE
  6
DASHDOT
100
AcDbLine
 10
525.0000305175651
 20
-665.0000037787082
 30
0.0
 11
25.00003051756357
 21
-665.0000037787082
 31
0.0
  0
LINE
  5
1556E
330
3E7
100
AcDbEntity
  8
SERVICESPACE
100
AcDbLine
 10
25.00003051756721
 20
-165.0000037787085
 30
0.0
 11
525.0000305175651
 21
-665.0000037787082
 31
0.0
  0
LINE
  5
1556F
330
3E7
100
AcDbEntity
  8
SERVICESPACE
100
AcDbLine
 10
25.00003051756357
 20
-665.0000037787082
 30
0.0
 11
525.0000305175651
 21
-165.0000037787085
 31
0.0
  0
LINE
  5
15570
330
3E7
100
AcDbEntity
  8
SERVICESPACE
  6
DASHDOT
100
AcDbLine
 10
525.0000305175651
 20
165.000003850683
 30
0.0
 11
-540.0000000000017
 21
165.0000038506839
 31
0.0
  0
LINE
  5
15571
330
3E7
100
AcDbEntity
  8
SERVICESPACE
  6
DASHDOT
100
AcDbLine
 10
525.0000305175651
 20
-165.0000037787085
 30
0.0
 11
-540.0000000000018
 21
-164.999996113328
 31
0.0
  0
TEXT
  5
15572
330
3E7
100
AcDbEntity
  8
NOTE
  6
CONTINUOUS
100
AcDbText
 10
86.40527897099675
 20
-661.5086482392097
 30
0.0
 40
64.0
  1
ｻ-ﾋﾞｽｽﾍﾟ-ｽ
 41
0.9
100
AcDbText
  0
LINE
  5
15573
330
3E7
100
AcDbEntity
  8
NOTE
  6
CONTINUOUS
100
AcDbLine
 10
325.0000305175654
 20
-165.0000037787085
 30
0.0
 11
167.3247167883273
 21
-352.5583916703581
 31
0.0
  0
LINE
  5
15574
330
3E7
100
AcDbEntity
  8
BASIS
  6
DASHDOT
100
AcDbLine
 10
518.9188715
 20
0.0
 30
0.0
 11
-518.9188715
 21
0.0
 31
0.0
  0
LINE
  5
15576
330
3E7
100
AcDbEntity
  8
BASIS
  6
DASHDOT
100
AcDbLine
 10
0.0
 20
202.185091897244
 30
0.0
 11
0.0
 21
-209.5297219955146
 31
0.0
  0
POINT
  5
15577
330
3E7
100
AcDbEntity
  8
ARRANGE
  6
CONTINUOUS
100
AcDbPoint
 10
0.0
 20
0.0
 30
0.0
  0
CIRCLE
  5
15578
330
3E7
100
AcDbEntity
  8
ARRANGE
  6
CONTINUOUS
100
AcDbCircle
 10
0.0
 20
0.0
 30
0.0
 40
40.0
  0
LINE
  5
1557A
330
3E7
100
AcDbEntity
  8
SERVICESPACE
  6
DASHDOT
100
AcDbLine
 10
-525.0000000000018
 20
315.0000038506831
 30
0.0
 11
-525.0
 21
-165.0000037787085
 31
0.0
  0
LINE
  5
1557B
330
3E7
100
AcDbEntity
  8
SERVICESPACE
100
AcDbLine
 10
-540.0000000000018
 20
-164.999996113328
 30
0.0
 11
-525.0000000000018
 21
165.0000038506838
 31
0.0
  0
LINE
  5
1557C
330
3E7
100
AcDbEntity
  8
SERVICESPACE
100
AcDbLine
 10
-540.0000000000016
 20
165.0000038506839
 30
0.0
 11
-525.0000000000018
 21
-164.9999961493158
 31
0.0
  0
LINE
  5
1557D
330
3E7
100
AcDbEntity
  8
SERVICESPACE
  6
DASHDOT
100
AcDbLine
 10
-535.0000000000018
 20
165.0000038506838
 30
0.0
 11
-535.0000000000018
 21
-164.9999961493158
 31
0.0
  0
TEXT
  5
1557E
330
3E7
100
AcDbEntity
  8
NOTE
  6
CONTINUOUS
100
AcDbText
 10
-1088.829143515668
 20
-448.7303759003816
 30
0.0
 40
64.0
  1
AH 2-12×36
 41
0.9
100
AcDbText
  0
LINE
  5
1557F
330
3E7
100
AcDbEntity
  8
NOTE
  6
CONTINUOUS
100
AcDbLine
 10
-1103.609448515668
 20
-463.8326769003806
 30
0.0
 11
-530.540041290931
 21
-463.8326769003806
 31
0.0
  0
LINE
  5
15580
330
3E7
100
AcDbEntity
  8
SERVICESPACE
  6
DASHDOT
100
AcDbLine
 10
25.00003051756721
 20
-165.0000037787085
 30
0.0
 11
25.00003051756357
 21
-665.0000037787082
 31
0.0
  0
LINE
  5
15586
330
3E7
100
AcDbEntity
  8
NOTE
  6
CONTINUOUS
100
AcDbLine
 10
-299.9999694824346
 20
-189.5999946234394
 30
0.0
 11
-530.540041290931
 21
-463.8326769003806
 31
0.0
  0
LWPOLYLINE
  5
15587
330
3E7
100
AcDbEntity
  8
NOTE
  6
CONTINUOUS
100
AcDbPolyline
 90
        3
 70
     0
 43
0.0
 10
-317.2152966767553
 20
-225.7058463243764
 10
-299.9999694824346
 20
-189.5999946234394
 10
-332.9618056035633
 20
-212.26091612047
  0
CIRCLE
  5
15588
330
3E7
100
AcDbEntity
  8
FIX
  6
CONTINUOUS
100
AcDbCircle
 10
-299.9999694824346
 20
-189.5999946234394
 30
0.0
 40
40.0
  0
LINE
  5
15589
330
3E7
100
AcDbEntity
  8
NOTE
  6
CONTINOUS
100
AcDbLine
 10
-279.9999694824343
 20
-189.5999946234394
 30
0.0
 11
-319.9999694824346
 21
-189.5999946234394
 31
0.0
  0
TEXT
  5
15595
330
3E7
100
AcDbEntity
  8
NOTE
  6
CONTINUOUS
100
AcDbText
 10
-66.31531550939508
 20
-337.4560906703582
 30
0.0
 40
64.0
  1
EL,CL
 41
0.9
100
AcDbText
  0
LINE
  5
15596
330
3E7
100
AcDbEntity
  8
NOTE
  6
CONTINUOUS
100
AcDbLine
 10
-81.09562050939528
 20
-352.5583916703581
 30
0.0
 11
167.3247167883273
 21
-352.5583916703581
 31
0.0
  0
LINE
  5
1559E
330
3E7
100
AcDbEntity
  8
NOTE
  6
CONTINOUS
100
AcDbLine
 10
-299.9999694824346
 20
-169.5999946234396
 30
0.0
 11
-299.9999694824346
 21
-209.5999946234394
 31
0.0
  0
TEXT
  5
155A1
330
3E7
100
AcDbEntity
  8
NOTE
  6
CONTINUOUS
100
AcDbText
 10
-977.1091532667103
 20
633.3608096626822
 30
0.0
 40
64.0
  1
ｻ-ﾋﾞｽｽﾍﾟ-ｽ
 41
0.9
100
AcDbText
  0
TEXT
  5
155A3
330
3E7
100
AcDbEntity
  8
NOTE
  6
CONTINUOUS
100
AcDbText
 10
-1093.423545977485
 20
318.4438067016881
 30
0.0
 40
64.0
  1
AH 2-U cut
 41
0.9
100
AcDbText
  0
LINE
  5
155A4
330
3E7
100
AcDbEntity
  8
NOTE
  6
CONTINUOUS
100
AcDbLine
 10
-1121.129615977485
 20
307.8561087016876
 30
0.0
 11
-545.8317229245549
 21
307.8561087016876
 31
0.0
  0
LINE
  5
155AA
330
3E7
100
AcDbEntity
  8
NOTE
  6
CONTINOUS
100
AcDbLine
 10
-279.9999847412091
 20
180.4514525419134
 30
0.0
 11
-319.9999847412091
 21
180.4514525419134
 31
0.0
  0
LWPOLYLINE
  5
155AB
330
3E7
100
AcDbEntity
  8
NOTE
  6
CONTINUOUS
100
AcDbPolyline
 90
        3
 70
     0
 43
0.0
 10
-339.00055464682
 20
189.3371469151779
 10
-299.9999847412091
 20
180.4514525419134
 10
-329.3326220528923
 20
207.6469740833736
  0
LINE
  5
155AC
330
3E7
100
AcDbEntity
  8
NOTE
  6
CONTINUOUS
100
AcDbLine
 10
-299.9999847412091
 20
180.4514525419134
 30
0.0
 11
-545.8317229245549
 21
307.8561087016876
 31
0.0
  0
CIRCLE
  5
155AD
330
3E7
100
AcDbEntity
  8
FIX
  6
CONTINUOUS
100
AcDbCircle
 10
-299.9999847412091
 20
180.4514525419134
 30
0.0
 40
40.0
  0
TEXT
  5
155C5
330
3E7
100
AcDbEntity
  8
NOTE
  6
CONTINUOUS
100
AcDbText
 10
-237.664560482126
 20
254.388853135343
 30
0.0
 40
64.0
  1
ｻ-ﾋﾞｽｽﾍﾟ-ｽ
 41
0.9
100
AcDbText
  0
LINE
  5
155D4
330
3E7
100
AcDbEntity
  8
NOTE
  6
CONTINOUS
100
AcDbLine
 10
-299.9999847412091
 20
200.4514525419134
 30
0.0
 11
-299.9999847412091
 21
160.4514525419135
 31
0.0
  0
LINE
  5
155E5
330
3E7
100
AcDbEntity
  8
NOTE
  6
CONTINUOUS
100
AcDbLine
 10
487.4259962092557
 20
-102.3940553363407
 30
0.0
 11
744.055371092886
 21
378.412067566668
 31
0.0
  0
LINE
  5
155E6
330
3E7
100
AcDbEntity
  8
SERVICESPACE
  6
DASHDOT
100
AcDbLine
 10
525.0000305175651
 20
315.0000038506831
 30
0.0
 11
525.0000305175651
 21
-665.0000037787082
 31
0.0
  0
LINE
  5
155E7
330
3E7
100
AcDbEntity
  8
NOTE
  6
CONTINUOUS
100
AcDbLine
 10
429.2413865492526
 20
-127.8007275795342
 30
0.0
 11
771.4868712820422
 21
513.4108432706498
 31
0.0
  0
LINE
  5
155ED
330
3E7
100
AcDbEntity
  8
BASIS
  6
DOT_CENTER
100
AcDbLine
 10
501.7000172143942
 20
-109.0000040814119
 30
0.0
 11
464.3000438207364
 21
-109.0000040814119
 31
0.0
  0
LINE
  5
155EE
330
3E7
100
AcDbEntity
  8
NOTE
  6
CONTINOUS
100
AcDbLine
 10
503.0000305175653
 20
-109.0000040814119
 30
0.0
 11
463.0000305175654
 21
-109.0000040814119
 31
0.0
  0
CIRCLE
  5
1560C
330
3E7
100
AcDbEntity
  8
FIX
  6
CONTINUOUS
100
AcDbCircle
 10
300.0000305175654
 20
-189.5999946234394
 30
0.0
 40
40.0
  0
LINE
  5
1560D
330
3E7
100
AcDbEntity
  8
NOTE
  6
CONTINOUS
100
AcDbLine
 10
320.0000305175653
 20
-189.5999946234394
 30
0.0
 11
280.0000305175653
 21
-189.5999946234394
 31
0.0
  0
LINE
  5
1560E
330
3E7
100
AcDbEntity
  8
NOTE
  6
CONTINOUS
100
AcDbLine
 10
300.0000305175654
 20
-169.5999946234396
 30
0.0
 11
300.0000305175654
 21
-209.5999946234394
 31
0.0
  0
LWPOLYLINE
  5
1560F
330
3E7
100
AcDbEntity
  8
NOTE
  6
CONTINUOUS
100
AcDbPolyline
 90
        3
 70
     0
 43
0.0
 10
307.7847033232446
 20
-201.1058554796454
 10
325.0000305175654
 20
-165.0000037787085
 10
292.0381943964366
 20
-187.6609252757379
  0
LINE
  5
15610
330
3E7
100
AcDbEntity
  8
NOTE
  6
CONTINOUS
100
AcDbLine
 10
325.0000305175654
 20
-185.0000037787085
 30
0.0
 11
325.0000305175654
 21
-145.0000037787082
 31
0.0
  0
LINE
  5
15611
330
3E7
100
AcDbEntity
  8
NOTE
  6
CONTINOUS
100
AcDbLine
 10
345.0000305175653
 20
-165.0000037787085
 30
0.0
 11
305.0000305175653
 21
-165.0000037787085
 31
0.0
  0
LINE
  5
15612
330
3E7
100
AcDbEntity
  8
BASIS
  6
DOT_CENTER
100
AcDbLine
 10
439.1000385198004
 20
-132.0000037787103
 30
0.0
 11
414.9000225153121
 21
-132.0000037787103
 31
0.0
  0
LINE
  5
15613
330
3E7
100
AcDbEntity
  8
BASIS
  6
DOT_CENTER
100
AcDbLine
 10
427.0000305175654
 20
-119.8999957764661
 30
0.0
 11
427.0000305175654
 21
-144.1000117809543
 31
0.0
  0
LINE
  5
15615
330
3E7
100
AcDbEntity
  8
NOTE
  6
CONTINOUS
100
AcDbLine
 10
447.000030517556
 20
-132.0000037787103
 30
0.0
 11
407.0000305175563
 21
-132.0000037787103
 31
0.0
  0
LINE
  5
15616
330
3E7
100
AcDbEntity
  8
NOTE
  6
CONTINOUS
100
AcDbLine
 10
427.0000305175563
 20
-152.0000037787101
 30
0.0
 11
427.0000305175563
 21
-112.0000037787102
 31
0.0
  0
LWPOLYLINE
  5
15617
330
3E7
100
AcDbEntity
  8
NOTE
  6
CONTINUOUS
100
AcDbPolyline
 90
        3
 70
     0
 43
0.0
 10
438.5995653220342
 20
-88.91082519454268
 10
429.2413865492526
 20
-127.8007275795342
 10
456.7907578257126
 20
-98.80017334616876
  0
LINE
  5
15623
330
3E7
100
AcDbEntity
  8
BASIS
  6
DOT_CENTER
100
AcDbLine
 10
483.0000305175653
 20
-90.30001738458755
 30
0.0
 11
483.0000305175653
 21
-127.6999907782365
 31
0.0
  0
LINE
  5
15624
330
3E7
100
AcDbEntity
  8
NOTE
  6
CONTINOUS
100
AcDbLine
 10
483.0000305175653
 20
-129.0000040814119
 30
0.0
 11
483.0000305175653
 21
-89.00000408141204
 31
0.0
  0
LWPOLYLINE
  5
15626
330
3E7
100
AcDbEntity
  8
NOTE
  6
CONTINUOUS
100
AcDbPolyline
 90
        3
 70
     0
 43
0.0
 10
496.7841749820393
 20
-63.50415295134826
 10
487.4259962092557
 20
-102.3940553363407
 10
514.9753674857159
 20
-73.39350110297529
  0
TEXT
  5
15628
330
3E7
100
AcDbEntity
  8
NOTE
  6
CONTINUOUS
100
AcDbText
 10
776.4877146039051
 20
533.1274905194796
 30
0.0
 40
64.0
  1
RL%%C9.52
 41
0.9
100
AcDbText
  0
LINE
  5
15647
330
3E7
100
AcDbEntity
  8
NOTE
  6
CONTINOUS
100
AcDbLine
 10
280.0000305175653
 20
180.3999977471685
 30
0.0
 11
320.0000305175653
 21
180.3999977471685
 31
0.0
  0
LINE
  5
15651
330
3E7
100
AcDbEntity
  8
NOTE
  6
CONTINOUS
100
AcDbLine
 10
300.0000305175654
 20
200.3999977471685
 30
0.0
 11
300.0000305175654
 21
160.3999977471685
 31
0.0
  0
CIRCLE
  5
15652
330
3E7
100
AcDbEntity
  8
FIX
  6
CONTINUOUS
100
AcDbCircle
 10
300.0000305175654
 20
180.3999977471685
 30
0.0
 40
40.0
  0
LINE
  5
15654
330
3E7
100
AcDbEntity
  8
NOTE
  6
CONTINUOUS
100
AcDbLine
 10
1115.117640341595
 20
513.4108432706498
 30
0.0
 11
771.4868712820422
 21
513.4108432706498
 31
0.0
  0
LINE
  5
15655
330
3E7
100
AcDbEntity
  8
NOTE
  6
CONTINUOUS
100
AcDbLine
 10
744.055371092886
 20
378.412067566668
 30
0.0
 11
1170.34923666686
 21
378.412067566668
 31
0.0
  0
TEXT
  5
15656
330
3E7
100
AcDbEntity
  8
NOTE
  6
CONTINUOUS
100
AcDbText
 10
771.83515528934
 20
398.6934235666684
 30
0.0
 40
64.0
  1
RG%%C15.88
 41
0.9
100
AcDbText
  0
CIRCLE
  5
1590B
330
3E7
100
AcDbEntity
  8
DETAIL
  6
CONTINUOUS
100
AcDbCircle
 10
427.0000305175563
 20
-132.0000037787103
 30
0.0
 40
4.759999999999998
  0
LINE
  5
1599E
330
3E7
100
AcDbEntity
  8
BASIS
  6
DOT_CENTER
100
AcDbLine
 10
-461.8499755859393
 20
-11.00000408141476
 30
0.0
 11
-498.1499755859495
 21
-11.00000408141476
 31
0.0
  0
LINE
  5
15A43
330
3E7
100
AcDbEntity
  8
NOTE
  6
CONTINUOUS
100
AcDbLine
 10
764.638567730728
 20
795.958482346298
 30
0.0
 11
368.8342012005596
 21
795.6844939971142
 31
0.0
  0
TEXT
  5
15A44
330
3E7
100
AcDbEntity
  8
NOTE
  6
CONTINUOUS
100
AcDbText
 10
381.5712815181978
 20
815.4011412459439
 30
0.0
 40
64.0
  1
D 5-%%c33
 41
0.9
100
AcDbText
  0
LINE
  5
15A45
330
3E7
100
AcDbEntity
  8
NOTE
  6
CONTINUOUS
100
AcDbLine
 10
110.0000242232507
 20
124.9999957177695
 30
0.0
 11
368.8342012005596
 21
795.6844939971142
 31
0.0
  0
LWPOLYLINE
  5
15A46
330
3E7
100
AcDbEntity
  8
NOTE
  6
CONTINUOUS
100
AcDbPolyline
 90
        3
 70
     0
 43
0.0
 10
114.5572018690309
 20
164.7395496830868
 10
110.0000242232507
 20
124.9999957177695
 10
133.8164323289801
 20
157.1368703093021
  0
LINE
  5
16835
330
3E7
100
AcDbEntity
  8
SIZE
  6
CONTINUOUS
100
AcDbLine
 10
345.0000305175653
 20
-217.599994623436
 30
0.0
 11
1222.365115136575
 21
-217.5999946234361
 31
0.0
  0
LINE
  5
16836
330
3E7
100
AcDbEntity
  8
SIZE
  6
CONTINUOUS
100
AcDbLine
 10
345.0000305175689
 20
199.3999977471711
 30
0.0
 11
1222.365115136575
 21
199.3999977471709
 31
0.0
  0
LINE
  5
16837
330
3E7
100
AcDbEntity
  8
SIZE
  6
CONTINUOUS
100
AcDbLine
 10
1192.365115136575
 20
-207.5999946234361
 30
0.0
 11
1192.365115136575
 21
189.3999977471709
 31
0.0
  0
LINE
  5
1683B
330
3E7
100
AcDbEntity
  8
SIZE
100
AcDbLine
 10
545.0000305175652
 20
-165.0000037787085
 30
0.0
 11
860.0261697354309
 21
-165.0000037787085
 31
0.0
  0
LINE
  5
1683C
330
3E7
100
AcDbEntity
  8
SIZE
100
AcDbLine
 10
545.0000305175652
 20
-665.0000037787082
 30
0.0
 11
860.0261697354309
 21
-665.0000037787086
 31
0.0
  0
LINE
  5
1683D
330
3E7
100
AcDbEntity
  8
SIZE
100
AcDbLine
 10
830.026169735431
 20
-175.0000037787086
 30
0.0
 11
830.0261697354306
 21
-655.0000037787087
 31
0.0
  0
LINE
  5
16841
330
3E7
100
AcDbEntity
  8
SIZE
  6
CONTINUOUS
100
AcDbLine
 10
525.0000305175651
 20
-185.0000037787085
 30
0.0
 11
525.0000305175651
 21
-410.967354094032
 31
0.0
  0
LINE
  5
16843
330
3E7
100
AcDbEntity
  8
SIZE
  6
CONTINUOUS
100
AcDbLine
 10
473.0000305175654
 20
-380.9673540940321
 30
0.0
 11
463.0000305175654
 21
-380.9673540940321
 31
0.0
  0
LINE
  5
16844
330
3E7
100
AcDbEntity
  8
SIZE
  6
CONTINUOUS
100
AcDbLine
 10
535.0000305175654
 20
-380.9673540940321
 30
0.0
 11
678.2571733747082
 21
-380.9673540940321
 31
0.0
  0
LINE
  5
16845
330
3E7
100
AcDbEntity
  8
SIZE
  6
CONTINUOUS
100
AcDbLine
 10
483.0000305175653
 20
-380.9673540940321
 30
0.0
 11
525.0000305175651
 21
-380.9673540940321
 31
0.0
  0
LINE
  5
16849
330
3E7
100
AcDbEntity
  8
SIZE
  6
CONTINUOUS
100
AcDbLine
 10
525.0000305175651
 20
-185.0000037787085
 30
0.0
 11
525.0000305175651
 21
-565.4279792214174
 31
0.0
  0
LINE
  5
1684A
330
3E7
100
AcDbEntity
  8
SIZE
  6
CONTINUOUS
100
AcDbLine
 10
325.0000305175654
 20
-205.0000037787085
 30
0.0
 11
325.0000305175654
 21
-565.4279792214174
 31
0.0
  0
LINE
  5
1684B
330
3E7
100
AcDbEntity
  8
SIZE
  6
CONTINUOUS
100
AcDbLine
 10
535.0000305175654
 20
-535.4279792214174
 30
0.0
 11
545.0000305175652
 21
-535.4279792214174
 31
0.0
  0
LINE
  5
1684C
330
3E7
100
AcDbEntity
  8
SIZE
  6
CONTINUOUS
100
AcDbLine
 10
315.0000305175653
 20
-535.4279792214174
 30
0.0
 11
305.0000305175653
 21
-535.4279792214174
 31
0.0
  0
LINE
  5
1684D
330
3E7
100
AcDbEntity
  8
SIZE
  6
CONTINUOUS
100
AcDbLine
 10
525.0000305175651
 20
-535.4279792214174
 30
0.0
 11
325.0000305175654
 21
-535.4279792214174
 31
0.0
  0
LINE
  5
16851
330
3E7
100
AcDbEntity
  8
SIZE
  6
CONTINUOUS
100
AcDbLine
 10
340.0000305175653
 20
-189.5999946234394
 30
0.0
 11
1007.559004732227
 21
-189.5999946234398
 31
0.0
  0
LINE
  5
16852
330
3E7
100
AcDbEntity
  8
SIZE
  6
CONTINUOUS
100
AcDbLine
 10
345.0000305175653
 20
-217.599994623436
 30
0.0
 11
1007.559004732227
 21
-217.5999946234361
 31
0.0
  0
LINE
  5
16853
330
3E7
100
AcDbEntity
  8
SIZE
  6
CONTINUOUS
100
AcDbLine
 10
977.5590047322276
 20
-179.5999946234398
 30
0.0
 11
977.5590047322276
 21
-169.5999946234398
 31
0.0
  0
LINE
  5
16854
330
3E7
100
AcDbEntity
  8
SIZE
  6
CONTINUOUS
100
AcDbLine
 10
977.5590047322276
 20
-227.5999946234362
 30
0.0
 11
977.5590047322276
 21
-370.857137480579
 31
0.0
  0
LINE
  5
16855
330
3E7
100
AcDbEntity
  8
SIZE
  6
CONTINUOUS
100
AcDbLine
 10
977.5590047322276
 20
-189.5999946234398
 30
0.0
 11
977.5590047322276
 21
-217.5999946234361
 31
0.0
  0
LINE
  5
1685B
330
3E7
100
AcDbEntity
  8
SIZE
  6
CONTINUOUS
100
AcDbLine
 10
473.0000305175654
 20
-380.9673540940321
 30
0.0
 11
433.0000305175653
 21
-380.9673540940321
 31
0.0
  0
LINE
  5
1685C
330
3E7
100
AcDbEntity
  8
SIZE
  6
CONTINUOUS
100
AcDbLine
 10
423.0000305175654
 20
-380.9673540940321
 30
0.0
 11
279.7428876604225
 21
-380.9673540940321
 31
0.0
  0
LINE
  5
16860
330
3E7
100
AcDbEntity
  8
SIZE
  6
CONTINUOUS
100
AcDbLine
 10
-545.0
 20
-165.0000037787085
 30
0.0
 11
-794.8478152415117
 21
-165.0000037787084
 31
0.0
  0
LINE
  5
16861
330
3E7
100
AcDbEntity
  8
SIZE
  6
CONTINUOUS
100
AcDbLine
 10
-489.1577148437553
 20
-190.0000037787085
 30
0.0
 11
-794.8478152415117
 21
-190.0000037787084
 31
0.0
  0
LINE
  5
16862
330
3E7
100
AcDbEntity
  8
SIZE
  6
CONTINUOUS
100
AcDbLine
 10
-764.8478152415117
 20
-155.0000037787083
 30
0.0
 11
-764.8478152415117
 21
-145.0000037787081
 31
0.0
  0
LINE
  5
16863
330
3E7
100
AcDbEntity
  8
SIZE
  6
CONTINUOUS
100
AcDbLine
 10
-764.8478152415117
 20
-200.0000037787084
 30
0.0
 11
-764.8478152415117
 21
-343.2571466358512
 31
0.0
  0
LINE
  5
16864
330
3E7
100
AcDbEntity
  8
SIZE
  6
CONTINUOUS
100
AcDbLine
 10
-764.8478152415117
 20
-165.0000037787084
 30
0.0
 11
-764.8478152415117
 21
-190.0000037787084
 31
0.0
  0
LINE
  5
16868
330
3E7
100
AcDbEntity
  8
SIZE
  6
CONTINUOUS
100
AcDbLine
 10
-525.0
 20
-185.0000037787085
 30
0.0
 11
-525.0
 21
-428.1296424310448
 31
0.0
  0
LINE
  5
16869
330
3E7
100
AcDbEntity
  8
SIZE
  6
CONTINUOUS
100
AcDbLine
 10
-162.999978587506
 20
-276.021959807671
 30
0.0
 11
-162.999978587506
 21
-428.1296424310448
 31
0.0
  0
LINE
  5
1686A
330
3E7
100
AcDbEntity
  8
SIZE
  6
CONTINUOUS
100
AcDbLine
 10
-515.0
 20
-398.1296424310448
 30
0.0
 11
-172.9999785875059
 21
-398.1296424310448
 31
0.0
  0
LINE
  5
1686E
330
3E7
100
AcDbEntity
  8
SIZE
  6
CONTINUOUS
100
AcDbLine
 10
340.0000305175653
 20
-189.5999946234394
 30
0.0
 11
1007.559004732227
 21
-189.5999946234398
 31
0.0
  0
LINE
  5
1686F
330
3E7
100
AcDbEntity
  8
SIZE
  6
CONTINUOUS
100
AcDbLine
 10
344.518578839803
 20
180.3999977471685
 30
0.0
 11
1007.559004732227
 21
180.3999977471683
 31
0.0
  0
LINE
  5
16870
330
3E7
100
AcDbEntity
  8
SIZE
  6
CONTINUOUS
100
AcDbLine
 10
977.5590047322276
 20
-179.5999946234398
 30
0.0
 11
977.5590047322276
 21
170.399997747168
 31
0.0
  0
LINE
  5
16874
330
3E7
100
AcDbEntity
  8
SIZE
100
AcDbLine
 10
25.00003051756539
 20
-685.0000037787082
 30
0.0
 11
25.00003051756538
 21
-870.8050716686038
 31
0.0
  0
LINE
  5
16875
330
3E7
100
AcDbEntity
  8
SIZE
100
AcDbLine
 10
525.0000305175651
 20
-685.0000037787082
 30
0.0
 11
525.0000305175651
 21
-870.8050716686038
 31
0.0
  0
LINE
  5
16876
330
3E7
100
AcDbEntity
  8
SIZE
100
AcDbLine
 10
35.00003051756538
 20
-840.8050716686037
 30
0.0
 11
515.0000305175653
 21
-840.8050716686037
 31
0.0
  0
LINE
  5
1687A
330
3E7
100
AcDbEntity
  8
SIZE
  6
CONTINUOUS
100
AcDbLine
 10
-525.0000000000018
 20
185.0000038506831
 30
0.0
 11
-525.0000000000018
 21
741.5542688347312
 31
0.0
  0
LINE
  5
1687B
330
3E7
100
AcDbEntity
  8
SIZE
  6
CONTINUOUS
100
AcDbLine
 10
525.0000305175651
 20
185.0000038506831
 30
0.0
 11
525.0000305175651
 21
741.5542688347312
 31
0.0
  0
LINE
  5
1687C
330
3E7
100
AcDbEntity
  8
SIZE
  6
CONTINUOUS
100
AcDbLine
 10
-515.0000000000018
 20
711.5542688347312
 30
0.0
 11
515.0000305175653
 21
711.5542688347312
 31
0.0
  0
LINE
  5
16880
330
3E7
100
AcDbEntity
  8
SIZE
  6
CONTINUOUS
100
AcDbLine
 10
-525.0000000000018
 20
185.0000038507023
 30
0.0
 11
-525.0000000000018
 21
567.628693484633
 31
0.0
  0
LINE
  5
16881
330
3E7
100
AcDbEntity
  8
SIZE
  6
CONTINUOUS
100
AcDbLine
 10
-299.9999847412091
 20
221.0404141190045
 30
0.0
 11
-299.9999847412091
 21
567.628693484633
 31
0.0
  0
LINE
  5
16882
330
3E7
100
AcDbEntity
  8
SIZE
  6
CONTINUOUS
100
AcDbLine
 10
-515.0000000000018
 20
537.628693484633
 30
0.0
 11
-309.9999847412091
 21
537.628693484633
 31
0.0
  0
LINE
  5
16886
330
3E7
100
AcDbEntity
  8
SIZE
100
AcDbLine
 10
-369.9999755859443
 20
163.1499959186258
 30
0.0
 11
-369.9999755859443
 21
431.7064337143136
 31
0.0
  0
LINE
  5
16887
330
3E7
100
AcDbEntity
  8
SIZE
100
AcDbLine
 10
-209.9999755859444
 20
163.1499959186258
 30
0.0
 11
-209.9999755859443
 21
431.7064337143136
 31
0.0
  0
LINE
  5
16888
330
3E7
100
AcDbEntity
  8
SIZE
100
AcDbLine
 10
-359.9999755859442
 20
401.7064337143136
 30
0.0
 11
-219.9999755859443
 21
401.7064337143136
 31
0.0
  0
LINE
  5
1688C
330
3E7
100
AcDbEntity
  8
SIZE
100
AcDbLine
 10
-525.0000000000018
 20
185.0000038507023
 30
0.0
 11
-525.0000000000018
 21
567.628693484633
 31
0.0
  0
LINE
  5
1688D
330
3E7
100
AcDbEntity
  8
SIZE
100
AcDbLine
 10
-540.0000000000016
 20
185.0000038507023
 30
0.0
 11
-540.0000000000016
 21
567.628693484633
 31
0.0
  0
LINE
  5
1688E
330
3E7
100
AcDbEntity
  8
SIZE
100
AcDbLine
 10
-515.0000000000018
 20
537.628693484633
 30
0.0
 11
-505.0000000000018
 21
537.628693484633
 31
0.0
  0
LINE
  5
1688F
330
3E7
100
AcDbEntity
  8
SIZE
100
AcDbLine
 10
-545.0000000000017
 20
537.628693484633
 30
0.0
 11
-831.9828571428589
 21
537.628693484633
 31
0.0
  0
LINE
  5
16890
330
3E7
100
AcDbEntity
  8
SIZE
100
AcDbLine
 10
-525.0000000000018
 20
537.628693484633
 30
0.0
 11
-535.0000000000018
 21
537.628693484633
 31
0.0
  0
LINE
  5
16894
330
3E7
100
AcDbEntity
  8
SIZE
100
AcDbLine
 10
-369.9999755859443
 20
163.1499959186258
 30
0.0
 11
-369.9999755859443
 21
431.7064337143136
 31
0.0
  0
LINE
  5
16895
330
3E7
100
AcDbEntity
  8
SIZE
100
AcDbLine
 10
-479.9999755859444
 20
27.34999591858559
 30
0.0
 11
-479.9999755859444
 21
431.7064337143136
 31
0.0
  0
LINE
  5
16896
330
3E7
100
AcDbEntity
  8
SIZE
100
AcDbLine
 10
-379.9999755859443
 20
401.7064337143136
 30
0.0
 11
-469.9999755859443
 21
401.7064337143136
 31
0.0
  0
LINE
  5
1689A
330
3E7
100
AcDbEntity
  8
SIZE
100
AcDbLine
 10
-479.9999755859444
 20
27.34999591858559
 30
0.0
 11
-479.9999755859444
 21
431.7064337143136
 31
0.0
  0
LINE
  5
1689B
330
3E7
100
AcDbEntity
  8
SIZE
100
AcDbLine
 10
-525.0000000000018
 20
185.0000038506831
 30
0.0
 11
-525.0000000000018
 21
431.7064337143136
 31
0.0
  0
LINE
  5
1689C
330
3E7
100
AcDbEntity
  8
SIZE
100
AcDbLine
 10
-469.9999755859443
 20
401.7064337143136
 30
0.0
 11
-459.9999755859442
 21
401.7064337143136
 31
0.0
  0
LINE
  5
1689D
330
3E7
100
AcDbEntity
  8
SIZE
100
AcDbLine
 10
-535.0000000000018
 20
401.7064337143136
 30
0.0
 11
-678.2571428571444
 21
401.7064337143136
 31
0.0
  0
LINE
  5
1689E
330
3E7
100
AcDbEntity
  8
SIZE
100
AcDbLine
 10
-479.9999755859444
 20
401.7064337143136
 30
0.0
 11
-525.0000000000018
 21
401.7064337143136
 31
0.0
  0
LINE
  5
168A2
330
3E7
100
AcDbEntity
  8
SIZE
100
AcDbLine
 10
-408.1499755859494
 20
124.9999959186252
 30
0.0
 11
-656.1743829412063
 21
124.9999959186252
 31
0.0
  0
LINE
  5
168A3
330
3E7
100
AcDbEntity
  8
SIZE
100
AcDbLine
 10
-518.1499755859495
 20
-11.00000408141476
 30
0.0
 11
-656.1743829412063
 21
-11.00000408141472
 31
0.0
  0
LINE
  5
168A4
330
3E7
100
AcDbEntity
  8
SIZE
100
AcDbLine
 10
-626.1743829412059
 20
114.9999959186253
 30
0.0
 11
-626.1743829412059
 21
-1.000004081414735
 31
0.0
  0
LINE
  5
168A8
330
3E7
100
AcDbEntity
  8
SIZE
100
AcDbLine
 10
-545.0
 20
-165.0000037787085
 30
0.0
 11
-656.1743829412079
 21
-165.0000037787085
 31
0.0
  0
LINE
  5
168A9
330
3E7
100
AcDbEntity
  8
SIZE
100
AcDbLine
 10
-518.1499755859495
 20
-11.00000408141476
 30
0.0
 11
-656.1743829412079
 21
-11.00000408141472
 31
0.0
  0
LINE
  5
168AA
330
3E7
100
AcDbEntity
  8
SIZE
100
AcDbLine
 10
-626.1743829412079
 20
-155.0000037787085
 30
0.0
 11
-626.1743829412079
 21
-21.00000408141473
 31
0.0
  0
LINE
  5
168AE
330
3E7
100
AcDbEntity
  8
SIZE
  6
CONTINUOUS
100
AcDbLine
 10
-545.0
 20
-165.0000037787085
 30
0.0
 11
-794.84781524151
 21
-165.0000037787084
 31
0.0
  0
LINE
  5
168AF
330
3E7
100
AcDbEntity
  8
SIZE
  6
CONTINUOUS
100
AcDbLine
 10
-545.0
 20
164.9999962212914
 30
0.0
 11
-794.84781524151
 21
164.9999962212914
 31
0.0
  0
LINE
  5
168B0
330
3E7
100
AcDbEntity
  8
SIZE
  6
CONTINUOUS
100
AcDbLine
 10
-764.84781524151
 20
-155.0000037787083
 30
0.0
 11
-764.84781524151
 21
154.9999962212915
 31
0.0
  0
LINE
  5
168B4
330
3E7
100
AcDbEntity
  8
SIZE
  6
CONTINUOUS
100
AcDbLine
 10
344.518578839803
 20
180.3999977471685
 30
0.0
 11
1007.559004732227
 21
180.3999977471683
 31
0.0
  0
LINE
  5
168B5
330
3E7
100
AcDbEntity
  8
SIZE
  6
CONTINUOUS
100
AcDbLine
 10
345.0000305175689
 20
199.3999977471711
 30
0.0
 11
1007.559004732227
 21
199.3999977471711
 31
0.0
  0
LINE
  5
168B6
330
3E7
100
AcDbEntity
  8
SIZE
  6
CONTINUOUS
100
AcDbLine
 10
977.5590047322276
 20
170.399997747168
 30
0.0
 11
977.5590047322276
 21
160.3999977471683
 31
0.0
  0
LINE
  5
168B7
330
3E7
100
AcDbEntity
  8
SIZE
  6
CONTINUOUS
100
AcDbLine
 10
977.5590047322276
 20
209.3999977471709
 30
0.0
 11
977.5590047322276
 21
338.9428548900296
 31
0.0
  0
LINE
  5
168B8
330
3E7
100
AcDbEntity
  8
SIZE
  6
CONTINUOUS
100
AcDbLine
 10
977.5590047322276
 20
180.3999977471683
 30
0.0
 11
977.5590047322276
 21
199.3999977471711
 31
0.0
  0
LINE
  5
168BC
330
3E7
100
AcDbEntity
  8
SIZE
  6
CONTINUOUS
100
AcDbLine
 10
300.0000305175654
 20
222.8427815268223
 30
0.0
 11
300.0000305175654
 21
567.628693484633
 31
0.0
  0
LINE
  5
168BD
330
3E7
100
AcDbEntity
  8
SIZE
  6
CONTINUOUS
100
AcDbLine
 10
525.0000305175651
 20
185.0000038506831
 30
0.0
 11
525.0000305175651
 21
567.628693484633
 31
0.0
  0
LINE
  5
168BE
330
3E7
100
AcDbEntity
  8
SIZE
  6
CONTINUOUS
100
AcDbLine
 10
310.0000305175654
 20
537.628693484633
 30
0.0
 11
515.0000305175653
 21
537.628693484633
 31
0.0
  0
LINE
  5
168C2
330
3E7
100
AcDbEntity
  8
SIZE
  6
CONTINUOUS
100
AcDbLine
 10
-299.9999847412091
 20
221.0404141190045
 30
0.0
 11
-299.9999847412091
 21
567.628693484633
 31
0.0
  0
LINE
  5
168C3
330
3E7
100
AcDbEntity
  8
SIZE
  6
CONTINUOUS
100
AcDbLine
 10
300.0000305175654
 20
222.8427815268223
 30
0.0
 11
300.0000305175654
 21
567.628693484633
 31
0.0
  0
LINE
  5
168C4
330
3E7
100
AcDbEntity
  8
SIZE
  6
CONTINUOUS
100
AcDbLine
 10
-289.9999847412091
 20
537.628693484633
 30
0.0
 11
290.0000305175653
 21
537.628693484633
 31
0.0
  0
LINE
  5
168C8
330
3E7
100
AcDbEntity
  8
SIZE
100
AcDbLine
 10
-209.9999755859444
 20
163.1499959186258
 30
0.0
 11
-209.9999755859443
 21
431.7064337143136
 31
0.0
  0
LINE
  5
168C9
330
3E7
100
AcDbEntity
  8
SIZE
100
AcDbLine
 10
-49.9999755859444
 20
161.4999959186249
 30
0.0
 11
-49.9999755859444
 21
431.7064337143136
 31
0.0
  0
LINE
  5
168CA
330
3E7
100
AcDbEntity
  8
SIZE
100
AcDbLine
 10
-199.9999755859443
 20
401.7064337143136
 30
0.0
 11
-59.9999755859444
 21
401.7064337143136
 31
0.0
  0
LINE
  5
168CE
330
3E7
100
AcDbEntity
  8
SIZE
100
AcDbLine
 10
-49.9999755859444
 20
161.4999959186249
 30
0.0
 11
-49.9999755859444
 21
431.7064337143136
 31
0.0
  0
LINE
  5
168CF
330
3E7
100
AcDbEntity
  8
SIZE
100
AcDbLine
 10
110.0000244140554
 20
161.4999959186249
 30
0.0
 11
110.0000244140556
 21
431.7064337143136
 31
0.0
  0
LINE
  5
168D0
330
3E7
100
AcDbEntity
  8
SIZE
100
AcDbLine
 10
-39.9999755859444
 20
401.7064337143136
 30
0.0
 11
100.0000244140555
 21
401.7064337143136
 31
0.0
  0
LINE
  5
168D4
330
3E7
100
AcDbEntity
  8
SIZE
100
AcDbLine
 10
335.0000305175654
 20
-147.0000190374994
 30
0.0
 11
335.0000305175654
 21
-67.56694206078555
 31
0.0
  0
LINE
  5
168D5
330
3E7
100
AcDbEntity
  8
SIZE
100
AcDbLine
 10
265.0000305175653
 20
-147.000003778711
 30
0.0
 11
265.0000305175653
 21
-67.56694206078555
 31
0.0
  0
LINE
  5
168D6
330
3E7
100
AcDbEntity
  8
SIZE
100
AcDbLine
 10
325.0000305175654
 20
-97.56694206078556
 30
0.0
 11
275.0000305175654
 21
-97.56694206078556
 31
0.0
  0
LINE
  5
168D7
330
3E7
100
AcDbEntity
  8
SIZE
100
AcDbLine
 10
265.0000305175653
 20
-97.56694206078556
 30
0.0
 11
121.7428876604224
 21
-97.56694206078556
 31
0.0
  0
LINE
  5
168DB
330
3E7
100
AcDbEntity
  8
SIZE
100
AcDbLine
 10
545.0000305175652
 20
165.000003850683
 30
0.0
 11
706.9526896746954
 21
165.000003850683
 31
0.0
  0
LINE
  5
168DC
330
3E7
100
AcDbEntity
  8
SIZE
100
AcDbLine
 10
545.0000305175652
 20
315.0000038506831
 30
0.0
 11
706.9526896746954
 21
315.0000038506831
 31
0.0
  0
LINE
  5
168DD
330
3E7
100
AcDbEntity
  8
SIZE
100
AcDbLine
 10
676.9526896746955
 20
175.0000038506831
 30
0.0
 11
676.9526896746955
 21
305.0000038506831
 31
0.0
  0
LINE
  5
168DE
330
3E7
100
AcDbEntity
  8
SIZE
100
AcDbLine
 10
676.9526896746955
 20
315.0000038506831
 30
0.0
 11
676.9526896746955
 21
656.8400038506831
 31
0.0
  0
LINE
  5
168E2
330
3E7
100
AcDbEntity
  8
SIZE
  6
CONTINUOUS
100
AcDbLine
 10
545.0000305175652
 20
-164.9999961493167
 30
0.0
 11
860.0261697354309
 21
-164.9999961493168
 31
0.0
  0
LINE
  5
168E4
330
3E7
100
AcDbEntity
  8
SIZE
  6
CONTINUOUS
100
AcDbLine
 10
830.0261697354306
 20
-174.9999961493168
 30
0.0
 11
830.0261697354306
 21
-184.9999961493168
 31
0.0
  0
LINE
  5
168E5
330
3E7
100
AcDbEntity
  8
SIZE
  6
CONTINUOUS
100
AcDbLine
 10
830.0261697354306
 20
-99.00000408141213
 30
0.0
 11
830.0261697354306
 21
41.51428163287524
 31
0.0
  0
LINE
  5
168E6
330
3E7
100
AcDbEntity
  8
SIZE
  6
CONTINUOUS
100
AcDbLine
 10
830.0261697354306
 20
-164.9999961493168
 30
0.0
 11
830.0261697354306
 21
-109.0000040814119
 31
0.0
  0
LINE
  5
168EA
330
3E7
100
AcDbEntity
  8
SIZE
  6
CONTINUOUS
100
AcDbLine
 10
545.0000305175652
 20
-165.0000037787085
 30
0.0
 11
684.9022547538877
 21
-165.0000037787085
 31
0.0
  0
LINE
  5
168EC
330
3E7
100
AcDbEntity
  8
SIZE
  6
CONTINUOUS
100
AcDbLine
 10
654.9022547538879
 20
-175.0000037787085
 30
0.0
 11
654.9022547538879
 21
-185.0000037787085
 31
0.0
  0
LINE
  5
168ED
330
3E7
100
AcDbEntity
  8
SIZE
  6
CONTINUOUS
100
AcDbLine
 10
654.9022547538879
 20
-115.0000037787104
 30
0.0
 11
654.9022547538879
 21
28.25713907843413
 31
0.0
  0
LINE
  5
168EE
330
3E7
100
AcDbEntity
  8
SIZE
  6
CONTINUOUS
100
AcDbLine
 10
654.9022547538879
 20
-165.0000037787085
 30
0.0
 11
654.9022547538879
 21
-125.0000037787104
 31
0.0
  0
TEXT
  5
168F2
330
3E7
100
AcDbEntity
  8
SIZE
100
AcDbText
 10
1172.365115136575
 20
-68.53589420456785
 30
0.0
 40
64.0
  1
417
 50
90.0
 41
0.9
100
AcDbText
  0
CIRCLE
  5
168F3
330
3E7
100
AcDbEntity
  8
SIZE
  6
BYBLOCK
100
AcDbCircle
 10
977.5590047322276
 20
-189.5999946234398
 30
0.0
 40
5.0
  0
LINE
  5
168F4
330
3E7
100
AcDbEntity
  8
SIZE
  6
BYBLOCK
100
AcDbLine
 10
977.5590047322276
 20
-189.5999946234398
 30
0.0
 11
977.5590047322276
 21
-179.5999946234398
 31
0.0
  0
CIRCLE
  5
168F5
330
3E7
100
AcDbEntity
  8
SIZE
  6
BYBLOCK
100
AcDbCircle
 10
-764.8478152415117
 20
-190.0000037787084
 30
0.0
 40
5.0
  0
LINE
  5
168F6
330
3E7
100
AcDbEntity
  8
SIZE
  6
BYBLOCK
100
AcDbLine
 10
-764.8478152415117
 20
-190.0000037787084
 30
0.0
 11
-764.8478152415117
 21
-200.0000037787084
 31
0.0
  0
CIRCLE
  5
168F7
330
3E7
100
AcDbEntity
  8
SIZE
  6
BYBLOCK
100
AcDbCircle
 10
977.5590047322276
 20
-189.5999946234398
 30
0.0
 40
5.0
  0
LINE
  5
168F8
330
3E7
100
AcDbEntity
  8
SIZE
  6
BYBLOCK
100
AcDbLine
 10
977.5590047322276
 20
-189.5999946234398
 30
0.0
 11
977.5590047322276
 21
-179.5999946234398
 31
0.0
  0
TEXT
  5
168F9
330
3E7
100
AcDbEntity
  8
SIZE
100
AcDbText
 10
-430.5559073360917
 20
-378.1296424310448
 30
0.0
 40
64.0
  1
362
 41
0.9
100
AcDbText
  0
TEXT
  5
168FA
330
3E7
100
AcDbEntity
  8
SIZE
100
AcDbText
 10
-784.8478152415117
 20
-323.2571466358513
 30
0.0
 40
64.0
  1
25
 50
90.0
 41
0.9
100
AcDbText
  0
CIRCLE
  5
168FB
330
3E7
100
AcDbEntity
  8
SIZE
  6
BYBLOCK
100
AcDbCircle
 10
-525.0
 20
-398.1296424310448
 30
0.0
 40
5.0
  0
LINE
  5
168FC
330
3E7
100
AcDbEntity
  8
SIZE
  6
BYBLOCK
100
AcDbLine
 10
-525.0
 20
-398.1296424310448
 30
0.0
 11
-515.0
 21
-398.1296424310448
 31
0.0
  0
TEXT
  5
168FD
330
3E7
100
AcDbEntity
  8
SIZE
100
AcDbText
 10
123.594316231851
 20
-820.8050716686038
 30
0.0
 40
64.0
  1
500以上
 41
0.9
100
AcDbText
  0
TEXT
  5
168FE
330
3E7
100
AcDbEntity
  8
SIZE
100
AcDbText
 10
349.2428031448298
 20
-515.4279792214174
 30
0.0
 40
64.0
  1
200
 41
0.9
100
AcDbText
  0
CIRCLE
  5
168FF
330
3E7
100
AcDbEntity
  8
SIZE
  6
BYBLOCK
100
AcDbCircle
 10
25.00003051756538
 20
-840.8050716686037
 30
0.0
 40
5.0
  0
LINE
  5
16900
330
3E7
100
AcDbEntity
  8
SIZE
  6
BYBLOCK
100
AcDbLine
 10
25.00003051756538
 20
-840.8050716686037
 30
0.0
 11
35.00003051756538
 21
-840.8050716686037
 31
0.0
  0
CIRCLE
  5
16901
330
3E7
100
AcDbEntity
  8
SIZE
  6
BYBLOCK
100
AcDbCircle
 10
-162.999978587506
 20
-398.1296424310448
 30
0.0
 40
5.0
  0
LINE
  5
16902
330
3E7
100
AcDbEntity
  8
SIZE
  6
BYBLOCK
100
AcDbLine
 10
-162.999978587506
 20
-398.1296424310448
 30
0.0
 11
-172.9999785875059
 21
-398.1296424310448
 31
0.0
  0
CIRCLE
  5
16903
330
3E7
100
AcDbEntity
  8
SIZE
  6
BYBLOCK
100
AcDbCircle
 10
325.0000305175654
 20
-535.4279792214174
 30
0.0
 40
5.0
  0
LINE
  5
16904
330
3E7
100
AcDbEntity
  8
SIZE
  6
BYBLOCK
100
AcDbLine
 10
325.0000305175654
 20
-535.4279792214174
 30
0.0
 11
315.0000305175653
 21
-535.4279792214174
 31
0.0
  0
TEXT
  5
16905
330
3E7
100
AcDbEntity
  8
SIZE
100
AcDbText
 10
299.7428876604225
 20
-360.967354094032
 30
0.0
 40
64.0
  1
56
 41
0.9
100
AcDbText
  0
CIRCLE
  5
16906
330
3E7
100
AcDbEntity
  8
SIZE
  6
BYBLOCK
100
AcDbCircle
 10
525.0000305175651
 20
-840.8050716686037
 30
0.0
 40
5.0
  0
LINE
  5
16907
330
3E7
100
AcDbEntity
  8
SIZE
  6
BYBLOCK
100
AcDbLine
 10
525.0000305175651
 20
-840.8050716686037
 30
0.0
 11
515.0000305175653
 21
-840.8050716686037
 31
0.0
  0
TEXT
  5
16908
330
3E7
100
AcDbEntity
  8
SIZE
100
AcDbText
 10
810.0261697354309
 20
-566.4057180644228
 30
0.0
 40
64.0
  1
500以上
 50
90.0
 41
0.9
100
AcDbText
  0
CIRCLE
  5
16909
330
3E7
100
AcDbEntity
  8
SIZE
  6
BYBLOCK
100
AcDbCircle
 10
525.0000305175651
 20
-535.4279792214174
 30
0.0
 40
5.0
  0
LINE
  5
1690A
330
3E7
100
AcDbEntity
  8
SIZE
  6
BYBLOCK
100
AcDbLine
 10
525.0000305175651
 20
-535.4279792214174
 30
0.0
 11
535.0000305175654
 21
-535.4279792214174
 31
0.0
  0
TEXT
  5
1690B
330
3E7
100
AcDbEntity
  8
SIZE
100
AcDbText
 10
565.0000305175653
 20
-360.967354094032
 30
0.0
 40
64.0
  1
42
 41
0.9
100
AcDbText
  0
LINE
  5
1690D
330
3E7
100
AcDbEntity
  8
SIZE
  6
BYBLOCK
100
AcDbLine
 10
483.0000305175653
 20
-380.9673540940321
 30
0.0
 11
473.0000305175654
 21
-380.9673540940321
 31
0.0
  0
CIRCLE
  5
1690E
330
3E7
100
AcDbEntity
  8
SIZE
  6
BYBLOCK
100
AcDbCircle
 10
483.0000305175653
 20
-380.9673540940321
 30
0.0
 40
5.0
  0
LINE
  5
1690F
330
3E7
100
AcDbEntity
  8
SIZE
  6
BYBLOCK
100
AcDbLine
 10
483.0000305175653
 20
-380.9673540940321
 30
0.0
 11
473.0000305175654
 21
-380.9673540940321
 31
0.0
  0
CIRCLE
  5
16910
330
3E7
100
AcDbEntity
  8
SIZE
  6
BYBLOCK
100
AcDbCircle
 10
427.0000305175654
 20
-380.9673540940321
 30
0.0
 40
5.0
  0
LINE
  5
16911
330
3E7
100
AcDbEntity
  8
SIZE
  6
BYBLOCK
100
AcDbLine
 10
423.0000305175654
 20
-380.9673540940321
 30
0.0
 11
433.0000305175653
 21
-380.9673540940321
 31
0.0
  0
CIRCLE
  5
16912
330
3E7
100
AcDbEntity
  8
SIZE
  6
BYBLOCK
100
AcDbCircle
 10
525.0000305175651
 20
-380.9673540940321
 30
0.0
 40
5.0
  0
LINE
  5
16913
330
3E7
100
AcDbEntity
  8
SIZE
  6
BYBLOCK
100
AcDbLine
 10
525.0000305175651
 20
-380.9673540940321
 30
0.0
 11
535.0000305175654
 21
-380.9673540940321
 31
0.0
  0
CIRCLE
  5
16914
330
3E7
100
AcDbEntity
  8
SIZE
  6
BYBLOCK
100
AcDbCircle
 10
830.0261697354306
 20
-665.0000037787086
 30
0.0
 40
5.0
  0
LINE
  5
16915
330
3E7
100
AcDbEntity
  8
SIZE
  6
BYBLOCK
100
AcDbLine
 10
830.0261697354306
 20
-665.0000037787086
 30
0.0
 11
830.0261697354306
 21
-655.0000037787087
 31
0.0
  0
TEXT
  5
16916
330
3E7
100
AcDbEntity
  8
SIZE
100
AcDbText
 10
957.5590047322277
 20
-350.8571374805788
 30
0.0
 40
64.0
  1
28
 50
90.0
 41
0.9
100
AcDbText
  0
CIRCLE
  5
16917
330
3E7
100
AcDbEntity
  8
SIZE
  6
BYBLOCK
100
AcDbCircle
 10
977.5590047322276
 20
-217.5999946234361
 30
0.0
 40
5.0
  0
LINE
  5
16918
330
3E7
100
AcDbEntity
  8
SIZE
  6
BYBLOCK
100
AcDbLine
 10
977.5590047322276
 20
-217.5999946234361
 30
0.0
 11
977.5590047322276
 21
-227.5999946234362
 31
0.0
  0
TEXT
  5
16919
330
3E7
100
AcDbEntity
  8
SIZE
100
AcDbText
 10
-358.5714041573729
 20
421.7064337143137
 30
0.0
 40
64.0
  1
160
 41
0.9
100
AcDbText
  0
TEXT
  5
1691A
330
3E7
100
AcDbEntity
  8
SIZE
100
AcDbText
 10
-646.1743829412077
 20
-157.9428610729189
 30
0.0
 40
64.0
  1
154
 50
90.0
 41
0.9
100
AcDbText
  0
TEXT
  5
1691B
330
3E7
100
AcDbEntity
  8
SIZE
100
AcDbText
 10
-646.1743829412061
 20
-10.20000408139482
 30
0.0
 40
64.0
  1
136
 50
90.0
 41
0.9
100
AcDbText
  0
TEXT
  5
1691C
330
3E7
100
AcDbEntity
  8
SIZE
100
AcDbText
 10
-784.84781524151
 20
-70.58916146169842
 30
0.0
 40
64.0
  1
330
 50
90.0
 41
0.9
100
AcDbText
  0
CIRCLE
  5
1691D
330
3E7
100
AcDbEntity
  8
SIZE
  6
BYBLOCK
100
AcDbCircle
 10
-764.84781524151
 20
-165.0000037787084
 30
0.0
 40
5.0
  0
LINE
  5
1691E
330
3E7
100
AcDbEntity
  8
SIZE
  6
BYBLOCK
100
AcDbLine
 10
-764.84781524151
 20
-165.0000037787084
 30
0.0
 11
-764.84781524151
 21
-155.0000037787083
 31
0.0
  0
CIRCLE
  5
1691F
330
3E7
100
AcDbEntity
  8
SIZE
  6
BYBLOCK
100
AcDbCircle
 10
-764.8478152415117
 20
-165.0000037787084
 30
0.0
 40
5.0
  0
LINE
  5
16920
330
3E7
100
AcDbEntity
  8
SIZE
  6
BYBLOCK
100
AcDbLine
 10
-764.8478152415117
 20
-165.0000037787084
 30
0.0
 11
-764.8478152415117
 21
-155.0000037787083
 31
0.0
  0
CIRCLE
  5
16921
330
3E7
100
AcDbEntity
  8
SIZE
  6
BYBLOCK
100
AcDbCircle
 10
-764.84781524151
 20
164.9999962212914
 30
0.0
 40
5.0
  0
LINE
  5
16922
330
3E7
100
AcDbEntity
  8
SIZE
  6
BYBLOCK
100
AcDbLine
 10
-764.84781524151
 20
164.9999962212914
 30
0.0
 11
-764.84781524151
 21
154.9999962212915
 31
0.0
  0
CIRCLE
  5
16923
330
3E7
100
AcDbEntity
  8
SIZE
  6
BYBLOCK
100
AcDbCircle
 10
-626.1743829412079
 20
-165.0000037787085
 30
0.0
 40
5.0
  0
LINE
  5
16924
330
3E7
100
AcDbEntity
  8
SIZE
  6
BYBLOCK
100
AcDbLine
 10
-626.1743829412079
 20
-165.0000037787085
 30
0.0
 11
-626.1743829412079
 21
-155.0000037787085
 31
0.0
  0
CIRCLE
  5
16925
330
3E7
100
AcDbEntity
  8
SIZE
  6
BYBLOCK
100
AcDbCircle
 10
-626.1743829412079
 20
-11.00000408141472
 30
0.0
 40
5.0
  0
LINE
  5
16926
330
3E7
100
AcDbEntity
  8
SIZE
  6
BYBLOCK
100
AcDbLine
 10
-626.1743829412079
 20
-11.00000408141472
 30
0.0
 11
-626.1743829412079
 21
-21.00000408141473
 31
0.0
  0
CIRCLE
  5
16927
330
3E7
100
AcDbEntity
  8
SIZE
  6
BYBLOCK
100
AcDbCircle
 10
-626.1743829412059
 20
-11.00000408141472
 30
0.0
 40
5.0
  0
LINE
  5
16928
330
3E7
100
AcDbEntity
  8
SIZE
  6
BYBLOCK
100
AcDbLine
 10
-626.1743829412059
 20
-11.00000408141472
 30
0.0
 11
-626.1743829412059
 21
-1.000004081414735
 31
0.0
  0
CIRCLE
  5
16929
330
3E7
100
AcDbEntity
  8
SIZE
  6
BYBLOCK
100
AcDbCircle
 10
-626.1743829412059
 20
124.9999959186252
 30
0.0
 40
5.0
  0
LINE
  5
1692A
330
3E7
100
AcDbEntity
  8
SIZE
  6
BYBLOCK
100
AcDbLine
 10
-626.1743829412059
 20
124.9999959186252
 30
0.0
 11
-626.1743829412059
 21
114.9999959186253
 31
0.0
  0
TEXT
  5
1692B
330
3E7
100
AcDbEntity
  8
SIZE
100
AcDbText
 10
-811.9828571428588
 20
557.6286934846327
 30
0.0
 40
64.0
  1
15以上
 41
0.9
100
AcDbText
  0
TEXT
  5
1692C
330
3E7
100
AcDbEntity
  8
SIZE
100
AcDbText
 10
-481.9195952980833
 20
557.6286934846327
 30
0.0
 40
64.0
  1
225
 41
0.9
100
AcDbText
  0
TEXT
  5
1692D
330
3E7
100
AcDbEntity
  8
SIZE
100
AcDbText
 10
-658.2571428571442
 20
421.7064337143137
 30
0.0
 40
64.0
  1
45
 41
0.9
100
AcDbText
  0
CIRCLE
  5
1692E
330
3E7
100
AcDbEntity
  8
SIZE
  6
BYBLOCK
100
AcDbCircle
 10
-525.0000000000018
 20
401.7064337143136
 30
0.0
 40
5.0
  0
LINE
  5
1692F
330
3E7
100
AcDbEntity
  8
SIZE
  6
BYBLOCK
100
AcDbLine
 10
-525.0000000000018
 20
401.7064337143136
 30
0.0
 11
-535.0000000000018
 21
401.7064337143136
 31
0.0
  0
CIRCLE
  5
16930
330
3E7
100
AcDbEntity
  8
SIZE
  6
BYBLOCK
100
AcDbCircle
 10
-540.0000000000016
 20
537.628693484633
 30
0.0
 40
5.0
  0
LINE
  5
16931
330
3E7
100
AcDbEntity
  8
SIZE
  6
BYBLOCK
100
AcDbLine
 10
-535.0000000000018
 20
537.628693484633
 30
0.0
 11
-545.0000000000017
 21
537.628693484633
 31
0.0
  0
CIRCLE
  5
16932
330
3E7
100
AcDbEntity
  8
SIZE
  6
BYBLOCK
100
AcDbCircle
 10
-525.0000000000018
 20
537.628693484633
 30
0.0
 40
5.0
  0
LINE
  5
16933
330
3E7
100
AcDbEntity
  8
SIZE
  6
BYBLOCK
100
AcDbLine
 10
-525.0000000000018
 20
537.628693484633
 30
0.0
 11
-515.0000000000018
 21
537.628693484633
 31
0.0
  0
CIRCLE
  5
16934
330
3E7
100
AcDbEntity
  8
SIZE
  6
BYBLOCK
100
AcDbCircle
 10
-525.0000000000018
 20
537.628693484633
 30
0.0
 40
5.0
  0
LINE
  5
16935
330
3E7
100
AcDbEntity
  8
SIZE
  6
BYBLOCK
100
AcDbLine
 10
-525.0000000000018
 20
537.628693484633
 30
0.0
 11
-515.0000000000018
 21
537.628693484633
 31
0.0
  0
TEXT
  5
16936
330
3E7
100
AcDbEntity
  8
SIZE
100
AcDbText
 10
-488.0856898716587
 20
421.7064337143137
 30
0.0
 40
64.0
  1
110
 41
0.9
100
AcDbText
  0
CIRCLE
  5
16937
330
3E7
100
AcDbEntity
  8
SIZE
  6
BYBLOCK
100
AcDbCircle
 10
-479.9999755859444
 20
401.7064337143136
 30
0.0
 40
5.0
  0
LINE
  5
16938
330
3E7
100
AcDbEntity
  8
SIZE
  6
BYBLOCK
100
AcDbLine
 10
-479.9999755859444
 20
401.7064337143136
 30
0.0
 11
-469.9999755859443
 21
401.7064337143136
 31
0.0
  0
CIRCLE
  5
16939
330
3E7
100
AcDbEntity
  8
SIZE
  6
BYBLOCK
100
AcDbCircle
 10
-479.9999755859444
 20
401.7064337143136
 30
0.0
 40
5.0
  0
LINE
  5
1693A
330
3E7
100
AcDbEntity
  8
SIZE
  6
BYBLOCK
100
AcDbLine
 10
-479.9999755859444
 20
401.7064337143136
 30
0.0
 11
-469.9999755859443
 21
401.7064337143136
 31
0.0
  0
CIRCLE
  5
1693B
330
3E7
100
AcDbEntity
  8
SIZE
  6
BYBLOCK
100
AcDbCircle
 10
-369.9999755859443
 20
401.7064337143136
 30
0.0
 40
5.0
  0
LINE
  5
1693C
330
3E7
100
AcDbEntity
  8
SIZE
  6
BYBLOCK
100
AcDbLine
 10
-369.9999755859443
 20
401.7064337143136
 30
0.0
 11
-379.9999755859443
 21
401.7064337143136
 31
0.0
  0
CIRCLE
  5
1693D
330
3E7
100
AcDbEntity
  8
SIZE
  6
BYBLOCK
100
AcDbCircle
 10
-369.9999755859443
 20
401.7064337143136
 30
0.0
 40
5.0
  0
LINE
  5
1693E
330
3E7
100
AcDbEntity
  8
SIZE
  6
BYBLOCK
100
AcDbLine
 10
-369.9999755859443
 20
401.7064337143136
 30
0.0
 11
-359.9999755859442
 21
401.7064337143136
 31
0.0
  0
CIRCLE
  5
1693F
330
3E7
100
AcDbEntity
  8
SIZE
  6
BYBLOCK
100
AcDbCircle
 10
-525.0000000000018
 20
711.5542688347312
 30
0.0
 40
5.0
  0
LINE
  5
16940
330
3E7
100
AcDbEntity
  8
SIZE
  6
BYBLOCK
100
AcDbLine
 10
-525.0000000000018
 20
711.5542688347312
 30
0.0
 11
-515.0000000000018
 21
711.5542688347312
 31
0.0
  0
TEXT
  5
16941
330
3E7
100
AcDbEntity
  8
SIZE
100
AcDbText
 10
346.5347040101451
 20
557.6286934846327
 30
0.0
 40
64.0
  1
225
 41
0.9
100
AcDbText
  0
TEXT
  5
16942
330
3E7
100
AcDbEntity
  8
SIZE
100
AcDbText
 10
141.7428876604224
 20
-77.56694206078555
 30
0.0
 40
64.0
  1
70
 41
0.9
100
AcDbText
  0
CIRCLE
  5
16943
330
3E7
100
AcDbEntity
  8
SIZE
  6
BYBLOCK
100
AcDbCircle
 10
265.0000305175653
 20
-97.56694206078556
 30
0.0
 40
5.0
  0
LINE
  5
16944
330
3E7
100
AcDbEntity
  8
SIZE
  6
BYBLOCK
100
AcDbLine
 10
265.0000305175653
 20
-97.56694206078556
 30
0.0
 11
275.0000305175654
 21
-97.56694206078556
 31
0.0
  0
CIRCLE
  5
16945
330
3E7
100
AcDbEntity
  8
SIZE
  6
BYBLOCK
100
AcDbCircle
 10
335.0000305175654
 20
-97.56694206078556
 30
0.0
 40
5.0
  0
LINE
  5
16946
330
3E7
100
AcDbEntity
  8
SIZE
  6
BYBLOCK
100
AcDbLine
 10
335.0000305175654
 20
-97.56694206078556
 30
0.0
 11
325.0000305175654
 21
-97.56694206078556
 31
0.0
  0
TEXT
  5
16947
330
3E7
100
AcDbEntity
  8
SIZE
100
AcDbText
 10
-38.57140415737295
 20
421.7064337143137
 30
0.0
 40
64.0
  1
160
 41
0.9
100
AcDbText
  0
TEXT
  5
16948
330
3E7
100
AcDbEntity
  8
SIZE
100
AcDbText
 10
-69.23150074816923
 20
557.6286934846327
 30
0.0
 40
64.0
  1
600
 41
0.9
100
AcDbText
  0
TEXT
  5
16949
330
3E7
100
AcDbEntity
  8
SIZE
100
AcDbText
 10
-94.17055430033542
 20
731.5542688347314
 30
0.0
 40
64.0
  1
1050
 41
0.9
100
AcDbText
  0
TEXT
  5
1694A
330
3E7
100
AcDbEntity
  8
SIZE
100
AcDbText
 10
-198.5714041573728
 20
421.7064337143137
 30
0.0
 40
64.0
  1
160
 41
0.9
100
AcDbText
  0
CIRCLE
  5
1694B
330
3E7
100
AcDbEntity
  8
SIZE
  6
BYBLOCK
100
AcDbCircle
 10
-209.9999755859443
 20
401.7064337143136
 30
0.0
 40
5.0
  0
LINE
  5
1694C
330
3E7
100
AcDbEntity
  8
SIZE
  6
BYBLOCK
100
AcDbLine
 10
-209.9999755859443
 20
401.7064337143136
 30
0.0
 11
-199.9999755859443
 21
401.7064337143136
 31
0.0
  0
CIRCLE
  5
1694D
330
3E7
100
AcDbEntity
  8
SIZE
  6
BYBLOCK
100
AcDbCircle
 10
-209.9999755859443
 20
401.7064337143136
 30
0.0
 40
5.0
  0
LINE
  5
1694E
330
3E7
100
AcDbEntity
  8
SIZE
  6
BYBLOCK
100
AcDbLine
 10
-209.9999755859443
 20
401.7064337143136
 30
0.0
 11
-219.9999755859443
 21
401.7064337143136
 31
0.0
  0
CIRCLE
  5
1694F
330
3E7
100
AcDbEntity
  8
SIZE
  6
BYBLOCK
100
AcDbCircle
 10
-299.9999847412091
 20
537.628693484633
 30
0.0
 40
5.0
  0
LINE
  5
16950
330
3E7
100
AcDbEntity
  8
SIZE
  6
BYBLOCK
100
AcDbLine
 10
-299.9999847412091
 20
537.628693484633
 30
0.0
 11
-289.9999847412091
 21
537.628693484633
 31
0.0
  0
CIRCLE
  5
16951
330
3E7
100
AcDbEntity
  8
SIZE
  6
BYBLOCK
100
AcDbCircle
 10
-299.9999847412091
 20
537.628693484633
 30
0.0
 40
5.0
  0
LINE
  5
16952
330
3E7
100
AcDbEntity
  8
SIZE
  6
BYBLOCK
100
AcDbLine
 10
-299.9999847412091
 20
537.628693484633
 30
0.0
 11
-309.9999847412091
 21
537.628693484633
 31
0.0
  0
CIRCLE
  5
16953
330
3E7
100
AcDbEntity
  8
SIZE
  6
BYBLOCK
100
AcDbCircle
 10
-49.9999755859444
 20
401.7064337143136
 30
0.0
 40
5.0
  0
LINE
  5
16954
330
3E7
100
AcDbEntity
  8
SIZE
  6
BYBLOCK
100
AcDbLine
 10
-49.9999755859444
 20
401.7064337143136
 30
0.0
 11
-59.9999755859444
 21
401.7064337143136
 31
0.0
  0
CIRCLE
  5
16955
330
3E7
100
AcDbEntity
  8
SIZE
  6
BYBLOCK
100
AcDbCircle
 10
-49.9999755859444
 20
401.7064337143136
 30
0.0
 40
5.0
  0
LINE
  5
16956
330
3E7
100
AcDbEntity
  8
SIZE
  6
BYBLOCK
100
AcDbLine
 10
-49.9999755859444
 20
401.7064337143136
 30
0.0
 11
-39.9999755859444
 21
401.7064337143136
 31
0.0
  0
CIRCLE
  5
16957
330
3E7
100
AcDbEntity
  8
SIZE
  6
BYBLOCK
100
AcDbCircle
 10
110.0000244140556
 20
401.7064337143136
 30
0.0
 40
5.0
  0
LINE
  5
16958
330
3E7
100
AcDbEntity
  8
SIZE
  6
BYBLOCK
100
AcDbLine
 10
110.0000244140556
 20
401.7064337143136
 30
0.0
 11
100.0000244140555
 21
401.7064337143136
 31
0.0
  0
CIRCLE
  5
16959
330
3E7
100
AcDbEntity
  8
SIZE
  6
BYBLOCK
100
AcDbCircle
 10
300.0000305175654
 20
537.628693484633
 30
0.0
 40
5.0
  0
LINE
  5
1695A
330
3E7
100
AcDbEntity
  8
SIZE
  6
BYBLOCK
100
AcDbLine
 10
300.0000305175654
 20
537.628693484633
 30
0.0
 11
290.0000305175653
 21
537.628693484633
 31
0.0
  0
CIRCLE
  5
1695B
330
3E7
100
AcDbEntity
  8
SIZE
  6
BYBLOCK
100
AcDbCircle
 10
300.0000305175654
 20
537.628693484633
 30
0.0
 40
5.0
  0
LINE
  5
1695C
330
3E7
100
AcDbEntity
  8
SIZE
  6
BYBLOCK
100
AcDbLine
 10
300.0000305175654
 20
537.628693484633
 30
0.0
 11
310.0000305175654
 21
537.628693484633
 31
0.0
  0
TEXT
  5
1695D
330
3E7
100
AcDbEntity
  8
SIZE
100
AcDbText
 10
810.0261697354309
 20
-69.00000408141031
 30
0.0
 40
64.0
  1
56
 50
90.0
 41
0.9
100
AcDbText
  0
TEXT
  5
1695E
330
3E7
100
AcDbEntity
  8
SIZE
100
AcDbText
 10
634.9022547538877
 20
-85.00000377870859
 30
0.0
 40
64.0
  1
33
 50
90.0
 41
0.9
100
AcDbText
  0
CIRCLE
  5
1695F
330
3E7
100
AcDbEntity
  8
SIZE
  6
BYBLOCK
100
AcDbCircle
 10
654.9022547538879
 20
-132.0000037787103
 30
0.0
 40
5.0
  0
LINE
  5
16960
330
3E7
100
AcDbEntity
  8
SIZE
  6
BYBLOCK
100
AcDbLine
 10
654.9022547538879
 20
-125.0000037787104
 30
0.0
 11
654.9022547538879
 21
-115.0000037787104
 31
0.0
  0
CIRCLE
  5
16961
330
3E7
100
AcDbEntity
  8
SIZE
  6
BYBLOCK
100
AcDbCircle
 10
654.9022547538879
 20
-165.0000037787085
 30
0.0
 40
5.0
  0
LINE
  5
16962
330
3E7
100
AcDbEntity
  8
SIZE
  6
BYBLOCK
100
AcDbLine
 10
654.9022547538879
 20
-165.0000037787085
 30
0.0
 11
654.9022547538879
 21
-175.0000037787085
 31
0.0
  0
CIRCLE
  5
16963
330
3E7
100
AcDbEntity
  8
SIZE
  6
BYBLOCK
100
AcDbCircle
 10
676.9526896746955
 20
165.000003850683
 30
0.0
 40
5.0
  0
LINE
  5
16964
330
3E7
100
AcDbEntity
  8
SIZE
  6
BYBLOCK
100
AcDbLine
 10
676.9526896746955
 20
165.000003850683
 30
0.0
 11
676.9526896746955
 21
175.0000038506831
 31
0.0
  0
CIRCLE
  5
16965
330
3E7
100
AcDbEntity
  8
SIZE
  6
BYBLOCK
100
AcDbCircle
 10
676.9526896746955
 20
315.0000038506831
 30
0.0
 40
5.0
  0
LINE
  5
16966
330
3E7
100
AcDbEntity
  8
SIZE
  6
BYBLOCK
100
AcDbLine
 10
676.9526896746955
 20
315.0000038506831
 30
0.0
 11
676.9526896746955
 21
305.0000038506831
 31
0.0
  0
TEXT
  5
16967
330
3E7
100
AcDbEntity
  8
SIZE
100
AcDbText
 10
957.5590047322277
 20
-84.2753738382243
 30
0.0
 40
64.0
  1
370
 50
90.0
 41
0.9
100
AcDbText
  0
CIRCLE
  5
16968
330
3E7
100
AcDbEntity
  8
SIZE
  6
BYBLOCK
100
AcDbCircle
 10
830.0261697354306
 20
-109.0000040814119
 30
0.0
 40
5.0
  0
LINE
  5
16969
330
3E7
100
AcDbEntity
  8
SIZE
  6
BYBLOCK
100
AcDbLine
 10
830.0261697354306
 20
-109.0000040814119
 30
0.0
 11
830.0261697354306
 21
-99.00000408141213
 31
0.0
  0
CIRCLE
  5
1696A
330
3E7
100
AcDbEntity
  8
SIZE
  6
BYBLOCK
100
AcDbCircle
 10
830.0261697354306
 20
-164.9999961493168
 30
0.0
 40
5.0
  0
LINE
  5
1696B
330
3E7
100
AcDbEntity
  8
SIZE
  6
BYBLOCK
100
AcDbLine
 10
830.0261697354306
 20
-164.9999961493168
 30
0.0
 11
830.0261697354306
 21
-174.9999961493168
 31
0.0
  0
CIRCLE
  5
1696C
330
3E7
100
AcDbEntity
  8
SIZE
  6
BYBLOCK
100
AcDbCircle
 10
830.026169735431
 20
-165.0000037787085
 30
0.0
 40
5.0
  0
LINE
  5
1696D
330
3E7
100
AcDbEntity
  8
SIZE
  6
BYBLOCK
100
AcDbLine
 10
830.026169735431
 20
-165.0000037787085
 30
0.0
 11
830.026169735431
 21
-175.0000037787086
 31
0.0
  0
TEXT
  5
1696E
330
3E7
100
AcDbEntity
  8
SIZE
100
AcDbText
 10
957.5590047322277
 20
239.3999977471727
 30
0.0
 40
64.0
  1
19
 50
90.0
 41
0.9
100
AcDbText
  0
CIRCLE
  5
1696F
330
3E7
100
AcDbEntity
  8
SIZE
  6
BYBLOCK
100
AcDbCircle
 10
977.5590047322276
 20
199.3999977471711
 30
0.0
 40
5.0
  0
LINE
  5
16970
330
3E7
100
AcDbEntity
  8
SIZE
  6
BYBLOCK
100
AcDbLine
 10
977.5590047322276
 20
199.3999977471711
 30
0.0
 11
977.5590047322276
 21
209.3999977471709
 31
0.0
  0
CIRCLE
  5
16971
330
3E7
100
AcDbEntity
  8
SIZE
  6
BYBLOCK
100
AcDbCircle
 10
977.5590047322276
 20
180.3999977471683
 30
0.0
 40
5.0
  0
LINE
  5
16972
330
3E7
100
AcDbEntity
  8
SIZE
  6
BYBLOCK
100
AcDbLine
 10
977.5590047322276
 20
180.3999977471683
 30
0.0
 11
977.5590047322276
 21
170.399997747168
 31
0.0
  0
CIRCLE
  5
16973
330
3E7
100
AcDbEntity
  8
SIZE
  6
BYBLOCK
100
AcDbCircle
 10
977.5590047322276
 20
180.3999977471683
 30
0.0
 40
5.0
  0
LINE
  5
16974
330
3E7
100
AcDbEntity
  8
SIZE
  6
BYBLOCK
100
AcDbLine
 10
977.5590047322276
 20
180.3999977471683
 30
0.0
 11
977.5590047322276
 21
170.399997747168
 31
0.0
  0
TEXT
  5
16975
330
3E7
100
AcDbEntity
  8
SIZE
100
AcDbText
 10
656.9526896746955
 20
345.0000038506833
 30
0.0
 40
64.0
  1
150以上
 50
90.0
 41
0.9
100
AcDbText
  0
CIRCLE
  5
16976
330
3E7
100
AcDbEntity
  8
SIZE
  6
BYBLOCK
100
AcDbCircle
 10
525.0000305175651
 20
537.628693484633
 30
0.0
 40
5.0
  0
LINE
  5
16977
330
3E7
100
AcDbEntity
  8
SIZE
  6
BYBLOCK
100
AcDbLine
 10
525.0000305175651
 20
537.628693484633
 30
0.0
 11
515.0000305175653
 21
537.628693484633
 31
0.0
  0
CIRCLE
  5
16978
330
3E7
100
AcDbEntity
  8
SIZE
  6
BYBLOCK
100
AcDbCircle
 10
525.0000305175651
 20
711.5542688347312
 30
0.0
 40
5.0
  0
LINE
  5
16979
330
3E7
100
AcDbEntity
  8
SIZE
  6
BYBLOCK
100
AcDbLine
 10
525.0000305175651
 20
711.5542688347312
 30
0.0
 11
515.0000305175653
 21
711.5542688347312
 31
0.0
  0
CIRCLE
  5
1697A
330
3E7
100
AcDbEntity
  8
SIZE
  6
BYBLOCK
100
AcDbCircle
 10
1192.365115136575
 20
-217.5999946234361
 30
0.0
 40
5.0
  0
LINE
  5
1697B
330
3E7
100
AcDbEntity
  8
SIZE
  6
BYBLOCK
100
AcDbLine
 10
1192.365115136575
 20
-217.5999946234361
 30
0.0
 11
1192.365115136575
 21
-207.5999946234361
 31
0.0
  0
CIRCLE
  5
1697C
330
3E7
100
AcDbEntity
  8
SIZE
  6
BYBLOCK
100
AcDbCircle
 10
1192.365115136575
 20
199.3999977471709
 30
0.0
 40
5.0
  0
LINE
  5
1697D
330
3E7
100
AcDbEntity
  8
SIZE
  6
BYBLOCK
100
AcDbLine
 10
1192.365115136575
 20
199.3999977471709
 30
0.0
 11
1192.365115136575
 21
189.3999977471709
 31
0.0
  0
LINE
  5
16980
330
3E7
100
AcDbEntity
  8
OUTLINE
  6
CONTINUOUS
100
AcDbLine
 10
335.0000305175654
 20
-167.0000190374994
 30
0.0
 11
335.0000305175654
 21
-209.5999946234394
 31
0.0
  0
LINE
  5
16983
330
3E7
100
AcDbEntity
  8
OUTLINE
  6
CONTINUOUS
100
AcDbLine
 10
265.0000305175653
 20
-167.0000190374994
 30
0.0
 11
265.0000305175653
 21
-209.5999946234394
 31
0.0
  0
LINE
  5
16984
330
3E7
100
AcDbEntity
  8
OUTLINE
  6
CONTINUOUS
100
AcDbLine
 10
-264.9999694824328
 20
-190.0000037787085
 30
0.0
 11
-264.9999694824345
 21
-209.5999946234394
 31
0.0
  0
LINE
  5
16987
330
3E7
100
AcDbEntity
  8
OUTLINE
  6
CONTINUOUS
100
AcDbLine
 10
-334.9999694824325
 20
-190.0000037787085
 30
0.0
 11
-334.9999694824346
 21
-209.5999946234394
 31
0.0
  0
ARC
  5
1698E
330
3E7
100
AcDbEntity
  8
OUTLINE
  6
CONTINUOUS
100
AcDbCircle
 10
-324.9999772631436
 20
-212.6000024041502
 30
0.0
 40
4.999992219293091
100
AcDbArc
 50
179.9999108394603
 51
270.0000891605656
  0
LINE
  5
1698F
330
3E7
100
AcDbEntity
  8
OUTLINE
  6
CONTINUOUS
100
AcDbLine
 10
-331.9999694824255
 20
-212.5999946234394
 30
0.0
 11
-329.9999694824346
 21
-212.5999946234367
 31
0.0
  0
ARC
  5
16990
330
3E7
100
AcDbEntity
  8
OUTLINE
  6
CONTINUOUS
100
AcDbCircle
 10
-331.9999772631688
 20
-209.6000024041805
 30
0.0
 40
2.999992219268819
100
AcDbArc
 50
179.9998513984144
 51
270.0001486016375
  0
LINE
  5
16991
330
3E7
100
AcDbEntity
  8
OUTLINE
  6
CONTINUOUS
100
AcDbLine
 10
-267.9999694824345
 20
-212.5999946234359
 30
0.0
 11
-269.9999694824345
 21
-212.5999946234367
 31
0.0
  0
ARC
  5
16992
330
3E7
100
AcDbEntity
  8
OUTLINE
  6
CONTINUOUS
100
AcDbCircle
 10
-274.9999678052354
 20
-212.5999963006361
 30
0.0
 40
4.999998322800193
100
AcDbArc
 50
269.9999807807131
 51
0.0000192193129332
  0
ARC
  5
16993
330
3E7
100
AcDbEntity
  8
OUTLINE
  6
CONTINUOUS
100
AcDbCircle
 10
-267.9999678052096
 20
-209.5999963006613
 30
0.0
 40
2.999998322775367
100
AcDbArc
 50
269.9999679673341
 51
0.0000320326658989
  0
LINE
  5
16994
330
3E7
100
AcDbEntity
  8
OUTLINE
  6
CONTINUOUS
100
AcDbLine
 10
-274.9999694824345
 20
-217.5999946234369
 30
0.0
 11
-324.9999694824346
 21
-217.5999946234369
 31
0.0
  0
LINE
  5
16997
330
3E7
100
AcDbEntity
  8
OUTLINE
  6
CONTINUOUS
100
AcDbLine
 10
325.0000305175654
 20
-216.0000190375003
 30
0.0
 11
275.0000305175654
 21
-216.0000190375003
 31
0.0
  0
LINE
  5
16998
330
3E7
100
AcDbEntity
  8
OUTLINE
  6
CONTINUOUS
100
AcDbLine
 10
325.0000305175654
 20
-217.5999946234369
 30
0.0
 11
275.0000305175654
 21
-217.5999946234369
 31
0.0
  0
ARC
  5
1699B
330
3E7
100
AcDbEntity
  8
OUTLINE
  6
CONTINUOUS
100
AcDbCircle
 10
275.0000303662254
 20
-212.6000100335329
 30
0.0
 40
3.400009003964218
100
AcDbArc
 50
179.9997403143285
 51
270.0000025503778
  0
LINE
  5
1699C
330
3E7
100
AcDbEntity
  8
OUTLINE
  6
CONTINUOUS
100
AcDbLine
 10
271.600021362299
 20
-212.5999946234367
 30
0.0
 11
268.0000305175763
 21
-212.5999946234367
 31
0.0
  0
ARC
  5
1699D
330
3E7
100
AcDbEntity
  8
OUTLINE
  6
CONTINUOUS
100
AcDbCircle
 10
268.0000227368308
 20
-209.6000024041805
 30
0.0
 40
2.999992219268133
100
AcDbArc
 50
179.9998513984144
 51
270.0001486016375
  0
ARC
  5
1699E
330
3E7
100
AcDbEntity
  8
OUTLINE
  6
CONTINUOUS
100
AcDbCircle
 10
275.0000227368563
 20
-212.6000024041502
 30
0.0
 40
4.999992219292976
100
AcDbArc
 50
179.9999108394603
 51
270.0000891605656
  0
ARC
  5
1699F
330
3E7
100
AcDbEntity
  8
OUTLINE
  6
CONTINUOUS
100
AcDbCircle
 10
325.0000169360264
 20
-212.6000115594514
 30
0.0
 40
3.400007478077102
100
AcDbArc
 50
270.0002288716808
 51
0.000285400000598
  0
LINE
  5
169A0
330
3E7
100
AcDbEntity
  8
OUTLINE
  6
CONTINUOUS
100
AcDbLine
 10
332.0000305175653
 20
-212.5999946234378
 30
0.0
 11
328.4000244140568
 21
-212.5999946234367
 31
0.0
  0
ARC
  5
169A1
330
3E7
100
AcDbEntity
  8
OUTLINE
  6
CONTINUOUS
100
AcDbCircle
 10
325.0000321947645
 20
-212.5999963006361
 30
0.0
 40
4.999998322800193
100
AcDbArc
 50
269.9999807807131
 51
0.0000192193129332
  0
ARC
  5
169A2
330
3E7
100
AcDbEntity
  8
OUTLINE
  6
CONTINUOUS
100
AcDbCircle
 10
332.0000321947897
 20
-209.5999963006613
 30
0.0
 40
2.999998322775367
100
AcDbArc
 50
269.9999679673341
 51
0.0000320326658989
  0
LINE
  5
169A3
330
3E7
100
AcDbEntity
  8
OUTLINE
  6
CONTINUOUS
100
AcDbLine
 10
-331.9999694824236
 20
194.3999977471694
 30
0.0
 11
-328.3999633789078
 21
194.3999977471694
 31
0.0
  0
ARC
  5
169A4
330
3E7
100
AcDbEntity
  8
OUTLINE
  6
CONTINUOUS
100
AcDbCircle
 10
-324.9999716199108
 20
194.3999998846548
 30
0.0
 40
4.999997862511465
100
AcDbArc
 50
89.99997550611787
 51
180.0000244938299
  0
LINE
  5
169A5
330
3E7
100
AcDbEntity
  8
OUTLINE
  6
CONTINUOUS
100
AcDbLine
 10
-525.0000000000018
 20
150.0000038506831
 30
0.0
 11
-525.0000000000018
 21
-150.0000037787085
 31
0.0
  0
LINE
  5
169A6
330
3E7
100
AcDbEntity
  8
OUTLINE
  6
CONTINUOUS
100
AcDbLine
 10
-334.9999694824346
 20
191.3999977471675
 30
0.0
 11
-334.9999694824325
 21
-190.0000037787085
 31
0.0
  0
ARC
  5
169A7
330
3E7
100
AcDbEntity
  8
OUTLINE
  6
CONTINUOUS
100
AcDbCircle
 10
-509.9999879443221
 20
-149.9999917230243
 30
0.0
 40
15.00001205569363
100
AcDbArc
 50
180.0000460492953
 51
269.9999539507304
  0
LINE
  5
169A8
330
3E7
100
AcDbEntity
  8
OUTLINE
  6
CONTINUOUS
100
AcDbLine
 10
-510.0000000000018
 20
-165.0000037787085
 30
0.0
 11
-334.9999694824325
 21
-165.0000037787076
 31
0.0
  0
LINE
  5
169A9
330
3E7
100
AcDbEntity
  8
OUTLINE
  6
CONTINUOUS
100
AcDbLine
 10
-334.9999694824325
 20
-190.0000037787085
 30
0.0
 11
-469.1577148437553
 21
-190.0000037787085
 31
0.0
  0
ARC
  5
169AA
330
3E7
100
AcDbEntity
  8
OUTLINE
100
AcDbCircle
 10
-469.1577148437553
 20
-184.0000037787085
 30
0.0
 40
6.0
100
AcDbArc
 50
180.0000000000054
 51
270.0
  0
LINE
  5
169AB
330
3E7
100
AcDbEntity
  8
OUTLINE
100
AcDbLine
 10
-475.1577148437553
 20
-184.0000037787094
 30
0.0
 11
-475.1577148437553
 21
-165.0000037787085
 31
0.0
  0
ARC
  5
169AD
330
3E7
100
AcDbEntity
  8
OUTLINE
  6
CONTINUOUS
100
AcDbCircle
 10
-509.9999838269122
 20
149.9999876775982
 30
0.0
 40
15.00001617309575
100
AcDbArc
 50
90.00006177654723
 51
179.9999382234267
  0
LINE
  5
169AE
330
3E7
100
AcDbEntity
  8
OUTLINE
  6
CONTINUOUS
100
AcDbLine
 10
-334.9999694824346
 20
180.7999992730465
 30
0.0
 11
-461.3665161132866
 21
180.7999992730455
 31
0.0
  0
LINE
  5
169AF
330
3E7
100
AcDbEntity
  8
OUTLINE
  6
CONTINUOUS
100
AcDbLine
 10
-334.9999694824346
 20
177.7999992730428
 30
0.0
 11
-461.3665161132866
 21
177.7999992730435
 31
0.0
  0
LINE
  5
169B0
330
3E7
100
AcDbEntity
  8
OUTLINE
  6
CONTINUOUS
100
AcDbLine
 10
-334.9999694824325
 20
165.000003850683
 30
0.0
 11
-510.0000000000018
 21
165.000003850683
 31
0.0
  0
ARC
  5
169B1
330
3E7
100
AcDbEntity
  8
OUTLINE
100
AcDbCircle
 10
-461.0286861700878
 20
176.2148421830343
 30
0.0
 40
4.597585737168428
100
AcDbArc
 50
94.21388350712204
 51
145.785977364908
  0
ARC
  5
169B2
330
3E7
100
AcDbEntity
  8
OUTLINE
100
AcDbCircle
 10
-461.2821022024927
 20
176.653785474863
 30
0.0
 40
1.149317962738672
100
AcDbArc
 50
94.21199355029655
 51
145.7878673211844
  0
ARC
  5
169B3
330
3E7
100
AcDbEntity
  8
OUTLINE
100
AcDbCircle
 10
-471.6433771034753
 20
169.0000099905899
 30
0.0
 40
1.000013769316874
100
AcDbArc
 50
270.000316350984
 51
329.9995445210357
  0
LINE
  5
169B4
330
3E7
100
AcDbEntity
  8
OUTLINE
  6
CONTINUOUS
100
AcDbLine
 10
-470.7773437499978
 20
168.4999962212905
 30
0.0
 11
-464.830627441408
 21
178.7999992730474
 31
0.0
  0
LINE
  5
169B5
330
3E7
100
AcDbEntity
  8
OUTLINE
  6
CONTINUOUS
100
AcDbLine
 10
-498.2635498046893
 20
167.9265785577133
 30
0.0
 11
-471.643371582033
 21
167.9999962212886
 31
0.0
  0
ARC
  5
169B6
330
3E7
100
AcDbEntity
  8
OUTLINE
100
AcDbCircle
 10
-471.6433454072066
 20
168.9999677084333
 30
0.0
 40
3.999971487232676
100
AcDbArc
 50
269.9996250705566
 51
330.0002358015441
  0
ARC
  5
169B7
330
3E7
100
AcDbEntity
  8
OUTLINE
100
AcDbCircle
 10
-490.1494163783882
 20
166.4632912041985
 30
0.0
 40
1.55096918218183
100
AcDbArc
 50
109.3579073171617
 51
250.6420926828409
  0
ARC
  5
169B8
330
3E7
100
AcDbEntity
  8
OUTLINE
100
AcDbCircle
 10
-497.7494529994856
 20
166.4632912041985
 30
0.0
 40
1.55096918218183
100
AcDbArc
 50
109.3579073171617
 51
250.6420926828409
  0
LINE
  5
169B9
330
3E7
100
AcDbEntity
  8
OUTLINE
  6
CONTINUOUS
100
AcDbLine
 10
-462.2325439453216
 20
177.2999992730464
 30
0.0
 11
-468.1792602539116
 21
166.9999962212895
 31
0.0
  0
ARC
  5
169BA
330
3E7
100
AcDbEntity
  8
OUTLINE
  6
CONTINUOUS
100
AcDbCircle
 10
-331.9999716198817
 20
191.3999998846254
 30
0.0
 40
2.999997862540873
100
AcDbArc
 50
89.99995917748845
 51
180.0000408225114
  0
LINE
  5
169BC
330
3E7
100
AcDbEntity
  8
OUTLINE
  6
CONTINUOUS
100
AcDbLine
 10
510.0000305175781
 20
165.0000038506838
 30
0.0
 11
335.0000305175654
 21
165.0000038506838
 31
0.0
  0
LINE
  5
169BD
330
3E7
100
AcDbEntity
  8
OUTLINE
  6
CONTINUOUS
100
AcDbLine
 10
335.0000305175654
 20
-165.0000037787085
 30
0.0
 11
509.9999999999872
 21
-165.0000037787085
 31
0.0
  0
LINE
  5
169BE
330
3E7
100
AcDbEntity
  8
OUTLINE
  6
CONTINUOUS
100
AcDbLine
 10
191.9000244140604
 20
180.7999992730455
 30
0.0
 11
-264.9999694824345
 21
180.7999992730455
 31
0.0
  0
LINE
  5
169BF
330
3E7
100
AcDbEntity
  8
OUTLINE
  6
CONTINUOUS
100
AcDbLine
 10
191.9000244140604
 20
177.7999992730435
 30
0.0
 11
-264.999938964851
 21
177.7999992730435
 31
0.0
  0
LINE
  5
169C0
330
3E7
100
AcDbEntity
  8
OUTLINE
  6
CONTINUOUS
100
AcDbLine
 10
143.1392621403008
 20
-190.0000037787085
 30
0.0
 11
-264.9999694824328
 21
-190.0000037787085
 31
0.0
  0
LINE
  5
169C1
330
3E7
100
AcDbEntity
  8
OUTLINE
  6
CONTINUOUS
100
AcDbLine
 10
265.0000305175671
 20
165.000003850683
 30
0.0
 11
-264.9999694824345
 21
165.000003850683
 31
0.0
  0
LINE
  5
169C2
330
3E7
100
AcDbEntity
  8
OUTLINE
  6
CONTINUOUS
100
AcDbLine
 10
-265.0000000000018
 20
-165.0000037787085
 30
0.0
 11
265.0000305175653
 21
-165.0000037787085
 31
0.0
  0
LINE
  5
169C5
330
3E7
100
AcDbEntity
  8
OUTLINE
  6
CONTINUOUS
100
AcDbLine
 10
-264.9999694824345
 20
191.3999977471675
 30
0.0
 11
-264.9999694824328
 21
-190.0000037787085
 31
0.0
  0
ARC
  5
169D7
330
3E7
100
AcDbEntity
  8
OUTLINE
  6
CONTINUOUS
100
AcDbCircle
 10
-274.9999734484499
 20
194.3999937811539
 30
0.0
 40
3.399997862503181
100
AcDbArc
 50
0.0000668341816535
 51
89.99993316584442
  0
ARC
  5
169D8
330
3E7
100
AcDbEntity
  8
OUTLINE
  6
CONTINUOUS
100
AcDbCircle
 10
-288.9999716199253
 20
194.3999998846591
 30
0.0
 40
3.399991758996283
100
AcDbArc
 50
89.99996397954834
 51
180.0000360203995
  0
ARC
  5
169D9
330
3E7
100
AcDbEntity
  8
OUTLINE
  6
CONTINUOUS
100
AcDbCircle
 10
-288.9999716199253
 20
194.3999998846548
 30
0.0
 40
4.999997862511465
100
AcDbArc
 50
89.99997550611787
 51
180.0000244938299
  0
ARC
  5
169DA
330
3E7
100
AcDbEntity
  8
OUTLINE
  6
CONTINUOUS
100
AcDbCircle
 10
-274.9999734484499
 20
194.3999937811539
 30
0.0
 40
5.000003966017835
100
AcDbArc
 50
0.0000454471622229
 51
89.99995455281171
  0
ARC
  5
169DB
330
3E7
100
AcDbEntity
  8
OUTLINE
  6
CONTINUOUS
100
AcDbCircle
 10
-324.9999716199108
 20
194.3999998846591
 30
0.0
 40
3.399991758995373
100
AcDbArc
 50
89.99996397954834
 51
180.0000360203995
  0
ARC
  5
169DC
330
3E7
100
AcDbEntity
  8
OUTLINE
  6
CONTINUOUS
100
AcDbCircle
 10
-310.9999734484536
 20
194.3999937811539
 30
0.0
 40
3.399997862503181
100
AcDbArc
 50
0.0000668341816535
 51
89.99993316584442
  0
ARC
  5
169DD
330
3E7
100
AcDbEntity
  8
OUTLINE
  6
CONTINUOUS
100
AcDbCircle
 10
-310.9999734484353
 20
194.3999937811539
 30
0.0
 40
5.000003966017835
100
AcDbArc
 50
0.0000454471622229
 51
89.99995455281171
  0
LINE
  5
169DE
330
3E7
100
AcDbEntity
  8
OUTLINE
  6
CONTINUOUS
100
AcDbLine
 10
-292.3999633789226
 20
180.3999977471685
 30
0.0
 11
-292.3999633789226
 21
194.3999977471694
 31
0.0
  0
LINE
  5
169DF
330
3E7
100
AcDbEntity
  8
OUTLINE
  6
CONTINUOUS
100
AcDbLine
 10
-271.5999755859426
 20
194.3999977471694
 30
0.0
 11
-267.9999694824273
 21
194.3999977471694
 31
0.0
  0
LINE
  5
169E0
330
3E7
100
AcDbEntity
  8
OUTLINE
  6
CONTINUOUS
100
AcDbLine
 10
-295.4654846191461
 20
176.4708290459939
 30
0.0
 11
-294.6112670898418
 21
177.7999992730435
 31
0.0
  0
LINE
  5
169E1
330
3E7
100
AcDbEntity
  8
OUTLINE
  6
CONTINUOUS
100
AcDbLine
 10
-293.9999694824306
 20
180.7999992730455
 30
0.0
 11
-293.9999694824306
 21
194.3999977471694
 31
0.0
  0
ARC
  5
169E2
330
3E7
100
AcDbEntity
  8
OUTLINE
  6
CONTINUOUS
100
AcDbCircle
 10
-267.999973448479
 20
191.3999937811249
 30
0.0
 40
3.000003966047763
100
AcDbArc
 50
0.0000757457827885
 51
89.99992425416509
  0
LINE
  5
169E3
330
3E7
100
AcDbEntity
  8
OUTLINE
  6
CONTINUOUS
100
AcDbLine
 10
-307.5999755859466
 20
194.3999977471694
 30
0.0
 11
-307.5999755859466
 21
180.3999977471685
 31
0.0
  0
LINE
  5
169E4
330
3E7
100
AcDbEntity
  8
OUTLINE
  6
CONTINUOUS
100
AcDbLine
 10
-305.3886718750088
 20
177.7999992730435
 30
0.0
 11
-304.5344848632903
 21
176.4708290459939
 31
0.0
  0
LINE
  5
169E5
330
3E7
100
AcDbEntity
  8
OUTLINE
  6
CONTINUOUS
100
AcDbLine
 10
-305.9999694824198
 20
194.3999977471694
 30
0.0
 11
-305.9999694824198
 21
180.7999992730455
 31
0.0
  0
ARC
  5
169E6
330
3E7
100
AcDbEntity
  8
OUTLINE
  6
CONTINUOUS
100
AcDbCircle
 10
-299.9999694824346
 20
180.3999977471685
 30
0.0
 40
7.600006103516081
100
AcDbArc
 50
180.0
 51
0.0
  0
ARC
  5
169E7
330
3E7
100
AcDbEntity
  8
OUTLINE
  6
CONTINUOUS
100
AcDbCircle
 10
-299.9999847412091
 20
180.3999959186475
 30
0.0
 40
6.000003639181832
100
AcDbArc
 50
220.9090919934946
 51
319.0909080065053
  0
LINE
  5
169F7
330
3E7
100
AcDbEntity
  8
OUTLINE
  6
CONTINUOUS
100
AcDbLine
 10
-288.9999694824306
 20
197.799991643652
 30
0.0
 11
-274.9999694824345
 21
197.799991643652
 31
0.0
  0
LINE
  5
169F8
330
3E7
100
AcDbEntity
  8
OUTLINE
  6
CONTINUOUS
100
AcDbLine
 10
-288.9999694824306
 20
199.3999977471694
 30
0.0
 11
-274.9999694824345
 21
199.3999977471694
 31
0.0
  0
LINE
  5
169F9
330
3E7
100
AcDbEntity
  8
OUTLINE
  6
CONTINUOUS
100
AcDbLine
 10
-324.9999694824346
 20
197.799991643652
 30
0.0
 11
-310.9999694824381
 21
197.799991643652
 31
0.0
  0
LINE
  5
169FA
330
3E7
100
AcDbEntity
  8
OUTLINE
  6
CONTINUOUS
100
AcDbLine
 10
-324.9999694824346
 20
199.3999977471694
 30
0.0
 11
-310.99996948242
 21
199.3999977471694
 31
0.0
  0
LINE
  5
169FD
330
3E7
100
AcDbEntity
  8
OUTLINE
  6
CONTINUOUS
100
AcDbLine
 10
335.0000305175654
 20
191.3999977471675
 30
0.0
 11
335.0000305175654
 21
-167.0000190374994
 31
0.0
  0
LINE
  5
169FE
330
3E7
100
AcDbEntity
  8
OUTLINE
  6
CONTINUOUS
100
AcDbLine
 10
265.0000305175653
 20
191.3999977471675
 30
0.0
 11
265.0000305175653
 21
-167.0000190374994
 31
0.0
  0
ARC
  5
169FF
330
3E7
100
AcDbEntity
  8
OUTLINE
  6
CONTINUOUS
100
AcDbCircle
 10
212.7573367328277
 20
-167.9999846161071
 30
0.0
 40
2.999980837422236
100
AcDbArc
 50
44.99949807818187
 51
90.00023900305164
  0
ARC
  5
16A00
330
3E7
100
AcDbEntity
  8
OUTLINE
100
AcDbCircle
 10
143.1392621403008
 20
-184.0000037787085
 30
0.0
 40
6.0
100
AcDbArc
 50
270.0
 51
359.9999999999888
  0
LINE
  5
16A01
330
3E7
100
AcDbEntity
  8
OUTLINE
100
AcDbLine
 10
149.139262140301
 20
-184.0000037787094
 30
0.0
 11
149.1392621403026
 21
-165.0000037787085
 31
0.0
  0
LINE
  5
16A10
330
3E7
100
AcDbEntity
  8
OUTLINE
  6
CONTINUOUS
100
AcDbLine
 10
217.2426757812518
 20
-167.000003778711
 30
0.0
 11
223.9999999999945
 21
-167.000003778711
 31
0.0
  0
LINE
  5
16A11
330
3E7
100
AcDbEntity
  8
OUTLINE
  6
CONTINUOUS
100
AcDbLine
 10
214.8786621093659
 20
-165.8786964056653
 30
0.0
 11
215.121337890612
 21
-166.1213111517588
 31
0.0
  0
ARC
  5
16A12
330
3E7
100
AcDbEntity
  8
OUTLINE
  6
CONTINUOUS
100
AcDbCircle
 10
217.2426702037573
 20
-164.0000061949729
 30
0.0
 40
2.999997583740558
100
AcDbArc
 50
224.9996305590268
 51
270.0001065221237
  0
LINE
  5
16A13
330
3E7
100
AcDbEntity
  8
OUTLINE
  6
CONTINUOUS
100
AcDbLine
 10
265.0000305175671
 20
-167.000003778711
 30
0.0
 11
223.9999999999945
 21
-167.000003778711
 31
0.0
  0
LINE
  5
16A14
330
3E7
100
AcDbEntity
  8
OUTLINE
  6
CONTINUOUS
100
AcDbLine
 10
339.1213378906268
 20
-165.8786964056653
 30
0.0
 11
338.8786621093622
 21
-166.1213111517588
 31
0.0
  0
ARC
  5
16A15
330
3E7
100
AcDbEntity
  8
OUTLINE
  6
CONTINUOUS
100
AcDbCircle
 10
341.2426704177942
 20
-168.0000018791806
 30
0.0
 40
2.999998100476906
100
AcDbArc
 50
89.99989756571372
 51
135.0003653530949
  0
LINE
  5
16A16
330
3E7
100
AcDbEntity
  8
OUTLINE
  6
CONTINUOUS
100
AcDbLine
 10
336.2430419921818
 20
-167.000003778711
 30
0.0
 11
337.1843261718622
 21
-166.9694556830098
 31
0.0
  0
LINE
  5
16A17
330
3E7
100
AcDbEntity
  8
OUTLINE
  6
CONTINUOUS
100
AcDbLine
 10
335.0000305175654
 20
-167.000003778711
 30
0.0
 11
336.2430419921818
 21
-167.000003778711
 31
0.0
  0
ARC
  5
16A19
330
3E7
100
AcDbEntity
  8
OUTLINE
  6
CONTINUOUS
100
AcDbCircle
 10
336.7573466785306
 20
-164.0000226266772
 30
0.0
 40
2.999974027183649
100
AcDbArc
 50
278.1825644195619
 51
315.0003633585593
  0
LINE
  5
16A1A
330
3E7
100
AcDbEntity
  8
OUTLINE
  6
CONTINUOUS
100
AcDbLine
 10
225.900024414057
 20
177.0499992730455
 30
0.0
 11
180.8972778320258
 21
177.0499992730455
 31
0.0
  0
LINE
  5
16A1B
330
3E7
100
AcDbEntity
  8
OUTLINE
  6
CONTINUOUS
100
AcDbLine
 10
184.0586269399663
 20
183.0499992730447
 30
0.0
 11
221.9000235221191
 21
183.0499992730447
 31
0.0
  0
LINE
  5
16A1C
330
3E7
100
AcDbEntity
  8
OUTLINE
  6
CONTINUOUS
100
AcDbLine
 10
221.900024414057
 20
171.0499992730483
 30
0.0
 11
184.0586242675799
 21
171.0499992730464
 31
0.0
  0
LINE
  5
16A1D
330
3E7
100
AcDbEntity
  8
OUTLINE
  6
CONTINUOUS
100
AcDbLine
 10
231.3883209228495
 20
177.7999992730435
 30
0.0
 11
207.9000244140643
 21
177.7999992730435
 31
0.0
  0
LINE
  5
16A1E
330
3E7
100
AcDbEntity
  8
OUTLINE
  6
CONTINUOUS
100
AcDbLine
 10
231.3883209228495
 20
180.7999992730455
 30
0.0
 11
207.9000244140643
 21
180.7999992730455
 31
0.0
  0
LINE
  5
16A20
330
3E7
100
AcDbEntity
  8
OUTLINE
  6
CONTINUOUS
100
AcDbLine
 10
191.9000244140604
 20
183.0499992730447
 30
0.0
 11
191.9000244140604
 21
171.0901063689916
 31
0.0
  0
LINE
  5
16A21
330
3E7
100
AcDbEntity
  8
OUTLINE
  6
CONTINUOUS
100
AcDbLine
 10
181.3069915771466
 20
181.2451973321284
 30
0.0
 11
181.1656188964825
 21
180.7999992730455
 31
0.0
  0
LINE
  5
16A22
330
3E7
100
AcDbEntity
  8
OUTLINE
  6
CONTINUOUS
100
AcDbLine
 10
180.9365844726544
 20
177.7999992730435
 30
0.0
 11
180.8972778320258
 21
177.0499992730455
 31
0.0
  0
LINE
  5
16A23
330
3E7
100
AcDbEntity
  8
OUTLINE
  6
CONTINUOUS
100
AcDbLine
 10
207.9000244140643
 20
183.0499992730447
 30
0.0
 11
207.9000244140643
 21
171.0687159178223
 31
0.0
  0
ARC
  5
16A24
330
3E7
100
AcDbEntity
  8
OUTLINE
  6
CONTINUOUS
100
AcDbCircle
 10
184.0586269399663
 20
180.0500005002285
 30
0.0
 40
2.999998772820216
100
AcDbArc
 50
90.00005103892624
 51
156.521862997538
  0
LINE
  5
16A25
330
3E7
100
AcDbEntity
  8
OUTLINE
  6
CONTINUOUS
100
AcDbLine
 10
180.8972778320258
 20
177.0499992730455
 30
0.0
 11
181.0627288818228
 21
173.892986333595
 31
0.0
  0
LINE
  5
16A26
330
3E7
100
AcDbEntity
  8
OUTLINE
  6
CONTINUOUS
100
AcDbLine
 10
205.900024414057
 20
175.0499992730428
 30
0.0
 11
193.9000244140494
 21
175.0499992730428
 31
0.0
  0
LINE
  5
16A27
330
3E7
100
AcDbEntity
  8
OUTLINE
  6
CONTINUOUS
100
AcDbLine
 10
193.9000244140494
 20
171.0874325625955
 30
0.0
 11
193.9000244140494
 21
175.0499992730428
 31
0.0
  0
LINE
  5
16A28
330
3E7
100
AcDbEntity
  8
OUTLINE
  6
CONTINUOUS
100
AcDbLine
 10
205.900024414057
 20
171.081371343358
 30
0.0
 11
205.900024414057
 21
175.0499992730428
 31
0.0
  0
LINE
  5
16A29
330
3E7
100
AcDbEntity
  8
OUTLINE
  6
CONTINUOUS
100
AcDbLine
 10
184.0586242675799
 20
171.0499992730464
 30
0.0
 11
183.2821655273419
 21
171.152217900977
 31
0.0
  0
ARC
  5
16A2A
330
3E7
100
AcDbEntity
  8
OUTLINE
  6
CONTINUOUS
100
AcDbCircle
 10
184.0586184914515
 20
174.0499977279347
 30
0.0
 40
3.000001188498706
100
AcDbArc
 50
183.000066236981
 51
255.0000885561678
  0
ARC
  5
16A2B
330
3E7
100
AcDbEntity
  8
OUTLINE
  6
CONTINUOUS
100
AcDbCircle
 10
311.0000283800745
 20
194.3999998846591
 30
0.0
 40
3.399991758996738
100
AcDbArc
 50
89.99996397954834
 51
180.0000360203995
  0
ARC
  5
16A2C
330
3E7
100
AcDbEntity
  8
OUTLINE
  6
CONTINUOUS
100
AcDbCircle
 10
275.0000207506837
 20
194.3999922552766
 30
0.0
 40
3.399999388391393
100
AcDbArc
 50
89.99983541126322
 51
179.9999074522446
  0
ARC
  5
16A2D
330
3E7
100
AcDbEntity
  8
OUTLINE
  6
CONTINUOUS
100
AcDbCircle
 10
289.0000265515463
 20
194.3999937811539
 30
0.0
 40
3.399997862503181
100
AcDbArc
 50
0.0000668341816535
 51
89.99993316584442
  0
ARC
  5
16A2E
330
3E7
100
AcDbEntity
  8
OUTLINE
  6
CONTINUOUS
100
AcDbCircle
 10
325.0000265515498
 20
194.3999937811539
 30
0.0
 40
3.399997862503181
100
AcDbArc
 50
0.0000668341816535
 51
89.99993316584442
  0
ARC
  5
16A2F
330
3E7
100
AcDbEntity
  8
OUTLINE
  6
CONTINUOUS
100
AcDbCircle
 10
289.0000265515463
 20
194.3999937811539
 30
0.0
 40
5.000003966018521
100
AcDbArc
 50
0.0000454471622229
 51
89.99995455281171
  0
ARC
  5
16A30
330
3E7
100
AcDbEntity
  8
OUTLINE
  6
CONTINUOUS
100
AcDbCircle
 10
311.0000283800745
 20
194.3999998846548
 30
0.0
 40
4.999997862511465
100
AcDbArc
 50
89.99997550611787
 51
180.0000244938299
  0
ARC
  5
16A31
330
3E7
100
AcDbEntity
  8
OUTLINE
  6
CONTINUOUS
100
AcDbCircle
 10
325.0000265515498
 20
194.3999937811539
 30
0.0
 40
5.000003966018521
100
AcDbArc
 50
0.0000454471622229
 51
89.99995455281171
  0
ARC
  5
16A32
330
3E7
100
AcDbEntity
  8
OUTLINE
  6
CONTINUOUS
100
AcDbCircle
 10
275.0000283800891
 20
194.3999998846548
 30
0.0
 40
4.999997862511465
100
AcDbArc
 50
89.99997550611787
 51
180.0000244938299
  0
ARC
  5
16A33
330
3E7
100
AcDbEntity
  8
OUTLINE
  6
CONTINUOUS
100
AcDbCircle
 10
300.0000305175654
 20
180.3999977471685
 30
0.0
 40
7.600006103515852
100
AcDbArc
 50
180.0
 51
0.0
  0
ARC
  5
16A34
330
3E7
100
AcDbEntity
  8
OUTLINE
  6
CONTINUOUS
100
AcDbCircle
 10
300.0000305175654
 20
180.3999977471685
 30
0.0
 40
6.0
100
AcDbArc
 50
180.0
 51
0.0
  0
LINE
  5
16A3A
330
3E7
100
AcDbEntity
  8
OUTLINE
  6
CONTINUOUS
100
AcDbLine
 10
292.4000244140533
 20
194.3999977471694
 30
0.0
 11
292.4000244140533
 21
180.3999977471685
 31
0.0
  0
LINE
  5
16A3B
330
3E7
100
AcDbEntity
  8
OUTLINE
  6
CONTINUOUS
100
AcDbLine
 10
294.0000305175798
 20
194.3999977471694
 30
0.0
 11
294.0000305175798
 21
180.3999977471685
 31
0.0
  0
LINE
  5
16A3C
330
3E7
100
AcDbEntity
  8
OUTLINE
  6
CONTINUOUS
100
AcDbLine
 10
268.0000305175763
 20
194.3999977471694
 30
0.0
 11
271.600021362299
 21
194.3999977471694
 31
0.0
  0
ARC
  5
16A3D
330
3E7
100
AcDbEntity
  8
OUTLINE
  6
CONTINUOUS
100
AcDbCircle
 10
268.0000283801181
 20
191.3999998846254
 30
0.0
 40
2.999997862540873
100
AcDbArc
 50
89.99995917748845
 51
180.0000408225114
  0
ARC
  5
16A3E
330
3E7
100
AcDbEntity
  8
OUTLINE
100
AcDbCircle
 10
221.9000260200973
 20
175.0499976670107
 30
0.0
 40
3.999998393963075
100
AcDbArc
 50
269.9999769951578
 51
0.0000230048047259
  0
ARC
  5
16A3F
330
3E7
100
AcDbEntity
  8
OUTLINE
100
AcDbCircle
 10
231.3882859354817
 20
176.799921849567
 30
0.0
 40
4.000077423630019
100
AcDbArc
 50
30.00064027546269
 51
89.99949885256873
  0
ARC
  5
16A40
330
3E7
100
AcDbEntity
  8
OUTLINE
100
AcDbCircle
 10
231.3883154014183
 20
176.7999855037533
 30
0.0
 40
1.000013769305619
100
AcDbArc
 50
30.00045547894405
 51
89.99968364964113
  0
LINE
  5
16A41
330
3E7
100
AcDbEntity
  8
OUTLINE
  6
CONTINUOUS
100
AcDbLine
 10
225.4563751220648
 20
180.7999992730455
 30
0.0
 11
225.1679077148383
 21
181.3567161919909
 31
0.0
  0
LINE
  5
16A42
330
3E7
100
AcDbEntity
  8
OUTLINE
  6
CONTINUOUS
100
AcDbLine
 10
218.5945892333966
 20
180.9770470025394
 30
0.0
 11
218.6363983154278
 21
180.7999992730455
 31
0.0
  0
ARC
  5
16A43
330
3E7
100
AcDbEntity
  8
OUTLINE
  6
CONTINUOUS
100
AcDbCircle
 10
221.9000235221191
 20
179.0499963080365
 30
0.0
 40
4.000002965009712
100
AcDbArc
 50
35.2173367001566
 51
89.99998722393188
  0
LINE
  5
16A44
330
3E7
100
AcDbEntity
  8
OUTLINE
  6
CONTINUOUS
100
AcDbLine
 10
225.900024414057
 20
175.0499992730428
 30
0.0
 11
225.900024414057
 21
177.7999992730435
 31
0.0
  0
ARC
  5
16A45
330
3E7
100
AcDbEntity
  8
OUTLINE
  6
CONTINUOUS
100
AcDbCircle
 10
215.7414204740031
 20
180.0500018147713
 30
0.0
 40
2.999997458277343
100
AcDbArc
 50
17.99989939344546
 51
89.99992195297833
  0
LINE
  5
16A4D
330
3E7
100
AcDbEntity
  8
OUTLINE
  6
CONTINUOUS
100
AcDbLine
 10
239.355743408194
 20
165.000003850683
 30
0.0
 11
232.2543487548846
 21
177.2999992730464
 31
0.0
  0
LINE
  5
16A4E
330
3E7
100
AcDbEntity
  8
OUTLINE
  6
CONTINUOUS
100
AcDbLine
 10
234.8524322509711
 20
178.7999992730474
 30
0.0
 11
242.8198547363153
 21
165.000003850683
 31
0.0
  0
LINE
  5
16A4F
330
3E7
100
AcDbEntity
  8
OUTLINE
  6
CONTINUOUS
100
AcDbLine
 10
239.355743408194
 20
165.000003850683
 30
0.0
 11
232.2543487548846
 21
177.2999992730464
 31
0.0
  0
LINE
  5
16A50
330
3E7
100
AcDbEntity
  8
OUTLINE
  6
CONTINUOUS
100
AcDbLine
 10
234.8524322509711
 20
178.7999992730474
 30
0.0
 11
242.8198547363153
 21
165.000003850683
 31
0.0
  0
LINE
  5
16A51
330
3E7
100
AcDbEntity
  8
OUTLINE
  6
CONTINUOUS
100
AcDbLine
 10
239.355743408194
 20
165.000003850683
 30
0.0
 11
232.2543487548846
 21
177.2999992730464
 31
0.0
  0
LINE
  5
16A52
330
3E7
100
AcDbEntity
  8
OUTLINE
  6
CONTINUOUS
100
AcDbLine
 10
234.8524322509711
 20
178.7999992730474
 30
0.0
 11
242.8198547363153
 21
165.000003850683
 31
0.0
  0
LINE
  5
16A53
330
3E7
100
AcDbEntity
  8
OUTLINE
  6
CONTINUOUS
100
AcDbLine
 10
220.6500244140606
 20
171.0499992730464
 30
0.0
 11
220.6500244140606
 21
165.000003850683
 31
0.0
  0
LINE
  5
16A54
330
3E7
100
AcDbEntity
  8
OUTLINE
  6
CONTINUOUS
100
AcDbLine
 10
223.1500244140604
 20
171.277248418556
 30
0.0
 11
223.1500244140604
 21
165.000003850683
 31
0.0
  0
LINE
  5
16A55
330
3E7
100
AcDbEntity
  8
OUTLINE
  6
CONTINUOUS
100
AcDbLine
 10
307.6000366210773
 20
180.3999977471685
 30
0.0
 11
307.6000366210773
 21
194.3999977471694
 31
0.0
  0
LINE
  5
16A56
330
3E7
100
AcDbEntity
  8
OUTLINE
  6
CONTINUOUS
100
AcDbLine
 10
306.000030517569
 20
180.3999977471685
 30
0.0
 11
306.000030517569
 21
194.3999977471694
 31
0.0
  0
LINE
  5
16A57
330
3E7
100
AcDbEntity
  8
OUTLINE
  6
CONTINUOUS
100
AcDbLine
 10
332.0000305175635
 20
194.3999977471694
 30
0.0
 11
328.4000244140568
 21
194.3999977471694
 31
0.0
  0
ARC
  5
16A58
330
3E7
100
AcDbEntity
  8
OUTLINE
  6
CONTINUOUS
100
AcDbCircle
 10
332.0000265515208
 20
191.3999937811249
 30
0.0
 40
3.000003966047536
100
AcDbArc
 50
0.0000757457827885
 51
89.99992425426931
  0
LINE
  5
16A5A
330
3E7
100
AcDbEntity
  8
OUTLINE
  6
CONTINUOUS
100
AcDbLine
 10
275.0000305175654
 20
197.799991643652
 30
0.0
 11
289.0000305175614
 21
197.799991643652
 31
0.0
  0
LINE
  5
16A5B
330
3E7
100
AcDbEntity
  8
OUTLINE
  6
CONTINUOUS
100
AcDbLine
 10
275.0000305175654
 20
199.3999977471694
 30
0.0
 11
289.0000305175798
 21
199.3999977471694
 31
0.0
  0
LINE
  5
16A5C
330
3E7
100
AcDbEntity
  8
OUTLINE
  6
CONTINUOUS
100
AcDbLine
 10
311.000030517569
 20
197.799991643652
 30
0.0
 11
325.0000305175654
 21
197.799991643652
 31
0.0
  0
LINE
  5
16A5D
330
3E7
100
AcDbEntity
  8
OUTLINE
  6
CONTINUOUS
100
AcDbLine
 10
311.000030517569
 20
199.3999977471694
 30
0.0
 11
325.0000305175654
 21
199.3999977471694
 31
0.0
  0
LINE
  5
16A5E
330
3E7
100
AcDbEntity
  8
OUTLINE
  6
CONTINUOUS
100
AcDbLine
 10
525.0000305175651
 20
-150.0000037787085
 30
0.0
 11
525.0000305175651
 21
150.0000038506831
 31
0.0
  0
LINE
  5
16A5F
330
3E7
100
AcDbEntity
  8
OUTLINE
  6
CONTINUOUS
100
AcDbLine
 10
526.9999999999871
 20
-63.7573585150394
 30
0.0
 11
526.9999999999871
 21
-57.00000377871129
 31
0.0
  0
LINE
  5
16A65
330
3E7
100
AcDbEntity
  8
OUTLINE
  6
CONTINUOUS
100
AcDbLine
 10
525.878723144522
 20
-66.12132641054721
 30
0.0
 11
526.1213378906155
 21
-65.87868114687717
 31
0.0
  0
ARC
  5
16A66
330
3E7
100
AcDbEntity
  8
OUTLINE
  6
CONTINUOUS
100
AcDbCircle
 10
528.0000047609592
 20
-68.24269221385657
 30
0.0
 40
3.000004761271591
100
AcDbArc
 50
134.9988630794738
 51
179.9991754869125
  0
ARC
  5
16A67
330
3E7
100
AcDbEntity
  8
OUTLINE
  6
CONTINUOUS
100
AcDbCircle
 10
524.0000155509533
 20
-63.75738479171922
 30
0.0
 40
2.999984449147368
100
AcDbArc
 50
315.000350915865
 51
0.0005018502232593
  0
ARC
  5
16A68
330
3E7
100
AcDbEntity
  8
OUTLINE
100
AcDbCircle
 10
510.5502903990145
 20
-150.5502647796975
 30
0.0
 40
14.46021357597423
100
AcDbArc
 50
267.8190548570494
 51
2.180828574516186
  0
LINE
  5
16A69
330
3E7
100
AcDbEntity
  8
OUTLINE
  6
CONTINUOUS
100
AcDbLine
 10
525.878723144522
 20
-35.87868114687717
 30
0.0
 11
526.1213378906155
 21
-36.12132641054722
 31
0.0
  0
LINE
  5
16A6A
330
3E7
100
AcDbEntity
  8
OUTLINE
  6
CONTINUOUS
100
AcDbLine
 10
526.9999999999871
 20
-45.00000377871312
 30
0.0
 11
526.9999999999871
 21
-38.75702282168186
 31
0.0
  0
LINE
  5
16A6B
330
3E7
100
AcDbEntity
  8
OUTLINE
  6
CONTINUOUS
100
AcDbLine
 10
526.9999999999871
 20
-57.00000377871129
 30
0.0
 11
526.9999999999871
 21
-45.00000377871312
 31
0.0
  0
LINE
  5
16A6C
330
3E7
100
AcDbEntity
  8
OUTLINE
  6
CONTINUOUS
100
AcDbLine
 10
526.9999999999871
 20
-38.75702282168186
 30
0.0
 11
526.9694824218621
 21
-37.81569286562353
 31
0.0
  0
ARC
  5
16A6D
330
3E7
100
AcDbEntity
  8
OUTLINE
  6
CONTINUOUS
100
AcDbCircle
 10
528.0000045470642
 20
-33.75731543216625
 30
0.0
 40
3.000004547383368
100
AcDbArc
 50
180.0008228210425
 51
225.0011386125625
  0
ARC
  5
16A6E
330
3E7
100
AcDbEntity
  8
OUTLINE
  6
CONTINUOUS
100
AcDbCircle
 10
524.000025163712
 20
-38.24264626588864
 30
0.0
 40
2.999994268992653
100
AcDbArc
 50
8.182005363900422
 51
45.00009626795092
  0
ARC
  5
16A6F
330
3E7
100
AcDbEntity
  8
OUTLINE
100
AcDbCircle
 10
510.0000234997875
 20
149.9999968329126
 30
0.0
 40
15.00000701777258
100
AcDbArc
 50
359.9999999998773
 51
89.99997319402831
  0
LINE
  5
16B75
330
3E7
100
AcDbEntity
  8
SIZE
  6
CONTINUOUS
100
AcDbLine
 10
483.0000305175653
 20
-147.6999907782365
 30
0.0
 11
483.0000305175653
 21
-410.967354094032
 31
0.0
  0
LINE
  5
16B76
330
3E7
100
AcDbEntity
  8
SIZE
  6
CONTINUOUS
100
AcDbLine
 10
521.7000172143944
 20
-109.0000040814119
 30
0.0
 11
860.0261697354309
 21
-109.0000040814119
 31
0.0
  0
LINE
  5
16C07
330
3E7
100
AcDbEntity
  8
SERVICESPACE
  6
DASHDOT
100
AcDbLine
 10
-540.0000000000017
 20
165.0000038506839
 30
0.0
 11
-540.0000000000018
 21
-164.999996113328
 31
0.0
  0
CIRCLE
  5
16C7A
330
3E7
100
AcDbEntity
  8
DETAIL
100
AcDbCircle
 10
483.0000305175653
 20
-109.000004081412
 30
0.0
 40
7.94
  0
LINE
  5
16C9F
330
3E7
100
AcDbEntity
  8
SIZE
  6
CONTINUOUS
100
AcDbLine
 10
427.0000305175654
 20
-157.6000117809543
 30
0.0
 11
427.0000305175654
 21
-410.967354094032
 31
0.0
  0
LINE
  5
16CA0
330
3E7
100
AcDbEntity
  8
SIZE
  6
CONTINUOUS
100
AcDbLine
 10
455.1000385198003
 20
-132.0000037787103
 30
0.0
 11
684.9022547538877
 21
-132.0000037787104
 31
0.0
  0
ENDSEC
  0
SECTION
  2
OBJECTS
  0
DICTIONARY
  5
3D5
330
0
100
AcDbDictionary
  3
ACAD_GROUP
350
3D6
  3
ACAD_LAYOUT
350
3E2
  3
ACAD_MLINESTYLE
350
3DF
  3
ACAD_PLOTSETTINGS
350
3E1
  3
ACAD_PLOTSTYLENAME
350
3D7
  3
ACDBHEADERROUNDTRIPXREC
350
16D7A
  0
DICTIONARY
  5
16A9C
330
3E7
100
AcDbDictionary
280
     1
  3
ACAD_LAYOUTSELFREF
360
16D9C
  0
DICTIONARY
  5
16A9A
330
3E3
100
AcDbDictionary
280
     1
  3
ACAD_LAYOUTSELFREF
360
16D9B
  0
DICTIONARY
  5
3D6
102
{ACAD_REACTORS
330
3D5
102
}
330
3D5
100
AcDbDictionary
  0
DICTIONARY
  5
3E2
102
{ACAD_REACTORS
330
3D5
102
}
330
3D5
100
AcDbDictionary
  0
DICTIONARY
  5
3DF
102
{ACAD_REACTORS
330
3D5
102
}
330
3D5
100
AcDbDictionary
  3
STANDARD
350
3E0
  0
DICTIONARY
  5
3E1
102
{ACAD_REACTORS
330
3D5
102
}
330
3D5
100
AcDbDictionary
  0
ACDBDICTIONARYWDFLT
  5
3D7
102
{ACAD_REACTORS
330
3D5
102
}
330
3D5
100
AcDbDictionary
281
     1
  3
Normal
350
3D8
100
AcDbDictionaryWithDefault
340
3D8
  0
DICTIONARY
  5
16D7A
102
{ACAD_REACTORS
330
3D5
102
}
330
3D5
100
AcDbDictionary
  3
CEPSNTYPE
350
16D84
  3
DIMSTYLEDATA
350
16D88
  3
FINGERPRINTGUID
350
16D85
  3
HYPERLINKBASE
350
16D7D
  3
INSUNITS
350
16D83
  3
LAYOUTDICT
350
16D7F
  3
LWETCUNION
350
16D82
  3
PLOTSETDICT
350
16D80
  3
PLOTSTYLNAMDICT
350
16D81
  3
PSVPSCALE
350
16D87
  3
PUCSBASE
350
16D8B
  3
PUCSORGBACK
350
16D91
  3
PUCSORGBOTTOM
350
16D8D
  3
PUCSORGFRONT
350
16D90
  3
PUCSORGLEFT
350
16D8E
  3
PUCSORGRIGHT
350
16D8F
  3
PUCSORGTOP
350
16D8C
  3
PUCSORTHOREF
350
16D89
  3
PUCSORTHOVIEW
350
16D8A
  3
STYLESHEET
350
16D7E
  3
TSTACKALIGN
350
16D7B
  3
TSTACKSIZE
350
16D7C
  3
UCSBASE
350
16D94
  3
UCSORGBACK
350
16D9A
  3
UCSORGBOTTOM
350
16D96
  3
UCSORGFRONT
350
16D99
  3
UCSORGLEFT
350
16D97
  3
UCSORGRIGHT
350
16D98
  3
UCSORGTOP
350
16D95
  3
UCSORTHOREF
350
16D92
  3
UCSORTHOVIEW
350
16D93
  3
VERSIONGUID
350
16D86
  0
XRECORD
  5
16D9C
102
{ACAD_REACTORS
330
16A9C
102
}
330
16A9C
100
AcDbXrecord
340
3E7
  0
XRECORD
  5
16D9B
102
{ACAD_REACTORS
330
16A9A
102
}
330
16A9A
100
AcDbXrecord
340
3E3
  0
MLINESTYLE
  5
3E0
102
{ACAD_REACTORS
330
3DF
102
}
330
3DF
100
AcDbMlineStyle
  2
STANDARD
 70
     0
  3

 62
   256
 51
90.0
 52
90.0
 71
     2
 49
0.5
 62
   256
  6
BYLAYER
 49
-0.5
 62
   256
  6
BYLAYER
  0
ACDBPLACEHOLDER
  5
3D8
102
{ACAD_REACTORS
330
3D7
102
}
330
3D7
100
AcDbPlaceHolder
280
     0
  0
XRECORD
  5
16D84
102
{ACAD_REACTORS
330
16D7A
102
}
330
16D7A
100
AcDbXrecord
 90
        0
  0
XRECORD
  5
16D88
102
{ACAD_REACTORS
330
16D7A
102
}
330
16D7A
100
AcDbXrecord
1000
DSTYLE
1002
{
1070
   341
340
4A9
1070
   342
340
4A9
1002
}
  0
XRECORD
  5
16D85
102
{ACAD_REACTORS
330
16D7A
102
}
330
16D7A
100
AcDbXrecord
  1
{D2272796-D80D-4ABD-900F-0E7B08E93DCD}
  0
XRECORD
  5
16D7D
102
{ACAD_REACTORS
330
16D7A
102
}
330
16D7A
100
AcDbXrecord
  1

  0
XRECORD
  5
16D83
102
{ACAD_REACTORS
330
16D7A
102
}
330
16D7A
100
AcDbXrecord
 90
        0
  0
XRECORD
  5
16D7F
102
{ACAD_REACTORS
330
16D7A
102
}
330
16D7A
100
AcDbXrecord
340
3E2
  0
XRECORD
  5
16D82
102
{ACAD_REACTORS
330
16D7A
102
}
330
16D7A
100
AcDbXrecord
 90
    10781
  0
XRECORD
  5
16D80
102
{ACAD_REACTORS
330
16D7A
102
}
330
16D7A
100
AcDbXrecord
340
3E1
  0
XRECORD
  5
16D81
102
{ACAD_REACTORS
330
16D7A
102
}
330
16D7A
100
AcDbXrecord
340
3D7
  0
XRECORD
  5
16D87
102
{ACAD_REACTORS
330
16D7A
102
}
330
16D7A
100
AcDbXrecord
 40
0.0
  0
XRECORD
  5
16D8B
102
{ACAD_REACTORS
330
16D7A
102
}
330
16D7A
100
AcDbXrecord
340
0
  0
XRECORD
  5
16D91
102
{ACAD_REACTORS
330
16D7A
102
}
330
16D7A
100
AcDbXrecord
 10
0.0
 20
0.0
 30
0.0
  0
XRECORD
  5
16D8D
102
{ACAD_REACTORS
330
16D7A
102
}
330
16D7A
100
AcDbXrecord
 10
0.0
 20
0.0
 30
0.0
  0
XRECORD
  5
16D90
102
{ACAD_REACTORS
330
16D7A
102
}
330
16D7A
100
AcDbXrecord
 10
0.0
 20
0.0
 30
0.0
  0
XRECORD
  5
16D8E
102
{ACAD_REACTORS
330
16D7A
102
}
330
16D7A
100
AcDbXrecord
 10
0.0
 20
0.0
 30
0.0
  0
XRECORD
  5
16D8F
102
{ACAD_REACTORS
330
16D7A
102
}
330
16D7A
100
AcDbXrecord
 10
0.0
 20
0.0
 30
0.0
  0
XRECORD
  5
16D8C
102
{ACAD_REACTORS
330
16D7A
102
}
330
16D7A
100
AcDbXrecord
 10
0.0
 20
0.0
 30
0.0
  0
XRECORD
  5
16D89
102
{ACAD_REACTORS
330
16D7A
102
}
330
16D7A
100
AcDbXrecord
340
0
  0
XRECORD
  5
16D8A
102
{ACAD_REACTORS
330
16D7A
102
}
330
16D7A
100
AcDbXrecord
 70
     0
  0
XRECORD
  5
16D7E
102
{ACAD_REACTORS
330
16D7A
102
}
330
16D7A
100
AcDbXrecord
  1

  0
XRECORD
  5
16D7B
102
{ACAD_REACTORS
330
16D7A
102
}
330
16D7A
100
AcDbXrecord
 90
        1
  0
XRECORD
  5
16D7C
102
{ACAD_REACTORS
330
16D7A
102
}
330
16D7A
100
AcDbXrecord
 90
       70
  0
XRECORD
  5
16D94
102
{ACAD_REACTORS
330
16D7A
102
}
330
16D7A
100
AcDbXrecord
340
0
  0
XRECORD
  5
16D9A
102
{ACAD_REACTORS
330
16D7A
102
}
330
16D7A
100
AcDbXrecord
 10
0.0
 20
0.0
 30
0.0
  0
XRECORD
  5
16D96
102
{ACAD_REACTORS
330
16D7A
102
}
330
16D7A
100
AcDbXrecord
 10
0.0
 20
0.0
 30
0.0
  0
XRECORD
  5
16D99
102
{ACAD_REACTORS
330
16D7A
102
}
330
16D7A
100
AcDbXrecord
 10
0.0
 20
0.0
 30
0.0
  0
XRECORD
  5
16D97
102
{ACAD_REACTORS
330
16D7A
102
}
330
16D7A
100
AcDbXrecord
 10
0.0
 20
0.0
 30
0.0
  0
XRECORD
  5
16D98
102
{ACAD_REACTORS
330
16D7A
102
}
330
16D7A
100
AcDbXrecord
 10
0.0
 20
0.0
 30
0.0
  0
XRECORD
  5
16D95
102
{ACAD_REACTORS
330
16D7A
102
}
330
16D7A
100
AcDbXrecord
 10
0.0
 20
0.0
 30
0.0
  0
XRECORD
  5
16D92
102
{ACAD_REACTORS
330
16D7A
102
}
330
16D7A
100
AcDbXrecord
340
0
  0
XRECORD
  5
16D93
102
{ACAD_REACTORS
330
16D7A
102
}
330
16D7A
100
AcDbXrecord
 70
     0
  0
XRECORD
  5
16D86
102
{ACAD_REACTORS
330
16D7A
102
}
330
16D7A
100
AcDbXrecord
  1
{3829397D-2F91-4A5B-906D-ACC3E2EA1FD1}
  0
ENDSEC
  0
EOF
