  0
SECTION
  2
HEADER
  9
$ACADVER
  1
AC1009
  9
$INSBASE
 10
0.0
 20
0.0
 30
0.0
  9
$EXTMIN
 10
-407.18444708493189
 20
-212.50514481900609
 30
-0.0015258207003583
  9
$EXTMAX
 10
377.81668032137168
 20
625.79810638056369
 30
0.0000000349246037
  9
$LIMMIN
 10
-4267.1522210604817
 20
-2696.0832101984129
  9
$LIMMAX
 10
7190.7174225864646
 20
5141.155363923066
  9
$ORTHOMODE
 70
     0
  9
$REGENMODE
 70
     1
  9
$FILLMODE
 70
     1
  9
$QTEXTMODE
 70
     0
  9
$MIRRTEXT
 70
     0
  9
$DRAGMODE
 70
     2
  9
$LTSCALE
 40
20.0
  9
$OSMODE
 70
   431
  9
$ATTMODE
 70
     1
  9
$TEXTSIZE
 40
64.0
  9
$TRACEWID
 40
0.05
  9
$TEXTSTYLE
  7
STANDARD_MODELNAME
  9
$CLAYER
  8
SYMBOLLINE
  9
$CELTYPE
  6
CONTINUOUS
  9
$CECOLOR
 62
     7
  9
$DIMSCALE
 40
1.0
  9
$DIMASZ
 40
30.0
  9
$DIMEXO
 40
20.0
  9
$DIMDLI
 40
80.0
  9
$DIMRND
 40
0.0
  9
$DIMDLE
 40
0.0
  9
$DIMEXE
 40
20.0
  9
$DIMTP
 40
0.0
  9
$DIMTM
 40
0.0
  9
$DIMTXT
 40
60.0
  9
$DIMCEN
 40
0.09
  9
$DIMTSZ
 40
0.0
  9
$DIMTOL
 70
     0
  9
$DIMLIM
 70
     0
  9
$DIMTIH
 70
     0
  9
$DIMTOH
 70
     0
  9
$DIMSE1
 70
     0
  9
$DIMSE2
 70
     0
  9
$DIMTAD
 70
     1
  9
$DIMZIN
 70
     8
  9
$DIMBLK
  1
SMALL
  9
$DIMASO
 70
     1
  9
$DIMSHO
 70
     0
  9
$DIMPOST
  1

  9
$DIMAPOST
  1

  9
$DIMALT
 70
     0
  9
$DIMALTD
 70
     2
  9
$DIMALTF
 40
25.399999999999999
  9
$DIMLFAC
 40
1.0
  9
$DIMTOFL
 70
     1
  9
$DIMTVP
 40
0.0
  9
$DIMTIX
 70
     0
  9
$DIMSOXD
 70
     0
  9
$DIMSAH
 70
     0
  9
$DIMBLK1
  1

  9
$DIMBLK2
  1

  9
$DIMSTYLE
  2
STANDARD
  9
$DIMCLRD
 70
     0
  9
$DIMCLRE
 70
     0
  9
$DIMCLRT
 70
     0
  9
$DIMTFAC
 40
1.0
  9
$DIMGAP
 40
0.09
  9
$LUNITS
 70
     2
  9
$LUPREC
 70
     4
  9
$SKETCHINC
 40
0.1
  9
$FILLETRAD
 40
0.0
  9
$AUNITS
 70
     1
  9
$AUPREC
 70
     3
  9
$MENU
  1
ACAD
  9
$ELEVATION
 40
0.0
  9
$PELEVATION
 40
0.0
  9
$THICKNESS
 40
0.0
  9
$LIMCHECK
 70
     0
  9
$BLIPMODE
 70
     0
  9
$CHAMFERA
 40
0.0
  9
$CHAMFERB
 40
0.0
  9
$SKPOLY
 70
     0
  9
$TDCREATE
 40
2450330.4399309959
  9
$TDUPDATE
 40
2456791.37011434
  9
$TDINDWG
 40
4.1166966087999999
  9
$TDUSRTIMER
 40
4.1166962500000004
  9
$USRTIMER
 70
     1
  9
$ANGBASE
 50
0.0
  9
$ANGDIR
 70
     0
  9
$PDMODE
 70
     3
  9
$PDSIZE
 40
-2.0
  9
$PLINEWID
 40
0.0
  9
$COORDS
 70
     1
  9
$SPLFRAME
 70
     0
  9
$SPLINETYPE
 70
     6
  9
$SPLINESEGS
 70
     8
  9
$ATTDIA
 70
     0
  9
$ATTREQ
 70
     1
  9
$HANDLING
 70
     1
  9
$HANDSEED
  5
176
  9
$SURFTAB1
 70
     6
  9
$SURFTAB2
 70
     6
  9
$SURFTYPE
 70
     6
  9
$SURFU
 70
     6
  9
$SURFV
 70
     6
  9
$UCSNAME
  2

  9
$UCSORG
 10
0.0
 20
0.0
 30
0.0
  9
$UCSXDIR
 10
1.0
 20
0.0
 30
0.0
  9
$UCSYDIR
 10
0.0
 20
1.0
 30
0.0
  9
$PUCSNAME
  2

  9
$PUCSORG
 10
0.0
 20
0.0
 30
0.0
  9
$PUCSXDIR
 10
1.0
 20
0.0
 30
0.0
  9
$PUCSYDIR
 10
0.0
 20
1.0
 30
0.0
  9
$USERI1
 70
     0
  9
$USERI2
 70
     0
  9
$USERI3
 70
     0
  9
$USERI4
 70
     0
  9
$USERI5
 70
     0
  9
$USERR1
 40
20.0
  9
$USERR2
 40
0.0
  9
$USERR3
 40
0.0
  9
$USERR4
 40
0.0
  9
$USERR5
 40
0.0
  9
$WORLDVIEW
 70
     1
  9
$SHADEDGE
 70
     3
  9
$SHADEDIF
 70
    70
  9
$TILEMODE
 70
     1
  9
$MAXACTVP
 70
    64
  9
$PLIMCHECK
 70
     0
  9
$PEXTMIN
 10
1.0000000000000000E+020
 20
1.0000000000000000E+020
 30
1.0000000000000000E+020
  9
$PEXTMAX
 10
-1.0000000000000000E+020
 20
-1.0000000000000000E+020
 30
-1.0000000000000000E+020
  9
$PLIMMIN
 10
0.0
 20
0.0
  9
$PLIMMAX
 10
12.0
 20
9.0
  9
$UNITMODE
 70
     0
  9
$VISRETAIN
 70
     1
  9
$PLINEGEN
 70
     0
  9
$PSLTSCALE
 70
     1
  0
ENDSEC
  0
SECTION
  2
TABLES
  0
TABLE
  2
VPORT
 70
     1
  0
VPORT
  2
*ACTIVE
 70
     0
 10
0.0
 20
0.0
 11
1.0
 21
1.0
 12
-1828.9908683365909
 22
-2984.2390663569909
 13
0.0
 23
0.0
 14
50.0
 24
50.0
 15
100.0
 25
100.0
 16
-10.147175584733301
 26
-23.68337525775587
 36
853.52693352516758
 17
1814.456648411372
 27
3192.6849485089092
 37
-1.7180471651868561
 40
844.62216098172303
 41
1.5540025412960601
 42
50.0
 43
0.0
 44
0.0
 50
0.0
 51
336.79777160775751
 71
     0
 72
  1000
 73
     1
 74
     0
 75
     0
 76
     0
 77
     0
 78
     0
  0
ENDTAB
  0
TABLE
  2
LTYPE
 70
     4
  0
LTYPE
  2
CONTINUOUS
 70
     0
  3
実線
 72
    65
 73
     0
 40
0.0
  0
LTYPE
  2
DASHDOT
 70
     0
  3
____ _ ____ _ ____ _ ____ _ ____ _ ____ _ ____
 72
    65
 73
     4
 40
5.5
 49
4.0
 49
-0.6
 49
0.3
 49
-0.6
  0
LTYPE
  2
CENTER
 70
     0
  3
Center ____ _ ____ _ ____ _ ____ _ ____ _ ____
 72
    65
 73
     4
 40
7.0
 49
4.299999999999998
 49
-0.7
 49
1.3
 49
-0.7
  0
ENDTAB
  0
TABLE
  2
LAYER
 70
    12
  0
LAYER
  2
0
 70
     0
 62
     7
  6
CONTINUOUS
  0
LAYER
  2
DETAIL
 70
     0
 62
     5
  6
CONTINUOUS
  0
LAYER
  2
OUTLINE
 70
     0
 62
     3
  6
CONTINUOUS
  0
LAYER
  2
BASIS
 70
     0
 62
     6
  6
DASHDOT
  0
LAYER
  2
SIZE
 70
     0
 62
    30
  6
CONTINUOUS
  0
LAYER
  2
NOTE
 70
     0
 62
     4
  6
CONTINUOUS
  0
LAYER
  2
ARRANGE
 70
     0
 62
     1
  6
CONTINUOUS
  0
LAYER
  2
FIX
 70
     0
 62
    11
  6
CONTINUOUS
  0
LAYER
  2
SERVICESPACE
 70
     0
 62
     2
  6
DASHDOT
  0
LAYER
  2
ETC
 70
     0
 62
    61
  6
CONTINUOUS
  0
LAYER
  2
SYMBOLLINE
 70
     0
 62
    15
  6
CONTINUOUS
  0
LAYER
  2
DEFPOINTS
 70
     0
 62
     7
  6
CONTINUOUS
  0
ENDTAB
  0
TABLE
  2
STYLE
 70
     3
  0
STYLE
  2
STANDARD
 70
     0
 40
0.0
 41
0.9
 50
0.0
 71
     0
 42
64.0
  3
SIMPLEX
  4
BIGFONT
  0
STYLE
  2
ANNOTATIVE
 70
     0
 40
0.0
 41
1.0
 50
0.0
 71
     0
 42
0.2
  3
txt
  4

  0
STYLE
  2
STANDARD_MODELNAME
 70
     0
 40
80.0
 41
0.8
 50
0.0
 71
     0
 42
64.0
  3
MONOTXT.shx
  4
BIGFONT.shx
  0
ENDTAB
  0
TABLE
  2
VIEW
 70
     1
  0
VIEW
  2
ALL
 70
     0
 40
9000.0
 10
241.50664699999999
 20
0.0
 41
12483.01
 11
0.0
 21
0.0
 31
1.0
 12
0.0
 22
0.0
 32
0.0
 42
50.0
 43
0.0
 44
0.0
 50
0.0
 71
     0
  0
ENDTAB
  0
TABLE
  2
UCS
 70
     0
  0
ENDTAB
  0
TABLE
  2
APPID
 70
     4
  0
APPID
  2
ACAD
 70
     0
  0
APPID
  2
ACADANNOTATIVE
 70
     0
  0
APPID
  2
ACAD_MLEADERVER
 70
     0
  0
APPID
  2
ACAD_EXEMPT_FROM_CAD_STANDARDS
 70
     0
  0
ENDTAB
  0
TABLE
  2
DIMSTYLE
 70
     3
  0
DIMSTYLE
  2
STANDARD
 70
     0
  3

  4

  5

  6

  7

 40
1.0
 41
0.18
 42
0.0625
 43
0.38
 44
0.18
 45
0.0
 46
0.0
 47
0.0
 48
0.0
140
0.18
141
0.09
142
0.0
143
25.399999999999999
144
1.0
145
0.0
146
1.0
147
0.09
 71
     0
 72
     0
 73
     1
 74
     1
 75
     0
 76
     0
 77
     0
 78
     0
170
     0
171
     2
172
     0
173
     0
174
     0
175
     0
176
     0
177
     0
178
     0
  0
DIMSTYLE
  2
ANNOTATIVE
 70
     0
  3

  4

  5

  6

  7

 40
1.0
 41
0.18
 42
0.0625
 43
0.38
 44
0.18
 45
0.0
 46
0.0
 47
0.0
 48
0.0
140
0.18
141
0.09
142
0.0
143
25.399999999999999
144
1.0
145
0.0
146
1.0
147
0.09
 71
     0
 72
     0
 73
     1
 74
     1
 75
     0
 76
     0
 77
     0
 78
     0
170
     0
171
     2
172
     0
173
     0
174
     0
175
     0
176
     0
177
     0
178
     0
  0
ENDTAB
  0
ENDSEC
  0
SECTION
  2
BLOCKS
  0
BLOCK
  8
0
  2
$MODEL_SPACE
 70
     0
 10
0.0
 20
0.0
 30
0.0
  3
$MODEL_SPACE
  1

  0
ENDBLK
  5
76
  8
0
  0
BLOCK
 67
     1
  8
0
  2
$PAPER_SPACE
 70
     0
 10
0.0
 20
0.0
 30
0.0
  3
$PAPER_SPACE
  1

  0
ENDBLK
  5
72
 67
     1
  8
0
  0
BLOCK
  8
0
  2
_SMALL
 70
     0
 10
0.0
 20
0.0
 30
0.0
  3
_SMALL
  1

  0
CIRCLE
  5
8D
  8
0
  6
CONTINUOUS
 62
     7
 10
0.0
 20
0.0
 30
0.0
 40
0.25
  0
ENDBLK
  5
8E
  8
0
  0
ENDSEC
  0
SECTION
  2
ENTITIES
  0
TEXT
  5
8F
  8
ETC
  6
CONTINUOUS
 62
    61
 10
-368.89617909365188
 20
545.43609805188908
 30
0.0
 40
80.0
  1
AE-50_200J_6
 50
0.0000029998804485
 41
0.8
  7
STANDARD_MODELNAME
  0
LINE
  5
90
  8
DETAIL
  6
CONTINUOUS
 62
     5
 10
-142.0
 20
-1.5
 30
0.0
 11
-140.8567404098502
 21
-22.806979917999801
 31
0.0
  0
LINE
  5
91
  8
DETAIL
  6
CONTINUOUS
 62
     5
 10
-140.5658757746514
 20
-1.5
 30
0.0
 11
-140.5658757746514
 21
0.0
 31
0.0
  0
LINE
  5
92
  8
DETAIL
  6
CONTINUOUS
 62
     5
 10
-140.4500000000516
 20
-24.5
 30
0.0
 11
-140.4500000000516
 21
-23.199999999999822
 31
0.0
  0
LINE
  5
93
  8
DETAIL
  6
CONTINUOUS
 62
     5
 10
-121.56702973358369
 20
39.034899496701662
 30
0.0
 11
-123.0
 21
0.0
 31
0.0
  0
ARC
  5
94
  8
DETAIL
  6
CONTINUOUS
 62
     5
 10
-120.5676389065647
 20
39.0
 30
0.0
 40
1.0
 50
90.0
 51
178.00000000004809
  0
LINE
  5
95
  8
DETAIL
  6
CONTINUOUS
 62
     5
 10
-139.94999999995159
 20
-25.0
 30
0.0
 11
-140.44999999995159
 21
-24.5
 31
0.0
  0
LINE
  5
96
  8
DETAIL
  6
CONTINUOUS
 62
     5
 10
-140.4500000000516
 20
-23.199999999999822
 30
0.0
 11
-140.2500000000509
 21
-23.0
 31
0.0
  0
LINE
  5
97
  8
DETAIL
  6
CONTINUOUS
 62
     5
 10
-139.94999999995159
 20
-25.0
 30
0.0
 11
139.9499999999498
 21
-25.0
 31
0.0
  0
LINE
  5
98
  8
DETAIL
  6
CONTINUOUS
 62
     5
 10
-140.4500000000516
 20
-24.5
 30
0.0
 11
140.4499999999498
 21
-24.5
 31
0.0
  0
LINE
  5
99
  8
DETAIL
  6
CONTINUOUS
 62
     5
 10
140.4499999999498
 20
-23.199999999999822
 30
0.0
 11
-140.4500000000516
 21
-23.199999999999822
 31
0.0
  0
LINE
  5
9A
  8
DETAIL
  6
CONTINUOUS
 62
     5
 10
-140.6568712001517
 20
-22.99999816059972
 30
0.0
 11
-140.5960535353515
 21
-23.000000445999831
 31
0.0
  0
LINE
  5
9B
  8
DETAIL
  6
CONTINUOUS
 62
     5
 10
-140.5960550092513
 20
-23.000001552699821
 30
0.0
 11
-140.65687358955071
 21
-23.000000205699958
 31
0.0
  0
LINE
  5
9C
  8
DETAIL
  6
CONTINUOUS
 62
     5
 10
140.59605498024939
 20
-23.000002403900002
 30
0.0
 11
140.65687347544909
 21
-23.00000136799963
 31
0.0
  0
LINE
  5
9D
  8
DETAIL
  6
CONTINUOUS
 62
     5
 10
140.1058972501487
 20
-23.0
 30
0.0
 11
139.75851251764831
 21
-23.0
 31
0.0
  0
LINE
  5
9E
  8
DETAIL
  6
CONTINUOUS
 62
     5
 10
-140.65685896085051
 20
-23.0
 30
0.0
 11
140.65685900514831
 21
-23.0
 31
0.0
  0
LINE
  5
9F
  8
DETAIL
  6
CONTINUOUS
 62
     5
 10
140.16333819884861
 20
-23.00000049779965
 30
0.0
 11
140.42274387244831
 21
-23.000002098299781
 31
0.0
  0
LINE
  5
A0
  8
DETAIL
  6
CONTINUOUS
 62
     5
 10
139.85734958434841
 20
-22.999997846099632
 30
0.0
 11
140.16333819884861
 21
-23.00000049779965
 31
0.0
  0
LINE
  5
A1
  8
DETAIL
  6
CONTINUOUS
 62
     5
 10
-142.00000000009999
 20
-1.5
 30
0.0
 11
141.9999998787988
 21
-1.5
 31
0.0
  0
LINE
  5
A2
  8
DETAIL
  6
CONTINUOUS
 62
     5
 10
140.24999999994901
 20
-23.0
 30
0.0
 11
140.4499999999498
 21
-23.199999999999822
 31
0.0
  0
LINE
  5
A3
  8
DETAIL
  6
CONTINUOUS
 62
     5
 10
121.5670297335073
 20
39.034899496703481
 30
0.0
 11
123.0
 21
0.0
 31
-0.0000000000000283
  0
ARC
  5
A4
  8
DETAIL
  6
CONTINUOUS
 62
     5
 10
120.5676389064883
 20
39.0
 30
0.0
 40
1.0
 50
2.0000000000560312
 51
90.0
  0
LINE
  5
A5
  8
DETAIL
  6
CONTINUOUS
 62
     5
 10
140.4499999999498
 20
-24.5
 30
0.0
 11
139.9499999999498
 21
-25.0
 31
0.0
  0
LINE
  5
A6
  8
DETAIL
  6
CONTINUOUS
 62
     5
 10
140.4499999999498
 20
-23.199999999999822
 30
0.0
 11
140.4499999999498
 21
-24.5
 31
0.0
  0
LINE
  5
A7
  8
DETAIL
  6
CONTINUOUS
 62
     5
 10
140.56587577454951
 20
-1.5
 30
0.0
 11
140.56587577454951
 21
0.0
 31
0.0
  0
LINE
  5
A8
  8
DETAIL
  6
CONTINUOUS
 62
     5
 10
140.8567404097484
 20
-22.806979917999801
 30
0.0
 11
142.0
 21
-1.5
 31
0.0
  0
ARC
  5
A9
  8
DETAIL
  6
CONTINUOUS
 62
     5
 10
-140.6568753414503
 20
-22.80000077319983
 30
0.0
 40
0.1999994334
 50
182.00019557289571
 51
270.0058158410547
  0
ARC
  5
AA
  8
DETAIL
  6
CONTINUOUS
 62
     5
 10
140.65687542414889
 20
-22.80000205269971
 30
0.0
 40
0.1999993154
 50
270.00159548804243
 51
358.00045058819512
  0
LINE
  5
AB
  8
DETAIL
  6
CONTINUOUS
 62
     5
 10
-140.5658757746514
 20
0.0
 30
0.0
 11
140.56587577454951
 21
0.0
 31
0.0
  0
LINE
  5
AC
  8
DETAIL
  6
CONTINUOUS
 62
     5
 10
-120.5676389065647
 20
40.0
 30
0.0
 11
120.5676389064883
 21
40.0
 31
0.0
  0
LINE
  5
AD
  8
BASIS
  6
DASHDOT
 62
     6
 10
0.0
 20
48.677189662629637
 30
0.0
 11
0.0
 21
-39.188733683579812
 31
0.0
  0
CIRCLE
  5
AE
  8
ARRANGE
  6
CONTINUOUS
 62
     1
 10
0.0
 20
0.0
 30
0.0
 40
15.0
  0
LINE
  5
AF
  8
ARRANGE
  6
CONTINUOUS
 62
     1
 10
15.01120500939942
 20
-14.85670594509747
 30
0.0
 11
-15.01120500939942
 21
14.85670594509747
 31
0.0
  0
LINE
  5
B0
  8
ARRANGE
  6
CONTINUOUS
 62
     1
 10
14.9891289931511
 20
14.87897843939572
 30
0.0
 11
-14.9891289931511
 21
-14.87897843939481
 31
0.0
  0
LINE
  5
B1
  8
NOTE
  6
CENTER
 62
     4
 10
130.60000000000031
 20
17.764705500000218
 30
0.0
 11
130.60000000000031
 21
-17.764705500000218
 31
0.0
  0
CIRCLE
  5
B2
  8
FIX
  6
CONTINUOUS
 62
    11
 10
130.60000000000031
 20
0.0
 30
0.0
 40
12.42149793872491
  0
LINE
  5
B3
  8
NOTE
  6
CENTER
 62
     4
 10
108.5
 20
17.76470550000067
 30
0.0
 11
108.5
 21
-17.76470549999976
 31
0.0
  0
CIRCLE
  5
B4
  8
FIX
  6
CONTINUOUS
 62
    11
 10
108.5
 20
0.0
 30
0.0
 40
12.42149793872491
  0
LINE
  5
B5
  8
NOTE
  6
CENTER
 62
     4
 10
-130.60000000000031
 20
17.764705500000218
 30
0.0
 11
-130.60000000000031
 21
-17.764705500000218
 31
0.0
  0
CIRCLE
  5
B6
  8
FIX
  6
CONTINUOUS
 62
    11
 10
-130.60000000000031
 20
0.0
 30
0.0
 40
12.42149793872491
  0
LINE
  5
B7
  8
NOTE
  6
CENTER
 62
     4
 10
-108.5
 20
17.76470550000067
 30
0.0
 11
-108.5
 21
-17.76470549999976
 31
0.0
  0
CIRCLE
  5
B8
  8
FIX
  6
CONTINUOUS
 62
    11
 10
-108.5
 20
0.0
 30
0.0
 40
12.42149793872491
  0
LINE
  5
BA
  8
OUTLINE
  6
CONTINUOUS
 62
     3
 10
-140.5658757746514
 20
0.0000000000004547
 30
0.0
 11
140.56587577454951
 21
0.0
 31
0.0
  0
LINE
  5
BC
  8
OUTLINE
  6
CONTINUOUS
 62
     3
 10
-142.00000000009999
 20
-1.5
 30
0.0
 11
141.9999998787988
 21
-1.5
 31
0.0
  0
LINE
  5
BD
  8
OUTLINE
  6
CONTINUOUS
 62
     3
 10
-140.5658757746514
 20
-1.5
 30
0.0
 11
-140.5658757746514
 21
0.0
 31
0.0
  0
LINE
  5
BE
  8
OUTLINE
  6
CONTINUOUS
 62
     3
 10
-142.0
 20
-1.5
 30
0.0
 11
-140.8567404098502
 21
-22.806979917999801
 31
0.0
  0
LINE
  5
BF
  8
OUTLINE
  6
CONTINUOUS
 62
     3
 10
-120.5676389065647
 20
40.0
 30
0.0
 11
120.5676389064883
 21
40.0
 31
0.0
  0
ARC
  5
C0
  8
OUTLINE
  6
CONTINUOUS
 62
     3
 10
-120.5676389065647
 20
39.0
 30
0.0
 40
1.0
 50
90.0
 51
178.00000000004809
  0
LINE
  5
C1
  8
OUTLINE
  6
CONTINUOUS
 62
     3
 10
-121.56702973358369
 20
39.034899496701662
 30
0.0
 11
-123.0
 21
0.0
 31
0.0
  0
ARC
  5
C2
  8
OUTLINE
  6
CONTINUOUS
 62
     3
 10
-140.6568753414503
 20
-22.80000077319983
 30
0.0
 40
0.1999994334
 50
182.00019557289571
 51
270.0058158410547
  0
LINE
  5
C3
  8
OUTLINE
  6
CONTINUOUS
 62
     3
 10
-140.65685896085051
 20
-23.0
 30
0.0
 11
-140.2500000000509
 21
-23.0
 31
-0.0000000000000142
  0
LINE
  5
C4
  8
OUTLINE
  6
CONTINUOUS
 62
     3
 10
140.24999999994719
 20
-22.999999999999542
 30
0.0
 11
140.65685900514831
 21
-23.0
 31
0.0
  0
LINE
  5
C5
  8
OUTLINE
  6
CONTINUOUS
 62
     3
 10
-140.4500000000516
 20
-23.199999999999822
 30
0.0
 11
-140.2500000000509
 21
-23.0
 31
0.0
  0
LINE
  5
C6
  8
OUTLINE
  6
CONTINUOUS
 62
     3
 10
-140.4500000000516
 20
-24.5
 30
0.0
 11
-140.4500000000516
 21
-23.199999999999822
 31
0.0
  0
LINE
  5
C7
  8
OUTLINE
  6
CONTINUOUS
 62
     3
 10
-139.94999999995159
 20
-25.0
 30
0.0
 11
-140.44999999995159
 21
-24.5
 31
0.0
  0
LINE
  5
C8
  8
OUTLINE
  6
CONTINUOUS
 62
     3
 10
-139.94999999995159
 20
-25.0
 30
0.0
 11
139.9499999999498
 21
-25.0
 31
0.0
  0
LINE
  5
C9
  8
OUTLINE
  6
CONTINUOUS
 62
     3
 10
140.4499999999498
 20
-24.5
 30
0.0
 11
139.9499999999498
 21
-25.0
 31
0.0
  0
LINE
  5
CA
  8
OUTLINE
  6
CONTINUOUS
 62
     3
 10
140.4499999999498
 20
-23.199999999999822
 30
0.0
 11
140.4499999999498
 21
-24.5
 31
0.0
  0
LINE
  5
CB
  8
OUTLINE
  6
CONTINUOUS
 62
     3
 10
140.24999999994901
 20
-23.0
 30
0.0
 11
140.4499999999498
 21
-23.199999999999822
 31
0.0
  0
ARC
  5
CC
  8
OUTLINE
  6
CONTINUOUS
 62
     3
 10
140.65687542414889
 20
-22.80000205269971
 30
0.0
 40
0.1999993154
 50
270.00159548804243
 51
358.00045058819512
  0
LINE
  5
CD
  8
OUTLINE
  6
CONTINUOUS
 62
     3
 10
140.8567404097484
 20
-22.806979917999801
 30
0.0
 11
142.0
 21
-1.5
 31
0.0
  0
LINE
  5
CE
  8
OUTLINE
  6
CONTINUOUS
 62
     3
 10
140.56587577454951
 20
-1.4999999999990901
 30
0.0
 11
140.56587577454951
 21
0.0
 31
0.0
  0
LINE
  5
CF
  8
OUTLINE
  6
CONTINUOUS
 62
     3
 10
121.5670297335073
 20
39.034899496703481
 30
0.0
 11
123.0
 21
0.0000000000004547
 31
-0.0000000000000283
  0
ARC
  5
D0
  8
OUTLINE
  6
CONTINUOUS
 62
     3
 10
120.5676389064883
 20
39.0
 30
0.0
 40
1.0
 50
2.0000000000560312
 51
90.0
  0
LINE
  5
D1
  8
SIZE
  6
CONTINUOUS
 62
    30
 10
-142.0
 20
-21.5
 30
0.0
 11
-142.0
 21
-209.99774015664161
 31
0.0
  0
LINE
  5
D2
  8
SIZE
  6
CONTINUOUS
 62
    30
 10
142.0
 20
-21.5
 30
0.0
 11
142.0
 21
-209.99774015664161
 31
0.0
  0
LINE
  5
D3
  8
SIZE
  6
CONTINUOUS
 62
    30
 10
-142.0
 20
-189.99774015664161
 30
0.0
 11
142.0
 21
-189.99774015664161
 31
0.0
  0
CIRCLE
  5
D4
  8
SIZE
  6
CONTINUOUS
 62
    30
 10
-142.0
 20
-189.99774015664161
 30
0.0
 40
7.5
  0
CIRCLE
  5
D5
  8
SIZE
  6
CONTINUOUS
 62
    30
 10
142.0
 20
-189.99774015664161
 30
0.0
 40
7.5
  0
TEXT
  5
D6
  8
SIZE
  6
CONTINUOUS
 62
    30
 10
-70.714285714285708
 20
-169.99774015664161
 30
0.0
 40
60.0
  1
284
 41
0.9
 72
     1
 11
0.0
 21
-169.99774015664161
 31
0.0
  0
POINT
  5
D7
  8
DEFPOINTS
  6
CONTINUOUS
 62
     7
 10
-142.0
 20
-1.5
 30
0.0
  0
POINT
  5
D8
  8
DEFPOINTS
  6
CONTINUOUS
 62
     7
 10
142.0
 20
-1.5
 30
0.0
  0
POINT
  5
D9
  8
DEFPOINTS
  6
CONTINUOUS
 62
     7
 10
142.0
 20
-189.99774015664161
 30
0.0
  0
LINE
  5
DA
  8
SIZE
  6
CONTINUOUS
 62
    30
 10
-108.5
 20
37.764705500000673
 30
0.0
 11
-108.5
 21
160.53632696254451
 31
0.0
  0
LINE
  5
DB
  8
SIZE
  6
CONTINUOUS
 62
    30
 10
108.5
 20
37.764705500000673
 30
0.0
 11
108.5
 21
160.53632696254451
 31
0.0
  0
LINE
  5
DC
  8
SIZE
  6
CONTINUOUS
 62
    30
 10
-108.5
 20
140.53632696254451
 30
0.0
 11
108.5
 21
140.53632696254451
 31
0.0
  0
CIRCLE
  5
DD
  8
SIZE
  6
CONTINUOUS
 62
    30
 10
-108.5
 20
140.53632696254451
 30
0.0
 40
7.5
  0
CIRCLE
  5
DE
  8
SIZE
  6
CONTINUOUS
 62
    30
 10
108.5
 20
140.53632696254451
 30
0.0
 40
7.5
  0
TEXT
  5
DF
  8
SIZE
  6
CONTINUOUS
 62
    30
 10
-64.285714285714263
 20
160.53632696254451
 30
0.0
 40
60.0
  1
217
 41
0.9
 72
     1
 11
0.0000000000000142
 21
160.53632696254451
 31
0.0
  0
POINT
  5
E0
  8
DEFPOINTS
  6
CONTINUOUS
 62
     7
 10
-108.5
 20
17.76470550000067
 30
0.0
  0
POINT
  5
E1
  8
DEFPOINTS
  6
CONTINUOUS
 62
     7
 10
108.5
 20
17.76470550000067
 30
0.0
  0
POINT
  5
E2
  8
DEFPOINTS
  6
CONTINUOUS
 62
     7
 10
108.5
 20
140.53632696254451
 30
0.0
  0
LINE
  5
E3
  8
SIZE
  6
CONTINUOUS
 62
    30
 10
-123.0
 20
20.0
 30
0.0
 11
-123.0
 21
279.03260941781491
 31
0.0
  0
LINE
  5
E4
  8
SIZE
  6
CONTINUOUS
 62
    30
 10
123.0
 20
20.000000000000458
 30
0.0
 11
123.0
 21
279.03260941781491
 31
0.0
  0
LINE
  5
E5
  8
SIZE
  6
CONTINUOUS
 62
    30
 10
-123.0
 20
259.0326094178148
 30
0.0
 11
123.0
 21
259.0326094178148
 31
0.0
  0
CIRCLE
  5
E6
  8
SIZE
  6
CONTINUOUS
 62
    30
 10
-123.0
 20
259.0326094178148
 30
0.0
 40
7.5
  0
CIRCLE
  5
E7
  8
SIZE
  6
CONTINUOUS
 62
    30
 10
123.0
 20
259.0326094178148
 30
0.0
 40
7.5
  0
TEXT
  5
E8
  8
SIZE
  6
CONTINUOUS
 62
    30
 10
-68.142857142857125
 20
279.03260941781491
 30
0.0
 40
60.0
  1
246
 41
0.9
 72
     1
 11
0.0000000000000142
 21
279.03260941781491
 31
0.0
  0
POINT
  5
E9
  8
DEFPOINTS
  6
CONTINUOUS
 62
     7
 10
-123.0
 20
0.0
 30
0.0
  0
POINT
  5
EA
  8
DEFPOINTS
  6
CONTINUOUS
 62
     7
 10
123.0
 20
0.0000000000004547
 30
-0.0000000000000283
  0
POINT
  5
EB
  8
DEFPOINTS
  6
CONTINUOUS
 62
     7
 10
123.0
 20
259.0326094178148
 30
0.0
  0
LINE
  5
EC
  8
SIZE
  6
CONTINUOUS
 62
    30
 10
-130.60000000000031
 20
37.764705500000218
 30
0.0
 11
-130.60000000000031
 21
400.95713793714123
 31
0.0
  0
LINE
  5
ED
  8
SIZE
  6
CONTINUOUS
 62
    30
 10
130.60000000000031
 20
37.764705500000218
 30
0.0
 11
130.60000000000039
 21
400.95713793714123
 31
0.0
  0
LINE
  5
EE
  8
SIZE
  6
CONTINUOUS
 62
    30
 10
130.60000000000039
 20
380.95713793714128
 30
0.0
 11
-130.60000000000031
 21
380.95713793714128
 31
0.0
  0
LINE
  5
EF
  8
SIZE
  6
CONTINUOUS
 62
    30
 10
-130.60000000000031
 20
380.95713793714128
 30
0.0
 11
-406.31428571428631
 21
380.95713793714128
 31
0.0
  0
CIRCLE
  5
F0
  8
SIZE
  6
CONTINUOUS
 62
    30
 10
130.60000000000039
 20
380.95713793714128
 30
0.0
 40
7.5
  0
CIRCLE
  5
F1
  8
SIZE
  6
CONTINUOUS
 62
    30
 10
-130.60000000000031
 20
380.95713793714128
 30
0.0
 40
7.5
  0
TEXT
  5
F2
  8
SIZE
  6
CONTINUOUS
 62
    30
 10
-386.31428571428643
 20
400.95713793714128
 30
0.0
 40
60.0
  1
261.2
 41
0.9
 72
     1
 11
-283.45714285714359
 21
400.95713793714128
 31
0.0
  0
POINT
  5
F3
  8
DEFPOINTS
  6
CONTINUOUS
 62
     7
 10
-130.60000000000031
 20
17.764705500000218
 30
0.0
  0
POINT
  5
F4
  8
DEFPOINTS
  6
CONTINUOUS
 62
     7
 10
130.60000000000031
 20
17.764705500000218
 30
0.0
  0
POINT
  5
F5
  8
DEFPOINTS
  6
CONTINUOUS
 62
     7
 10
130.60000000000039
 20
380.95713793714128
 30
0.0
  0
LINE
  5
F6
  8
SIZE
  6
CONTINUOUS
 62
    30
 10
160.56587577454951
 20
-0.0000000000000057
 30
0.0
 11
354.21942887502343
 21
-0.0000000000000605
 31
0.0
  0
LINE
  5
F7
  8
SIZE
  6
CONTINUOUS
 62
    30
 10
159.9499999999498
 20
-25.0
 30
0.0
 11
354.21942887502343
 21
-25.00000000000006
 31
0.0
  0
LINE
  5
F8
  8
SIZE
  6
CONTINUOUS
 62
    30
 10
334.21942887502343
 20
-0.0000000000000549
 30
0.0
 11
334.21942887502343
 21
29.99999999999995
 31
0.0
  0
LINE
  5
F9
  8
SIZE
  6
CONTINUOUS
 62
    30
 10
334.21942887502343
 20
-25.00000000000005
 30
0.0
 11
334.21942887502331
 21
-212.42857142857139
 31
0.0
  0
LINE
  5
FA
  8
SIZE
  6
CONTINUOUS
 62
    30
 10
334.21942887502343
 20
-0.0000000000000549
 30
0.0
 11
334.21942887502343
 21
-25.00000000000005
 31
0.0
  0
CIRCLE
  5
FB
  8
SIZE
  6
CONTINUOUS
 62
    30
 10
334.21942887502343
 20
-0.0000000000000549
 30
0.0
 40
7.5
  0
CIRCLE
  5
FC
  8
SIZE
  6
CONTINUOUS
 62
    30
 10
334.21942887502343
 20
-25.00000000000005
 30
0.0
 40
7.5
  0
TEXT
  5
FD
  8
SIZE
  6
CONTINUOUS
 62
    30
 10
314.2194288750232
 20
-192.42857142857139
 30
0.0
 40
60.0
  1
25
 50
90.0
 41
0.9
 72
     1
 11
314.2194288750232
 21
-148.71428571428561
 31
0.0
  0
POINT
  5
FE
  8
DEFPOINTS
  6
CONTINUOUS
 62
     7
 10
140.56587577454951
 20
0.0
 30
0.0
  0
POINT
  5
FF
  8
DEFPOINTS
  6
CONTINUOUS
 62
     7
 10
139.9499999999498
 20
-25.0
 30
0.0
  0
POINT
  5
100
  8
DEFPOINTS
  6
CONTINUOUS
 62
     7
 10
334.21942887502343
 20
-25.00000000000005
 30
0.0
  0
LINE
  5
101
  8
SIZE
  6
CONTINUOUS
 62
    30
 10
160.56587577454951
 20
-0.0000000000000057
 30
0.0
 11
354.21942887502343
 21
-0.0000000000000605
 31
0.0
  0
LINE
  5
102
  8
SIZE
  6
CONTINUOUS
 62
    30
 10
140.5676389064883
 20
40.0
 30
0.0
 11
354.21942887502343
 21
39.999999999999943
 31
0.0
  0
LINE
  5
103
  8
SIZE
  6
CONTINUOUS
 62
    30
 10
334.21942887502343
 20
-0.0000000000000549
 30
0.0
 11
334.21942887502343
 21
-30.00000000000006
 31
0.0
  0
LINE
  5
104
  8
SIZE
  6
CONTINUOUS
 62
    30
 10
334.21942887502343
 20
39.99999999999995
 30
0.0
 11
334.21942887502343
 21
227.42857142857139
 31
0.0
  0
LINE
  5
105
  8
SIZE
  6
CONTINUOUS
 62
    30
 10
334.21942887502343
 20
-0.0000000000000549
 30
0.0
 11
334.21942887502343
 21
39.99999999999995
 31
0.0
  0
CIRCLE
  5
106
  8
SIZE
  6
CONTINUOUS
 62
    30
 10
334.21942887502343
 20
-0.0000000000000549
 30
0.0
 40
7.5
  0
CIRCLE
  5
107
  8
SIZE
  6
CONTINUOUS
 62
    30
 10
334.21942887502343
 20
39.99999999999995
 30
0.0
 40
7.5
  0
TEXT
  5
108
  8
SIZE
  6
CONTINUOUS
 62
    30
 10
314.2194288750232
 20
119.9999999999999
 30
0.0
 40
60.0
  1
40
 50
90.0
 41
0.9
 72
     1
 11
314.2194288750232
 21
163.71428571428569
 31
0.0
  0
POINT
  5
109
  8
DEFPOINTS
  6
CONTINUOUS
 62
     7
 10
140.56587577454951
 20
0.0
 30
0.0
  0
POINT
  5
10A
  8
DEFPOINTS
  6
CONTINUOUS
 62
     7
 10
120.5676389064883
 20
40.0
 30
0.0
  0
POINT
  5
10B
  8
DEFPOINTS
  6
CONTINUOUS
 62
     7
 10
334.21942887502343
 20
39.99999999999995
 30
0.0
  0
LINE
  5
12D
  8
NOTE
  6
CENTER
 62
     4
 10
-148.3647055000005
 20
0.0
 30
0.0
 11
-112.8352945000001
 21
0.0
 31
0.0
  0
LINE
  5
133
  8
NOTE
  6
CENTER
 62
     4
 10
-126.2647055000002
 20
0.0
 30
0.0
 11
-90.735294499999796
 21
0.0
 31
0.0
  0
LINE
  5
139
  8
NOTE
  6
CENTER
 62
     4
 10
90.735294499999796
 20
0.0000000000004547
 30
0.0
 11
126.2647055000002
 21
0.0000000000004547
 31
0.0
  0
LINE
  5
13F
  8
NOTE
  6
CENTER
 62
     4
 10
112.8352945000001
 20
0.0
 30
0.0
 11
148.3647055000005
 21
0.0
 31
0.0
  0
ENDSEC
  0
EOF
