  0
SECTION
  2
HEADER
  9
$ACADVER
  1
AC1009
  9
$INSBASE
 10
0.0
 20
0.0
 30
0.0
  9
$EXTMIN
 10
-1586.887143
 20
-618.052658
 30
0.0
  9
$EXTMAX
 10
1969.237877
 20
972.457817
 30
0.0
  9
$LIMMIN
 10
-3837.000175
 20
-3000.109539
  9
$LIMMAX
 10
7319.256881
 20
4045.223003
  9
$ORTHOMODE
 70
     1
  9
$REGENMODE
 70
     1
  9
$FILLMODE
 70
     1
  9
$QTEXTMODE
 70
     0
  9
$MIRRTEXT
 70
     0
  9
$DRAGMODE
 70
     2
  9
$LTSCALE
 40
20.0
  9
$OSMODE
 70
    37
  9
$ATTMODE
 70
     1
  9
$TEXTSIZE
 40
64.0
  9
$TRACEWID
 40
0.05
  9
$TEXTSTYLE
  7
STANDARD
  9
$CLAYER
  8
SIZE
  9
$CELTYPE
  6
CONTINUOUS
  9
$CECOLOR
 62
     7
  9
$DIMSCALE
 40
1.0
  9
$DIMASZ
 40
10.0
  9
$DIMEXO
 40
20.0
  9
$DIMDLI
 40
200.0
  9
$DIMRND
 40
0.0
  9
$DIMDLE
 40
0.0
  9
$DIMEXE
 40
30.0
  9
$DIMTP
 40
0.0
  9
$DIMTM
 40
0.0
  9
$DIMTXT
 40
64.0
  9
$DIMCEN
 40
0.0
  9
$DIMTSZ
 40
0.0
  9
$DIMTOL
 70
     0
  9
$DIMLIM
 70
     0
  9
$DIMTIH
 70
     0
  9
$DIMTOH
 70
     0
  9
$DIMSE1
 70
     0
  9
$DIMSE2
 70
     0
  9
$DIMTAD
 70
     1
  9
$DIMZIN
 70
     8
  9
$DIMBLK
  1

  9
$DIMASO
 70
     1
  9
$DIMSHO
 70
     0
  9
$DIMPOST
  1

  9
$DIMAPOST
  1

  9
$DIMALT
 70
     0
  9
$DIMALTD
 70
     2
  9
$DIMALTF
 40
25.4
  9
$DIMLFAC
 40
1.0
  9
$DIMTOFL
 70
     1
  9
$DIMTVP
 40
0.0
  9
$DIMTIX
 70
     1
  9
$DIMSOXD
 70
     0
  9
$DIMSAH
 70
     1
  9
$DIMBLK1
  1
_DOTBLANK
  9
$DIMBLK2
  1
_DOTBLANK
  9
$DIMSTYLE
  2
STANDARD
  9
$DIMCLRD
 70
     0
  9
$DIMCLRE
 70
     0
  9
$DIMCLRT
 70
     0
  9
$DIMTFAC
 40
1.0
  9
$DIMGAP
 40
0.09
  9
$LUNITS
 70
     2
  9
$LUPREC
 70
     4
  9
$SKETCHINC
 40
0.1
  9
$FILLETRAD
 40
10.0
  9
$AUNITS
 70
     1
  9
$AUPREC
 70
     3
  9
$MENU
  1
ACAD
  9
$ELEVATION
 40
0.0
  9
$PELEVATION
 40
0.0
  9
$THICKNESS
 40
0.0
  9
$LIMCHECK
 70
     0
  9
$BLIPMODE
 70
     0
  9
$CHAMFERA
 40
0.0
  9
$CHAMFERB
 40
0.0
  9
$SKPOLY
 70
     0
  9
$TDCREATE
 40
2450330.439931
  9
$TDUPDATE
 40
2453088.725886
  9
$TDINDWG
 40
1.385831
  9
$TDUSRTIMER
 40
1.385831
  9
$USRTIMER
 70
     1
  9
$ANGBASE
 50
0.0
  9
$ANGDIR
 70
     0
  9
$PDMODE
 70
     3
  9
$PDSIZE
 40
-2.0
  9
$PLINEWID
 40
0.0
  9
$COORDS
 70
     1
  9
$SPLFRAME
 70
     0
  9
$SPLINETYPE
 70
     6
  9
$SPLINESEGS
 70
     8
  9
$ATTDIA
 70
     0
  9
$ATTREQ
 70
     1
  9
$HANDLING
 70
     1
  9
$HANDSEED
  5
21C
  9
$SURFTAB1
 70
     6
  9
$SURFTAB2
 70
     6
  9
$SURFTYPE
 70
     6
  9
$SURFU
 70
     6
  9
$SURFV
 70
     6
  9
$UCSNAME
  2

  9
$UCSORG
 10
0.0
 20
0.0
 30
0.0
  9
$UCSXDIR
 10
1.0
 20
0.0
 30
0.0
  9
$UCSYDIR
 10
0.0
 20
1.0
 30
0.0
  9
$PUCSNAME
  2

  9
$PUCSORG
 10
0.0
 20
0.0
 30
0.0
  9
$PUCSXDIR
 10
1.0
 20
0.0
 30
0.0
  9
$PUCSYDIR
 10
0.0
 20
1.0
 30
0.0
  9
$USERI1
 70
     0
  9
$USERI2
 70
     0
  9
$USERI3
 70
     0
  9
$USERI4
 70
     0
  9
$USERI5
 70
     0
  9
$USERR1
 40
20.0
  9
$USERR2
 40
0.0
  9
$USERR3
 40
0.0
  9
$USERR4
 40
0.0
  9
$USERR5
 40
0.0
  9
$WORLDVIEW
 70
     1
  9
$SHADEDGE
 70
     3
  9
$SHADEDIF
 70
    70
  9
$TILEMODE
 70
     1
  9
$MAXACTVP
 70
    48
  9
$PLIMCHECK
 70
     0
  9
$PEXTMIN
 10
1.000000E+020
 20
1.000000E+020
 30
1.000000E+020
  9
$PEXTMAX
 10
-1.000000E+020
 20
-1.000000E+020
 30
-1.000000E+020
  9
$PLIMMIN
 10
0.0
 20
0.0
  9
$PLIMMAX
 10
12.0
 20
9.0
  9
$UNITMODE
 70
     0
  9
$VISRETAIN
 70
     1
  9
$PLINEGEN
 70
     0
  9
$PSLTSCALE
 70
     1
  0
ENDSEC
  0
SECTION
  2
TABLES
  0
TABLE
  2
VPORT
 70
     4
  0
VPORT
  2
*ACTIVE
 70
     0
 10
0.0
 20
0.0
 11
1.0
 21
1.0
 12
2242.440002
 22
522.556732
 13
0.0
 23
0.0
 14
50.0
 24
50.0
 15
100.0
 25
100.0
 16
0.0
 26
0.0
 36
1.0
 17
0.0
 27
0.0
 37
0.0
 40
7045.332542
 41
1.725806
 42
50.0
 43
0.0
 44
0.0
 50
0.0
 51
0.0
 71
     0
 72
  1000
 73
     1
 74
     0
 75
     0
 76
     0
 77
     0
 78
     0
  0
ENDTAB
  0
TABLE
  2
LTYPE
 70
     3
  0
LTYPE
  2
CONTINUOUS
 70
     0
  3
実線
 72
    65
 73
     0
 40
0.0
  0
LTYPE
  2
DASHDOT
 70
     0
  3
____ _ ____ _ ____ _ ____ _ ____ _ ____ _ ____
 72
    65
 73
     4
 40
5.5
 49
4.0
 49
-0.6
 49
0.3
 49
-0.6
  0
LTYPE
  2
DASHDOT1
 70
     0
  3
____ _ ____ _ ____ _ ____ _ ____ _ ____ _ ____
 72
    65
 73
     4
 40
2.0
 49
1.5
 49
-0.2
 49
0.1
 49
-0.2
  0
ENDTAB
  0
TABLE
  2
LAYER
 70
    12
  0
LAYER
  2
0
 70
     0
 62
     7
  6
CONTINUOUS
  0
LAYER
  2
SIZE
 70
     0
 62
    30
  6
CONTINUOUS
  0
LAYER
  2
OUTLINE
 70
     0
 62
     3
  6
CONTINUOUS
  0
LAYER
  2
DETAIL
 70
     0
 62
     5
  6
CONTINUOUS
  0
LAYER
  2
BASIS
 70
     0
 62
     6
  6
DASHDOT
  0
LAYER
  2
NOTE
 70
     0
 62
     4
  6
CONTINUOUS
  0
LAYER
  2
ARRANGE
 70
     0
 62
     1
  6
CONTINUOUS
  0
LAYER
  2
FIX
 70
     0
 62
    11
  6
CONTINUOUS
  0
LAYER
  2
SERVICESPACE
 70
     0
 62
     2
  6
DASHDOT
  0
LAYER
  2
ETC
 70
     0
 62
    61
  6
CONTINUOUS
  0
LAYER
  2
SYMBOLLINE
 70
     0
 62
    15
  6
CONTINUOUS
  0
LAYER
  2
DEFPOINTS
 70
     0
 62
     7
  6
CONTINUOUS
  0
ENDTAB
  0
TABLE
  2
STYLE
 70
     1
  0
STYLE
  2
STANDARD
 70
     0
 40
0.0
 41
0.9
 50
0.0
 71
     0
 42
64.0
  3
SIMPLEX
  4
BIGFONT
  0
ENDTAB
  0
TABLE
  2
VIEW
 70
     1
  0
VIEW
  2
ALL
 70
     0
 40
9000.0
 10
241.506647
 20
0.0
 41
12483.01
 11
0.0
 21
0.0
 31
1.0
 12
0.0
 22
0.0
 32
0.0
 42
50.0
 43
0.0
 44
0.0
 50
0.0
 71
     0
  0
ENDTAB
  0
TABLE
  2
UCS
 70
     0
  0
ENDTAB
  0
TABLE
  2
APPID
 70
     1
  0
APPID
  2
ACAD
 70
     0
  0
ENDTAB
  0
TABLE
  2
DIMSTYLE
 70
     1
  0
DIMSTYLE
  2
STANDARD
 70
     0
  3

  4

  5

  6

  7

 40
1.0
 41
0.18
 42
0.0625
 43
0.38
 44
0.18
 45
0.0
 46
0.0
 47
0.0
 48
0.0
140
0.18
141
0.09
142
0.0
143
25.4
144
1.0
145
0.0
146
1.0
147
0.09
 71
     0
 72
     0
 73
     1
 74
     1
 75
     0
 76
     0
 77
     0
 78
     0
170
     0
171
     2
172
     0
173
     0
174
     0
175
     0
176
     0
177
     0
178
     0
  0
ENDTAB
  0
ENDSEC
  0
SECTION
  2
BLOCKS
  0
BLOCK
  8
0
  2
$MODEL_SPACE
 70
     0
 10
0.0
 20
0.0
 30
0.0
  3
$MODEL_SPACE
  1

  0
ENDBLK
  5
1F7
  8
0
  0
BLOCK
 67
     1
  8
0
  2
$PAPER_SPACE
 70
     0
 10
0.0
 20
0.0
 30
0.0
  3
$PAPER_SPACE
  1

  0
ENDBLK
  5
1F4
 67
     1
  8
0
  0
BLOCK
  8
0
  2
_DOTBLANK
 70
     0
 10
0.0
 20
0.0
 30
0.0
  3
_DOTBLANK
  1

  0
CIRCLE
  5
31
  8
0
  6
CONTINUOUS
 62
     7
 10
0.0
 20
0.0
 30
0.0
 40
0.5
  0
LINE
  5
32
  8
0
  6
CONTINUOUS
 62
     7
 10
-0.5
 20
0.0
 30
0.0
 11
-1.0
 21
0.0
 31
0.0
  0
ENDBLK
  5
33
  8
0
  0
BLOCK
  8
0
 62
     7
  2
A$C570C56FC
 70
     0
 10
0.0
 20
0.0
 30
0.0
  3
A$C570C56FC
  1

  0
TEXT
  5
216
  8
NOTE
  6
CONTINUOUS
 62
     4
 10
-0.000013
 20
0.000007
 30
0.0
 40
50.0
  1
400形：φ25.4〈ロウ付〉（付属配管を使用）
 41
0.9
  0
ENDBLK
  5
218
  8
0
 62
     7
  0
ENDSEC
  0
SECTION
  2
ENTITIES
  0
LINE
  5
34
  8
DETAIL
  6
CONTINUOUS
 62
     5
 10
225.0
 20
-289.0
 30
0.0
 11
-225.0
 21
-289.0
 31
0.0
  0
LINE
  5
35
  8
DETAIL
  6
CONTINUOUS
 62
     5
 10
-222.19
 20
-280.692182
 30
0.0
 11
222.186814
 21
-280.692182
 31
0.0
  0
LINE
  5
36
  8
DETAIL
  6
CONTINUOUS
 62
     5
 10
225.0
 20
0.0
 30
0.0
 11
-225.0
 21
0.0
 31
0.0
  0
ARC
  5
37
  8
DETAIL
  6
CONTINUOUS
 62
     5
 10
-108.0
 20
-260.0
 30
0.0
 40
17.833587
 50
0.0
 51
180.0
  0
CIRCLE
  5
38
  8
DETAIL
  6
CONTINUOUS
 62
     5
 10
-108.0
 20
-260.0
 30
0.0
 40
13.061219
  0
LINE
  5
39
  8
DETAIL
  6
CONTINUOUS
 62
     5
 10
222.186814
 20
-280.692182
 30
0.0
 11
222.186814
 21
-289.0
 31
0.0
  0
LINE
  5
3A
  8
DETAIL
  6
CONTINUOUS
 62
     5
 10
-90.166413
 20
-280.697008
 30
0.0
 11
-90.166413
 21
-260.0
 31
0.0
  0
LINE
  5
3B
  8
DETAIL
  6
CONTINUOUS
 62
     5
 10
-125.833587
 20
-280.697008
 30
0.0
 11
-125.833587
 21
-260.0
 31
0.0
  0
LINE
  5
3C
  8
DETAIL
  6
CONTINUOUS
 62
     5
 10
225.0
 20
0.0
 30
0.0
 11
225.0
 21
-289.0
 31
0.0
  0
LINE
  5
3D
  8
DETAIL
  6
CONTINUOUS
 62
     5
 10
203.915559
 20
-70.202492
 30
0.0
 11
183.821376
 21
-70.202492
 31
0.0
  0
LINE
  5
3E
  8
DETAIL
  6
CONTINUOUS
 62
     5
 10
218.986195
 20
-27.0
 30
0.0
 11
168.750739
 21
-27.0
 31
0.0
  0
LINE
  5
3F
  8
DETAIL
  6
CONTINUOUS
 62
     5
 10
199.866722
 20
-29.310831
 30
0.0
 11
187.870213
 21
-29.310831
 31
0.0
  0
CIRCLE
  5
40
  8
DETAIL
  6
CONTINUOUS
 62
     5
 10
194.0
 20
-47.094182
 30
0.0
 40
3.516482
  0
LINE
  5
41
  8
DETAIL
  6
CONTINUOUS
 62
     5
 10
204.417913
 20
-70.202492
 30
0.0
 11
183.319022
 21
-70.202492
 31
0.0
  0
LINE
  5
42
  8
DETAIL
  6
CONTINUOUS
 62
     5
 10
218.986195
 20
-65.178947
 30
0.0
 11
218.986195
 21
-27.0
 31
0.0
  0
LINE
  5
43
  8
DETAIL
  6
CONTINUOUS
 62
     5
 10
203.915559
 20
-65.178947
 30
0.0
 11
203.915559
 21
-70.202492
 31
0.0
  0
LINE
  5
44
  8
DETAIL
  6
CONTINUOUS
 62
     5
 10
203.915559
 20
-65.178947
 30
0.0
 11
218.986195
 21
-65.178947
 31
0.0
  0
LINE
  5
45
  8
DETAIL
  6
CONTINUOUS
 62
     5
 10
204.417913
 20
-66.183656
 30
0.0
 11
204.417913
 21
-70.202492
 31
0.0
  0
LINE
  5
46
  8
DETAIL
  6
CONTINUOUS
 62
     5
 10
204.417913
 20
-66.183656
 30
0.0
 11
203.915559
 21
-66.183656
 31
0.0
  0
LINE
  5
47
  8
DETAIL
  6
CONTINUOUS
 62
     5
 10
215.972068
 20
-39.056509
 30
0.0
 11
202.91085
 21
-39.056509
 31
0.0
  0
ARC
  5
48
  8
DETAIL
  6
CONTINUOUS
 62
     5
 10
202.91085
 20
-36.042382
 30
0.0
 40
3.014127
 50
180.0
 51
270.0
  0
ARC
  5
49
  8
DETAIL
  6
CONTINUOUS
 62
     5
 10
215.972068
 20
-36.042382
 30
0.0
 40
3.014127
 50
270.0
 51
0.0
  0
LINE
  5
4A
  8
DETAIL
  6
CONTINUOUS
 62
     5
 10
168.750739
 20
-65.178947
 30
0.0
 11
168.750739
 21
-27.0
 31
0.0
  0
LINE
  5
4B
  8
DETAIL
  6
CONTINUOUS
 62
     5
 10
168.750739
 20
-65.178947
 30
0.0
 11
183.821376
 21
-65.178947
 31
0.0
  0
LINE
  5
4C
  8
DETAIL
  6
CONTINUOUS
 62
     5
 10
183.821376
 20
-65.178947
 30
0.0
 11
183.821376
 21
-70.202492
 31
0.0
  0
LINE
  5
4D
  8
DETAIL
  6
CONTINUOUS
 62
     5
 10
183.319022
 20
-66.183656
 30
0.0
 11
183.319022
 21
-70.202492
 31
0.0
  0
LINE
  5
4E
  8
DETAIL
  6
CONTINUOUS
 62
     5
 10
183.821376
 20
-66.183656
 30
0.0
 11
183.319022
 21
-66.183656
 31
0.0
  0
LINE
  5
4F
  8
DETAIL
  6
CONTINUOUS
 62
     5
 10
171.764867
 20
-39.056509
 30
0.0
 11
184.826085
 21
-39.056509
 31
0.0
  0
ARC
  5
50
  8
DETAIL
  6
CONTINUOUS
 62
     5
 10
184.826085
 20
-36.042382
 30
0.0
 40
3.014127
 50
270.0
 51
0.0
  0
ARC
  5
51
  8
DETAIL
  6
CONTINUOUS
 62
     5
 10
171.764867
 20
-36.042382
 30
0.0
 40
3.014127
 50
180.0
 51
270.0
  0
LINE
  5
52
  8
DETAIL
  6
CONTINUOUS
 62
     5
 10
-171.764867
 20
-39.056509
 30
0.0
 11
-184.826085
 21
-39.056509
 31
0.0
  0
LINE
  5
53
  8
DETAIL
  6
CONTINUOUS
 62
     5
 10
-168.750739
 20
-65.178947
 30
0.0
 11
-183.821376
 21
-65.178947
 31
0.0
  0
LINE
  5
54
  8
DETAIL
  6
CONTINUOUS
 62
     5
 10
-218.986195
 20
-27.0
 30
0.0
 11
-168.750739
 21
-27.0
 31
0.0
  0
LINE
  5
55
  8
DETAIL
  6
CONTINUOUS
 62
     5
 10
-168.750739
 20
-65.178947
 30
0.0
 11
-168.750739
 21
-27.0
 31
0.0
  0
ARC
  5
56
  8
DETAIL
  6
CONTINUOUS
 62
     5
 10
-171.764867
 20
-36.042382
 30
0.0
 40
3.014127
 50
270.0
 51
0.0
  0
LINE
  5
57
  8
DETAIL
  6
CONTINUOUS
 62
     5
 10
-218.986195
 20
-65.178947
 30
0.0
 11
-218.986195
 21
-27.0
 31
0.0
  0
LINE
  5
58
  8
DETAIL
  6
CONTINUOUS
 62
     5
 10
-203.915559
 20
-65.178947
 30
0.0
 11
-218.986195
 21
-65.178947
 31
0.0
  0
LINE
  5
59
  8
DETAIL
  6
CONTINUOUS
 62
     5
 10
-203.915559
 20
-65.178947
 30
0.0
 11
-203.915559
 21
-70.202492
 31
0.0
  0
LINE
  5
5A
  8
DETAIL
  6
CONTINUOUS
 62
     5
 10
-183.821376
 20
-65.178947
 30
0.0
 11
-183.821376
 21
-70.202492
 31
0.0
  0
LINE
  5
5B
  8
DETAIL
  6
CONTINUOUS
 62
     5
 10
-203.915559
 20
-70.202492
 30
0.0
 11
-183.821376
 21
-70.202492
 31
0.0
  0
LINE
  5
5C
  8
DETAIL
  6
CONTINUOUS
 62
     5
 10
-204.417913
 20
-66.183656
 30
0.0
 11
-204.417913
 21
-70.202492
 31
0.0
  0
LINE
  5
5D
  8
DETAIL
  6
CONTINUOUS
 62
     5
 10
-183.319022
 20
-66.183656
 30
0.0
 11
-183.319022
 21
-70.202492
 31
0.0
  0
LINE
  5
5E
  8
DETAIL
  6
CONTINUOUS
 62
     5
 10
-204.417913
 20
-70.202492
 30
0.0
 11
-183.319022
 21
-70.202492
 31
0.0
  0
LINE
  5
5F
  8
DETAIL
  6
CONTINUOUS
 62
     5
 10
-204.417913
 20
-66.183656
 30
0.0
 11
-203.915559
 21
-66.183656
 31
0.0
  0
LINE
  5
60
  8
DETAIL
  6
CONTINUOUS
 62
     5
 10
-183.821376
 20
-66.183656
 30
0.0
 11
-183.319022
 21
-66.183656
 31
0.0
  0
CIRCLE
  5
61
  8
DETAIL
  6
CONTINUOUS
 62
     5
 10
-194.0
 20
-47.094182
 30
0.0
 40
3.516482
  0
ARC
  5
62
  8
DETAIL
  6
CONTINUOUS
 62
     5
 10
-215.972068
 20
-36.042382
 30
0.0
 40
3.014127
 50
180.0
 51
270.0
  0
LINE
  5
63
  8
DETAIL
  6
CONTINUOUS
 62
     5
 10
-215.972068
 20
-39.056509
 30
0.0
 11
-202.91085
 21
-39.056509
 31
0.0
  0
ARC
  5
64
  8
DETAIL
  6
CONTINUOUS
 62
     5
 10
-184.826085
 20
-36.042382
 30
0.0
 40
3.014127
 50
180.0
 51
270.0
  0
ARC
  5
65
  8
DETAIL
  6
CONTINUOUS
 62
     5
 10
-202.91085
 20
-36.042382
 30
0.0
 40
3.014127
 50
270.0
 51
0.0
  0
LINE
  5
66
  8
DETAIL
  6
CONTINUOUS
 62
     5
 10
-199.866722
 20
-29.310831
 30
0.0
 11
-187.840213
 21
-29.310831
 31
0.0
  0
LINE
  5
67
  8
DETAIL
  6
CONTINUOUS
 62
     5
 10
-225.0
 20
0.0
 30
0.0
 11
-225.0
 21
-289.0
 31
0.0
  0
LINE
  5
68
  8
DETAIL
  6
CONTINUOUS
 62
     5
 10
-222.19
 20
-280.692182
 30
0.0
 11
-222.19
 21
-289.0
 31
0.0
  0
LINE
  5
69
  8
SIZE
  6
CONTINUOUS
 62
    30
 10
225.0
 20
-2.907368
 30
0.0
 11
225.0
 21
129.001626
 31
0.0
  0
LINE
  5
6A
  8
SIZE
  6
CONTINUOUS
 62
    30
 10
289.0
 20
-2.907019
 30
0.0
 11
289.0
 21
129.001626
 31
0.0
  0
LINE
  5
6B
  8
SIZE
  6
CONTINUOUS
 62
    30
 10
235.0
 20
99.001626
 30
0.0
 11
279.0
 21
99.001626
 31
0.0
  0
LINE
  5
6C
  8
SIZE
  6
CONTINUOUS
 62
    30
 10
289.0
 20
99.001626
 30
0.0
 11
435.0
 21
99.001626
 31
0.0
  0
CIRCLE
  5
6D
  8
SIZE
  6
CONTINUOUS
 62
    30
 10
225.0
 20
99.001626
 30
0.0
 40
5.0
  0
LINE
  5
6E
  8
SIZE
  6
CONTINUOUS
 62
    30
 10
230.0
 20
99.001626
 30
0.0
 11
235.0
 21
99.001626
 31
0.0
  0
CIRCLE
  5
6F
  8
SIZE
  6
CONTINUOUS
 62
    30
 10
289.0
 20
99.001626
 30
0.0
 40
5.0
  0
LINE
  5
70
  8
SIZE
  6
CONTINUOUS
 62
    30
 10
284.0
 20
99.001626
 30
0.0
 11
279.0
 21
99.001626
 31
0.0
  0
TEXT
  5
71
  8
SIZE
  6
CONTINUOUS
 62
    30
 10
319.0
 20
119.001626
 30
0.0
 40
64.0
  1
64
 41
0.9
 72
     1
 11
367.0
 21
119.001626
 31
0.0
  0
POINT
  5
72
  8
DEFPOINTS
  6
CONTINUOUS
 62
     7
 10
225.0
 20
-22.907368
 30
0.0
  0
POINT
  5
73
  8
DEFPOINTS
  6
CONTINUOUS
 62
     7
 10
289.0
 20
-22.907019
 30
0.0
  0
POINT
  5
74
  8
DEFPOINTS
  6
CONTINUOUS
 62
     7
 10
289.0
 20
99.001626
 30
0.0
  0
LINE
  5
75
  8
SIZE
  6
CONTINUOUS
 62
    30
 10
245.0
 20
0.0
 30
0.0
 11
443.447305
 21
0.0
 31
0.0
  0
LINE
  5
76
  8
SIZE
  6
CONTINUOUS
 62
    30
 10
309.0
 20
-23.0
 30
0.0
 11
443.447305
 21
-23.0
 31
0.0
  0
LINE
  5
77
  8
SIZE
  6
CONTINUOUS
 62
    30
 10
413.447305
 20
10.0
 30
0.0
 11
413.447305
 21
20.0
 31
0.0
  0
LINE
  5
78
  8
SIZE
  6
CONTINUOUS
 62
    30
 10
413.447305
 20
-33.0
 30
0.0
 11
413.447305
 21
-43.0
 31
0.0
  0
LINE
  5
79
  8
SIZE
  6
CONTINUOUS
 62
    30
 10
413.447305
 20
0.0
 30
0.0
 11
413.447305
 21
-23.0
 31
0.0
  0
CIRCLE
  5
7A
  8
SIZE
  6
CONTINUOUS
 62
    30
 10
413.447305
 20
0.0
 30
0.0
 40
5.0
  0
LINE
  5
7B
  8
SIZE
  6
CONTINUOUS
 62
    30
 10
413.447305
 20
5.0
 30
0.0
 11
413.447305
 21
10.0
 31
0.0
  0
CIRCLE
  5
7C
  8
SIZE
  6
CONTINUOUS
 62
    30
 10
413.447305
 20
-23.0
 30
0.0
 40
5.0
  0
LINE
  5
7D
  8
SIZE
  6
CONTINUOUS
 62
    30
 10
413.447305
 20
-28.0
 30
0.0
 11
413.447305
 21
-33.0
 31
0.0
  0
TEXT
  5
7E
  8
SIZE
  6
CONTINUOUS
 62
    30
 10
393.447305
 20
-58.128571
 30
0.0
 40
64.0
  1
23
 50
90.0
 41
0.9
 72
     1
 11
393.447305
 21
-11.5
 31
0.0
  0
POINT
  5
7F
  8
DEFPOINTS
  6
CONTINUOUS
 62
     7
 10
225.0
 20
0.0
 30
0.0
  0
POINT
  5
80
  8
DEFPOINTS
  6
CONTINUOUS
 62
     7
 10
289.0
 20
-23.0
 30
0.0
  0
POINT
  5
81
  8
DEFPOINTS
  6
CONTINUOUS
 62
     7
 10
413.447305
 20
-23.0
 30
0.0
  0
LINE
  5
82
  8
SIZE
  6
CONTINUOUS
 62
    30
 10
307.405061
 20
-22.999667
 30
0.0
 11
442.804497
 21
-22.999667
 31
0.0
  0
LINE
  5
83
  8
SIZE
  6
CONTINUOUS
 62
    30
 10
309.0
 20
-153.0
 30
0.0
 11
442.804497
 21
-153.0
 31
0.0
  0
LINE
  5
84
  8
SIZE
  6
CONTINUOUS
 62
    30
 10
412.804497
 20
-32.999667
 30
0.0
 11
412.804497
 21
-143.0
 31
0.0
  0
LINE
  5
85
  8
SIZE
  6
CONTINUOUS
 62
    30
 10
412.804497
 20
-153.0
 30
0.0
 11
412.804497
 21
-340.142857
 31
0.0
  0
CIRCLE
  5
86
  8
SIZE
  6
CONTINUOUS
 62
    30
 10
412.804497
 20
-22.999667
 30
0.0
 40
5.0
  0
LINE
  5
87
  8
SIZE
  6
CONTINUOUS
 62
    30
 10
412.804497
 20
-27.999667
 30
0.0
 11
412.804497
 21
-32.999667
 31
0.0
  0
CIRCLE
  5
88
  8
SIZE
  6
CONTINUOUS
 62
    30
 10
412.804497
 20
-153.0
 30
0.0
 40
5.0
  0
LINE
  5
89
  8
SIZE
  6
CONTINUOUS
 62
    30
 10
412.804497
 20
-148.0
 30
0.0
 11
412.804497
 21
-143.0
 31
0.0
  0
TEXT
  5
8A
  8
SIZE
  6
CONTINUOUS
 62
    30
 10
392.804497
 20
-320.142858
 30
0.0
 40
64.0
  1
130
 50
90.0
 41
0.9
 72
     1
 11
392.804497
 21
-251.571429
 31
0.0
  0
POINT
  5
8B
  8
DEFPOINTS
  6
CONTINUOUS
 62
     7
 10
287.405061
 20
-22.999667
 30
0.0
  0
POINT
  5
8C
  8
DEFPOINTS
  6
CONTINUOUS
 62
     7
 10
289.0
 20
-153.0
 30
0.0
  0
POINT
  5
8D
  8
DEFPOINTS
  6
CONTINUOUS
 62
     7
 10
412.804497
 20
-153.0
 30
0.0
  0
LINE
  5
8E
  8
DETAIL
  6
CONTINUOUS
 62
     5
 10
-295.0
 20
-13.0
 30
0.0
 11
-295.0
 21
-276.0
 31
0.0
  0
LINE
  5
8F
  8
SIZE
  6
CONTINUOUS
 62
    30
 10
225.0
 20
20.0
 30
0.0
 11
225.0
 21
131.695186
 31
0.0
  0
LINE
  5
90
  8
SIZE
  6
CONTINUOUS
 62
    30
 10
122.0
 20
-37.927813
 30
0.0
 11
122.0
 21
131.695186
 31
0.0
  0
LINE
  5
91
  8
SIZE
  6
CONTINUOUS
 62
    30
 10
235.0
 20
101.695186
 30
0.0
 11
245.0
 21
101.695186
 31
0.0
  0
LINE
  5
92
  8
SIZE
  6
CONTINUOUS
 62
    30
 10
112.0
 20
101.695186
 30
0.0
 11
102.0
 21
101.695186
 31
0.0
  0
LINE
  5
93
  8
SIZE
  6
CONTINUOUS
 62
    30
 10
225.0
 20
101.695186
 30
0.0
 11
122.0
 21
101.695186
 31
0.0
  0
CIRCLE
  5
94
  8
SIZE
  6
CONTINUOUS
 62
    30
 10
225.0
 20
101.695186
 30
0.0
 40
5.0
  0
LINE
  5
95
  8
SIZE
  6
CONTINUOUS
 62
    30
 10
230.0
 20
101.695186
 30
0.0
 11
235.0
 21
101.695186
 31
0.0
  0
CIRCLE
  5
96
  8
SIZE
  6
CONTINUOUS
 62
    30
 10
122.0
 20
101.695186
 30
0.0
 40
5.0
  0
LINE
  5
97
  8
SIZE
  6
CONTINUOUS
 62
    30
 10
117.0
 20
101.695186
 30
0.0
 11
112.0
 21
101.695186
 31
0.0
  0
TEXT
  5
98
  8
SIZE
  6
CONTINUOUS
 62
    30
 10
104.928571
 20
121.695186
 30
0.0
 40
64.0
  1
103
 41
0.9
 72
     1
 11
173.5
 21
121.695186
 31
0.0
  0
POINT
  5
99
  8
DEFPOINTS
  6
CONTINUOUS
 62
     7
 10
225.0
 20
0.0
 30
0.0
  0
POINT
  5
9A
  8
DEFPOINTS
  6
CONTINUOUS
 62
     7
 10
122.0
 20
-57.927813
 30
0.0
  0
POINT
  5
9B
  8
DEFPOINTS
  6
CONTINUOUS
 62
     7
 10
122.0
 20
101.695186
 30
0.0
  0
LINE
  5
9C
  8
NOTE
  6
CONTINUOUS
 62
     4
 10
309.0
 20
-22.999651
 30
0.0
 11
269.0
 21
-22.999651
 31
0.0
  0
LINE
  5
9D
  8
NOTE
  6
CONTINUOUS
 62
     4
 10
289.0
 20
-2.999651
 30
0.0
 11
289.0
 21
-42.999651
 31
0.0
  0
LINE
  5
9E
  8
NOTE
  6
CONTINUOUS
 62
     4
 10
309.0
 20
-152.999457
 30
0.0
 11
269.0
 21
-152.999457
 31
0.0
  0
LINE
  5
9F
  8
NOTE
  6
CONTINUOUS
 62
     4
 10
289.0
 20
-132.999457
 30
0.0
 11
289.0
 21
-172.999457
 31
0.0
  0
LINE
  5
A0
  8
NOTE
  6
CONTINUOUS
 62
     4
 10
142.0
 20
-74.0
 30
0.0
 11
102.0
 21
-74.0
 31
0.0
  0
LINE
  5
A1
  8
NOTE
  6
CONTINUOUS
 62
     4
 10
122.0
 20
-54.072187
 30
0.0
 11
122.0
 21
-94.072187
 31
0.0
  0
LINE
  5
A2
  8
NOTE
  6
CONTINUOUS
 62
     4
 10
-88.0
 20
-260.0
 30
0.0
 11
-128.0
 21
-260.0
 31
0.0
  0
LINE
  5
A3
  8
NOTE
  6
CONTINUOUS
 62
     4
 10
-108.0
 20
-240.0
 30
0.0
 11
-108.0
 21
-280.0
 31
0.0
  0
LINE
  5
A4
  8
NOTE
  6
CONTINUOUS
 62
     4
 10
-23.0
 20
-128.0
 30
0.0
 11
-63.0
 21
-128.0
 31
0.0
  0
LINE
  5
A5
  8
NOTE
  6
CONTINUOUS
 62
     4
 10
-43.0
 20
-108.0
 30
0.0
 11
-43.0
 21
-148.0
 31
0.0
  0
TEXT
  5
A6
  8
ETC
  6
CONTINUOUS
 62
    61
 10
605.313928
 20
908.147558
 30
0.0
 40
64.0
  1
R2用分流コントローラ
 41
0.9
  0
TEXT
  5
A7
  8
ETC
  6
CONTINUOUS
 62
    61
 10
605.313928
 20
802.547558
 30
0.0
 40
64.0
  1
CMB-P1010GA_5
 41
0.9
  0
LINE
  5
A8
  8
DETAIL
  6
CONTINUOUS
 62
     5
 10
-225.0
 20
-13.0
 30
0.0
 11
-295.0
 21
-13.0
 31
0.0
  0
LINE
  5
A9
  8
DETAIL
  6
CONTINUOUS
 62
     5
 10
-225.0
 20
-276.0
 30
0.0
 11
-295.0
 21
-276.0
 31
0.0
  0
CIRCLE
  5
AA
  8
DETAIL
  6
CONTINUOUS
 62
     5
 10
-108.0
 20
-260.0
 30
0.0
 40
15.5
  0
LINE
  5
AB
  8
DETAIL
  6
CONTINUOUS
 62
     5
 10
289.0
 20
-160.939457
 30
0.0
 11
225.0
 21
-160.939457
 31
0.0
  0
LINE
  5
AC
  8
DETAIL
  6
CONTINUOUS
 62
     5
 10
289.0
 20
-145.059457
 30
0.0
 11
225.0
 21
-145.059457
 31
0.0
  0
LINE
  5
AD
  8
DETAIL
  6
CONTINUOUS
 62
     5
 10
289.0
 20
-160.939457
 30
0.0
 11
289.0
 21
-145.059457
 31
0.0
  0
LINE
  5
AE
  8
DETAIL
  6
CONTINUOUS
 62
     5
 10
289.0
 20
-27.759651
 30
0.0
 11
225.0
 21
-27.759651
 31
0.0
  0
LINE
  5
AF
  8
DETAIL
  6
CONTINUOUS
 62
     5
 10
289.0
 20
-18.239651
 30
0.0
 11
225.0
 21
-18.239651
 31
0.0
  0
LINE
  5
B0
  8
DETAIL
  6
CONTINUOUS
 62
     5
 10
289.0
 20
-27.759651
 30
0.0
 11
289.0
 21
-18.239651
 31
0.0
  0
LINE
  5
B1
  8
DETAIL
  6
CONTINUOUS
 62
     5
 10
-199.866722
 20
-27.0
 30
0.0
 11
-199.866722
 21
-36.042382
 31
0.0
  0
LINE
  5
B2
  8
DETAIL
  6
CONTINUOUS
 62
     5
 10
-187.870213
 20
-27.0
 30
0.0
 11
-187.870213
 21
-36.042382
 31
0.0
  0
LINE
  5
B3
  8
DETAIL
  6
CONTINUOUS
 62
     5
 10
187.870213
 20
-27.0
 30
0.0
 11
187.870213
 21
-36.042382
 31
0.0
  0
LINE
  5
B4
  8
DETAIL
  6
CONTINUOUS
 62
     5
 10
199.866722
 20
-27.0
 30
0.0
 11
199.866722
 21
-36.042382
 31
0.0
  0
LINE
  5
B5
  8
NOTE
  6
CONTINUOUS
 62
     4
 10
-174.0
 20
-47.094182
 30
0.0
 11
-214.0
 21
-47.094182
 31
0.0
  0
LINE
  5
B6
  8
NOTE
  6
CONTINUOUS
 62
     4
 10
-194.0
 20
-27.094182
 30
0.0
 11
-194.0
 21
-67.094182
 31
0.0
  0
LINE
  5
B7
  8
NOTE
  6
CONTINUOUS
 62
     4
 10
214.0
 20
-47.094182
 30
0.0
 11
174.0
 21
-47.094182
 31
0.0
  0
LINE
  5
B8
  8
NOTE
  6
CONTINUOUS
 62
     4
 10
194.0
 20
-27.094182
 30
0.0
 11
194.0
 21
-67.094182
 31
0.0
  0
CIRCLE
  5
B9
  8
ARRANGE
  6
CONTINUOUS
 62
     1
 10
0.0
 20
0.0
 30
0.0
 40
40.0
  0
POINT
  5
BA
  8
ARRANGE
  6
CONTINUOUS
 62
     1
 10
0.0
 20
0.0
 30
0.0
  0
LINE
  5
BB
  8
BASIS
  6
DASHDOT1
 62
     6
 10
0.0
 20
50.0
 30
0.0
 11
0.0
 21
-339.0
 31
0.0
  0
LINE
  5
BC
  8
SIZE
  6
CONTINUOUS
 62
    30
 10
-245.0
 20
0.0
 30
0.0
 11
-401.632709
 21
0.0
 31
0.0
  0
LINE
  5
BD
  8
SIZE
  6
CONTINUOUS
 62
    30
 10
-238.986195
 20
-27.0
 30
0.0
 11
-401.632709
 21
-27.0
 31
0.0
  0
LINE
  5
BE
  8
SIZE
  6
CONTINUOUS
 62
    30
 10
-371.632709
 20
10.0
 30
0.0
 11
-371.632709
 21
20.0
 31
0.0
  0
LINE
  5
BF
  8
SIZE
  6
CONTINUOUS
 62
    30
 10
-371.632709
 20
-37.0
 30
0.0
 11
-371.632709
 21
-47.0
 31
0.0
  0
LINE
  5
C0
  8
SIZE
  6
CONTINUOUS
 62
    30
 10
-371.632709
 20
0.0
 30
0.0
 11
-371.632709
 21
-27.0
 31
0.0
  0
CIRCLE
  5
C1
  8
SIZE
  6
CONTINUOUS
 62
    30
 10
-371.632709
 20
0.0
 30
0.0
 40
5.0
  0
LINE
  5
C2
  8
SIZE
  6
CONTINUOUS
 62
    30
 10
-371.632709
 20
5.0
 30
0.0
 11
-371.632709
 21
10.0
 31
0.0
  0
CIRCLE
  5
C3
  8
SIZE
  6
CONTINUOUS
 62
    30
 10
-371.632709
 20
-27.0
 30
0.0
 40
5.0
  0
LINE
  5
C4
  8
SIZE
  6
CONTINUOUS
 62
    30
 10
-371.632709
 20
-32.0
 30
0.0
 11
-371.632709
 21
-37.0
 31
0.0
  0
TEXT
  5
C5
  8
SIZE
  6
CONTINUOUS
 62
    30
 10
-391.632709
 20
-60.128571
 30
0.0
 40
64.0
  1
27
 50
90.0
 41
0.9
 72
     1
 11
-391.632709
 21
-13.5
 31
0.0
  0
POINT
  5
C6
  8
DEFPOINTS
  6
CONTINUOUS
 62
     7
 10
-225.0
 20
0.0
 30
0.0
  0
POINT
  5
C7
  8
DEFPOINTS
  6
CONTINUOUS
 62
     7
 10
-218.986195
 20
-27.0
 30
0.0
  0
POINT
  5
C8
  8
DEFPOINTS
  6
CONTINUOUS
 62
     7
 10
-371.632709
 20
-27.0
 30
0.0
  0
LINE
  5
C9
  8
SIZE
  6
CONTINUOUS
 62
    30
 10
-245.0
 20
0.0
 30
0.0
 11
-509.366935
 21
0.0
 31
0.0
  0
LINE
  5
CA
  8
SIZE
  6
CONTINUOUS
 62
    30
 10
102.0
 20
-74.0
 30
0.0
 11
-509.366935
 21
-74.0
 31
0.0
  0
LINE
  5
CB
  8
SIZE
  6
CONTINUOUS
 62
    30
 10
-479.366935
 20
10.0
 30
0.0
 11
-479.366935
 21
20.0
 31
0.0
  0
LINE
  5
CC
  8
SIZE
  6
CONTINUOUS
 62
    30
 10
-479.366935
 20
-84.0
 30
0.0
 11
-479.366935
 21
-94.0
 31
0.0
  0
LINE
  5
CD
  8
SIZE
  6
CONTINUOUS
 62
    30
 10
-479.366935
 20
0.0
 30
0.0
 11
-479.366935
 21
-74.0
 31
0.0
  0
CIRCLE
  5
CE
  8
SIZE
  6
CONTINUOUS
 62
    30
 10
-479.366935
 20
0.0
 30
0.0
 40
5.0
  0
LINE
  5
CF
  8
SIZE
  6
CONTINUOUS
 62
    30
 10
-479.366935
 20
5.0
 30
0.0
 11
-479.366935
 21
10.0
 31
0.0
  0
CIRCLE
  5
D0
  8
SIZE
  6
CONTINUOUS
 62
    30
 10
-479.366935
 20
-74.0
 30
0.0
 40
5.0
  0
LINE
  5
D1
  8
SIZE
  6
CONTINUOUS
 62
    30
 10
-479.366935
 20
-79.0
 30
0.0
 11
-479.366935
 21
-84.0
 31
0.0
  0
TEXT
  5
D2
  8
SIZE
  6
CONTINUOUS
 62
    30
 10
-499.366935
 20
-85.0
 30
0.0
 40
64.0
  1
74
 50
90.0
 41
0.9
 72
     1
 11
-499.366935
 21
-37.0
 31
0.0
  0
POINT
  5
D3
  8
DEFPOINTS
  6
CONTINUOUS
 62
     7
 10
-225.0
 20
0.0
 30
0.0
  0
POINT
  5
D4
  8
DEFPOINTS
  6
CONTINUOUS
 62
     7
 10
122.0
 20
-74.0
 30
0.0
  0
POINT
  5
D5
  8
DEFPOINTS
  6
CONTINUOUS
 62
     7
 10
-479.366935
 20
-74.0
 30
0.0
  0
LINE
  5
D6
  8
SIZE
  6
CONTINUOUS
 62
    30
 10
-245.0
 20
0.0
 30
0.0
 11
-632.512197
 21
0.0
 31
0.0
  0
LINE
  5
D7
  8
SIZE
  6
CONTINUOUS
 62
    30
 10
-63.0
 20
-128.0
 30
0.0
 11
-632.512197
 21
-128.0
 31
0.0
  0
LINE
  5
D8
  8
SIZE
  6
CONTINUOUS
 62
    30
 10
-602.512197
 20
10.0
 30
0.0
 11
-602.512197
 21
20.0
 31
0.0
  0
LINE
  5
D9
  8
SIZE
  6
CONTINUOUS
 62
    30
 10
-602.512197
 20
-138.0
 30
0.0
 11
-602.512197
 21
-148.0
 31
0.0
  0
LINE
  5
DA
  8
SIZE
  6
CONTINUOUS
 62
    30
 10
-602.512197
 20
0.0
 30
0.0
 11
-602.512197
 21
-128.0
 31
0.0
  0
CIRCLE
  5
DB
  8
SIZE
  6
CONTINUOUS
 62
    30
 10
-602.512197
 20
0.0
 30
0.0
 40
5.0
  0
LINE
  5
DC
  8
SIZE
  6
CONTINUOUS
 62
    30
 10
-602.512197
 20
5.0
 30
0.0
 11
-602.512197
 21
10.0
 31
0.0
  0
CIRCLE
  5
DD
  8
SIZE
  6
CONTINUOUS
 62
    30
 10
-602.512197
 20
-128.0
 30
0.0
 40
5.0
  0
LINE
  5
DE
  8
SIZE
  6
CONTINUOUS
 62
    30
 10
-602.512197
 20
-133.0
 30
0.0
 11
-602.512197
 21
-138.0
 31
0.0
  0
TEXT
  5
DF
  8
SIZE
  6
CONTINUOUS
 62
    30
 10
-622.512197
 20
-132.571429
 30
0.0
 40
64.0
  1
128
 50
90.0
 41
0.9
 72
     1
 11
-622.512197
 21
-64.0
 31
0.0
  0
POINT
  5
E0
  8
DEFPOINTS
  6
CONTINUOUS
 62
     7
 10
-225.0
 20
0.0
 30
0.0
  0
POINT
  5
E1
  8
DEFPOINTS
  6
CONTINUOUS
 62
     7
 10
-43.0
 20
-128.0
 30
0.0
  0
POINT
  5
E2
  8
DEFPOINTS
  6
CONTINUOUS
 62
     7
 10
-602.512197
 20
-128.0
 30
0.0
  0
LINE
  5
E3
  8
SIZE
  6
CONTINUOUS
 62
    30
 10
-245.0
 20
0.0
 30
0.0
 11
-732.95892
 21
0.0
 31
0.0
  0
LINE
  5
E4
  8
SIZE
  6
CONTINUOUS
 62
    30
 10
-128.0
 20
-260.0
 30
0.0
 11
-732.95892
 21
-260.0
 31
0.0
  0
LINE
  5
E5
  8
SIZE
  6
CONTINUOUS
 62
    30
 10
-702.95892
 20
-10.0
 30
0.0
 11
-702.95892
 21
-250.0
 31
0.0
  0
CIRCLE
  5
E6
  8
SIZE
  6
CONTINUOUS
 62
    30
 10
-702.95892
 20
0.0
 30
0.0
 40
5.0
  0
LINE
  5
E7
  8
SIZE
  6
CONTINUOUS
 62
    30
 10
-702.95892
 20
-5.0
 30
0.0
 11
-702.95892
 21
-10.0
 31
0.0
  0
CIRCLE
  5
E8
  8
SIZE
  6
CONTINUOUS
 62
    30
 10
-702.95892
 20
-260.0
 30
0.0
 40
5.0
  0
LINE
  5
E9
  8
SIZE
  6
CONTINUOUS
 62
    30
 10
-702.95892
 20
-255.0
 30
0.0
 11
-702.95892
 21
-250.0
 31
0.0
  0
TEXT
  5
EA
  8
SIZE
  6
CONTINUOUS
 62
    30
 10
-722.95892
 20
-204.057143
 30
0.0
 40
64.0
  1
260
 50
90.0
 41
0.9
 72
     1
 11
-722.95892
 21
-130.0
 31
0.0
  0
POINT
  5
EB
  8
DEFPOINTS
  6
CONTINUOUS
 62
     7
 10
-225.0
 20
0.0
 30
0.0
  0
POINT
  5
EC
  8
DEFPOINTS
  6
CONTINUOUS
 62
     7
 10
-108.0
 20
-260.0
 30
0.0
  0
POINT
  5
ED
  8
DEFPOINTS
  6
CONTINUOUS
 62
     7
 10
-702.95892
 20
-260.0
 30
0.0
  0
LINE
  5
EE
  8
SIZE
  6
CONTINUOUS
 62
    30
 10
-245.0
 20
0.0
 30
0.0
 11
-850.193468
 21
0.0
 31
0.0
  0
LINE
  5
EF
  8
SIZE
  6
CONTINUOUS
 62
    30
 10
-242.19
 20
-289.0
 30
0.0
 11
-850.193468
 21
-289.0
 31
0.0
  0
LINE
  5
F0
  8
SIZE
  6
CONTINUOUS
 62
    30
 10
-820.193468
 20
-10.0
 30
0.0
 11
-820.193468
 21
-279.0
 31
0.0
  0
CIRCLE
  5
F1
  8
SIZE
  6
CONTINUOUS
 62
    30
 10
-820.193468
 20
0.0
 30
0.0
 40
5.0
  0
LINE
  5
F2
  8
SIZE
  6
CONTINUOUS
 62
    30
 10
-820.193468
 20
-5.0
 30
0.0
 11
-820.193468
 21
-10.0
 31
0.0
  0
CIRCLE
  5
F3
  8
SIZE
  6
CONTINUOUS
 62
    30
 10
-820.193468
 20
-289.0
 30
0.0
 40
5.0
  0
LINE
  5
F4
  8
SIZE
  6
CONTINUOUS
 62
    30
 10
-820.193468
 20
-284.0
 30
0.0
 11
-820.193468
 21
-279.0
 31
0.0
  0
TEXT
  5
F5
  8
SIZE
  6
CONTINUOUS
 62
    30
 10
-840.193468
 20
-217.185714
 30
0.0
 40
64.0
  1
289
 50
90.0
 41
0.9
 72
     1
 11
-840.193468
 21
-144.5
 31
0.0
  0
POINT
  5
F6
  8
DEFPOINTS
  6
CONTINUOUS
 62
     7
 10
-225.0
 20
0.0
 30
0.0
  0
POINT
  5
F7
  8
DEFPOINTS
  6
CONTINUOUS
 62
     7
 10
-222.19
 20
-289.0
 30
0.0
  0
POINT
  5
F8
  8
DEFPOINTS
  6
CONTINUOUS
 62
     7
 10
-820.193468
 20
-289.0
 30
0.0
  0
LINE
  5
F9
  8
SIZE
  6
CONTINUOUS
 62
    30
 10
225.0
 20
20.0
 30
0.0
 11
225.0
 21
234.560451
 31
0.0
  0
LINE
  5
FA
  8
SIZE
  6
CONTINUOUS
 62
    30
 10
-43.0
 20
-88.0
 30
0.0
 11
-43.0
 21
234.560451
 31
0.0
  0
LINE
  5
FB
  8
SIZE
  6
CONTINUOUS
 62
    30
 10
215.0
 20
204.560451
 30
0.0
 11
-33.0
 21
204.560451
 31
0.0
  0
CIRCLE
  5
FC
  8
SIZE
  6
CONTINUOUS
 62
    30
 10
225.0
 20
204.560451
 30
0.0
 40
5.0
  0
LINE
  5
FD
  8
SIZE
  6
CONTINUOUS
 62
    30
 10
220.0
 20
204.560451
 30
0.0
 11
215.0
 21
204.560451
 31
0.0
  0
CIRCLE
  5
FE
  8
SIZE
  6
CONTINUOUS
 62
    30
 10
-43.0
 20
204.560451
 30
0.0
 40
5.0
  0
LINE
  5
FF
  8
SIZE
  6
CONTINUOUS
 62
    30
 10
-38.0
 20
204.560451
 30
0.0
 11
-33.0
 21
204.560451
 31
0.0
  0
TEXT
  5
100
  8
SIZE
  6
CONTINUOUS
 62
    30
 10
16.942857
 20
224.560451
 30
0.0
 40
64.0
  1
268
 41
0.9
 72
     1
 11
91.0
 21
224.560451
 31
0.0
  0
POINT
  5
101
  8
DEFPOINTS
  6
CONTINUOUS
 62
     7
 10
225.0
 20
0.0
 30
0.0
  0
POINT
  5
102
  8
DEFPOINTS
  6
CONTINUOUS
 62
     7
 10
-43.0
 20
-108.0
 30
0.0
  0
POINT
  5
103
  8
DEFPOINTS
  6
CONTINUOUS
 62
     7
 10
-43.0
 20
204.560451
 30
0.0
  0
LINE
  5
104
  8
SIZE
  6
CONTINUOUS
 62
    30
 10
194.0
 20
-27.094182
 30
0.0
 11
194.0
 21
332.585917
 31
0.0
  0
LINE
  5
105
  8
SIZE
  6
CONTINUOUS
 62
    30
 10
-194.0
 20
-27.094182
 30
0.0
 11
-194.0
 21
332.585917
 31
0.0
  0
LINE
  5
106
  8
SIZE
  6
CONTINUOUS
 62
    30
 10
184.0
 20
302.585917
 30
0.0
 11
-184.0
 21
302.585917
 31
0.0
  0
CIRCLE
  5
107
  8
SIZE
  6
CONTINUOUS
 62
    30
 10
194.0
 20
302.585917
 30
0.0
 40
5.0
  0
LINE
  5
108
  8
SIZE
  6
CONTINUOUS
 62
    30
 10
189.0
 20
302.585917
 30
0.0
 11
184.0
 21
302.585917
 31
0.0
  0
CIRCLE
  5
109
  8
SIZE
  6
CONTINUOUS
 62
    30
 10
-194.0
 20
302.585917
 30
0.0
 40
5.0
  0
LINE
  5
10A
  8
SIZE
  6
CONTINUOUS
 62
    30
 10
-189.0
 20
302.585917
 30
0.0
 11
-184.0
 21
302.585917
 31
0.0
  0
TEXT
  5
10B
  8
SIZE
  6
CONTINUOUS
 62
    30
 10
-182.402865
 20
322.585917
 30
0.0
 40
64.0
  1
388
 41
0.9
 72
     1
 11
-108.345722
 21
322.585917
 31
0.0
  0
POINT
  5
10C
  8
DEFPOINTS
  6
CONTINUOUS
 62
     7
 10
194.0
 20
-47.094182
 30
0.0
  0
POINT
  5
10D
  8
DEFPOINTS
  6
CONTINUOUS
 62
     7
 10
-194.0
 20
-47.094182
 30
0.0
  0
POINT
  5
10E
  8
DEFPOINTS
  6
CONTINUOUS
 62
     7
 10
-194.0
 20
302.585917
 30
0.0
  0
LINE
  5
10F
  8
SIZE
  6
CONTINUOUS
 62
    30
 10
225.0
 20
20.0
 30
0.0
 11
225.0
 21
447.724201
 31
0.0
  0
LINE
  5
110
  8
SIZE
  6
CONTINUOUS
 62
    30
 10
-225.0
 20
20.0
 30
0.0
 11
-225.0
 21
447.724201
 31
0.0
  0
LINE
  5
111
  8
SIZE
  6
CONTINUOUS
 62
    30
 10
215.0
 20
417.724201
 30
0.0
 11
-215.0
 21
417.724201
 31
0.0
  0
CIRCLE
  5
112
  8
SIZE
  6
CONTINUOUS
 62
    30
 10
225.0
 20
417.724201
 30
0.0
 40
5.0
  0
LINE
  5
113
  8
SIZE
  6
CONTINUOUS
 62
    30
 10
220.0
 20
417.724201
 30
0.0
 11
215.0
 21
417.724201
 31
0.0
  0
CIRCLE
  5
114
  8
SIZE
  6
CONTINUOUS
 62
    30
 10
-225.0
 20
417.724201
 30
0.0
 40
5.0
  0
LINE
  5
115
  8
SIZE
  6
CONTINUOUS
 62
    30
 10
-220.0
 20
417.724201
 30
0.0
 11
-215.0
 21
417.724201
 31
0.0
  0
TEXT
  5
116
  8
SIZE
  6
CONTINUOUS
 62
    30
 10
-74.057143
 20
437.724201
 30
0.0
 40
64.0
  1
450
 41
0.9
 72
     1
 11
0.0
 21
437.724201
 31
0.0
  0
POINT
  5
117
  8
DEFPOINTS
  6
CONTINUOUS
 62
     7
 10
225.0
 20
0.0
 30
0.0
  0
POINT
  5
118
  8
DEFPOINTS
  6
CONTINUOUS
 62
     7
 10
-225.0
 20
0.0
 30
0.0
  0
POINT
  5
119
  8
DEFPOINTS
  6
CONTINUOUS
 62
     7
 10
-225.0
 20
417.724201
 30
0.0
  0
LINE
  5
11A
  8
SIZE
  6
CONTINUOUS
 62
    30
 10
-295.0
 20
9.5
 30
0.0
 11
-295.0
 21
449.669157
 31
0.0
  0
LINE
  5
11B
  8
SIZE
  6
CONTINUOUS
 62
    30
 10
-225.0
 20
9.5
 30
0.0
 11
-225.0
 21
449.669157
 31
0.0
  0
LINE
  5
11C
  8
SIZE
  6
CONTINUOUS
 62
    30
 10
-285.0
 20
419.669157
 30
0.0
 11
-235.0
 21
419.669157
 31
0.0
  0
CIRCLE
  5
11D
  8
SIZE
  6
CONTINUOUS
 62
    30
 10
-295.0
 20
419.669157
 30
0.0
 40
5.0
  0
LINE
  5
11E
  8
SIZE
  6
CONTINUOUS
 62
    30
 10
-290.0
 20
419.669157
 30
0.0
 11
-285.0
 21
419.669157
 31
0.0
  0
CIRCLE
  5
11F
  8
SIZE
  6
CONTINUOUS
 62
    30
 10
-225.0
 20
419.669157
 30
0.0
 40
5.0
  0
LINE
  5
120
  8
SIZE
  6
CONTINUOUS
 62
    30
 10
-230.0
 20
419.669157
 30
0.0
 11
-235.0
 21
419.669157
 31
0.0
  0
TEXT
  5
121
  8
SIZE
  6
CONTINUOUS
 62
    30
 10
-306.628571
 20
439.669157
 30
0.0
 40
64.0
  1
70
 41
0.9
 72
     1
 11
-260.0
 21
439.669157
 31
0.0
  0
POINT
  5
122
  8
DEFPOINTS
  6
CONTINUOUS
 62
     7
 10
-295.0
 20
-10.5
 30
0.0
  0
POINT
  5
123
  8
DEFPOINTS
  6
CONTINUOUS
 62
     7
 10
-225.0
 20
-10.5
 30
0.0
  0
POINT
  5
124
  8
DEFPOINTS
  6
CONTINUOUS
 62
     7
 10
-225.0
 20
419.669157
 30
0.0
  0
LINE
  5
125
  8
SIZE
  6
CONTINUOUS
 62
    30
 10
225.0
 20
-309.0
 30
0.0
 11
225.0
 21
-414.578083
 31
0.0
  0
LINE
  5
126
  8
SIZE
  6
CONTINUOUS
 62
    30
 10
-108.0
 20
-300.0
 30
0.0
 11
-108.0
 21
-414.578083
 31
0.0
  0
LINE
  5
127
  8
SIZE
  6
CONTINUOUS
 62
    30
 10
215.0
 20
-384.578083
 30
0.0
 11
-98.0
 21
-384.578083
 31
0.0
  0
CIRCLE
  5
128
  8
SIZE
  6
CONTINUOUS
 62
    30
 10
225.0
 20
-384.578083
 30
0.0
 40
5.0
  0
LINE
  5
129
  8
SIZE
  6
CONTINUOUS
 62
    30
 10
220.0
 20
-384.578083
 30
0.0
 11
215.0
 21
-384.578083
 31
0.0
  0
CIRCLE
  5
12A
  8
SIZE
  6
CONTINUOUS
 62
    30
 10
-108.0
 20
-384.578083
 30
0.0
 40
5.0
  0
LINE
  5
12B
  8
SIZE
  6
CONTINUOUS
 62
    30
 10
-103.0
 20
-384.578083
 30
0.0
 11
-98.0
 21
-384.578083
 31
0.0
  0
TEXT
  5
12C
  8
SIZE
  6
CONTINUOUS
 62
    30
 10
-15.557143
 20
-364.578083
 30
0.0
 40
64.0
  1
333
 41
0.9
 72
     1
 11
58.5
 21
-364.578083
 31
0.0
  0
POINT
  5
12D
  8
DEFPOINTS
  6
CONTINUOUS
 62
     7
 10
225.0
 20
-289.0
 30
0.0
  0
POINT
  5
12E
  8
DEFPOINTS
  6
CONTINUOUS
 62
     7
 10
-108.0
 20
-280.0
 30
0.0
  0
POINT
  5
12F
  8
DEFPOINTS
  6
CONTINUOUS
 62
     7
 10
-108.0
 20
-384.578083
 30
0.0
  0
LINE
  5
130
  8
OUTLINE
  6
CONTINUOUS
 62
     3
 10
225.0
 20
-289.0
 30
0.0
 11
225.0
 21
0.0
 31
0.0
  0
LINE
  5
131
  8
OUTLINE
  6
CONTINUOUS
 62
     3
 10
225.0
 20
0.0
 30
0.0
 11
-225.0
 21
0.0
 31
0.0
  0
LINE
  5
132
  8
OUTLINE
  6
CONTINUOUS
 62
     3
 10
-225.0
 20
-289.0
 30
0.0
 11
225.0
 21
-289.0
 31
0.0
  0
LINE
  5
133
  8
SIZE
  6
CONTINUOUS
 62
    30
 10
289.0
 20
-132.999457
 30
0.0
 11
289.0
 21
-100.619315
 31
0.0
  0
LINE
  5
134
  8
SIZE
  6
CONTINUOUS
 62
    30
 10
225.0
 20
-125.059457
 30
0.0
 11
225.0
 21
-100.619315
 31
0.0
  0
LINE
  5
135
  8
SIZE
  6
CONTINUOUS
 62
    30
 10
299.0
 20
-130.619315
 30
0.0
 11
309.0
 21
-130.619315
 31
0.0
  0
LINE
  5
136
  8
SIZE
  6
CONTINUOUS
 62
    30
 10
215.0
 20
-130.619315
 30
0.0
 11
205.0
 21
-130.619315
 31
0.0
  0
LINE
  5
137
  8
SIZE
  6
CONTINUOUS
 62
    30
 10
289.0
 20
-130.619315
 30
0.0
 11
225.0
 21
-130.619315
 31
0.0
  0
CIRCLE
  5
138
  8
SIZE
  6
CONTINUOUS
 62
    30
 10
289.0
 20
-130.619315
 30
0.0
 40
5.0
  0
LINE
  5
139
  8
SIZE
  6
CONTINUOUS
 62
    30
 10
294.0
 20
-130.619315
 30
0.0
 11
299.0
 21
-130.619315
 31
0.0
  0
CIRCLE
  5
13A
  8
SIZE
  6
CONTINUOUS
 62
    30
 10
225.0
 20
-130.619315
 30
0.0
 40
5.0
  0
LINE
  5
13B
  8
SIZE
  6
CONTINUOUS
 62
    30
 10
220.0
 20
-130.619315
 30
0.0
 11
215.0
 21
-130.619315
 31
0.0
  0
TEXT
  5
13C
  8
SIZE
  6
CONTINUOUS
 62
    30
 10
209.0
 20
-110.619315
 30
0.0
 40
64.0
  1
64
 41
0.9
 72
     1
 11
257.0
 21
-110.619315
 31
0.0
  0
POINT
  5
13D
  8
DEFPOINTS
  6
CONTINUOUS
 62
     7
 10
289.0
 20
-152.999457
 30
0.0
  0
POINT
  5
13E
  8
DEFPOINTS
  6
CONTINUOUS
 62
     7
 10
225.0
 20
-145.059457
 30
0.0
  0
POINT
  5
13F
  8
DEFPOINTS
  6
CONTINUOUS
 62
     7
 10
225.0
 20
-130.619315
 30
0.0
  0
TEXT
  5
140
  8
NOTE
  6
CONTINUOUS
 62
     4
 10
383.414684
 20
-557.733448
 30
0.0
 40
64.0
  1
D　VP-25（オス）
 41
0.9
 72
     2
 11
1034.020398
 21
-557.733448
 31
0.0
  0
TEXT
  5
141
  8
NOTE
  6
CONTINUOUS
 62
     4
 10
600.268362
 20
-293.946709
 30
0.0
 40
64.0
  1
室内ユニット側配管接続口（ガス）
 41
0.9
 72
     2
 11
1660.108362
 21
-293.946709
 31
0.0
  0
TEXT
  5
142
  8
NOTE
  6
CONTINUOUS
 62
     4
 10
707.283936
 20
-393.326768
 30
0.0
 40
50.0
  1
φ15.88〈フレア〉
 41
0.9
  0
TEXT
  5
143
  8
NOTE
  6
CONTINUOUS
 62
     4
 10
609.554909
 20
149.409107
 30
0.0
 40
64.0
  1
室内ユニット側配管接続口（液）
 41
0.9
 72
     2
 11
1600.274909
 21
149.409107
 31
0.0
  0
TEXT
  5
144
  8
NOTE
  6
CONTINUOUS
 62
     4
 10
744.431368
 20
52.932227
 30
0.0
 40
50.0
  1
φ9.52〈フレア〉
 41
0.9
  0
TEXT
  5
145
  8
NOTE
  6
CONTINUOUS
 62
     4
 10
549.256515
 20
572.295476
 30
0.0
 40
64.0
  1
室外ユニット側配管接続口（低圧）
 41
0.9
  0
TEXT
  5
146
  8
NOTE
  6
CONTINUOUS
 62
     4
 10
658.277623
 20
469.193352
 30
0.0
 40
50.0
  1
280,335形：φ22.2〈ロウ付〉（付属配管を使用）
 41
0.9
  0
TEXT
  5
147
  8
NOTE
  6
CONTINUOUS
 62
     4
 10
503.256273
 20
332.530519
 30
0.0
 40
50.0
  1
450.500.560
 41
0.9
  0
TEXT
  5
148
  8
NOTE
  6
CONTINUOUS
 62
     4
 10
507.083953
 20
259.859157
 30
0.0
 40
50.0
  1
630.674.730形：φ28.58〈ロウ付〉
 41
0.9
  0
TEXT
  5
149
  8
NOTE
  6
CONTINUOUS
 62
     4
 10
-1534.91617
 20
-391.76286
 30
0.0
 40
64.0
  1
室外ユニット側配管接続口（高圧）
 41
0.9
  0
TEXT
  5
14A
  8
NOTE
  6
CONTINUOUS
 62
     4
 10
-1573.66562
 20
-474.558523
 30
0.0
 40
50.0
  1
280,335,400形：φ19.05〈ロウ付〉（付属配管を使用）
 41
0.9
  0
TEXT
  5
14B
  8
NOTE
  6
CONTINUOUS
 62
     4
 10
-1570.764872
 20
-545.587646
 30
0.0
 40
50.0
  1
450.500.560形：φ22.2〈ロウ付〉
 41
0.9
  0
TEXT
  5
14C
  8
NOTE
  6
CONTINUOUS
 62
     4
 10
-1565.63222
 20
-617.542664
 30
0.0
 40
50.0
  1
630.674.730形：φ25.4〈ロウ付〉（付属配管を使用）
 41
0.9
  0
TEXT
  5
14D
  8
NOTE
  6
CONTINUOUS
 62
     4
 10
-1086.157126
 20
194.181903
 30
0.0
 40
64.0
  1
AH4-12×14長穴
 41
0.9
  0
LINE
  5
14E
  8
NOTE
  6
CONTINUOUS
 62
     4
 10
-199.678749
 20
-38.437885
 30
0.0
 11
-194.0
 21
-47.094182
 31
0.0
  0
LINE
  5
14F
  8
NOTE
  6
CONTINUOUS
 62
     4
 10
-194.0
 20
-47.094182
 30
0.0
 11
-203.24609
 21
-42.436983
 31
0.0
  0
LINE
  5
150
  8
NOTE
  6
CONTINUOUS
 62
     4
 10
-52.704131
 20
-131.606871
 30
0.0
 11
-43.0
 21
-128.0
 31
0.0
  0
LINE
  5
151
  8
NOTE
  6
CONTINUOUS
 62
     4
 10
-43.0
 20
-128.0
 30
0.0
 11
-49.600589
 21
-135.975707
 31
0.0
  0
LINE
  5
152
  8
NOTE
  6
CONTINUOUS
 62
     4
 10
125.49304
 20
-64.254316
 30
0.0
 11
122.0
 21
-74.0
 31
0.0
  0
LINE
  5
153
  8
NOTE
  6
CONTINUOUS
 62
     4
 10
122.0
 20
-74.0
 30
0.0
 11
129.897903
 21
-67.30651
 31
0.0
  0
LINE
  5
154
  8
NOTE
  6
CONTINUOUS
 62
     4
 10
-101.565668
 20
-268.110428
 30
0.0
 11
-108.0
 21
-260.0
 31
0.0
  0
LINE
  5
155
  8
NOTE
  6
CONTINUOUS
 62
     4
 10
-108.0
 20
-260.0
 30
0.0
 11
-98.372491
 21
-263.806671
 31
0.0
  0
LINE
  5
156
  8
NOTE
  6
CONTINUOUS
 62
     4
 10
296.42598
 20
-15.786157
 30
0.0
 11
289.0
 21
-22.999651
 31
0.0
  0
LINE
  5
157
  8
NOTE
  6
CONTINUOUS
 62
     4
 10
289.0
 20
-22.999651
 30
0.0
 11
299.037834
 21
-20.465572
 31
0.0
  0
LINE
  5
158
  8
NOTE
  6
CONTINUOUS
 62
     4
 10
298.89693
 20
-156.037625
 30
0.0
 11
289.0
 21
-152.999457
 31
0.0
  0
LINE
  5
159
  8
NOTE
  6
CONTINUOUS
 62
     4
 10
289.0
 20
-152.999457
 30
0.0
 11
296.051909
 21
-160.579052
 31
0.0
  0
TEXT
  5
15A
  8
SIZE
  6
CONTINUOUS
 62
    30
 10
1.120404
 20
327.668309
 30
0.0
 40
35.0
  1
（吊りボルトピッチ）
 41
0.9
  0
LINE
  5
15B
  8
OUTLINE
  6
CONTINUOUS
 62
     3
 10
-225.0
 20
0.0
 30
0.0
 11
-225.0
 21
-13.0
 31
0.0
  0
LINE
  5
15C
  8
OUTLINE
  6
CONTINUOUS
 62
     3
 10
-225.0
 20
-13.0
 30
0.0
 11
-295.0
 21
-13.0
 31
0.0
  0
LINE
  5
15D
  8
OUTLINE
  6
CONTINUOUS
 62
     3
 10
-295.0
 20
-13.0
 30
0.0
 11
-295.0
 21
-276.0
 31
0.0
  0
LINE
  5
15E
  8
OUTLINE
  6
CONTINUOUS
 62
     3
 10
-295.0
 20
-276.0
 30
0.0
 11
-225.0
 21
-276.0
 31
0.0
  0
LINE
  5
15F
  8
OUTLINE
  6
CONTINUOUS
 62
     3
 10
-225.0
 20
-276.0
 30
0.0
 11
-225.0
 21
-289.0
 31
0.0
  0
LINE
  5
160
  8
NOTE
  6
CONTINUOUS
 62
     4
 10
-43.0
 20
-128.0
 30
0.0
 11
-427.305166
 21
-401.003425
 31
0.0
  0
LINE
  5
161
  8
NOTE
  6
CONTINUOUS
 62
     4
 10
-427.305166
 20
-401.003425
 30
0.0
 11
-1586.213855
 21
-401.003425
 31
0.0
  0
LINE
  5
162
  8
NOTE
  6
CONTINUOUS
 62
     4
 10
-108.0
 20
-260.0
 30
0.0
 11
336.325632
 21
-589.667864
 31
0.0
  0
LINE
  5
163
  8
NOTE
  6
CONTINUOUS
 62
     4
 10
336.325632
 20
-589.667864
 30
0.0
 11
1024.220224
 21
-589.667864
 31
0.0
  0
LINE
  5
164
  8
NOTE
  6
CONTINUOUS
 62
     4
 10
1024.220224
 20
-589.667864
 30
0.0
 11
1044.220224
 21
-589.667864
 31
0.0
  0
LINE
  5
165
  8
NOTE
  6
CONTINUOUS
 62
     4
 10
122.0
 20
-74.0
 30
0.0
 11
547.439056
 21
539.984862
 31
0.0
  0
LINE
  5
166
  8
NOTE
  6
CONTINUOUS
 62
     4
 10
547.439056
 20
539.984862
 30
0.0
 11
1923.193501
 21
539.984862
 31
0.0
  0
LINE
  5
167
  8
NOTE
  6
CONTINUOUS
 62
     4
 10
-194.0
 20
-47.094182
 30
0.0
 11
-428.788527
 21
162.34569
 31
0.0
  0
LINE
  5
168
  8
NOTE
  6
CONTINUOUS
 62
     4
 10
-428.788527
 20
162.34569
 30
0.0
 11
-1101.534715
 21
162.34569
 31
0.0
  0
LINE
  5
169
  8
NOTE
  6
CONTINUOUS
 62
     4
 10
289.0
 20
-152.999457
 30
0.0
 11
554.640846
 21
-319.412717
 31
0.0
  0
LINE
  5
16A
  8
NOTE
  6
CONTINUOUS
 62
     4
 10
554.640846
 20
-319.412717
 30
0.0
 11
1640.138881
 21
-319.412717
 31
0.0
  0
LINE
  5
16B
  8
NOTE
  6
CONTINUOUS
 62
     4
 10
1640.138881
 20
-319.412717
 30
0.0
 11
1660.138881
 21
-319.412717
 31
0.0
  0
LINE
  5
16C
  8
NOTE
  6
CONTINUOUS
 62
     4
 10
289.0
 20
-22.999651
 30
0.0
 11
554.489798
 21
125.185685
 31
0.0
  0
LINE
  5
16D
  8
NOTE
  6
CONTINUOUS
 62
     4
 10
554.489798
 20
125.185685
 30
0.0
 11
1610.486384
 21
125.185685
 31
0.0
  0
CIRCLE
  5
16E
  8
DETAIL
  6
CONTINUOUS
 62
     5
 10
-43.0
 20
-128.0
 30
0.0
 40
12.7
  0
CIRCLE
  5
16F
  8
DETAIL
  6
CONTINUOUS
 62
     5
 10
122.0
 20
-74.0
 30
0.0
 40
14.29
  0
TEXT
  5
21A
  8
NOTE
  6
CONTINUOUS
 62
     4
 10
805.643569
 20
405.201873
 30
0.0
 40
50.0
  1
400形：φ25.4〈ロウ付〉（付属配管を使用）
 41
0.9
  0
ENDSEC
  0
EOF
