  0
SECTION
  2
HEADER
  9
$ACADVER
  1
AC1009
  9
$INSBASE
 10
0.0
 20
0.0
 30
0.0
  9
$EXTMIN
 10
-2438.893165
 20
-931.962129
 30
-0.001526
  9
$EXTMAX
 10
2751.449199
 20
957.407363
 30
0.0
  9
$LIMMIN
 10
-3837.000175
 20
-3000.109539
  9
$LIMMAX
 10
7319.256881
 20
4045.223003
  9
$ORTHOMODE
 70
     1
  9
$REGENMODE
 70
     1
  9
$FILLMODE
 70
     1
  9
$QTEXTMODE
 70
     0
  9
$MIRRTEXT
 70
     0
  9
$DRAGMODE
 70
     2
  9
$LTSCALE
 40
20.0
  9
$OSMODE
 70
    37
  9
$ATTMODE
 70
     1
  9
$TEXTSIZE
 40
64.0
  9
$TRACEWID
 40
0.05
  9
$TEXTSTYLE
  7
STANDARD
  9
$CLAYER
  8
SIZE
  9
$CELTYPE
  6
CONTINUOUS
  9
$CECOLOR
 62
     7
  9
$DIMSCALE
 40
1.0
  9
$DIMASZ
 40
10.0
  9
$DIMEXO
 40
20.0
  9
$DIMDLI
 40
200.0
  9
$DIMRND
 40
0.0
  9
$DIMDLE
 40
0.0
  9
$DIMEXE
 40
30.0
  9
$DIMTP
 40
0.0
  9
$DIMTM
 40
0.0
  9
$DIMTXT
 40
64.0
  9
$DIMCEN
 40
0.0
  9
$DIMTSZ
 40
0.0
  9
$DIMTOL
 70
     0
  9
$DIMLIM
 70
     0
  9
$DIMTIH
 70
     0
  9
$DIMTOH
 70
     0
  9
$DIMSE1
 70
     0
  9
$DIMSE2
 70
     0
  9
$DIMTAD
 70
     1
  9
$DIMZIN
 70
     8
  9
$DIMBLK
  1

  9
$DIMASO
 70
     1
  9
$DIMSHO
 70
     0
  9
$DIMPOST
  1

  9
$DIMAPOST
  1

  9
$DIMALT
 70
     0
  9
$DIMALTD
 70
     2
  9
$DIMALTF
 40
25.4
  9
$DIMLFAC
 40
1.0
  9
$DIMTOFL
 70
     1
  9
$DIMTVP
 40
0.0
  9
$DIMTIX
 70
     1
  9
$DIMSOXD
 70
     0
  9
$DIMSAH
 70
     1
  9
$DIMBLK1
  1
_DOTBLANK
  9
$DIMBLK2
  1
_DOTBLANK
  9
$DIMSTYLE
  2
STANDARD
  9
$DIMCLRD
 70
     0
  9
$DIMCLRE
 70
     0
  9
$DIMCLRT
 70
     0
  9
$DIMTFAC
 40
1.0
  9
$DIMGAP
 40
0.09
  9
$LUNITS
 70
     2
  9
$LUPREC
 70
     4
  9
$SKETCHINC
 40
0.1
  9
$FILLETRAD
 40
10.0
  9
$AUNITS
 70
     1
  9
$AUPREC
 70
     3
  9
$MENU
  1
ACAD
  9
$ELEVATION
 40
0.0
  9
$PELEVATION
 40
0.0
  9
$THICKNESS
 40
0.0
  9
$LIMCHECK
 70
     0
  9
$BLIPMODE
 70
     0
  9
$CHAMFERA
 40
0.0
  9
$CHAMFERB
 40
0.0
  9
$SKPOLY
 70
     0
  9
$TDCREATE
 40
2450330.439931
  9
$TDUPDATE
 40
2453088.726321
  9
$TDINDWG
 40
1.386266
  9
$TDUSRTIMER
 40
1.386266
  9
$USRTIMER
 70
     1
  9
$ANGBASE
 50
0.0
  9
$ANGDIR
 70
     0
  9
$PDMODE
 70
     3
  9
$PDSIZE
 40
-2.0
  9
$PLINEWID
 40
0.0
  9
$COORDS
 70
     1
  9
$SPLFRAME
 70
     0
  9
$SPLINETYPE
 70
     6
  9
$SPLINESEGS
 70
     8
  9
$ATTDIA
 70
     0
  9
$ATTREQ
 70
     1
  9
$HANDLING
 70
     1
  9
$HANDSEED
  5
360
  9
$SURFTAB1
 70
     6
  9
$SURFTAB2
 70
     6
  9
$SURFTYPE
 70
     6
  9
$SURFU
 70
     6
  9
$SURFV
 70
     6
  9
$UCSNAME
  2

  9
$UCSORG
 10
0.0
 20
0.0
 30
0.0
  9
$UCSXDIR
 10
1.0
 20
0.0
 30
0.0
  9
$UCSYDIR
 10
0.0
 20
1.0
 30
0.0
  9
$PUCSNAME
  2

  9
$PUCSORG
 10
0.0
 20
0.0
 30
0.0
  9
$PUCSXDIR
 10
1.0
 20
0.0
 30
0.0
  9
$PUCSYDIR
 10
0.0
 20
1.0
 30
0.0
  9
$USERI1
 70
     0
  9
$USERI2
 70
     0
  9
$USERI3
 70
     0
  9
$USERI4
 70
     0
  9
$USERI5
 70
     0
  9
$USERR1
 40
20.0
  9
$USERR2
 40
0.0
  9
$USERR3
 40
0.0
  9
$USERR4
 40
0.0
  9
$USERR5
 40
0.0
  9
$WORLDVIEW
 70
     1
  9
$SHADEDGE
 70
     3
  9
$SHADEDIF
 70
    70
  9
$TILEMODE
 70
     1
  9
$MAXACTVP
 70
    48
  9
$PLIMCHECK
 70
     0
  9
$PEXTMIN
 10
1.000000E+020
 20
1.000000E+020
 30
1.000000E+020
  9
$PEXTMAX
 10
-1.000000E+020
 20
-1.000000E+020
 30
-1.000000E+020
  9
$PLIMMIN
 10
0.0
 20
0.0
  9
$PLIMMAX
 10
12.0
 20
9.0
  9
$UNITMODE
 70
     0
  9
$VISRETAIN
 70
     1
  9
$PLINEGEN
 70
     0
  9
$PSLTSCALE
 70
     1
  0
ENDSEC
  0
SECTION
  2
TABLES
  0
TABLE
  2
VPORT
 70
     8
  0
VPORT
  2
*ACTIVE
 70
     0
 10
0.0
 20
0.0
 11
1.0
 21
1.0
 12
2242.440002
 22
522.556732
 13
0.0
 23
0.0
 14
50.0
 24
50.0
 15
100.0
 25
100.0
 16
0.0
 26
0.0
 36
1.0
 17
0.0
 27
0.0
 37
0.0
 40
7045.332542
 41
1.725806
 42
50.0
 43
0.0
 44
0.0
 50
0.0
 51
0.0
 71
     0
 72
  1000
 73
     1
 74
     0
 75
     0
 76
     0
 77
     0
 78
     0
  0
ENDTAB
  0
TABLE
  2
LTYPE
 70
     2
  0
LTYPE
  2
CONTINUOUS
 70
     0
  3
実線
 72
    65
 73
     0
 40
0.0
  0
LTYPE
  2
DASHDOT
 70
     0
  3
____ _ ____ _ ____ _ ____ _ ____ _ ____ _ ____
 72
    65
 73
     4
 40
5.5
 49
4.0
 49
-0.6
 49
0.3
 49
-0.6
  0
ENDTAB
  0
TABLE
  2
LAYER
 70
    12
  0
LAYER
  2
0
 70
     0
 62
     7
  6
CONTINUOUS
  0
LAYER
  2
SIZE
 70
     0
 62
    30
  6
CONTINUOUS
  0
LAYER
  2
OUTLINE
 70
     0
 62
     3
  6
CONTINUOUS
  0
LAYER
  2
DETAIL
 70
     0
 62
     5
  6
CONTINUOUS
  0
LAYER
  2
BASIS
 70
     0
 62
     6
  6
DASHDOT
  0
LAYER
  2
NOTE
 70
     0
 62
     4
  6
CONTINUOUS
  0
LAYER
  2
ARRANGE
 70
     0
 62
     1
  6
CONTINUOUS
  0
LAYER
  2
FIX
 70
     0
 62
    11
  6
CONTINUOUS
  0
LAYER
  2
SERVICESPACE
 70
     0
 62
     2
  6
DASHDOT
  0
LAYER
  2
ETC
 70
     0
 62
    61
  6
CONTINUOUS
  0
LAYER
  2
SYMBOLLINE
 70
     0
 62
    15
  6
CONTINUOUS
  0
LAYER
  2
DEFPOINTS
 70
     0
 62
     7
  6
CONTINUOUS
  0
ENDTAB
  0
TABLE
  2
STYLE
 70
     1
  0
STYLE
  2
STANDARD
 70
     0
 40
0.0
 41
0.9
 50
0.0
 71
     0
 42
64.0
  3
SIMPLEX
  4
BIGFONT
  0
ENDTAB
  0
TABLE
  2
VIEW
 70
     1
  0
VIEW
  2
ALL
 70
     0
 40
9000.0
 10
241.506647
 20
0.0
 41
12483.01
 11
0.0
 21
0.0
 31
1.0
 12
0.0
 22
0.0
 32
0.0
 42
50.0
 43
0.0
 44
0.0
 50
0.0
 71
     0
  0
ENDTAB
  0
TABLE
  2
UCS
 70
     0
  0
ENDTAB
  0
TABLE
  2
APPID
 70
     1
  0
APPID
  2
ACAD
 70
     0
  0
ENDTAB
  0
TABLE
  2
DIMSTYLE
 70
     1
  0
DIMSTYLE
  2
STANDARD
 70
     0
  3

  4

  5

  6

  7

 40
1.0
 41
0.18
 42
0.0625
 43
0.38
 44
0.18
 45
0.0
 46
0.0
 47
0.0
 48
0.0
140
0.18
141
0.09
142
0.0
143
25.4
144
1.0
145
0.0
146
1.0
147
0.09
 71
     0
 72
     0
 73
     1
 74
     1
 75
     0
 76
     0
 77
     0
 78
     0
170
     0
171
     2
172
     0
173
     0
174
     0
175
     0
176
     0
177
     0
178
     0
  0
ENDTAB
  0
ENDSEC
  0
SECTION
  2
BLOCKS
  0
BLOCK
  8
0
  2
$MODEL_SPACE
 70
     0
 10
0.0
 20
0.0
 30
0.0
  3
$MODEL_SPACE
  1

  0
ENDBLK
  5
326
  8
0
  0
BLOCK
 67
     1
  8
0
  2
$PAPER_SPACE
 70
     0
 10
0.0
 20
0.0
 30
0.0
  3
$PAPER_SPACE
  1

  0
ENDBLK
  5
323
 67
     1
  8
0
  0
BLOCK
  8
0
  2
_DOTBLANK
 70
     0
 10
0.0
 20
0.0
 30
0.0
  3
_DOTBLANK
  1

  0
CIRCLE
  5
30
  8
0
  6
CONTINUOUS
 62
     7
 10
0.0
 20
0.0
 30
0.0
 40
0.5
  0
LINE
  5
31
  8
0
  6
CONTINUOUS
 62
     7
 10
-0.5
 20
0.0
 30
0.0
 11
-1.0
 21
0.0
 31
0.0
  0
ENDBLK
  5
32
  8
0
  0
BLOCK
  8
0
 62
     7
  2
A$C53BF59AB
 70
     0
 10
0.0
 20
0.0
 30
0.0
  3
A$C53BF59AB
  1

  0
TEXT
  5
343
  8
NOTE
  6
CONTINUOUS
 62
     4
 10
-0.000014
 20
0.000003
 30
0.0
 40
50.0
  1
400形：φ25.4〈ロウ付〉（付属配管を使用）
 41
0.9
  0
ENDBLK
  5
345
  8
0
 62
     7
  0
BLOCK
  8
0
 62
     7
  2
A$C3D7A32C9
 70
     0
 10
0.0
 20
0.0
 30
0.0
  3
A$C3D7A32C9
  1

  0
TEXT
  5
34A
  8
NOTE
  6
CONTINUOUS
 62
     4
 10
0.000011
 20
0.000001
 30
0.0
 40
50.0
  1
224以下：φ15.88〈ロウ付〉（子機側付属配管を使用）
 41
0.9
  0
ENDBLK
  5
34C
  8
0
 62
     7
  0
BLOCK
  8
0
 62
     7
  2
A$C2C5A401A
 70
     0
 10
0.0
 20
0.0
 30
0.0
  3
A$C2C5A401A
  1

  0
TEXT
  5
351
  8
NOTE
  6
CONTINUOUS
 62
     4
 10
0.0
 20
0.000001
 30
0.0
 40
50.0
  1
401以上：φ22.2〈ロウ付〉（分岐管<別売>付属配管を使用）
 41
0.9
  0
ENDBLK
  5
353
  8
0
 62
     7
  0
BLOCK
  8
0
 62
     7
  2
A$C2F2E5FA3
 70
     0
 10
0.0
 20
0.0
 30
0.0
  3
A$C2F2E5FA3
  1

  0
TEXT
  5
35A
  8
NOTE
  6
CONTINUOUS
 62
     4
 10
0.0
 20
0.000001
 30
0.0
 40
50.0
  1
451以上：φ15.88〈ロウ付〉（分岐管<別売>付属配管を使用）
 41
0.9
  0
ENDBLK
  5
35C
  8
0
 62
     7
  0
ENDSEC
  0
SECTION
  2
ENTITIES
  0
TEXT
  5
33
  8
ETC
  6
CONTINUOUS
 62
    61
 10
309.138373
 20
893.270457
 30
0.0
 40
64.0
  1
R2用分流コントローラ
 41
0.9
  0
TEXT
  5
34
  8
ETC
  6
CONTINUOUS
 62
    61
 10
309.138373
 20
787.670457
 30
0.0
 40
64.0
  1
CMB-P1010GA_6
 41
0.9
  0
LINE
  5
35
  8
DETAIL
  6
CONTINUOUS
 62
     5
 10
-555.0
 20
-225.0
 30
0.0
 11
555.0
 21
-225.0
 31
0.0
  0
LINE
  5
36
  8
DETAIL
  6
CONTINUOUS
 62
     5
 10
-555.0
 20
137.0
 30
0.0
 11
-555.0
 21
-225.0
 31
0.0
  0
LINE
  5
37
  8
DETAIL
  6
CONTINUOUS
 62
     5
 10
555.0
 20
137.0
 30
0.0
 11
555.0
 21
-225.0
 31
0.0
  0
LINE
  5
38
  8
DETAIL
  6
CONTINUOUS
 62
     5
 10
-555.0
 20
225.0
 30
0.0
 11
555.0
 21
225.0
 31
0.0
  0
LINE
  5
39
  8
DETAIL
  6
CONTINUOUS
 62
     5
 10
555.0
 20
225.0
 30
0.0
 11
555.0
 21
-225.0
 31
0.0
  0
LINE
  5
3A
  8
DETAIL
  6
CONTINUOUS
 62
     5
 10
555.000922
 20
-218.986195
 30
0.0
 11
605.002761
 21
-218.986195
 31
0.0
  0
LINE
  5
3B
  8
DETAIL
  6
CONTINUOUS
 62
     5
 10
555.000922
 20
-169.013805
 30
0.0
 11
605.002761
 21
-169.013805
 31
0.0
  0
LINE
  5
3C
  8
DETAIL
  6
CONTINUOUS
 62
     5
 10
605.002761
 20
188.003313
 30
0.0
 11
605.002761
 21
169.013805
 31
0.0
  0
LINE
  5
3D
  8
DETAIL
  6
CONTINUOUS
 62
     5
 10
555.000922
 20
169.013805
 30
0.0
 11
605.002761
 21
169.013805
 31
0.0
  0
LINE
  5
3E
  8
DETAIL
  6
CONTINUOUS
 62
     5
 10
555.000922
 20
218.986195
 30
0.0
 11
605.002761
 21
218.986195
 31
0.0
  0
LINE
  5
3F
  8
DETAIL
  6
CONTINUOUS
 62
     5
 10
605.002761
 20
218.986195
 30
0.0
 11
605.002761
 21
200.0
 31
0.0
  0
ARC
  5
40
  8
DETAIL
  6
CONTINUOUS
 62
     5
 10
582.000461
 20
202.0
 30
0.0
 40
7.0
 50
0.0
 51
180.0
  0
LINE
  5
41
  8
DETAIL
  6
CONTINUOUS
 62
     5
 10
575.000461
 20
202.0
 30
0.0
 11
575.000461
 21
194.0
 31
0.0
  0
LINE
  5
42
  8
DETAIL
  6
CONTINUOUS
 62
     5
 10
589.000461
 20
202.0
 30
0.0
 11
589.000461
 21
200.0
 31
0.0
  0
ARC
  5
43
  8
DETAIL
  6
CONTINUOUS
 62
     5
 10
582.000461
 20
186.0
 30
0.0
 40
7.0
 50
180.0
 51
0.0
  0
LINE
  5
44
  8
DETAIL
  6
CONTINUOUS
 62
     5
 10
575.000461
 20
186.0
 30
0.0
 11
575.000461
 21
194.0
 31
0.0
  0
LINE
  5
45
  8
DETAIL
  6
CONTINUOUS
 62
     5
 10
589.000461
 20
186.0
 30
0.0
 11
589.000461
 21
188.0
 31
0.0
  0
LINE
  5
46
  8
DETAIL
  6
CONTINUOUS
 62
     5
 10
589.000461
 20
188.0
 30
0.0
 11
604.987761
 21
188.003313
 31
0.0
  0
LINE
  5
47
  8
DETAIL
  6
CONTINUOUS
 62
     5
 10
605.002761
 20
-199.996687
 30
0.0
 11
605.002761
 21
-218.986195
 31
0.0
  0
ARC
  5
48
  8
DETAIL
  6
CONTINUOUS
 62
     5
 10
582.000461
 20
-186.0
 30
0.0
 40
7.0
 50
0.0
 51
180.0
  0
LINE
  5
49
  8
DETAIL
  6
CONTINUOUS
 62
     5
 10
575.000461
 20
-186.0
 30
0.0
 11
575.000461
 21
-194.0
 31
0.0
  0
LINE
  5
4A
  8
DETAIL
  6
CONTINUOUS
 62
     5
 10
589.000461
 20
-186.0
 30
0.0
 11
589.000461
 21
-188.0
 31
0.0
  0
ARC
  5
4B
  8
DETAIL
  6
CONTINUOUS
 62
     5
 10
582.000461
 20
-202.0
 30
0.0
 40
7.0
 50
180.0
 51
0.0
  0
LINE
  5
4C
  8
DETAIL
  6
CONTINUOUS
 62
     5
 10
575.000461
 20
-202.0
 30
0.0
 11
575.000461
 21
-194.0
 31
0.0
  0
LINE
  5
4D
  8
DETAIL
  6
CONTINUOUS
 62
     5
 10
589.000461
 20
-202.0
 30
0.0
 11
589.000461
 21
-200.0
 31
0.0
  0
LINE
  5
4E
  8
DETAIL
  6
CONTINUOUS
 62
     5
 10
589.000461
 20
-200.0
 30
0.0
 11
604.987761
 21
-199.996687
 31
0.0
  0
LINE
  5
4F
  8
DETAIL
  6
CONTINUOUS
 62
     5
 10
589.000461
 20
200.0
 30
0.0
 11
604.987761
 21
200.0
 31
0.0
  0
LINE
  5
50
  8
DETAIL
  6
CONTINUOUS
 62
     5
 10
605.002761
 20
-169.013805
 30
0.0
 11
605.002761
 21
-188.0
 31
0.0
  0
LINE
  5
51
  8
DETAIL
  6
CONTINUOUS
 62
     5
 10
589.000461
 20
-188.0
 30
0.0
 11
604.987761
 21
-188.0
 31
0.0
  0
LINE
  5
52
  8
DETAIL
  6
CONTINUOUS
 62
     5
 10
-555.0
 20
137.0
 30
0.0
 11
-555.0
 21
-225.0
 31
0.0
  0
LINE
  5
53
  8
DETAIL
  6
CONTINUOUS
 62
     5
 10
-555.0
 20
225.0
 30
0.0
 11
-555.0
 21
-225.0
 31
0.0
  0
LINE
  5
54
  8
DETAIL
  6
CONTINUOUS
 62
     5
 10
-555.0
 20
-218.986195
 30
0.0
 11
-605.001839
 21
-218.986195
 31
0.0
  0
LINE
  5
55
  8
DETAIL
  6
CONTINUOUS
 62
     5
 10
-555.0
 20
-169.013805
 30
0.0
 11
-605.001839
 21
-169.013805
 31
0.0
  0
LINE
  5
56
  8
DETAIL
  6
CONTINUOUS
 62
     5
 10
-605.001839
 20
188.003313
 30
0.0
 11
-605.001839
 21
169.013805
 31
0.0
  0
LINE
  5
57
  8
DETAIL
  6
CONTINUOUS
 62
     5
 10
-555.0
 20
169.013805
 30
0.0
 11
-605.001839
 21
169.013805
 31
0.0
  0
LINE
  5
58
  8
DETAIL
  6
CONTINUOUS
 62
     5
 10
-555.0
 20
218.986195
 30
0.0
 11
-605.001839
 21
218.986195
 31
0.0
  0
LINE
  5
59
  8
DETAIL
  6
CONTINUOUS
 62
     5
 10
-605.001839
 20
218.986195
 30
0.0
 11
-605.001839
 21
200.0
 31
0.0
  0
ARC
  5
5A
  8
DETAIL
  6
CONTINUOUS
 62
     5
 10
-581.999539
 20
202.0
 30
0.0
 40
7.0
 50
0.0
 51
180.0
  0
LINE
  5
5B
  8
DETAIL
  6
CONTINUOUS
 62
     5
 10
-574.999539
 20
202.0
 30
0.0
 11
-574.999539
 21
194.0
 31
0.0
  0
LINE
  5
5C
  8
DETAIL
  6
CONTINUOUS
 62
     5
 10
-588.999539
 20
202.0
 30
0.0
 11
-588.999539
 21
200.0
 31
0.0
  0
ARC
  5
5D
  8
DETAIL
  6
CONTINUOUS
 62
     5
 10
-581.999539
 20
186.0
 30
0.0
 40
7.0
 50
180.0
 51
0.0
  0
LINE
  5
5E
  8
DETAIL
  6
CONTINUOUS
 62
     5
 10
-574.999539
 20
186.0
 30
0.0
 11
-574.999539
 21
194.0
 31
0.0
  0
LINE
  5
5F
  8
DETAIL
  6
CONTINUOUS
 62
     5
 10
-588.999539
 20
186.0
 30
0.0
 11
-588.999539
 21
188.0
 31
0.0
  0
LINE
  5
60
  8
DETAIL
  6
CONTINUOUS
 62
     5
 10
-588.999539
 20
188.0
 30
0.0
 11
-604.986839
 21
188.003313
 31
0.0
  0
LINE
  5
61
  8
DETAIL
  6
CONTINUOUS
 62
     5
 10
-605.001839
 20
-199.996687
 30
0.0
 11
-605.001839
 21
-218.986195
 31
0.0
  0
ARC
  5
62
  8
DETAIL
  6
CONTINUOUS
 62
     5
 10
-581.999539
 20
-186.0
 30
0.0
 40
7.0
 50
0.0
 51
180.0
  0
LINE
  5
63
  8
DETAIL
  6
CONTINUOUS
 62
     5
 10
-574.999539
 20
-186.0
 30
0.0
 11
-574.999539
 21
-194.0
 31
0.0
  0
LINE
  5
64
  8
DETAIL
  6
CONTINUOUS
 62
     5
 10
-588.999539
 20
-186.0
 30
0.0
 11
-588.999539
 21
-188.0
 31
0.0
  0
ARC
  5
65
  8
DETAIL
  6
CONTINUOUS
 62
     5
 10
-581.999539
 20
-202.0
 30
0.0
 40
7.0
 50
180.0
 51
0.0
  0
LINE
  5
66
  8
DETAIL
  6
CONTINUOUS
 62
     5
 10
-574.999539
 20
-202.0
 30
0.0
 11
-574.999539
 21
-194.0
 31
0.0
  0
LINE
  5
67
  8
DETAIL
  6
CONTINUOUS
 62
     5
 10
-588.999539
 20
-202.0
 30
0.0
 11
-588.999539
 21
-200.0
 31
0.0
  0
LINE
  5
68
  8
DETAIL
  6
CONTINUOUS
 62
     5
 10
-588.999539
 20
-200.0
 30
0.0
 11
-604.986839
 21
-199.996687
 31
0.0
  0
LINE
  5
69
  8
DETAIL
  6
CONTINUOUS
 62
     5
 10
-588.999539
 20
200.0
 30
0.0
 11
-604.986839
 21
200.0
 31
0.0
  0
LINE
  5
6A
  8
DETAIL
  6
CONTINUOUS
 62
     5
 10
-605.001839
 20
-169.013805
 30
0.0
 11
-605.001839
 21
-188.0
 31
0.0
  0
LINE
  5
6B
  8
DETAIL
  6
CONTINUOUS
 62
     5
 10
-588.999539
 20
-188.0
 30
0.0
 11
-604.986839
 21
-188.0
 31
0.0
  0
LINE
  5
6C
  8
DETAIL
  6
CONTINUOUS
 62
     5
 10
-755.0
 20
92.5
 30
0.0
 11
-712.647059
 21
92.5
 31
0.0
  0
LINE
  5
6D
  8
DETAIL
  6
CONTINUOUS
 62
     5
 10
-755.0
 20
123.5
 30
0.0
 11
-712.647059
 21
123.5
 31
0.0
  0
LINE
  5
70
  8
DETAIL
  6
CONTINUOUS
 62
     5
 10
-755.0
 20
92.5
 30
0.0
 11
-755.0
 21
123.5
 31
0.0
  0
LINE
  5
72
  8
DETAIL
  6
CONTINUOUS
 62
     5
 10
-699.019098
 20
93.163281
 30
0.0
 11
-703.577922
 21
124.163281
 31
0.0
  0
LINE
  5
73
  8
DETAIL
  6
CONTINUOUS
 62
     5
 10
-698.922078
 20
91.836719
 30
0.0
 11
-703.480902
 21
122.836719
 31
0.0
  0
LINE
  5
74
  8
DETAIL
  6
CONTINUOUS
 62
     5
 10
-689.901451
 20
93.163281
 30
0.0
 11
-694.460275
 21
124.163281
 31
0.0
  0
LINE
  5
75
  8
DETAIL
  6
CONTINUOUS
 62
     5
 10
-689.804431
 20
91.836719
 30
0.0
 11
-694.363255
 21
122.836719
 31
0.0
  0
LINE
  5
76
  8
DETAIL
  6
CONTINUOUS
 62
     5
 10
-680.783804
 20
93.163281
 30
0.0
 11
-685.342627
 21
124.163281
 31
0.0
  0
LINE
  5
77
  8
DETAIL
  6
CONTINUOUS
 62
     5
 10
-680.686784
 20
91.836719
 30
0.0
 11
-685.245608
 21
122.836719
 31
0.0
  0
LINE
  5
78
  8
DETAIL
  6
CONTINUOUS
 62
     5
 10
-671.666157
 20
93.163281
 30
0.0
 11
-676.22498
 21
124.163281
 31
0.0
  0
LINE
  5
79
  8
DETAIL
  6
CONTINUOUS
 62
     5
 10
-671.569137
 20
91.836719
 30
0.0
 11
-676.127961
 21
122.836719
 31
0.0
  0
LINE
  5
7A
  8
DETAIL
  6
CONTINUOUS
 62
     5
 10
-662.54851
 20
93.163281
 30
0.0
 11
-667.107333
 21
124.163281
 31
0.0
  0
LINE
  5
7B
  8
DETAIL
  6
CONTINUOUS
 62
     5
 10
-662.45149
 20
91.836719
 30
0.0
 11
-667.010314
 21
122.836719
 31
0.0
  0
LINE
  5
7C
  8
DETAIL
  6
CONTINUOUS
 62
     5
 10
-653.430863
 20
93.163281
 30
0.0
 11
-657.989686
 21
124.163281
 31
0.0
  0
LINE
  5
7D
  8
DETAIL
  6
CONTINUOUS
 62
     5
 10
-653.333843
 20
91.836719
 30
0.0
 11
-657.892667
 21
122.836719
 31
0.0
  0
LINE
  5
7E
  8
DETAIL
  6
CONTINUOUS
 62
     5
 10
-644.313216
 20
93.163281
 30
0.0
 11
-648.872039
 21
124.163281
 31
0.0
  0
LINE
  5
7F
  8
DETAIL
  6
CONTINUOUS
 62
     5
 10
-644.216196
 20
91.836719
 30
0.0
 11
-648.77502
 21
122.836719
 31
0.0
  0
LINE
  5
80
  8
DETAIL
  6
CONTINUOUS
 62
     5
 10
-635.195569
 20
93.163281
 30
0.0
 11
-639.754392
 21
124.163281
 31
0.0
  0
LINE
  5
81
  8
DETAIL
  6
CONTINUOUS
 62
     5
 10
-635.098549
 20
91.836719
 30
0.0
 11
-639.657373
 21
122.836719
 31
0.0
  0
LINE
  5
82
  8
DETAIL
  6
CONTINUOUS
 62
     5
 10
-626.077922
 20
93.163281
 30
0.0
 11
-630.636745
 21
124.163281
 31
0.0
  0
LINE
  5
83
  8
DETAIL
  6
CONTINUOUS
 62
     5
 10
-625.980902
 20
91.836719
 30
0.0
 11
-630.539725
 21
122.836719
 31
0.0
  0
LINE
  5
84
  8
DETAIL
  6
CONTINUOUS
 62
     5
 10
-616.960275
 20
93.163281
 30
0.0
 11
-621.519098
 21
124.163281
 31
0.0
  0
LINE
  5
85
  8
DETAIL
  6
CONTINUOUS
 62
     5
 10
-607.745608
 20
91.836719
 30
0.0
 11
-612.304431
 21
122.836719
 31
0.0
  0
LINE
  5
86
  8
DETAIL
  6
CONTINUOUS
 62
     5
 10
-607.842627
 20
93.163281
 30
0.0
 11
-612.401451
 21
124.163281
 31
0.0
  0
LINE
  5
87
  8
DETAIL
  6
CONTINUOUS
 62
     5
 10
-616.863255
 20
91.836719
 30
0.0
 11
-621.422078
 21
122.836719
 31
0.0
  0
LINE
  5
88
  8
DETAIL
  6
CONTINUOUS
 62
     5
 10
-712.647059
 20
87.941176
 30
0.0
 11
-712.647059
 21
128.058824
 31
0.0
  0
LINE
  5
89
  8
DETAIL
  6
CONTINUOUS
 62
     5
 10
-708.088235
 20
87.941176
 30
0.0
 11
-708.088235
 21
128.058824
 31
0.0
  0
LINE
  5
8A
  8
DETAIL
  6
CONTINUOUS
 62
     5
 10
-607.794118
 20
87.941176
 30
0.0
 11
-607.794118
 21
128.058824
 31
0.0
  0
LINE
  5
8B
  8
DETAIL
  6
CONTINUOUS
 62
     5
 10
-607.794118
 20
94.323529
 30
0.0
 11
-607.794118
 21
121.676471
 31
0.0
  0
LINE
  5
8C
  8
DETAIL
  6
CONTINUOUS
 62
     5
 10
-603.235294
 20
87.941176
 30
0.0
 11
-603.235294
 21
128.058824
 31
0.0
  0
LINE
  5
8D
  8
DETAIL
  6
CONTINUOUS
 62
     5
 10
-603.235294
 20
92.5
 30
0.0
 11
-555.0
 21
92.5
 31
0.0
  0
ARC
  5
8E
  8
DETAIL
  6
CONTINUOUS
 62
     5
 10
-657.941176
 20
92.5
 30
0.0
 40
4.558824
 50
188.365886
 51
8.365886
  0
ARC
  5
8F
  8
DETAIL
  6
CONTINUOUS
 62
     5
 10
-685.294118
 20
92.5
 30
0.0
 40
4.558824
 50
188.365886
 51
8.365886
  0
ARC
  5
90
  8
DETAIL
  6
CONTINUOUS
 62
     5
 10
-703.529412
 20
92.5
 30
0.0
 40
4.558824
 50
188.365886
 51
8.365886
  0
ARC
  5
91
  8
DETAIL
  6
CONTINUOUS
 62
     5
 10
-694.411765
 20
92.5
 30
0.0
 40
4.558824
 50
188.365886
 51
8.365886
  0
LINE
  5
92
  8
DETAIL
  6
CONTINUOUS
 62
     5
 10
-712.647059
 20
87.941176
 30
0.0
 11
-708.088235
 21
87.941176
 31
0.0
  0
ARC
  5
93
  8
DETAIL
  6
CONTINUOUS
 62
     5
 10
-676.176471
 20
92.5
 30
0.0
 40
4.558824
 50
188.365886
 51
8.365886
  0
ARC
  5
94
  8
DETAIL
  6
CONTINUOUS
 62
     5
 10
-667.058824
 20
92.5
 30
0.0
 40
4.558824
 50
188.365886
 51
8.365886
  0
ARC
  5
95
  8
DETAIL
  6
CONTINUOUS
 62
     5
 10
-621.470588
 20
92.5
 30
0.0
 40
4.558824
 50
188.365886
 51
8.365886
  0
ARC
  5
96
  8
DETAIL
  6
CONTINUOUS
 62
     5
 10
-648.823529
 20
92.5
 30
0.0
 40
4.558824
 50
188.365886
 51
8.365886
  0
ARC
  5
97
  8
DETAIL
  6
CONTINUOUS
 62
     5
 10
-639.705882
 20
92.5
 30
0.0
 40
4.558824
 50
188.365886
 51
8.365886
  0
ARC
  5
98
  8
DETAIL
  6
CONTINUOUS
 62
     5
 10
-630.588235
 20
92.5
 30
0.0
 40
4.558824
 50
188.365886
 51
8.365886
  0
ARC
  5
99
  8
DETAIL
  6
CONTINUOUS
 62
     5
 10
-612.352941
 20
92.5
 30
0.0
 40
4.558824
 50
188.365886
 51
8.365886
  0
LINE
  5
9A
  8
DETAIL
  6
CONTINUOUS
 62
     5
 10
-603.235294
 20
87.941176
 30
0.0
 11
-607.794118
 21
87.941176
 31
0.0
  0
LINE
  5
9B
  8
DETAIL
  6
CONTINUOUS
 62
     5
 10
-603.235294
 20
123.5
 30
0.0
 11
-555.0
 21
123.5
 31
0.0
  0
ARC
  5
9C
  8
DETAIL
  6
CONTINUOUS
 62
     5
 10
-653.382353
 20
123.5
 30
0.0
 40
4.558824
 50
8.365886
 51
188.365886
  0
ARC
  5
9D
  8
DETAIL
  6
CONTINUOUS
 62
     5
 10
-680.735294
 20
123.5
 30
0.0
 40
4.558824
 50
8.365886
 51
188.365886
  0
ARC
  5
9E
  8
DETAIL
  6
CONTINUOUS
 62
     5
 10
-708.088235
 20
123.5
 30
0.0
 40
4.558824
 50
8.365886
 51
90.0
  0
ARC
  5
9F
  8
DETAIL
  6
CONTINUOUS
 62
     5
 10
-698.970588
 20
123.5
 30
0.0
 40
4.558824
 50
8.365886
 51
188.365886
  0
ARC
  5
A0
  8
DETAIL
  6
CONTINUOUS
 62
     5
 10
-689.852941
 20
123.5
 30
0.0
 40
4.558824
 50
8.365886
 51
188.365886
  0
LINE
  5
A1
  8
DETAIL
  6
CONTINUOUS
 62
     5
 10
-712.647059
 20
128.058824
 30
0.0
 11
-708.088235
 21
128.058824
 31
0.0
  0
ARC
  5
A2
  8
DETAIL
  6
CONTINUOUS
 62
     5
 10
-671.617647
 20
123.5
 30
0.0
 40
4.558824
 50
8.365886
 51
188.365886
  0
ARC
  5
A3
  8
DETAIL
  6
CONTINUOUS
 62
     5
 10
-662.5
 20
123.5
 30
0.0
 40
4.558824
 50
8.365886
 51
188.365886
  0
ARC
  5
A4
  8
DETAIL
  6
CONTINUOUS
 62
     5
 10
-626.029412
 20
123.5
 30
0.0
 40
4.558824
 50
8.365886
 51
188.365886
  0
ARC
  5
A5
  8
DETAIL
  6
CONTINUOUS
 62
     5
 10
-644.264706
 20
123.5
 30
0.0
 40
4.558824
 50
8.365886
 51
188.365886
  0
ARC
  5
A6
  8
DETAIL
  6
CONTINUOUS
 62
     5
 10
-635.147059
 20
123.5
 30
0.0
 40
4.558824
 50
8.365886
 51
188.365886
  0
ARC
  5
A7
  8
DETAIL
  6
CONTINUOUS
 62
     5
 10
-607.794118
 20
123.5
 30
0.0
 40
4.558824
 50
90.0
 51
188.365886
  0
ARC
  5
A8
  8
DETAIL
  6
CONTINUOUS
 62
     5
 10
-616.911765
 20
123.5
 30
0.0
 40
4.558824
 50
8.365886
 51
188.365886
  0
LINE
  5
A9
  8
DETAIL
  6
CONTINUOUS
 62
     5
 10
-603.235294
 20
128.058824
 30
0.0
 11
-607.794118
 21
128.058824
 31
0.0
  0
LINE
  5
AA
  8
NOTE
  6
CONTINUOUS
 62
     4
 10
-581.999539
 20
174.0
 30
0.0
 11
-581.999539
 21
214.0
 31
0.0
  0
LINE
  5
AB
  8
NOTE
  6
CONTINUOUS
 62
     4
 10
-561.999539
 20
194.0
 30
0.0
 11
-601.999539
 21
194.0
 31
0.0
  0
CIRCLE
  5
AC
  8
FIX
  6
CONTINUOUS
 62
    11
 10
-581.999539
 20
194.0
 30
0.0
 40
20.0
  0
CIRCLE
  5
AD
  8
FIX
  6
CONTINUOUS
 62
    11
 10
-581.999539
 20
-194.0
 30
0.0
 40
20.0
  0
LINE
  5
AE
  8
NOTE
  6
CONTINUOUS
 62
     4
 10
581.999539
 20
174.0
 30
0.0
 11
581.999539
 21
214.0
 31
0.0
  0
LINE
  5
AF
  8
NOTE
  6
CONTINUOUS
 62
     4
 10
601.999539
 20
194.0
 30
0.0
 11
561.999539
 21
194.0
 31
0.0
  0
CIRCLE
  5
B0
  8
FIX
  6
CONTINUOUS
 62
    11
 10
582.000461
 20
194.0
 30
0.0
 40
20.0
  0
LINE
  5
B1
  8
NOTE
  6
CONTINUOUS
 62
     4
 10
581.999539
 20
-214.0
 30
0.0
 11
581.999539
 21
-174.0
 31
0.0
  0
LINE
  5
B2
  8
NOTE
  6
CONTINUOUS
 62
     4
 10
601.999539
 20
-194.0
 30
0.0
 11
561.999539
 21
-194.0
 31
0.0
  0
CIRCLE
  5
B3
  8
FIX
  6
CONTINUOUS
 62
    11
 10
582.000461
 20
-194.0
 30
0.0
 40
20.0
  0
LINE
  5
B4
  8
NOTE
  6
CONTINUOUS
 62
     4
 10
-479.0
 20
-309.0
 30
0.0
 11
-479.0
 21
-269.0
 31
0.0
  0
LINE
  5
B5
  8
NOTE
  6
CONTINUOUS
 62
     4
 10
-459.0
 20
-289.0
 30
0.0
 11
-499.0
 21
-289.0
 31
0.0
  0
LINE
  5
B6
  8
NOTE
  6
CONTINUOUS
 62
     4
 10
-419.0
 20
-309.0
 30
0.0
 11
-419.0
 21
-269.0
 31
0.0
  0
LINE
  5
B7
  8
NOTE
  6
CONTINUOUS
 62
     4
 10
-399.0
 20
-289.0
 30
0.0
 11
-439.0
 21
-289.0
 31
0.0
  0
LINE
  5
B8
  8
NOTE
  6
CONTINUOUS
 62
     4
 10
-359.0
 20
-309.0
 30
0.0
 11
-359.0
 21
-269.0
 31
0.0
  0
LINE
  5
B9
  8
NOTE
  6
CONTINUOUS
 62
     4
 10
-339.0
 20
-289.0
 30
0.0
 11
-379.0
 21
-289.0
 31
0.0
  0
LINE
  5
BA
  8
NOTE
  6
CONTINUOUS
 62
     4
 10
-299.0
 20
-309.0
 30
0.0
 11
-299.0
 21
-269.0
 31
0.0
  0
LINE
  5
BB
  8
NOTE
  6
CONTINUOUS
 62
     4
 10
-279.0
 20
-289.0
 30
0.0
 11
-319.0
 21
-289.0
 31
0.0
  0
TEXT
  5
BC
  8
SIZE
  6
CONTINUOUS
 62
    30
 10
-127.176136
 20
-877.578197
 30
0.0
 40
35.0
  1
（吊りボルトピッチ）
 41
0.9
  0
TEXT
  5
BD
  8
SIZE
  6
CONTINUOUS
 62
    30
 10
836.584023
 20
-603.493492
 30
0.0
 40
35.0
  1
（吊りボルトピッチ）
 50
90.0
 41
0.9
  0
LINE
  5
BE
  8
NOTE
  6
CONTINUOUS
 62
     4
 10
-645.0
 20
-142.0
 30
0.0
 11
-645.0
 21
-102.0
 31
0.0
  0
LINE
  5
BF
  8
NOTE
  6
CONTINUOUS
 62
     4
 10
-625.0
 20
-122.0
 30
0.0
 11
-665.0
 21
-122.0
 31
0.0
  0
LINE
  5
C0
  8
NOTE
  6
CONTINUOUS
 62
     4
 10
-755.0
 20
88.0
 30
0.0
 11
-755.0
 21
128.0
 31
0.0
  0
LINE
  5
C1
  8
NOTE
  6
CONTINUOUS
 62
     4
 10
-735.0
 20
108.0
 30
0.0
 11
-775.0
 21
108.0
 31
0.0
  0
LINE
  5
C2
  8
NOTE
  6
CONTINUOUS
 62
     4
 10
-625.0
 20
23.0
 30
0.0
 11
-625.0
 21
63.0
 31
0.0
  0
LINE
  5
C3
  8
NOTE
  6
CONTINUOUS
 62
     4
 10
-605.0
 20
43.0
 30
0.0
 11
-645.0
 21
43.0
 31
0.0
  0
LINE
  5
C4
  8
DETAIL
  6
CONTINUOUS
 62
     5
 10
-483.76
 20
-225.0
 30
0.0
 11
-483.76
 21
-289.0
 31
0.0
  0
LINE
  5
C5
  8
DETAIL
  6
CONTINUOUS
 62
     5
 10
-474.24
 20
-225.0
 30
0.0
 11
-474.24
 21
-289.0
 31
0.0
  0
LINE
  5
C6
  8
DETAIL
  6
CONTINUOUS
 62
     5
 10
-486.94
 20
-225.0
 30
0.0
 11
-486.94
 21
-289.0
 31
0.0
  0
LINE
  5
C7
  8
DETAIL
  6
CONTINUOUS
 62
     5
 10
-471.06
 20
-225.0
 30
0.0
 11
-471.06
 21
-289.0
 31
0.0
  0
LINE
  5
C8
  8
DETAIL
  6
CONTINUOUS
 62
     5
 10
-483.76
 20
-289.0
 30
0.0
 11
-474.24
 21
-289.0
 31
0.0
  0
LINE
  5
C9
  8
DETAIL
  6
CONTINUOUS
 62
     5
 10
-486.94
 20
-289.0
 30
0.0
 11
-471.06
 21
-289.0
 31
0.0
  0
LINE
  5
CA
  8
DETAIL
  6
CONTINUOUS
 62
     5
 10
-479.0
 20
-225.0
 30
0.0
 11
-479.0
 21
-289.0
 31
0.0
  0
LINE
  5
CB
  8
DETAIL
  6
CONTINUOUS
 62
     5
 10
-423.76
 20
-225.0
 30
0.0
 11
-423.76
 21
-289.0
 31
0.0
  0
LINE
  5
CC
  8
DETAIL
  6
CONTINUOUS
 62
     5
 10
-414.24
 20
-225.0
 30
0.0
 11
-414.24
 21
-289.0
 31
0.0
  0
LINE
  5
CD
  8
DETAIL
  6
CONTINUOUS
 62
     5
 10
-426.94
 20
-225.0
 30
0.0
 11
-426.94
 21
-289.0
 31
0.0
  0
LINE
  5
CE
  8
DETAIL
  6
CONTINUOUS
 62
     5
 10
-411.06
 20
-225.0
 30
0.0
 11
-411.06
 21
-289.0
 31
0.0
  0
LINE
  5
CF
  8
DETAIL
  6
CONTINUOUS
 62
     5
 10
-423.76
 20
-289.0
 30
0.0
 11
-414.24
 21
-289.0
 31
0.0
  0
LINE
  5
D0
  8
DETAIL
  6
CONTINUOUS
 62
     5
 10
-426.94
 20
-289.0
 30
0.0
 11
-411.06
 21
-289.0
 31
0.0
  0
LINE
  5
D1
  8
DETAIL
  6
CONTINUOUS
 62
     5
 10
-419.0
 20
-225.0
 30
0.0
 11
-419.0
 21
-289.0
 31
0.0
  0
LINE
  5
D2
  8
DETAIL
  6
CONTINUOUS
 62
     5
 10
-363.76
 20
-225.0
 30
0.0
 11
-363.76
 21
-289.0
 31
0.0
  0
LINE
  5
D3
  8
DETAIL
  6
CONTINUOUS
 62
     5
 10
-354.24
 20
-225.0
 30
0.0
 11
-354.24
 21
-289.0
 31
0.0
  0
LINE
  5
D4
  8
DETAIL
  6
CONTINUOUS
 62
     5
 10
-366.94
 20
-225.0
 30
0.0
 11
-366.94
 21
-289.0
 31
0.0
  0
LINE
  5
D5
  8
DETAIL
  6
CONTINUOUS
 62
     5
 10
-351.06
 20
-225.0
 30
0.0
 11
-351.06
 21
-289.0
 31
0.0
  0
LINE
  5
D6
  8
DETAIL
  6
CONTINUOUS
 62
     5
 10
-363.76
 20
-289.0
 30
0.0
 11
-354.24
 21
-289.0
 31
0.0
  0
LINE
  5
D7
  8
DETAIL
  6
CONTINUOUS
 62
     5
 10
-366.94
 20
-289.0
 30
0.0
 11
-351.06
 21
-289.0
 31
0.0
  0
LINE
  5
D8
  8
DETAIL
  6
CONTINUOUS
 62
     5
 10
-359.0
 20
-225.0
 30
0.0
 11
-359.0
 21
-289.0
 31
0.0
  0
LINE
  5
D9
  8
DETAIL
  6
CONTINUOUS
 62
     5
 10
-303.76
 20
-225.0
 30
0.0
 11
-303.76
 21
-289.0
 31
0.0
  0
LINE
  5
DA
  8
DETAIL
  6
CONTINUOUS
 62
     5
 10
-294.24
 20
-225.0
 30
0.0
 11
-294.24
 21
-289.0
 31
0.0
  0
LINE
  5
DB
  8
DETAIL
  6
CONTINUOUS
 62
     5
 10
-306.94
 20
-225.0
 30
0.0
 11
-306.94
 21
-289.0
 31
0.0
  0
LINE
  5
DC
  8
DETAIL
  6
CONTINUOUS
 62
     5
 10
-291.06
 20
-225.0
 30
0.0
 11
-291.06
 21
-289.0
 31
0.0
  0
LINE
  5
DD
  8
DETAIL
  6
CONTINUOUS
 62
     5
 10
-303.76
 20
-289.0
 30
0.0
 11
-294.24
 21
-289.0
 31
0.0
  0
LINE
  5
DE
  8
DETAIL
  6
CONTINUOUS
 62
     5
 10
-306.94
 20
-289.0
 30
0.0
 11
-291.06
 21
-289.0
 31
0.0
  0
LINE
  5
DF
  8
DETAIL
  6
CONTINUOUS
 62
     5
 10
-299.0
 20
-225.0
 30
0.0
 11
-299.0
 21
-289.0
 31
0.0
  0
TEXT
  5
E0
  8
NOTE
  6
CONTINUOUS
 62
     4
 10
-1794.237516
 20
-796.033293
 30
0.0
 40
64.0
  1
室内ユニット側配管接続口（液）
 41
0.9
 72
     2
 11
-803.517516
 21
-796.033293
 31
0.0
  0
TEXT
  5
E1
  8
NOTE
  6
CONTINUOUS
 62
     4
 10
-1659.361058
 20
-892.510172
 30
0.0
 40
50.0
  1
φ9.52〈フレア〉
 41
0.9
  0
TEXT
  5
E2
  8
NOTE
  6
CONTINUOUS
 62
     4
 10
-1834.200382
 20
-522.863013
 30
0.0
 40
64.0
  1
室内ユニット側配管接続口（ガス）
 41
0.9
 72
     2
 11
-774.360382
 21
-522.863013
 31
0.0
  0
TEXT
  5
E3
  8
NOTE
  6
CONTINUOUS
 62
     4
 10
-1635.078872
 20
-622.243072
 30
0.0
 40
50.0
  1
φ15.88〈フレア〉
 41
0.9
  0
POLYLINE
  5
E4
  8
NOTE
  6
CONTINUOUS
 62
     4
 66
     1
 10
0.0
 20
0.0
 30
0.0
  0
VERTEX
  5
E5
  8
NOTE
  6
CONTINUOUS
 62
     4
 10
-479.0
 20
-289.0
 30
0.0
  0
VERTEX
  5
E6
  8
NOTE
  6
CONTINUOUS
 62
     4
 10
-652.254445
 20
-542.863013
 30
0.0
  0
VERTEX
  5
E7
  8
NOTE
  6
CONTINUOUS
 62
     4
 10
-1777.203017
 20
-542.863013
 30
0.0
  0
SEQEND
  5
E8
  8
NOTE
  6
CONTINUOUS
 62
     4
  0
POLYLINE
  5
E9
  8
NOTE
  6
CONTINUOUS
 62
     4
 66
     1
 10
0.0
 20
0.0
 30
0.0
  0
VERTEX
  5
EA
  8
NOTE
  6
CONTINUOUS
 62
     4
 10
-479.0
 20
-289.0
 30
0.0
  0
VERTEX
  5
EB
  8
NOTE
  6
CONTINUOUS
 62
     4
 10
-773.517516
 20
-816.033293
 30
0.0
  0
VERTEX
  5
EC
  8
NOTE
  6
CONTINUOUS
 62
     4
 10
-1829.346088
 20
-816.033293
 30
0.0
  0
SEQEND
  5
ED
  8
NOTE
  6
CONTINUOUS
 62
     4
  0
LINE
  5
EE
  8
NOTE
  6
CONTINUOUS
 62
     4
 10
-486.850251
 20
-295.749314
 30
0.0
 11
-479.0
 21
-289.0
 31
0.0
  0
LINE
  5
EF
  8
NOTE
  6
CONTINUOUS
 62
     4
 10
-479.0
 20
-289.0
 30
0.0
 11
-482.42386
 21
-298.770203
 31
0.0
  0
LINE
  5
F0
  8
NOTE
  6
CONTINUOUS
 62
     4
 10
-486.217247
 20
-296.422333
 30
0.0
 11
-479.0
 21
-289.0
 31
0.0
  0
LINE
  5
F1
  8
NOTE
  6
CONTINUOUS
 62
     4
 10
-479.0
 20
-289.0
 30
0.0
 11
-481.539153
 21
-299.036552
 31
0.0
  0
TEXT
  5
F2
  8
NOTE
  6
CONTINUOUS
 62
     4
 10
893.18121
 20
536.632209
 30
0.0
 40
64.0
  1
AH4-12×14長穴
 41
0.9
  0
TEXT
  5
F3
  8
NOTE
  6
CONTINUOUS
 62
     4
 10
-1949.509695
 20
-137.845598
 30
0.0
 40
64.0
  1
室外ユニット側配管接続口（低圧）
 41
0.9
 72
     2
 11
-889.669695
 21
-137.845598
 31
0.0
  0
TEXT
  5
F4
  8
NOTE
  6
CONTINUOUS
 62
     4
 10
-1606.161437
 20
263.036245
 30
0.0
 40
64.0
  1
D　VP-25（オス）
 41
0.9
 72
     2
 11
-955.555723
 21
263.036245
 31
0.0
  0
TEXT
  5
F5
  8
NOTE
  6
CONTINUOUS
 62
     4
 10
-2039.251328
 20
635.651225
 30
0.0
 40
64.0
  1
室外ユニット側配管接続口（高圧）
 41
0.9
 72
     2
 11
-979.411328
 21
635.651225
 31
0.0
  0
POLYLINE
  5
F6
  8
NOTE
  6
CONTINUOUS
 62
     4
 66
     1
 10
0.0
 20
0.0
 30
0.0
  0
VERTEX
  5
F7
  8
NOTE
  6
CONTINUOUS
 62
     4
 10
-645.0
 20
-122.0
 30
0.0
  0
VERTEX
  5
F8
  8
NOTE
  6
CONTINUOUS
 62
     4
 10
-869.669695
 20
-157.845598
 30
0.0
  0
VERTEX
  5
F9
  8
NOTE
  6
CONTINUOUS
 62
     4
 10
-1984.618267
 20
-157.845598
 30
0.0
  0
SEQEND
  5
FA
  8
NOTE
  6
CONTINUOUS
 62
     4
  0
POLYLINE
  5
FB
  8
NOTE
  6
CONTINUOUS
 62
     4
 66
     1
 10
0.0
 20
0.0
 30
0.0
  0
VERTEX
  5
FC
  8
NOTE
  6
CONTINUOUS
 62
     4
 10
-755.0
 20
108.0
 30
0.0
  0
VERTEX
  5
FD
  8
NOTE
  6
CONTINUOUS
 62
     4
 10
-925.555723
 20
243.036245
 30
0.0
  0
VERTEX
  5
FE
  8
NOTE
  6
CONTINUOUS
 62
     4
 10
-1775.670009
 20
243.036245
 30
0.0
  0
SEQEND
  5
FF
  8
NOTE
  6
CONTINUOUS
 62
     4
  0
POLYLINE
  5
100
  8
NOTE
  6
CONTINUOUS
 62
     4
 66
     1
 10
0.0
 20
0.0
 30
0.0
  0
VERTEX
  5
101
  8
NOTE
  6
CONTINUOUS
 62
     4
 10
-625.0
 20
43.0
 30
0.0
  0
VERTEX
  5
102
  8
NOTE
  6
CONTINUOUS
 62
     4
 10
-949.411328
 20
615.651225
 30
0.0
  0
VERTEX
  5
103
  8
NOTE
  6
CONTINUOUS
 62
     4
 10
-2074.359899
 20
615.651225
 30
0.0
  0
SEQEND
  5
104
  8
NOTE
  6
CONTINUOUS
 62
     4
  0
LINE
  5
105
  8
NOTE
  6
CONTINUOUS
 62
     4
 10
-655.29727
 20
-120.929527
 30
0.0
 11
-645.0
 21
-122.0
 31
0.0
  0
LINE
  5
106
  8
NOTE
  6
CONTINUOUS
 62
     4
 10
-645.0
 20
-122.0
 30
0.0
 11
-654.452934
 21
-126.221578
 31
0.0
  0
LINE
  5
107
  8
NOTE
  6
CONTINUOUS
 62
     4
 10
-760.449036
 20
120.549514
 30
0.0
 11
-755.0
 21
108.0
 31
0.0
  0
LINE
  5
108
  8
NOTE
  6
CONTINUOUS
 62
     4
 10
-755.0
 20
108.0
 30
0.0
 11
-768.184231
 21
111.717665
 31
0.0
  0
LINE
  5
109
  8
NOTE
  6
CONTINUOUS
 62
     4
 10
-627.597702
 20
53.021558
 30
0.0
 11
-625.0
 21
43.0
 31
0.0
  0
LINE
  5
10A
  8
NOTE
  6
CONTINUOUS
 62
     4
 10
-625.0
 20
43.0
 30
0.0
 11
-632.260455
 21
50.380072
 31
0.0
  0
POLYLINE
  5
10B
  8
NOTE
  6
CONTINUOUS
 62
     4
 66
     1
 10
0.0
 20
0.0
 30
0.0
  0
VERTEX
  5
10C
  8
NOTE
  6
CONTINUOUS
 62
     4
 10
581.999539
 20
194.0
 30
0.0
  0
VERTEX
  5
10D
  8
NOTE
  6
CONTINUOUS
 62
     4
 10
863.18121
 20
515.632209
 30
0.0
  0
VERTEX
  5
10E
  8
NOTE
  6
CONTINUOUS
 62
     4
 10
1544.884067
 20
515.632209
 30
0.0
  0
SEQEND
  5
10F
  8
NOTE
  6
CONTINUOUS
 62
     4
  0
LINE
  5
110
  8
NOTE
  6
CONTINUOUS
 62
     4
 10
586.564027
 20
203.292208
 30
0.0
 11
581.999539
 21
194.0
 31
0.0
  0
LINE
  5
111
  8
NOTE
  6
CONTINUOUS
 62
     4
 10
581.999539
 20
194.0
 30
0.0
 11
590.598605
 21
199.765044
 31
0.0
  0
LINE
  5
112
  8
NOTE
  6
CONTINUOUS
 62
     4
 10
-239.0
 20
-309.0
 30
0.0
 11
-239.0
 21
-269.0
 31
0.0
  0
LINE
  5
113
  8
NOTE
  6
CONTINUOUS
 62
     4
 10
-219.0
 20
-289.0
 30
0.0
 11
-259.0
 21
-289.0
 31
0.0
  0
LINE
  5
114
  8
DETAIL
  6
CONTINUOUS
 62
     5
 10
-243.76
 20
-225.0
 30
0.0
 11
-243.76
 21
-289.0
 31
0.0
  0
LINE
  5
115
  8
DETAIL
  6
CONTINUOUS
 62
     5
 10
-234.24
 20
-225.0
 30
0.0
 11
-234.24
 21
-289.0
 31
0.0
  0
LINE
  5
116
  8
DETAIL
  6
CONTINUOUS
 62
     5
 10
-246.94
 20
-225.0
 30
0.0
 11
-246.94
 21
-289.0
 31
0.0
  0
LINE
  5
117
  8
DETAIL
  6
CONTINUOUS
 62
     5
 10
-231.06
 20
-225.0
 30
0.0
 11
-231.06
 21
-289.0
 31
0.0
  0
LINE
  5
118
  8
DETAIL
  6
CONTINUOUS
 62
     5
 10
-243.76
 20
-289.0
 30
0.0
 11
-234.24
 21
-289.0
 31
0.0
  0
LINE
  5
119
  8
DETAIL
  6
CONTINUOUS
 62
     5
 10
-246.94
 20
-289.0
 30
0.0
 11
-231.06
 21
-289.0
 31
0.0
  0
LINE
  5
11A
  8
DETAIL
  6
CONTINUOUS
 62
     5
 10
-239.0
 20
-225.0
 30
0.0
 11
-239.0
 21
-289.0
 31
0.0
  0
LINE
  5
11B
  8
NOTE
  6
CONTINUOUS
 62
     4
 10
-179.0
 20
-309.0
 30
0.0
 11
-179.0
 21
-269.0
 31
0.0
  0
LINE
  5
11C
  8
NOTE
  6
CONTINUOUS
 62
     4
 10
-159.0
 20
-289.0
 30
0.0
 11
-199.0
 21
-289.0
 31
0.0
  0
LINE
  5
11D
  8
DETAIL
  6
CONTINUOUS
 62
     5
 10
-183.76
 20
-225.0
 30
0.0
 11
-183.76
 21
-289.0
 31
0.0
  0
LINE
  5
11E
  8
DETAIL
  6
CONTINUOUS
 62
     5
 10
-174.24
 20
-225.0
 30
0.0
 11
-174.24
 21
-289.0
 31
0.0
  0
LINE
  5
11F
  8
DETAIL
  6
CONTINUOUS
 62
     5
 10
-186.94
 20
-225.0
 30
0.0
 11
-186.94
 21
-289.0
 31
0.0
  0
LINE
  5
120
  8
DETAIL
  6
CONTINUOUS
 62
     5
 10
-171.06
 20
-225.0
 30
0.0
 11
-171.06
 21
-289.0
 31
0.0
  0
LINE
  5
121
  8
DETAIL
  6
CONTINUOUS
 62
     5
 10
-183.76
 20
-289.0
 30
0.0
 11
-174.24
 21
-289.0
 31
0.0
  0
LINE
  5
122
  8
DETAIL
  6
CONTINUOUS
 62
     5
 10
-186.94
 20
-289.0
 30
0.0
 11
-171.06
 21
-289.0
 31
0.0
  0
LINE
  5
123
  8
DETAIL
  6
CONTINUOUS
 62
     5
 10
-179.0
 20
-225.0
 30
0.0
 11
-179.0
 21
-289.0
 31
0.0
  0
LINE
  5
124
  8
NOTE
  6
CONTINUOUS
 62
     4
 10
-119.0
 20
-309.0
 30
0.0
 11
-119.0
 21
-269.0
 31
0.0
  0
LINE
  5
125
  8
DETAIL
  6
CONTINUOUS
 62
     5
 10
-123.76
 20
-225.0
 30
0.0
 11
-123.76
 21
-289.0
 31
0.0
  0
LINE
  5
126
  8
DETAIL
  6
CONTINUOUS
 62
     5
 10
-114.24
 20
-225.0
 30
0.0
 11
-114.24
 21
-289.0
 31
0.0
  0
LINE
  5
127
  8
DETAIL
  6
CONTINUOUS
 62
     5
 10
-126.94
 20
-225.0
 30
0.0
 11
-126.94
 21
-289.0
 31
0.0
  0
LINE
  5
128
  8
DETAIL
  6
CONTINUOUS
 62
     5
 10
-111.06
 20
-225.0
 30
0.0
 11
-111.06
 21
-289.0
 31
0.0
  0
LINE
  5
129
  8
DETAIL
  6
CONTINUOUS
 62
     5
 10
-123.76
 20
-289.0
 30
0.0
 11
-114.24
 21
-289.0
 31
0.0
  0
LINE
  5
12A
  8
DETAIL
  6
CONTINUOUS
 62
     5
 10
-126.94
 20
-289.0
 30
0.0
 11
-111.06
 21
-289.0
 31
0.0
  0
LINE
  5
12B
  8
DETAIL
  6
CONTINUOUS
 62
     5
 10
-119.0
 20
-225.0
 30
0.0
 11
-119.0
 21
-289.0
 31
0.0
  0
LINE
  5
12C
  8
NOTE
  6
CONTINUOUS
 62
     4
 10
-59.0
 20
-309.0
 30
0.0
 11
-59.0
 21
-269.0
 31
0.0
  0
LINE
  5
12D
  8
NOTE
  6
CONTINUOUS
 62
     4
 10
-39.0
 20
-289.0
 30
0.0
 11
-79.0
 21
-289.0
 31
0.0
  0
LINE
  5
12E
  8
DETAIL
  6
CONTINUOUS
 62
     5
 10
-63.76
 20
-225.0
 30
0.0
 11
-63.76
 21
-289.0
 31
0.0
  0
LINE
  5
12F
  8
DETAIL
  6
CONTINUOUS
 62
     5
 10
-54.24
 20
-225.0
 30
0.0
 11
-54.24
 21
-289.0
 31
0.0
  0
LINE
  5
130
  8
DETAIL
  6
CONTINUOUS
 62
     5
 10
-66.94
 20
-225.0
 30
0.0
 11
-66.94
 21
-289.0
 31
0.0
  0
LINE
  5
131
  8
DETAIL
  6
CONTINUOUS
 62
     5
 10
-51.06
 20
-225.0
 30
0.0
 11
-51.06
 21
-289.0
 31
0.0
  0
LINE
  5
132
  8
DETAIL
  6
CONTINUOUS
 62
     5
 10
-63.76
 20
-289.0
 30
0.0
 11
-54.24
 21
-289.0
 31
0.0
  0
LINE
  5
133
  8
DETAIL
  6
CONTINUOUS
 62
     5
 10
-66.94
 20
-289.0
 30
0.0
 11
-51.06
 21
-289.0
 31
0.0
  0
LINE
  5
134
  8
DETAIL
  6
CONTINUOUS
 62
     5
 10
-59.0
 20
-225.0
 30
0.0
 11
-59.0
 21
-289.0
 31
0.0
  0
LINE
  5
135
  8
DETAIL
  6
CONTINUOUS
 62
     5
 10
625.0
 20
-109.3
 30
0.0
 11
555.0
 21
-109.3
 31
0.0
  0
LINE
  5
136
  8
DETAIL
  6
CONTINUOUS
 62
     5
 10
625.0
 20
-134.7
 30
0.0
 11
555.0
 21
-134.7
 31
0.0
  0
LINE
  5
137
  8
DETAIL
  6
CONTINUOUS
 62
     5
 10
625.0
 20
-109.3
 30
0.0
 11
625.0
 21
-134.7
 31
0.0
  0
LINE
  5
138
  8
NOTE
  6
CONTINUOUS
 62
     4
 10
625.0
 20
-142.0
 30
0.0
 11
625.0
 21
-102.0
 31
0.0
  0
LINE
  5
139
  8
NOTE
  6
CONTINUOUS
 62
     4
 10
605.0
 20
-122.0
 30
0.0
 11
645.0
 21
-122.0
 31
0.0
  0
TEXT
  5
13A
  8
NOTE
  6
CONTINUOUS
 62
     4
 10
1177.598658
 20
242.716967
 30
0.0
 40
50.0
  1
子機側室内ユニット合計容量
 41
0.9
  0
TEXT
  5
13B
  8
NOTE
  6
CONTINUOUS
 62
     4
 10
1179.365452
 20
173.131701
 30
0.0
 40
50.0
  1
224以下：φ15.88〈ロウ付〉（子機側付属配管を使用）
 41
0.9
  0
TEXT
  5
13C
  8
NOTE
  6
CONTINUOUS
 62
     4
 10
1104.205833
 20
99.732826
 30
0.0
 40
50.0
  1
225～400：φ19.05〈ロウ付〉
 41
0.9
  0
LINE
  5
13D
  8
DETAIL
  6
CONTINUOUS
 62
     5
 10
625.0
 20
-15.0
 30
0.0
 11
555.0
 21
-15.0
 31
0.0
  0
LINE
  5
13E
  8
DETAIL
  6
CONTINUOUS
 62
     5
 10
625.0
 20
-8.65
 30
0.0
 11
625.0
 21
-21.35
 31
0.0
  0
LINE
  5
13F
  8
NOTE
  6
CONTINUOUS
 62
     4
 10
625.0
 20
-35.0
 30
0.0
 11
625.0
 21
5.0
 31
0.0
  0
LINE
  5
140
  8
NOTE
  6
CONTINUOUS
 62
     4
 10
605.0
 20
-15.0
 30
0.0
 11
645.0
 21
-15.0
 31
0.0
  0
LINE
  5
141
  8
DETAIL
  6
CONTINUOUS
 62
     5
 10
625.0
 20
43.0
 30
0.0
 11
555.0
 21
43.0
 31
0.0
  0
LINE
  5
142
  8
DETAIL
  6
CONTINUOUS
 62
     5
 10
625.0
 20
52.525
 30
0.0
 11
625.0
 21
33.475
 31
0.0
  0
LINE
  5
143
  8
NOTE
  6
CONTINUOUS
 62
     4
 10
625.0
 20
23.0
 30
0.0
 11
625.0
 21
63.0
 31
0.0
  0
LINE
  5
144
  8
NOTE
  6
CONTINUOUS
 62
     4
 10
605.0
 20
43.0
 30
0.0
 11
645.0
 21
43.0
 31
0.0
  0
LINE
  5
145
  8
BASIS
  6
DASHDOT
 62
     6
 10
0.0
 20
285.0
 30
0.0
 11
0.0
 21
-285.0
 31
0.0
  0
LINE
  5
146
  8
BASIS
  6
DASHDOT
 62
     6
 10
-675.0
 20
0.0
 30
0.0
 11
675.0
 21
0.0
 31
0.0
  0
CIRCLE
  5
147
  8
ARRANGE
  6
CONTINUOUS
 62
     1
 10
0.0
 20
0.0
 30
0.0
 40
40.0
  0
POINT
  5
148
  8
ARRANGE
  6
CONTINUOUS
 62
     1
 10
0.0
 20
0.0
 30
0.0
  0
LINE
  5
149
  8
DETAIL
  6
CONTINUOUS
 62
     5
 10
507.937881
 20
225.0
 30
0.0
 11
507.937881
 21
295.0
 31
0.0
  0
LINE
  5
14A
  8
DETAIL
  6
CONTINUOUS
 62
     5
 10
35.94262
 20
295.0
 30
0.0
 11
507.937881
 21
295.0
 31
0.0
  0
LINE
  5
14B
  8
DETAIL
  6
CONTINUOUS
 62
     5
 10
35.94262
 20
225.0
 30
0.0
 11
35.94262
 21
295.0
 31
0.0
  0
LINE
  5
14C
  8
DETAIL
  6
CONTINUOUS
 62
     5
 10
625.0
 20
-8.65
 30
0.0
 11
555.0
 21
-8.65
 31
0.0
  0
LINE
  5
14D
  8
DETAIL
  6
CONTINUOUS
 62
     5
 10
625.0
 20
-21.35
 30
0.0
 11
555.0
 21
-21.35
 31
0.0
  0
LINE
  5
14E
  8
DETAIL
  6
CONTINUOUS
 62
     5
 10
625.0
 20
52.525
 30
0.0
 11
555.0
 21
52.525
 31
0.0
  0
LINE
  5
14F
  8
DETAIL
  6
CONTINUOUS
 62
     5
 10
625.0
 20
33.475
 30
0.0
 11
555.0
 21
33.475
 31
0.0
  0
LINE
  5
150
  8
NOTE
  6
CONTINUOUS
 62
     4
 10
-581.999539
 20
-214.0
 30
0.0
 11
-581.999539
 21
-174.0
 31
0.0
  0
LINE
  5
151
  8
NOTE
  6
CONTINUOUS
 62
     4
 10
-561.999539
 20
-194.0
 30
0.0
 11
-601.999539
 21
-194.0
 31
0.0
  0
TEXT
  5
152
  8
NOTE
  6
CONTINUOUS
 62
     4
 10
-2048.631254
 20
-223.237821
 30
0.0
 40
50.0
  1
280,335形：φ22.2〈ロウ付〉（付属配管を使用）
 41
0.9
  0
TEXT
  5
153
  8
NOTE
  6
CONTINUOUS
 62
     4
 10
-2197.96674
 20
-359.722144
 30
0.0
 40
50.0
  1
450.500.560
 41
0.9
  0
TEXT
  5
154
  8
NOTE
  6
CONTINUOUS
 62
     4
 10
-2195.737869
 20
-428.765682
 30
0.0
 40
50.0
  1
630.674.730形：φ28.58〈ロウ付〉
 41
0.9
  0
TEXT
  5
155
  8
NOTE
  6
CONTINUOUS
 62
     4
 10
-2438.74914
 20
538.155082
 30
0.0
 40
50.0
  1
280,335,400形：φ19.05〈ロウ付〉（付属配管を使用）
 41
0.9
  0
TEXT
  5
156
  8
NOTE
  6
CONTINUOUS
 62
     4
 10
-2436.589744
 20
467.125958
 30
0.0
 40
50.0
  1
450.500.560形：φ22.2〈ロウ付〉
 41
0.9
  0
TEXT
  5
157
  8
NOTE
  6
CONTINUOUS
 62
     4
 10
-2431.457092
 20
395.17094
 30
0.0
 40
50.0
  1
630.674.730形：φ25.4〈ロウ付〉（付属配管を使用）
 41
0.9
  0
LINE
  5
158
  8
SIZE
  6
CONTINUOUS
 62
    30
 10
-555.0
 20
-245.0
 30
0.0
 11
-555.0
 21
-590.106391
 31
0.0
  0
LINE
  5
159
  8
SIZE
  6
CONTINUOUS
 62
    30
 10
-479.0
 20
-309.0
 30
0.0
 11
-479.0
 21
-590.106391
 31
0.0
  0
LINE
  5
15A
  8
SIZE
  6
CONTINUOUS
 62
    30
 10
-565.0
 20
-560.106391
 30
0.0
 11
-575.0
 21
-560.106391
 31
0.0
  0
LINE
  5
15B
  8
SIZE
  6
CONTINUOUS
 62
    30
 10
-469.0
 20
-560.106391
 30
0.0
 11
-459.0
 21
-560.106391
 31
0.0
  0
LINE
  5
15C
  8
SIZE
  6
CONTINUOUS
 62
    30
 10
-555.0
 20
-560.106391
 30
0.0
 11
-479.0
 21
-560.106391
 31
0.0
  0
CIRCLE
  5
15D
  8
SIZE
  6
CONTINUOUS
 62
    30
 10
-555.0
 20
-560.106391
 30
0.0
 40
5.0
  0
LINE
  5
15E
  8
SIZE
  6
CONTINUOUS
 62
    30
 10
-560.0
 20
-560.106391
 30
0.0
 11
-565.0
 21
-560.106391
 31
0.0
  0
CIRCLE
  5
15F
  8
SIZE
  6
CONTINUOUS
 62
    30
 10
-479.0
 20
-560.106391
 30
0.0
 40
5.0
  0
LINE
  5
160
  8
SIZE
  6
CONTINUOUS
 62
    30
 10
-474.0
 20
-560.106391
 30
0.0
 11
-469.0
 21
-560.106391
 31
0.0
  0
TEXT
  5
161
  8
SIZE
  6
CONTINUOUS
 62
    30
 10
-562.257143
 20
-540.106391
 30
0.0
 40
64.0
  1
76
 41
0.9
 72
     1
 11
-517.0
 21
-540.106391
 31
0.0
  0
POINT
  5
162
  8
DEFPOINTS
  6
CONTINUOUS
 62
     7
 10
-555.0
 20
-225.0
 30
0.0
  0
POINT
  5
163
  8
DEFPOINTS
  6
CONTINUOUS
 62
     7
 10
-479.0
 20
-289.0
 30
0.0
  0
POINT
  5
164
  8
DEFPOINTS
  6
CONTINUOUS
 62
     7
 10
-479.0
 20
-560.106391
 30
0.0
  0
LINE
  5
165
  8
SIZE
  6
CONTINUOUS
 62
    30
 10
-555.0
 20
-245.0
 30
0.0
 11
-555.0
 21
-827.79476
 31
0.0
  0
LINE
  5
166
  8
SIZE
  6
CONTINUOUS
 62
    30
 10
555.0
 20
-245.0
 30
0.0
 11
555.0
 21
-827.79476
 31
0.0
  0
LINE
  5
167
  8
SIZE
  6
CONTINUOUS
 62
    30
 10
-545.0
 20
-797.79476
 30
0.0
 11
545.0
 21
-797.79476
 31
0.0
  0
CIRCLE
  5
168
  8
SIZE
  6
CONTINUOUS
 62
    30
 10
-555.0
 20
-797.79476
 30
0.0
 40
5.0
  0
LINE
  5
169
  8
SIZE
  6
CONTINUOUS
 62
    30
 10
-550.0
 20
-797.79476
 30
0.0
 11
-545.0
 21
-797.79476
 31
0.0
  0
CIRCLE
  5
16A
  8
SIZE
  6
CONTINUOUS
 62
    30
 10
555.0
 20
-797.79476
 30
0.0
 40
5.0
  0
LINE
  5
16B
  8
SIZE
  6
CONTINUOUS
 62
    30
 10
550.0
 20
-797.79476
 30
0.0
 11
545.0
 21
-797.79476
 31
0.0
  0
TEXT
  5
16C
  8
SIZE
  6
CONTINUOUS
 62
    30
 10
-85.028571
 20
-777.79476
 30
0.0
 40
64.0
  1
1110
 41
0.9
 72
     1
 11
0.0
 21
-777.79476
 31
0.0
  0
POINT
  5
16D
  8
DEFPOINTS
  6
CONTINUOUS
 62
     7
 10
-555.0
 20
-225.0
 30
0.0
  0
POINT
  5
16E
  8
DEFPOINTS
  6
CONTINUOUS
 62
     7
 10
555.0
 20
-225.0
 30
0.0
  0
POINT
  5
16F
  8
DEFPOINTS
  6
CONTINUOUS
 62
     7
 10
555.0
 20
-797.79476
 30
0.0
  0
LINE
  5
170
  8
SIZE
  6
CONTINUOUS
 62
    30
 10
-581.999539
 20
-214.0
 30
0.0
 11
-581.999539
 21
-931.610009
 31
0.0
  0
LINE
  5
171
  8
SIZE
  6
CONTINUOUS
 62
    30
 10
582.000461
 20
-206.0
 30
0.0
 11
582.000461
 21
-931.610009
 31
0.0
  0
LINE
  5
172
  8
SIZE
  6
CONTINUOUS
 62
    30
 10
-571.999539
 20
-901.610009
 30
0.0
 11
572.000461
 21
-901.610009
 31
0.0
  0
CIRCLE
  5
173
  8
SIZE
  6
CONTINUOUS
 62
    30
 10
-581.999539
 20
-901.610009
 30
0.0
 40
5.0
  0
LINE
  5
174
  8
SIZE
  6
CONTINUOUS
 62
    30
 10
-576.999539
 20
-901.610009
 30
0.0
 11
-571.999539
 21
-901.610009
 31
0.0
  0
CIRCLE
  5
175
  8
SIZE
  6
CONTINUOUS
 62
    30
 10
582.000461
 20
-901.610009
 30
0.0
 40
5.0
  0
LINE
  5
176
  8
SIZE
  6
CONTINUOUS
 62
    30
 10
577.000461
 20
-901.610009
 30
0.0
 11
572.000461
 21
-901.610009
 31
0.0
  0
TEXT
  5
177
  8
SIZE
  6
CONTINUOUS
 62
    30
 10
-337.426158
 20
-881.610009
 30
0.0
 40
64.0
  1
1164
 41
0.9
 72
     1
 11
-245.540444
 21
-881.610009
 31
0.0
  0
POINT
  5
178
  8
DEFPOINTS
  6
CONTINUOUS
 62
     7
 10
-581.999539
 20
-194.0
 30
0.0
  0
POINT
  5
179
  8
DEFPOINTS
  6
CONTINUOUS
 62
     7
 10
582.000461
 20
-186.0
 30
0.0
  0
POINT
  5
17A
  8
DEFPOINTS
  6
CONTINUOUS
 62
     7
 10
582.000461
 20
-901.610009
 30
0.0
  0
LINE
  5
17B
  8
SIZE
  6
CONTINUOUS
 62
    30
 10
575.000461
 20
214.0
 30
0.0
 11
575.000461
 21
306.244024
 31
0.0
  0
LINE
  5
17C
  8
SIZE
  6
CONTINUOUS
 62
    30
 10
589.000456
 20
222.008063
 30
0.0
 11
589.000456
 21
306.244024
 31
0.0
  0
LINE
  5
17D
  8
SIZE
  6
CONTINUOUS
 62
    30
 10
565.000461
 20
276.244024
 30
0.0
 11
555.000461
 21
276.244024
 31
0.0
  0
LINE
  5
17E
  8
SIZE
  6
CONTINUOUS
 62
    30
 10
599.000456
 20
276.244024
 30
0.0
 11
609.000456
 21
276.244024
 31
0.0
  0
LINE
  5
17F
  8
SIZE
  6
CONTINUOUS
 62
    30
 10
575.000461
 20
276.244024
 30
0.0
 11
589.000456
 21
276.244024
 31
0.0
  0
CIRCLE
  5
180
  8
SIZE
  6
CONTINUOUS
 62
    30
 10
575.000461
 20
276.244024
 30
0.0
 40
5.0
  0
LINE
  5
181
  8
SIZE
  6
CONTINUOUS
 62
    30
 10
570.000461
 20
276.244024
 30
0.0
 11
565.000461
 21
276.244024
 31
0.0
  0
CIRCLE
  5
182
  8
SIZE
  6
CONTINUOUS
 62
    30
 10
589.000456
 20
276.244024
 30
0.0
 40
5.0
  0
LINE
  5
183
  8
SIZE
  6
CONTINUOUS
 62
    30
 10
594.000456
 20
276.244024
 30
0.0
 11
599.000456
 21
276.244024
 31
0.0
  0
TEXT
  5
184
  8
SIZE
  6
CONTINUOUS
 62
    30
 10
539.486173
 20
296.244024
 30
0.0
 40
64.0
  1
14
 41
0.9
 72
     1
 11
582.000459
 21
296.244024
 31
0.0
  0
POINT
  5
185
  8
DEFPOINTS
  6
CONTINUOUS
 62
     7
 10
575.000461
 20
194.0
 30
0.0
  0
POINT
  5
186
  8
DEFPOINTS
  6
CONTINUOUS
 62
     7
 10
589.000456
 20
202.008063
 30
0.0
  0
POINT
  5
187
  8
DEFPOINTS
  6
CONTINUOUS
 62
     7
 10
589.000456
 20
276.244024
 30
0.0
  0
LINE
  5
188
  8
SIZE
  6
CONTINUOUS
 62
    30
 10
609.000461
 20
200.0
 30
0.0
 11
733.466242
 21
200.0
 31
0.0
  0
LINE
  5
189
  8
SIZE
  6
CONTINUOUS
 62
    30
 10
609.000461
 20
188.0
 30
0.0
 11
733.466242
 21
188.0
 31
0.0
  0
LINE
  5
18A
  8
SIZE
  6
CONTINUOUS
 62
    30
 10
703.466242
 20
210.0
 30
0.0
 11
703.466242
 21
220.0
 31
0.0
  0
LINE
  5
18B
  8
SIZE
  6
CONTINUOUS
 62
    30
 10
703.466242
 20
178.0
 30
0.0
 11
703.466242
 21
168.0
 31
0.0
  0
LINE
  5
18C
  8
SIZE
  6
CONTINUOUS
 62
    30
 10
703.466242
 20
200.0
 30
0.0
 11
703.466242
 21
188.0
 31
0.0
  0
CIRCLE
  5
18D
  8
SIZE
  6
CONTINUOUS
 62
    30
 10
703.466242
 20
200.0
 30
0.0
 40
5.0
  0
LINE
  5
18E
  8
SIZE
  6
CONTINUOUS
 62
    30
 10
703.466242
 20
205.0
 30
0.0
 11
703.466242
 21
210.0
 31
0.0
  0
CIRCLE
  5
18F
  8
SIZE
  6
CONTINUOUS
 62
    30
 10
703.466242
 20
188.0
 30
0.0
 40
5.0
  0
LINE
  5
190
  8
SIZE
  6
CONTINUOUS
 62
    30
 10
703.466242
 20
183.0
 30
0.0
 11
703.466242
 21
178.0
 31
0.0
  0
TEXT
  5
191
  8
SIZE
  6
CONTINUOUS
 62
    30
 10
683.466242
 20
152.857143
 30
0.0
 40
64.0
  1
12
 50
90.0
 41
0.9
 72
     1
 11
683.466242
 21
194.0
 31
0.0
  0
POINT
  5
192
  8
DEFPOINTS
  6
CONTINUOUS
 62
     7
 10
589.000461
 20
200.0
 30
0.0
  0
POINT
  5
193
  8
DEFPOINTS
  6
CONTINUOUS
 62
     7
 10
589.000461
 20
188.0
 30
0.0
  0
POINT
  5
194
  8
DEFPOINTS
  6
CONTINUOUS
 62
     7
 10
703.466242
 20
188.0
 30
0.0
  0
LINE
  5
195
  8
SIZE
  6
CONTINUOUS
 62
    30
 10
601.999539
 20
209.0
 30
0.0
 11
848.017218
 21
209.0
 31
0.0
  0
LINE
  5
196
  8
SIZE
  6
CONTINUOUS
 62
    30
 10
601.999539
 20
179.0
 30
0.0
 11
848.017218
 21
179.0
 31
0.0
  0
LINE
  5
197
  8
SIZE
  6
CONTINUOUS
 62
    30
 10
818.017218
 20
219.0
 30
0.0
 11
818.017218
 21
229.0
 31
0.0
  0
LINE
  5
198
  8
SIZE
  6
CONTINUOUS
 62
    30
 10
818.017218
 20
169.0
 30
0.0
 11
818.017218
 21
159.0
 31
0.0
  0
LINE
  5
199
  8
SIZE
  6
CONTINUOUS
 62
    30
 10
818.017218
 20
209.0
 30
0.0
 11
818.017218
 21
179.0
 31
0.0
  0
CIRCLE
  5
19A
  8
SIZE
  6
CONTINUOUS
 62
    30
 10
818.017218
 20
209.0
 30
0.0
 40
5.0
  0
LINE
  5
19B
  8
SIZE
  6
CONTINUOUS
 62
    30
 10
818.017218
 20
214.0
 30
0.0
 11
818.017218
 21
219.0
 31
0.0
  0
CIRCLE
  5
19C
  8
SIZE
  6
CONTINUOUS
 62
    30
 10
818.017218
 20
179.0
 30
0.0
 40
5.0
  0
LINE
  5
19D
  8
SIZE
  6
CONTINUOUS
 62
    30
 10
818.017218
 20
174.0
 30
0.0
 11
818.017218
 21
169.0
 31
0.0
  0
TEXT
  5
19E
  8
SIZE
  6
CONTINUOUS
 62
    30
 10
798.017218
 20
147.371429
 30
0.0
 40
64.0
  1
30
 50
90.0
 41
0.9
 72
     1
 11
798.017218
 21
194.0
 31
0.0
  0
POINT
  5
19F
  8
DEFPOINTS
  6
CONTINUOUS
 62
     7
 10
581.999539
 20
209.0
 30
0.0
  0
POINT
  5
1A0
  8
DEFPOINTS
  6
CONTINUOUS
 62
     7
 10
581.999539
 20
179.0
 30
0.0
  0
POINT
  5
1A1
  8
DEFPOINTS
  6
CONTINUOUS
 62
     7
 10
818.017218
 20
179.0
 30
0.0
  0
LINE
  5
1A2
  8
SIZE
  6
CONTINUOUS
 62
    30
 10
527.937881
 20
295.0
 30
0.0
 11
1000.469855
 21
295.0
 31
0.0
  0
LINE
  5
1A3
  8
SIZE
  6
CONTINUOUS
 62
    30
 10
575.0
 20
225.0
 30
0.0
 11
1000.469855
 21
225.0
 31
0.0
  0
LINE
  5
1A4
  8
SIZE
  6
CONTINUOUS
 62
    30
 10
970.469855
 20
305.0
 30
0.0
 11
970.469855
 21
315.0
 31
0.0
  0
LINE
  5
1A5
  8
SIZE
  6
CONTINUOUS
 62
    30
 10
970.469855
 20
215.0
 30
0.0
 11
970.469855
 21
205.0
 31
0.0
  0
LINE
  5
1A6
  8
SIZE
  6
CONTINUOUS
 62
    30
 10
970.469855
 20
295.0
 30
0.0
 11
970.469855
 21
225.0
 31
0.0
  0
CIRCLE
  5
1A7
  8
SIZE
  6
CONTINUOUS
 62
    30
 10
970.469855
 20
295.0
 30
0.0
 40
5.0
  0
LINE
  5
1A8
  8
SIZE
  6
CONTINUOUS
 62
    30
 10
970.469855
 20
300.0
 30
0.0
 11
970.469855
 21
305.0
 31
0.0
  0
CIRCLE
  5
1A9
  8
SIZE
  6
CONTINUOUS
 62
    30
 10
970.469855
 20
225.0
 30
0.0
 40
5.0
  0
LINE
  5
1AA
  8
SIZE
  6
CONTINUOUS
 62
    30
 10
970.469855
 20
220.0
 30
0.0
 11
970.469855
 21
215.0
 31
0.0
  0
TEXT
  5
1AB
  8
SIZE
  6
CONTINUOUS
 62
    30
 10
950.469855
 20
213.371429
 30
0.0
 40
64.0
  1
70
 50
90.0
 41
0.9
 72
     1
 11
950.469855
 21
260.0
 31
0.0
  0
POINT
  5
1AC
  8
DEFPOINTS
  6
CONTINUOUS
 62
     7
 10
507.937881
 20
295.0
 30
0.0
  0
POINT
  5
1AD
  8
DEFPOINTS
  6
CONTINUOUS
 62
     7
 10
555.0
 20
225.0
 30
0.0
  0
POINT
  5
1AE
  8
DEFPOINTS
  6
CONTINUOUS
 62
     7
 10
970.469855
 20
225.0
 30
0.0
  0
LINE
  5
1AF
  8
SIZE
  6
CONTINUOUS
 62
    30
 10
575.0
 20
225.0
 30
0.0
 11
1000.184358
 21
225.0
 31
0.0
  0
LINE
  5
1B0
  8
SIZE
  6
CONTINUOUS
 62
    30
 10
575.0
 20
-225.0
 30
0.0
 11
1000.184358
 21
-225.0
 31
0.0
  0
LINE
  5
1B1
  8
SIZE
  6
CONTINUOUS
 62
    30
 10
970.184358
 20
215.0
 30
0.0
 11
970.184358
 21
-215.0
 31
0.0
  0
CIRCLE
  5
1B2
  8
SIZE
  6
CONTINUOUS
 62
    30
 10
970.184358
 20
225.0
 30
0.0
 40
5.0
  0
LINE
  5
1B3
  8
SIZE
  6
CONTINUOUS
 62
    30
 10
970.184358
 20
220.0
 30
0.0
 11
970.184358
 21
215.0
 31
0.0
  0
CIRCLE
  5
1B4
  8
SIZE
  6
CONTINUOUS
 62
    30
 10
970.184358
 20
-225.0
 30
0.0
 40
5.0
  0
LINE
  5
1B5
  8
SIZE
  6
CONTINUOUS
 62
    30
 10
970.184358
 20
-220.0
 30
0.0
 11
970.184358
 21
-215.0
 31
0.0
  0
TEXT
  5
1B6
  8
SIZE
  6
CONTINUOUS
 62
    30
 10
950.184358
 20
-74.057143
 30
0.0
 40
64.0
  1
450
 50
90.0
 41
0.9
 72
     1
 11
950.184358
 21
0.0
 31
0.0
  0
POINT
  5
1B7
  8
DEFPOINTS
  6
CONTINUOUS
 62
     7
 10
555.0
 20
225.0
 30
0.0
  0
POINT
  5
1B8
  8
DEFPOINTS
  6
CONTINUOUS
 62
     7
 10
555.0
 20
-225.0
 30
0.0
  0
POINT
  5
1B9
  8
DEFPOINTS
  6
CONTINUOUS
 62
     7
 10
970.184358
 20
-225.0
 30
0.0
  0
LINE
  5
1BA
  8
SIZE
  6
CONTINUOUS
 62
    30
 10
602.000461
 20
194.0
 30
0.0
 11
898.161574
 21
194.0
 31
0.0
  0
LINE
  5
1BB
  8
SIZE
  6
CONTINUOUS
 62
    30
 10
601.999539
 20
-194.0
 30
0.0
 11
898.161574
 21
-194.0
 31
0.0
  0
LINE
  5
1BC
  8
SIZE
  6
CONTINUOUS
 62
    30
 10
868.161574
 20
184.0
 30
0.0
 11
868.161574
 21
-184.0
 31
0.0
  0
LINE
  5
1BD
  8
SIZE
  6
CONTINUOUS
 62
    30
 10
868.161574
 20
-194.0
 30
0.0
 11
868.161574
 21
-799.538258
 31
0.0
  0
CIRCLE
  5
1BE
  8
SIZE
  6
CONTINUOUS
 62
    30
 10
868.161574
 20
194.0
 30
0.0
 40
5.0
  0
LINE
  5
1BF
  8
SIZE
  6
CONTINUOUS
 62
    30
 10
868.161574
 20
189.0
 30
0.0
 11
868.161574
 21
184.0
 31
0.0
  0
CIRCLE
  5
1C0
  8
SIZE
  6
CONTINUOUS
 62
    30
 10
868.161574
 20
-194.0
 30
0.0
 40
5.0
  0
LINE
  5
1C1
  8
SIZE
  6
CONTINUOUS
 62
    30
 10
868.161574
 20
-189.0
 30
0.0
 11
868.161574
 21
-184.0
 31
0.0
  0
TEXT
  5
1C2
  8
SIZE
  6
CONTINUOUS
 62
    30
 10
848.161574
 20
-779.538258
 30
0.0
 40
64.0
  1
388
 50
90.0
 41
0.9
 72
     1
 11
848.161574
 21
-705.481115
 31
0.0
  0
POINT
  5
1C3
  8
DEFPOINTS
  6
CONTINUOUS
 62
     7
 10
582.000461
 20
194.0
 30
0.0
  0
POINT
  5
1C4
  8
DEFPOINTS
  6
CONTINUOUS
 62
     7
 10
581.999539
 20
-194.0
 30
0.0
  0
POINT
  5
1C5
  8
DEFPOINTS
  6
CONTINUOUS
 62
     7
 10
868.161574
 20
-194.0
 30
0.0
  0
LINE
  5
1C6
  8
SIZE
  6
CONTINUOUS
 62
    30
 10
-555.0
 20
-245.0
 30
0.0
 11
-555.0
 21
-384.939662
 31
0.0
  0
LINE
  5
1C7
  8
SIZE
  6
CONTINUOUS
 62
    30
 10
-645.0
 20
-154.7
 30
0.0
 11
-645.0
 21
-384.939662
 31
0.0
  0
LINE
  5
1C8
  8
SIZE
  6
CONTINUOUS
 62
    30
 10
-545.0
 20
-354.939662
 30
0.0
 11
-535.0
 21
-354.939662
 31
0.0
  0
LINE
  5
1C9
  8
SIZE
  6
CONTINUOUS
 62
    30
 10
-655.0
 20
-354.939662
 30
0.0
 11
-665.0
 21
-354.939662
 31
0.0
  0
LINE
  5
1CA
  8
SIZE
  6
CONTINUOUS
 62
    30
 10
-555.0
 20
-354.939662
 30
0.0
 11
-645.0
 21
-354.939662
 31
0.0
  0
CIRCLE
  5
1CB
  8
SIZE
  6
CONTINUOUS
 62
    30
 10
-555.0
 20
-354.939662
 30
0.0
 40
5.0
  0
LINE
  5
1CC
  8
SIZE
  6
CONTINUOUS
 62
    30
 10
-550.0
 20
-354.939662
 30
0.0
 11
-545.0
 21
-354.939662
 31
0.0
  0
CIRCLE
  5
1CD
  8
SIZE
  6
CONTINUOUS
 62
    30
 10
-645.0
 20
-354.939662
 30
0.0
 40
5.0
  0
LINE
  5
1CE
  8
SIZE
  6
CONTINUOUS
 62
    30
 10
-650.0
 20
-354.939662
 30
0.0
 11
-655.0
 21
-354.939662
 31
0.0
  0
TEXT
  5
1CF
  8
SIZE
  6
CONTINUOUS
 62
    30
 10
-646.628571
 20
-334.939662
 30
0.0
 40
64.0
  1
90
 41
0.9
 72
     1
 11
-600.0
 21
-334.939662
 31
0.0
  0
POINT
  5
1D0
  8
DEFPOINTS
  6
CONTINUOUS
 62
     7
 10
-555.0
 20
-225.0
 30
0.0
  0
POINT
  5
1D1
  8
DEFPOINTS
  6
CONTINUOUS
 62
     7
 10
-645.0
 20
-134.7
 30
0.0
  0
POINT
  5
1D2
  8
DEFPOINTS
  6
CONTINUOUS
 62
     7
 10
-645.0
 20
-354.939662
 30
0.0
  0
LINE
  5
1D3
  8
SIZE
  6
CONTINUOUS
 62
    30
 10
-555.0
 20
245.0
 30
0.0
 11
-555.0
 21
356.256678
 31
0.0
  0
LINE
  5
1D4
  8
SIZE
  6
CONTINUOUS
 62
    30
 10
-755.0
 20
148.0
 30
0.0
 11
-755.0
 21
356.256678
 31
0.0
  0
LINE
  5
1D5
  8
SIZE
  6
CONTINUOUS
 62
    30
 10
-565.0
 20
326.256678
 30
0.0
 11
-745.0
 21
326.256678
 31
0.0
  0
CIRCLE
  5
1D6
  8
SIZE
  6
CONTINUOUS
 62
    30
 10
-555.0
 20
326.256678
 30
0.0
 40
5.0
  0
LINE
  5
1D7
  8
SIZE
  6
CONTINUOUS
 62
    30
 10
-560.0
 20
326.256678
 30
0.0
 11
-565.0
 21
326.256678
 31
0.0
  0
CIRCLE
  5
1D8
  8
SIZE
  6
CONTINUOUS
 62
    30
 10
-755.0
 20
326.256678
 30
0.0
 40
5.0
  0
LINE
  5
1D9
  8
SIZE
  6
CONTINUOUS
 62
    30
 10
-750.0
 20
326.256678
 30
0.0
 11
-745.0
 21
326.256678
 31
0.0
  0
TEXT
  5
1DA
  8
SIZE
  6
CONTINUOUS
 62
    30
 10
-721.557143
 20
346.256678
 30
0.0
 40
64.0
  1
200
 41
0.9
 72
     1
 11
-647.5
 21
346.256678
 31
0.0
  0
POINT
  5
1DB
  8
DEFPOINTS
  6
CONTINUOUS
 62
     7
 10
-555.0
 20
225.0
 30
0.0
  0
POINT
  5
1DC
  8
DEFPOINTS
  6
CONTINUOUS
 62
     7
 10
-755.0
 20
128.0
 30
0.0
  0
POINT
  5
1DD
  8
DEFPOINTS
  6
CONTINUOUS
 62
     7
 10
-755.0
 20
326.256678
 30
0.0
  0
TEXT
  5
1DE
  8
NOTE
  6
CONTINUOUS
 62
     4
 10
1089.048635
 20
322.767431
 30
0.0
 40
64.0
  1
分流コントローラ子機配管接続口（高圧）
 41
0.9
  0
TEXT
  5
1DF
  8
NOTE
  6
CONTINUOUS
 62
     4
 10
1099.037561
 20
-107.743125
 30
0.0
 40
64.0
  1
分流コントローラ子機配管接続口（液）
 41
0.9
  0
TEXT
  5
1E0
  8
NOTE
  6
CONTINUOUS
 62
     4
 10
1121.937059
 20
-192.954728
 30
0.0
 40
50.0
  1
子機側室内ユニット合計容量
 41
0.9
  0
TEXT
  5
1E1
  8
NOTE
  6
CONTINUOUS
 62
     4
 10
1123.703853
 20
-262.539995
 30
0.0
 40
50.0
  1
335以下：φ9.52〈ロウ付〉
 41
0.9
  0
TEXT
  5
1E2
  8
NOTE
  6
CONTINUOUS
 62
     4
 10
1048.435016
 20
-335.93887
 30
0.0
 40
50.0
  1
336～450：φ12.7〈ロウ付〉（子機側付属配管を使用）
 41
0.9
  0
TEXT
  5
1E3
  8
NOTE
  6
CONTINUOUS
 62
     4
 10
1118.114175
 20
-518.341099
 30
0.0
 40
64.0
  1
分流コントローラ子機配管接続口（低圧）
 41
0.9
  0
TEXT
  5
1E4
  8
NOTE
  6
CONTINUOUS
 62
     4
 10
1124.695279
 20
-600.747906
 30
0.0
 40
50.0
  1
子機側室内ユニット合計容量
 41
0.9
  0
TEXT
  5
1E5
  8
NOTE
  6
CONTINUOUS
 62
     4
 10
1126.462073
 20
-683.154713
 30
0.0
 40
50.0
  1
224以下：φ19.05〈ロウ付〉（子機側付属配管を使用）
 41
0.9
  0
TEXT
  5
1E6
  8
NOTE
  6
CONTINUOUS
 62
     4
 10
1055.798691
 20
-761.107097
 30
0.0
 40
50.0
  1
225～335：φ22.2〈ロウ付〉
 41
0.9
  0
TEXT
  5
1E7
  8
NOTE
  6
CONTINUOUS
 62
     4
 10
1052.892787
 20
-832.377846
 30
0.0
 40
50.0
  1
336～400：φ25.4〈ロウ付〉（子機側付属配管を使用）
 41
0.9
  0
LINE
  5
1E8
  8
SIZE
  6
CONTINUOUS
 62
    30
 10
555.0
 20
-245.0
 30
0.0
 11
555.0
 21
-368.981746
 31
0.0
  0
LINE
  5
1E9
  8
SIZE
  6
CONTINUOUS
 62
    30
 10
625.0
 20
-154.7
 30
0.0
 11
625.0
 21
-368.981746
 31
0.0
  0
LINE
  5
1EA
  8
SIZE
  6
CONTINUOUS
 62
    30
 10
545.0
 20
-338.981746
 30
0.0
 11
535.0
 21
-338.981746
 31
0.0
  0
LINE
  5
1EB
  8
SIZE
  6
CONTINUOUS
 62
    30
 10
635.0
 20
-338.981746
 30
0.0
 11
645.0
 21
-338.981746
 31
0.0
  0
LINE
  5
1EC
  8
SIZE
  6
CONTINUOUS
 62
    30
 10
555.0
 20
-338.981746
 30
0.0
 11
625.0
 21
-338.981746
 31
0.0
  0
CIRCLE
  5
1ED
  8
SIZE
  6
CONTINUOUS
 62
    30
 10
555.0
 20
-338.981746
 30
0.0
 40
5.0
  0
LINE
  5
1EE
  8
SIZE
  6
CONTINUOUS
 62
    30
 10
550.0
 20
-338.981746
 30
0.0
 11
545.0
 21
-338.981746
 31
0.0
  0
CIRCLE
  5
1EF
  8
SIZE
  6
CONTINUOUS
 62
    30
 10
625.0
 20
-338.981746
 30
0.0
 40
5.0
  0
LINE
  5
1F0
  8
SIZE
  6
CONTINUOUS
 62
    30
 10
630.0
 20
-338.981746
 30
0.0
 11
635.0
 21
-338.981746
 31
0.0
  0
TEXT
  5
1F1
  8
SIZE
  6
CONTINUOUS
 62
    30
 10
543.371429
 20
-318.981746
 30
0.0
 40
64.0
  1
70
 41
0.9
 72
     1
 11
590.0
 21
-318.981746
 31
0.0
  0
POINT
  5
1F2
  8
DEFPOINTS
  6
CONTINUOUS
 62
     7
 10
555.0
 20
-225.0
 30
0.0
  0
POINT
  5
1F3
  8
DEFPOINTS
  6
CONTINUOUS
 62
     7
 10
625.0
 20
-134.7
 30
0.0
  0
POINT
  5
1F4
  8
DEFPOINTS
  6
CONTINUOUS
 62
     7
 10
625.0
 20
-338.981746
 30
0.0
  0
LINE
  5
1F5
  8
SIZE
  6
CONTINUOUS
 62
    30
 10
555.0
 20
-41.35
 30
0.0
 11
555.0
 21
-96.048134
 31
0.0
  0
LINE
  5
1F6
  8
SIZE
  6
CONTINUOUS
 62
    30
 10
625.0
 20
-41.35
 30
0.0
 11
625.0
 21
-96.048134
 31
0.0
  0
LINE
  5
1F7
  8
SIZE
  6
CONTINUOUS
 62
    30
 10
565.0
 20
-66.048134
 30
0.0
 11
615.0
 21
-66.048134
 31
0.0
  0
LINE
  5
1F8
  8
SIZE
  6
CONTINUOUS
 62
    30
 10
625.0
 20
-66.048134
 30
0.0
 11
768.257143
 21
-66.048134
 31
0.0
  0
CIRCLE
  5
1F9
  8
SIZE
  6
CONTINUOUS
 62
    30
 10
555.0
 20
-66.048134
 30
0.0
 40
5.0
  0
LINE
  5
1FA
  8
SIZE
  6
CONTINUOUS
 62
    30
 10
560.0
 20
-66.048134
 30
0.0
 11
565.0
 21
-66.048134
 31
0.0
  0
CIRCLE
  5
1FB
  8
SIZE
  6
CONTINUOUS
 62
    30
 10
625.0
 20
-66.048134
 30
0.0
 40
5.0
  0
LINE
  5
1FC
  8
SIZE
  6
CONTINUOUS
 62
    30
 10
620.0
 20
-66.048134
 30
0.0
 11
615.0
 21
-66.048134
 31
0.0
  0
TEXT
  5
1FD
  8
SIZE
  6
CONTINUOUS
 62
    30
 10
655.0
 20
-46.048134
 30
0.0
 40
64.0
  1
70
 41
0.9
 72
     1
 11
701.628571
 21
-46.048134
 31
0.0
  0
POINT
  5
1FE
  8
DEFPOINTS
  6
CONTINUOUS
 62
     7
 10
555.0
 20
-21.35
 30
0.0
  0
POINT
  5
1FF
  8
DEFPOINTS
  6
CONTINUOUS
 62
     7
 10
625.0
 20
-21.35
 30
0.0
  0
POINT
  5
200
  8
DEFPOINTS
  6
CONTINUOUS
 62
     7
 10
625.0
 20
-66.048134
 30
0.0
  0
LINE
  5
201
  8
SIZE
  6
CONTINUOUS
 62
    30
 10
555.0
 20
72.525
 30
0.0
 11
555.0
 21
99.706735
 31
0.0
  0
LINE
  5
202
  8
SIZE
  6
CONTINUOUS
 62
    30
 10
625.0
 20
72.525
 30
0.0
 11
625.0
 21
99.706735
 31
0.0
  0
LINE
  5
203
  8
SIZE
  6
CONTINUOUS
 62
    30
 10
545.0
 20
69.706735
 30
0.0
 11
535.0
 21
69.706735
 31
0.0
  0
LINE
  5
204
  8
SIZE
  6
CONTINUOUS
 62
    30
 10
635.0
 20
69.706735
 30
0.0
 11
645.0
 21
69.706735
 31
0.0
  0
LINE
  5
205
  8
SIZE
  6
CONTINUOUS
 62
    30
 10
555.0
 20
69.706735
 30
0.0
 11
625.0
 21
69.706735
 31
0.0
  0
CIRCLE
  5
206
  8
SIZE
  6
CONTINUOUS
 62
    30
 10
555.0
 20
69.706735
 30
0.0
 40
5.0
  0
LINE
  5
207
  8
SIZE
  6
CONTINUOUS
 62
    30
 10
550.0
 20
69.706735
 30
0.0
 11
545.0
 21
69.706735
 31
0.0
  0
CIRCLE
  5
208
  8
SIZE
  6
CONTINUOUS
 62
    30
 10
625.0
 20
69.706735
 30
0.0
 40
5.0
  0
LINE
  5
209
  8
SIZE
  6
CONTINUOUS
 62
    30
 10
630.0
 20
69.706735
 30
0.0
 11
635.0
 21
69.706735
 31
0.0
  0
TEXT
  5
20A
  8
SIZE
  6
CONTINUOUS
 62
    30
 10
543.371429
 20
89.706735
 30
0.0
 40
64.0
  1
70
 41
0.9
 72
     1
 11
590.0
 21
89.706735
 31
0.0
  0
POINT
  5
20B
  8
DEFPOINTS
  6
CONTINUOUS
 62
     7
 10
555.0
 20
52.525
 30
0.0
  0
POINT
  5
20C
  8
DEFPOINTS
  6
CONTINUOUS
 62
     7
 10
625.0
 20
52.525
 30
0.0
  0
POINT
  5
20D
  8
DEFPOINTS
  6
CONTINUOUS
 62
     7
 10
625.0
 20
69.706735
 30
0.0
  0
POLYLINE
  5
20E
  8
NOTE
  6
CONTINUOUS
 62
     4
 66
     1
 10
0.0
 20
0.0
 30
0.0
  0
VERTEX
  5
20F
  8
NOTE
  6
CONTINUOUS
 62
     4
 10
625.0
 20
-122.0
 30
0.0
  0
VERTEX
  5
210
  8
NOTE
  6
CONTINUOUS
 62
     4
 10
1088.114175
 20
-540.613214
 30
0.0
  0
VERTEX
  5
211
  8
NOTE
  6
CONTINUOUS
 62
     4
 10
2420.422746
 20
-542.840425
 30
0.0
  0
SEQEND
  5
212
  8
NOTE
  6
CONTINUOUS
 62
     4
  0
POLYLINE
  5
213
  8
NOTE
  6
CONTINUOUS
 62
     4
 66
     1
 10
0.0
 20
0.0
 30
0.0
  0
VERTEX
  5
214
  8
NOTE
  6
CONTINUOUS
 62
     4
 10
625.0
 20
-15.0
 30
0.0
  0
VERTEX
  5
215
  8
NOTE
  6
CONTINUOUS
 62
     4
 10
1079.037561
 20
-127.743125
 30
0.0
  0
VERTEX
  5
216
  8
NOTE
  6
CONTINUOUS
 62
     4
 10
2332.226132
 20
-127.743125
 30
0.0
  0
SEQEND
  5
217
  8
NOTE
  6
CONTINUOUS
 62
     4
  0
LINE
  5
218
  8
NOTE
  6
CONTINUOUS
 62
     4
 10
634.586466
 20
-125.90888
 30
0.0
 11
625.0
 21
-122.0
 31
0.0
  0
LINE
  5
219
  8
NOTE
  6
CONTINUOUS
 62
     4
 10
625.0
 20
-122.0
 30
0.0
 11
631.347683
 21
-130.178422
 31
0.0
  0
LINE
  5
21A
  8
NOTE
  6
CONTINUOUS
 62
     4
 10
634.059526
 20
-20.010456
 30
0.0
 11
625.0
 21
-15.0
 31
0.0
  0
LINE
  5
21B
  8
NOTE
  6
CONTINUOUS
 62
     4
 10
625.0
 20
-15.0
 30
0.0
 11
635.351007
 21
-14.809419
 31
0.0
  0
POLYLINE
  5
21C
  8
NOTE
  6
CONTINUOUS
 62
     4
 66
     1
 10
0.0
 20
0.0
 30
0.0
  0
VERTEX
  5
21D
  8
NOTE
  6
CONTINUOUS
 62
     4
 10
625.0
 20
43.0
 30
0.0
  0
VERTEX
  5
21E
  8
NOTE
  6
CONTINUOUS
 62
     4
 10
1059.048635
 20
302.767431
 30
0.0
  0
VERTEX
  5
21F
  8
NOTE
  6
CONTINUOUS
 62
     4
 10
2391.357206
 20
302.767431
 30
0.0
  0
SEQEND
  5
220
  8
NOTE
  6
CONTINUOUS
 62
     4
  0
LINE
  5
221
  8
NOTE
  6
CONTINUOUS
 62
     4
 10
632.204686
 20
50.434525
 30
0.0
 11
625.0
 21
43.0
 31
0.0
  0
LINE
  5
222
  8
NOTE
  6
CONTINUOUS
 62
     4
 10
625.0
 20
43.0
 30
0.0
 11
634.956704
 21
45.836145
 31
0.0
  0
LINE
  5
223
  8
OUTLINE
  6
CONTINUOUS
 62
     3
 10
-555.0
 20
225.0
 30
0.0
 11
-555.0
 21
-225.0
 31
0.0
  0
LINE
  5
224
  8
OUTLINE
  6
CONTINUOUS
 62
     3
 10
-555.0
 20
-225.0
 30
0.0
 11
555.0
 21
-225.0
 31
0.0
  0
LINE
  5
225
  8
OUTLINE
  6
CONTINUOUS
 62
     3
 10
555.0
 20
-225.0
 30
0.0
 11
555.0
 21
225.0
 31
0.0
  0
LINE
  5
226
  8
SIZE
  6
CONTINUOUS
 62
    30
 10
-625.0
 20
3.0
 30
0.0
 11
-625.0
 21
-105.067703
 31
0.0
  0
LINE
  5
227
  8
SIZE
  6
CONTINUOUS
 62
    30
 10
-555.0
 20
13.475
 30
0.0
 11
-555.0
 21
-105.067703
 31
0.0
  0
LINE
  5
228
  8
SIZE
  6
CONTINUOUS
 62
    30
 10
-635.0
 20
-75.067703
 30
0.0
 11
-645.0
 21
-75.067703
 31
0.0
  0
LINE
  5
229
  8
SIZE
  6
CONTINUOUS
 62
    30
 10
-545.0
 20
-75.067703
 30
0.0
 11
-535.0
 21
-75.067703
 31
0.0
  0
LINE
  5
22A
  8
SIZE
  6
CONTINUOUS
 62
    30
 10
-625.0
 20
-75.067703
 30
0.0
 11
-555.0
 21
-75.067703
 31
0.0
  0
CIRCLE
  5
22B
  8
SIZE
  6
CONTINUOUS
 62
    30
 10
-625.0
 20
-75.067703
 30
0.0
 40
5.0
  0
LINE
  5
22C
  8
SIZE
  6
CONTINUOUS
 62
    30
 10
-630.0
 20
-75.067703
 30
0.0
 11
-635.0
 21
-75.067703
 31
0.0
  0
CIRCLE
  5
22D
  8
SIZE
  6
CONTINUOUS
 62
    30
 10
-555.0
 20
-75.067703
 30
0.0
 40
5.0
  0
LINE
  5
22E
  8
SIZE
  6
CONTINUOUS
 62
    30
 10
-550.0
 20
-75.067703
 30
0.0
 11
-545.0
 21
-75.067703
 31
0.0
  0
TEXT
  5
22F
  8
SIZE
  6
CONTINUOUS
 62
    30
 10
-636.628571
 20
-55.067703
 30
0.0
 40
64.0
  1
70
 41
0.9
 72
     1
 11
-590.0
 21
-55.067703
 31
0.0
  0
POINT
  5
230
  8
DEFPOINTS
  6
CONTINUOUS
 62
     7
 10
-625.0
 20
23.0
 30
0.0
  0
POINT
  5
231
  8
DEFPOINTS
  6
CONTINUOUS
 62
     7
 10
-555.0
 20
33.475
 30
0.0
  0
POINT
  5
232
  8
DEFPOINTS
  6
CONTINUOUS
 62
     7
 10
-555.0
 20
-75.067703
 30
0.0
  0
LINE
  5
233
  8
OUTLINE
  6
CONTINUOUS
 62
     3
 10
-555.0
 20
225.0
 30
0.0
 11
35.94262
 21
225.0
 31
0.0
  0
LINE
  5
234
  8
OUTLINE
  6
CONTINUOUS
 62
     3
 10
35.94262
 20
225.0
 30
0.0
 11
35.94262
 21
295.0
 31
0.0
  0
LINE
  5
235
  8
OUTLINE
  6
CONTINUOUS
 62
     3
 10
35.94262
 20
295.0
 30
0.0
 11
507.937881
 21
295.0
 31
0.0
  0
LINE
  5
236
  8
OUTLINE
  6
CONTINUOUS
 62
     3
 10
507.937881
 20
295.0
 30
0.0
 11
507.937881
 21
225.0
 31
0.0
  0
LINE
  5
237
  8
OUTLINE
  6
CONTINUOUS
 62
     3
 10
507.937881
 20
225.0
 30
0.0
 11
555.0
 21
225.0
 31
0.0
  0
LINE
  5
238
  8
SIZE
  6
CONTINUOUS
 62
    30
 10
-479.0
 20
-329.0
 30
0.0
 11
-479.0
 21
-468.140088
 31
0.0
  0
LINE
  5
239
  8
SIZE
  6
CONTINUOUS
 62
    30
 10
-419.0
 20
-329.0
 30
0.0
 11
-419.0
 21
-468.140088
 31
0.0
  0
LINE
  5
23A
  8
SIZE
  6
CONTINUOUS
 62
    30
 10
-489.0
 20
-438.140088
 30
0.0
 11
-499.0
 21
-438.140088
 31
0.0
  0
LINE
  5
23B
  8
SIZE
  6
CONTINUOUS
 62
    30
 10
-409.0
 20
-438.140088
 30
0.0
 11
-399.0
 21
-438.140088
 31
0.0
  0
LINE
  5
23C
  8
SIZE
  6
CONTINUOUS
 62
    30
 10
-479.0
 20
-438.140088
 30
0.0
 11
-419.0
 21
-438.140088
 31
0.0
  0
CIRCLE
  5
23D
  8
SIZE
  6
CONTINUOUS
 62
    30
 10
-479.0
 20
-438.140088
 30
0.0
 40
5.0
  0
LINE
  5
23E
  8
SIZE
  6
CONTINUOUS
 62
    30
 10
-484.0
 20
-438.140088
 30
0.0
 11
-489.0
 21
-438.140088
 31
0.0
  0
CIRCLE
  5
23F
  8
SIZE
  6
CONTINUOUS
 62
    30
 10
-419.0
 20
-438.140088
 30
0.0
 40
5.0
  0
LINE
  5
240
  8
SIZE
  6
CONTINUOUS
 62
    30
 10
-414.0
 20
-438.140088
 30
0.0
 11
-409.0
 21
-438.140088
 31
0.0
  0
TEXT
  5
241
  8
SIZE
  6
CONTINUOUS
 62
    30
 10
-495.628571
 20
-418.140088
 30
0.0
 40
64.0
  1
60
 41
0.9
 72
     1
 11
-449.0
 21
-418.140088
 31
0.0
  0
POINT
  5
242
  8
DEFPOINTS
  6
CONTINUOUS
 62
     7
 10
-479.0
 20
-309.0
 30
0.0
  0
POINT
  5
243
  8
DEFPOINTS
  6
CONTINUOUS
 62
     7
 10
-419.0
 20
-309.0
 30
0.0
  0
POINT
  5
244
  8
DEFPOINTS
  6
CONTINUOUS
 62
     7
 10
-419.0
 20
-438.140088
 30
0.0
  0
LINE
  5
245
  8
DETAIL
  6
CONTINUOUS
 62
     5
 10
-625.0
 20
55.7
 30
0.0
 11
-555.0
 21
55.7
 31
0.0
  0
LINE
  5
246
  8
DETAIL
  6
CONTINUOUS
 62
     5
 10
-625.0
 20
30.3
 30
0.0
 11
-555.0
 21
30.3
 31
0.0
  0
LINE
  5
247
  8
DETAIL
  6
CONTINUOUS
 62
     5
 10
-645.0
 20
-107.71
 30
0.0
 11
-555.0
 21
-107.71
 31
0.0
  0
LINE
  5
248
  8
DETAIL
  6
CONTINUOUS
 62
     5
 10
-645.0
 20
-136.29
 30
0.0
 11
-555.0
 21
-136.29
 31
0.0
  0
LINE
  5
249
  8
DETAIL
  6
CONTINUOUS
 62
     5
 10
-625.0
 20
55.7
 30
0.0
 11
-625.0
 21
30.3
 31
0.0
  0
LINE
  5
24A
  8
DETAIL
  6
CONTINUOUS
 62
     5
 10
-645.0
 20
-107.71
 30
0.0
 11
-645.0
 21
-136.29
 31
0.0
  0
LINE
  5
24B
  8
NOTE
  6
CONTINUOUS
 62
     4
 10
-99.0
 20
-289.0
 30
0.0
 11
-139.0
 21
-289.0
 31
0.0
  0
LINE
  5
24C
  8
NOTE
  6
CONTINUOUS
 62
     4
 10
1.0
 20
-309.0
 30
0.0
 11
1.0
 21
-269.0
 31
0.0
  0
LINE
  5
24D
  8
DETAIL
  6
CONTINUOUS
 62
     5
 10
-3.76
 20
-225.0
 30
0.0
 11
-3.76
 21
-289.0
 31
0.0
  0
LINE
  5
24E
  8
DETAIL
  6
CONTINUOUS
 62
     5
 10
5.76
 20
-225.0
 30
0.0
 11
5.76
 21
-289.0
 31
0.0
  0
LINE
  5
24F
  8
DETAIL
  6
CONTINUOUS
 62
     5
 10
-6.94
 20
-225.0
 30
0.0
 11
-6.94
 21
-289.0
 31
0.0
  0
LINE
  5
250
  8
DETAIL
  6
CONTINUOUS
 62
     5
 10
8.94
 20
-225.0
 30
0.0
 11
8.94
 21
-289.0
 31
0.0
  0
LINE
  5
251
  8
DETAIL
  6
CONTINUOUS
 62
     5
 10
-3.76
 20
-289.0
 30
0.0
 11
5.76
 21
-289.0
 31
0.0
  0
LINE
  5
252
  8
DETAIL
  6
CONTINUOUS
 62
     5
 10
-6.94
 20
-289.0
 30
0.0
 11
8.94
 21
-289.0
 31
0.0
  0
LINE
  5
253
  8
DETAIL
  6
CONTINUOUS
 62
     5
 10
1.0
 20
-225.0
 30
0.0
 11
1.0
 21
-289.0
 31
0.0
  0
LINE
  5
254
  8
NOTE
  6
CONTINUOUS
 62
     4
 10
61.0
 20
-309.0
 30
0.0
 11
61.0
 21
-269.0
 31
0.0
  0
LINE
  5
255
  8
NOTE
  6
CONTINUOUS
 62
     4
 10
81.0
 20
-289.0
 30
0.0
 11
41.0
 21
-289.0
 31
0.0
  0
LINE
  5
256
  8
DETAIL
  6
CONTINUOUS
 62
     5
 10
56.24
 20
-225.0
 30
0.0
 11
56.24
 21
-289.0
 31
0.0
  0
LINE
  5
257
  8
DETAIL
  6
CONTINUOUS
 62
     5
 10
65.76
 20
-225.0
 30
0.0
 11
65.76
 21
-289.0
 31
0.0
  0
LINE
  5
258
  8
DETAIL
  6
CONTINUOUS
 62
     5
 10
53.06
 20
-225.0
 30
0.0
 11
53.06
 21
-289.0
 31
0.0
  0
LINE
  5
259
  8
DETAIL
  6
CONTINUOUS
 62
     5
 10
68.94
 20
-225.0
 30
0.0
 11
68.94
 21
-289.0
 31
0.0
  0
LINE
  5
25A
  8
DETAIL
  6
CONTINUOUS
 62
     5
 10
56.24
 20
-289.0
 30
0.0
 11
65.76
 21
-289.0
 31
0.0
  0
LINE
  5
25B
  8
DETAIL
  6
CONTINUOUS
 62
     5
 10
53.06
 20
-289.0
 30
0.0
 11
68.94
 21
-289.0
 31
0.0
  0
LINE
  5
25C
  8
DETAIL
  6
CONTINUOUS
 62
     5
 10
61.0
 20
-225.0
 30
0.0
 11
61.0
 21
-289.0
 31
0.0
  0
LINE
  5
25D
  8
NOTE
  6
CONTINUOUS
 62
     4
 10
21.0
 20
-289.0
 30
0.0
 11
-19.0
 21
-289.0
 31
0.0
  0
LINE
  5
25E
  8
SIZE
  6
CONTINUOUS
 62
    30
 10
-479.0
 20
-309.0
 30
0.0
 11
-479.0
 21
-589.045323
 31
0.0
  0
LINE
  5
25F
  8
SIZE
  6
CONTINUOUS
 62
    30
 10
61.0
 20
-309.0
 30
0.0
 11
61.0
 21
-589.045323
 31
0.0
  0
LINE
  5
260
  8
SIZE
  6
CONTINUOUS
 62
    30
 10
-469.0
 20
-559.045323
 30
0.0
 11
51.0
 21
-559.045323
 31
0.0
  0
CIRCLE
  5
261
  8
SIZE
  6
CONTINUOUS
 62
    30
 10
-479.0
 20
-559.045323
 30
0.0
 40
5.0
  0
LINE
  5
262
  8
SIZE
  6
CONTINUOUS
 62
    30
 10
-474.0
 20
-559.045323
 30
0.0
 11
-469.0
 21
-559.045323
 31
0.0
  0
CIRCLE
  5
263
  8
SIZE
  6
CONTINUOUS
 62
    30
 10
61.0
 20
-559.045323
 30
0.0
 40
5.0
  0
LINE
  5
264
  8
SIZE
  6
CONTINUOUS
 62
    30
 10
56.0
 20
-559.045323
 30
0.0
 11
51.0
 21
-559.045323
 31
0.0
  0
TEXT
  5
265
  8
SIZE
  6
CONTINUOUS
 62
    30
 10
-434.462857
 20
-539.045323
 30
0.0
 40
64.0
  1
60×9＝540
 41
0.9
 72
     1
 11
-209.0
 21
-539.045323
 31
0.0
  0
POINT
  5
266
  8
DEFPOINTS
  6
CONTINUOUS
 62
     7
 10
-479.0
 20
-289.0
 30
0.0
  0
POINT
  5
267
  8
DEFPOINTS
  6
CONTINUOUS
 62
     7
 10
61.0
 20
-289.0
 30
0.0
  0
POINT
  5
268
  8
DEFPOINTS
  6
CONTINUOUS
 62
     7
 10
61.0
 20
-559.045323
 30
0.0
  0
TEXT
  5
347
  8
NOTE
  6
CONTINUOUS
 62
     4
 10
-1897.066909
 20
-288.451376
 30
0.0
 40
50.0
  1
400形：φ25.4〈ロウ付〉（付属配管を使用）
 41
0.9
  0
TEXT
  5
34E
  8
NOTE
  6
CONTINUOUS
 62
     4
 10
1188.903568
 20
30.638478
 30
0.0
 40
50.0
  1
401以上：φ22.2〈ロウ付〉（分岐管<別売>付属配管を使用）
 41
0.9
  0
TEXT
  5
355
  8
NOTE
  6
CONTINUOUS
 62
     4
 10
1130.90388
 20
-402.52612
 30
0.0
 40
50.0
  1
451以上：φ15.88〈ロウ付〉（分岐管<別売>付属配管を使用）
 41
0.9
  0
TEXT
  5
35E
  8
NOTE
  6
CONTINUOUS
 62
     4
 10
1139.819422
 20
-905.875805
 30
0.0
 40
50.0
  1
401以上：φ28.58〈ロウ付〉（分岐管<別売>付属配管を使用）
 41
0.9
  0
ENDSEC
  0
EOF
