  0
SECTION
  2
HEADER
  9
$ACADVER
  1
AC1009
  9
$INSBASE
 10
0.0
 20
0.0
 30
0.0
  9
$EXTMIN
 10
-1431.976958
 20
-921.211804
 30
-0.001526
  9
$EXTMAX
 10
1467.056505
 20
803.677725
 30
0.0
  9
$LIMMIN
 10
-3837.000175
 20
-3000.109539
  9
$LIMMAX
 10
7319.256881
 20
4045.223003
  9
$ORTHOMODE
 70
     0
  9
$REGENMODE
 70
     1
  9
$FILLMODE
 70
     1
  9
$QTEXTMODE
 70
     0
  9
$MIRRTEXT
 70
     0
  9
$DRAGMODE
 70
     2
  9
$LTSCALE
 40
20.0
  9
$OSMODE
 70
    37
  9
$ATTMODE
 70
     1
  9
$TEXTSIZE
 40
64.0
  9
$TRACEWID
 40
0.05
  9
$TEXTSTYLE
  7
STANDARD
  9
$CLAYER
  8
OUTLINE
  9
$CELTYPE
  6
CONTINUOUS
  9
$CECOLOR
 62
     7
  9
$DIMSCALE
 40
1.0
  9
$DIMASZ
 40
30.0
  9
$DIMEXO
 40
15.0
  9
$DIMDLI
 40
80.0
  9
$DIMRND
 40
0.0
  9
$DIMDLE
 40
0.0
  9
$DIMEXE
 40
15.0
  9
$DIMTP
 40
0.0
  9
$DIMTM
 40
0.0
  9
$DIMTXT
 40
50.0
  9
$DIMCEN
 40
0.09
  9
$DIMTSZ
 40
0.0
  9
$DIMTOL
 70
     0
  9
$DIMLIM
 70
     0
  9
$DIMTIH
 70
     0
  9
$DIMTOH
 70
     0
  9
$DIMSE1
 70
     0
  9
$DIMSE2
 70
     0
  9
$DIMTAD
 70
     1
  9
$DIMZIN
 70
     8
  9
$DIMBLK
  1
_SMALL
  9
$DIMASO
 70
     1
  9
$DIMSHO
 70
     0
  9
$DIMPOST
  1

  9
$DIMAPOST
  1

  9
$DIMALT
 70
     0
  9
$DIMALTD
 70
     2
  9
$DIMALTF
 40
25.4
  9
$DIMLFAC
 40
1.0
  9
$DIMTOFL
 70
     1
  9
$DIMTVP
 40
0.0
  9
$DIMTIX
 70
     0
  9
$DIMSOXD
 70
     0
  9
$DIMSAH
 70
     0
  9
$DIMBLK1
  1

  9
$DIMBLK2
  1

  9
$DIMSTYLE
  2
STANDARD
  9
$DIMCLRD
 70
     0
  9
$DIMCLRE
 70
     0
  9
$DIMCLRT
 70
     0
  9
$DIMTFAC
 40
1.0
  9
$DIMGAP
 40
0.09
  9
$LUNITS
 70
     2
  9
$LUPREC
 70
     4
  9
$SKETCHINC
 40
0.1
  9
$FILLETRAD
 40
10.0
  9
$AUNITS
 70
     1
  9
$AUPREC
 70
     3
  9
$MENU
  1
ACAD
  9
$ELEVATION
 40
0.0
  9
$PELEVATION
 40
0.0
  9
$THICKNESS
 40
0.0
  9
$LIMCHECK
 70
     0
  9
$BLIPMODE
 70
     0
  9
$CHAMFERA
 40
0.0
  9
$CHAMFERB
 40
0.0
  9
$SKPOLY
 70
     0
  9
$TDCREATE
 40
2450330.439931
  9
$TDUPDATE
 40
2454645.652502
  9
$TDINDWG
 40
1.581387
  9
$TDUSRTIMER
 40
1.581386
  9
$USRTIMER
 70
     1
  9
$ANGBASE
 50
0.0
  9
$ANGDIR
 70
     0
  9
$PDMODE
 70
     3
  9
$PDSIZE
 40
-2.0
  9
$PLINEWID
 40
0.0
  9
$COORDS
 70
     0
  9
$SPLFRAME
 70
     0
  9
$SPLINETYPE
 70
     6
  9
$SPLINESEGS
 70
     8
  9
$ATTDIA
 70
     0
  9
$ATTREQ
 70
     1
  9
$HANDLING
 70
     1
  9
$HANDSEED
  5
1CB
  9
$SURFTAB1
 70
     6
  9
$SURFTAB2
 70
     6
  9
$SURFTYPE
 70
     6
  9
$SURFU
 70
     6
  9
$SURFV
 70
     6
  9
$UCSNAME
  2

  9
$UCSORG
 10
0.0
 20
0.0
 30
0.0
  9
$UCSXDIR
 10
1.0
 20
0.0
 30
0.0
  9
$UCSYDIR
 10
0.0
 20
1.0
 30
0.0
  9
$PUCSNAME
  2

  9
$PUCSORG
 10
0.0
 20
0.0
 30
0.0
  9
$PUCSXDIR
 10
1.0
 20
0.0
 30
0.0
  9
$PUCSYDIR
 10
0.0
 20
1.0
 30
0.0
  9
$USERI1
 70
     0
  9
$USERI2
 70
     0
  9
$USERI3
 70
     0
  9
$USERI4
 70
     0
  9
$USERI5
 70
     0
  9
$USERR1
 40
20.0
  9
$USERR2
 40
0.0
  9
$USERR3
 40
0.0
  9
$USERR4
 40
0.0
  9
$USERR5
 40
0.0
  9
$WORLDVIEW
 70
     1
  9
$SHADEDGE
 70
     3
  9
$SHADEDIF
 70
    70
  9
$TILEMODE
 70
     1
  9
$MAXACTVP
 70
    48
  9
$PLIMCHECK
 70
     0
  9
$PEXTMIN
 10
1.000000E+020
 20
1.000000E+020
 30
1.000000E+020
  9
$PEXTMAX
 10
-1.000000E+020
 20
-1.000000E+020
 30
-1.000000E+020
  9
$PLIMMIN
 10
0.0
 20
0.0
  9
$PLIMMAX
 10
12.0
 20
9.0
  9
$UNITMODE
 70
     0
  9
$VISRETAIN
 70
     1
  9
$PLINEGEN
 70
     0
  9
$PSLTSCALE
 70
     1
  0
ENDSEC
  0
SECTION
  2
TABLES
  0
TABLE
  2
VPORT
 70
     2
  0
VPORT
  2
*ACTIVE
 70
     0
 10
0.0
 20
0.0
 11
1.0
 21
1.0
 12
1741.128353
 22
700.669933
 13
0.0
 23
0.0
 14
50.0
 24
50.0
 15
100.0
 25
100.0
 16
0.0
 26
0.0
 36
1.0
 17
0.0
 27
0.0
 37
0.0
 40
7401.558943
 41
1.507285
 42
50.0
 43
0.0
 44
0.0
 50
0.0
 51
0.0
 71
     0
 72
  1000
 73
     1
 74
     0
 75
     0
 76
     0
 77
     0
 78
     0
  0
ENDTAB
  0
TABLE
  2
LTYPE
 70
     2
  0
LTYPE
  2
CONTINUOUS
 70
     0
  3
実線
 72
    65
 73
     0
 40
0.0
  0
LTYPE
  2
DASHDOT
 70
     0
  3
____ _ ____ _ ____ _ ____ _ ____ _ ____ _ ____
 72
    65
 73
     4
 40
5.5
 49
4.0
 49
-0.6
 49
0.3
 49
-0.6
  0
ENDTAB
  0
TABLE
  2
LAYER
 70
    12
  0
LAYER
  2
0
 70
     0
 62
     7
  6
CONTINUOUS
  0
LAYER
  2
OUTLINE
 70
     0
 62
     3
  6
CONTINUOUS
  0
LAYER
  2
DETAIL
 70
     0
 62
     5
  6
CONTINUOUS
  0
LAYER
  2
BASIS
 70
     0
 62
     6
  6
DASHDOT
  0
LAYER
  2
SIZE
 70
     0
 62
    30
  6
CONTINUOUS
  0
LAYER
  2
NOTE
 70
     0
 62
     4
  6
CONTINUOUS
  0
LAYER
  2
ARRANGE
 70
     0
 62
     1
  6
CONTINUOUS
  0
LAYER
  2
FIX
 70
     0
 62
    11
  6
CONTINUOUS
  0
LAYER
  2
SERVICESPACE
 70
     0
 62
     2
  6
DASHDOT
  0
LAYER
  2
ETC
 70
     0
 62
    61
  6
CONTINUOUS
  0
LAYER
  2
SYMBOLLINE
 70
     0
 62
    15
  6
CONTINUOUS
  0
LAYER
  2
DEFPOINTS
 70
     0
 62
     7
  6
CONTINUOUS
  0
ENDTAB
  0
TABLE
  2
STYLE
 70
     1
  0
STYLE
  2
STANDARD
 70
     0
 40
0.0
 41
0.9
 50
0.0
 71
     0
 42
64.0
  3
SIMPLEX
  4
BIGFONT
  0
ENDTAB
  0
TABLE
  2
VIEW
 70
     1
  0
VIEW
  2
ALL
 70
     0
 40
9000.0
 10
241.506647
 20
0.0
 41
12483.01
 11
0.0
 21
0.0
 31
1.0
 12
0.0
 22
0.0
 32
0.0
 42
50.0
 43
0.0
 44
0.0
 50
0.0
 71
     0
  0
ENDTAB
  0
TABLE
  2
UCS
 70
     0
  0
ENDTAB
  0
TABLE
  2
APPID
 70
     1
  0
APPID
  2
ACAD
 70
     0
  0
ENDTAB
  0
TABLE
  2
DIMSTYLE
 70
     1
  0
DIMSTYLE
  2
STANDARD
 70
     0
  3

  4

  5

  6

  7

 40
1.0
 41
0.18
 42
0.0625
 43
0.38
 44
0.18
 45
0.0
 46
0.0
 47
0.0
 48
0.0
140
0.18
141
0.09
142
0.0
143
25.4
144
1.0
145
0.0
146
1.0
147
0.09
 71
     0
 72
     0
 73
     1
 74
     1
 75
     0
 76
     0
 77
     0
 78
     0
170
     0
171
     2
172
     0
173
     0
174
     0
175
     0
176
     0
177
     0
178
     0
  0
ENDTAB
  0
ENDSEC
  0
SECTION
  2
BLOCKS
  0
BLOCK
  8
0
  2
$MODEL_SPACE
 70
     0
 10
0.0
 20
0.0
 30
0.0
  3
$MODEL_SPACE
  1

  0
ENDBLK
  5
1A
  8
0
  0
BLOCK
 67
     1
  8
0
  2
$PAPER_SPACE
 70
     0
 10
0.0
 20
0.0
 30
0.0
  3
$PAPER_SPACE
  1

  0
ENDBLK
  5
17
 67
     1
  8
0
  0
BLOCK
  8
0
  2
_SMALL
 70
     0
 10
0.0
 20
0.0
 30
0.0
  3
_SMALL
  1

  0
CIRCLE
  5
30
  8
0
  6
CONTINUOUS
 62
     7
 10
0.0
 20
0.0
 30
0.0
 40
0.25
  0
ENDBLK
  5
31
  8
0
  0
ENDSEC
  0
SECTION
  2
ENTITIES
  0
LINE
  5
32
  8
DETAIL
  6
CONTINUOUS
 62
     5
 10
203.0
 20
-168.525137
 30
0.0
 11
181.0
 21
-168.525137
 31
0.0
  0
LINE
  5
33
  8
DETAIL
  6
CONTINUOUS
 62
     5
 10
203.0
 20
-137.474863
 30
0.0
 11
181.0
 21
-137.474863
 31
0.0
  0
LINE
  5
34
  8
DETAIL
  6
CONTINUOUS
 62
     5
 10
203.0
 20
-137.899619
 30
0.0
 11
220.996307
 21
-137.899619
 31
0.0
  0
LINE
  5
35
  8
DETAIL
  6
CONTINUOUS
 62
     5
 10
203.0
 20
-146.89968
 30
0.0
 11
220.996307
 21
-146.89968
 31
0.0
  0
LINE
  5
36
  8
DETAIL
  6
CONTINUOUS
 62
     5
 10
203.0
 20
-159.099631
 30
0.0
 11
220.998291
 21
-159.099631
 31
0.0
  0
ARC
  5
37
  8
DETAIL
  6
CONTINUOUS
 62
     5
 10
212.711395
 20
-152.999656
 30
0.0
 40
10.289955
 50
323.6358
 51
36.364256
  0
ARC
  5
38
  8
DETAIL
  6
CONTINUOUS
 62
     5
 10
216.952332
 20
-142.39968
 30
0.0
 40
6.050117
 50
311.96022
 51
48.055026
  0
LINE
  5
39
  8
DETAIL
  6
CONTINUOUS
 62
     5
 10
223.0
 20
-141.899558
 30
0.0
 11
223.0
 21
-163.599631
 31
0.0
  0
LINE
  5
3A
  8
DETAIL
  6
CONTINUOUS
 62
     5
 10
225.5
 20
-141.899558
 30
0.0
 11
225.5
 21
-164.099631
 31
0.0
  0
LINE
  5
3B
  8
DETAIL
  6
CONTINUOUS
 62
     5
 10
238.0
 20
-164.099631
 30
0.0
 11
238.0
 21
-141.899558
 31
0.0
  0
LINE
  5
3C
  8
DETAIL
  6
CONTINUOUS
 62
     5
 10
243.0
 20
-162.549582
 30
0.0
 11
238.0
 21
-162.549582
 31
0.0
  0
LINE
  5
3D
  8
DETAIL
  6
CONTINUOUS
 62
     5
 10
243.0
 20
-143.449607
 30
0.0
 11
238.0
 21
-143.449607
 31
0.0
  0
LINE
  5
3E
  8
DETAIL
  6
CONTINUOUS
 62
     5
 10
238.0
 20
-164.099631
 30
0.0
 11
225.5
 21
-164.099631
 31
0.0
  0
LINE
  5
3F
  8
DETAIL
  6
CONTINUOUS
 62
     5
 10
238.0
 20
-141.899558
 30
0.0
 11
225.5
 21
-141.899558
 31
0.0
  0
LINE
  5
40
  8
DETAIL
  6
CONTINUOUS
 62
     5
 10
225.5
 20
-162.549582
 30
0.0
 11
223.0
 21
-162.549582
 31
0.0
  0
LINE
  5
41
  8
DETAIL
  6
CONTINUOUS
 62
     5
 10
225.5
 20
-143.449607
 30
0.0
 11
223.0
 21
-143.449607
 31
0.0
  0
LINE
  5
42
  8
DETAIL
  6
CONTINUOUS
 62
     5
 10
203.0
 20
-168.099631
 30
0.0
 11
220.996307
 21
-168.099631
 31
0.0
  0
ARC
  5
43
  8
DETAIL
  6
CONTINUOUS
 62
     5
 10
216.952332
 20
-163.599631
 30
0.0
 40
6.050119
 50
311.944975
 51
48.039781
  0
LINE
  5
44
  8
DETAIL
  6
CONTINUOUS
 62
     5
 10
203.0
 20
-168.525137
 30
0.0
 11
203.0
 21
-137.474863
 31
0.0
  0
LINE
  5
45
  8
DETAIL
  6
CONTINUOUS
 62
     5
 10
245.0
 20
-160.549582
 30
0.0
 11
245.0
 21
-145.449607
 31
0.0
  0
LINE
  5
46
  8
DETAIL
  6
CONTINUOUS
 62
     5
 10
242.999918
 20
-162.549575
 30
0.0
 11
244.999758
 21
-160.549583
 31
0.0
  0
LINE
  5
47
  8
DETAIL
  6
CONTINUOUS
 62
     5
 10
245.000101
 20
-145.449623
 30
0.0
 11
243.000154
 21
-143.449738
 31
0.0
  0
LINE
  5
48
  8
DETAIL
  6
CONTINUOUS
 62
     5
 10
243.0
 20
-162.549582
 30
0.0
 11
243.0
 21
-143.449607
 31
0.0
  0
CIRCLE
  5
49
  8
DETAIL
  6
CONTINUOUS
 62
     5
 10
78.0
 20
-58.0
 30
0.0
 40
14.3
  0
CIRCLE
  5
4A
  8
DETAIL
  6
CONTINUOUS
 62
     5
 10
78.0
 20
-58.0
 30
0.0
 40
11.1
  0
CIRCLE
  5
4B
  8
DETAIL
  6
CONTINUOUS
 62
     5
 10
78.0
 20
-58.0
 30
0.0
 40
12.5
  0
LINE
  5
4C
  8
NOTE
  6
CONTINUOUS
 62
     4
 10
0.0
 20
-231.5
 30
0.0
 11
0.0
 21
-277.5
 31
0.0
  0
LINE
  5
4D
  8
NOTE
  6
CONTINUOUS
 62
     4
 10
-23.0
 20
-254.5
 30
0.0
 11
23.0
 21
-254.5
 31
0.0
  0
LINE
  5
4E
  8
DETAIL
  6
CONTINUOUS
 62
     5
 10
181.0
 20
0.0
 30
0.0
 11
181.0
 21
-284.0
 31
0.0
  0
LINE
  5
4F
  8
NOTE
  6
CONTINUOUS
 62
     4
 10
78.0
 20
-30.95
 30
0.0
 11
78.0
 21
-85.05
 31
0.0
  0
LINE
  5
50
  8
NOTE
  6
CONTINUOUS
 62
     4
 10
50.95
 20
-58.0
 30
0.0
 11
105.05
 21
-58.0
 31
0.0
  0
LINE
  5
51
  8
NOTE
  6
CONTINUOUS
 62
     4
 10
-67.0
 20
-100.95
 30
0.0
 11
-67.0
 21
-155.05
 31
0.0
  0
LINE
  5
52
  8
NOTE
  6
CONTINUOUS
 62
     4
 10
-94.05
 20
-128.0
 30
0.0
 11
-39.95
 21
-128.0
 31
0.0
  0
LINE
  5
53
  8
DETAIL
  6
CONTINUOUS
 62
     5
 10
-124.8
 20
1.0
 30
0.0
 11
-124.8
 21
-301.0
 31
0.0
  0
LINE
  5
54
  8
DETAIL
  6
CONTINUOUS
 62
     5
 10
124.0
 20
-65.0
 30
0.0
 11
124.0
 21
-27.0
 31
0.0
  0
LINE
  5
55
  8
DETAIL
  6
CONTINUOUS
 62
     5
 10
174.0
 20
-65.0
 30
0.0
 11
174.0
 21
-27.0
 31
0.0
  0
LINE
  5
56
  8
DETAIL
  6
CONTINUOUS
 62
     5
 10
159.0
 20
-70.0
 30
0.0
 11
139.0
 21
-70.0
 31
0.0
  0
LINE
  5
57
  8
DETAIL
  6
CONTINUOUS
 62
     5
 10
174.0
 20
-27.0
 30
0.0
 11
124.0
 21
-27.0
 31
0.0
  0
LINE
  5
58
  8
DETAIL
  6
CONTINUOUS
 62
     5
 10
155.0
 20
-29.3
 30
0.0
 11
143.0
 21
-29.3
 31
0.0
  0
LINE
  5
59
  8
DETAIL
  6
CONTINUOUS
 62
     5
 10
124.0
 20
-65.0
 30
0.0
 11
139.0
 21
-65.0
 31
0.0
  0
LINE
  5
5A
  8
DETAIL
  6
CONTINUOUS
 62
     5
 10
127.0
 20
-39.0
 30
0.0
 11
140.0
 21
-39.0
 31
0.0
  0
LINE
  5
5B
  8
DETAIL
  6
CONTINUOUS
 62
     5
 10
143.0
 20
-27.0
 30
0.0
 11
143.0
 21
-36.0
 31
0.0
  0
LINE
  5
5C
  8
DETAIL
  6
CONTINUOUS
 62
     5
 10
155.0
 20
-27.0
 30
0.0
 11
155.0
 21
-36.0
 31
0.0
  0
LINE
  5
5D
  8
DETAIL
  6
CONTINUOUS
 62
     5
 10
171.0
 20
-39.0
 30
0.0
 11
158.0
 21
-39.0
 31
0.0
  0
LINE
  5
5E
  8
DETAIL
  6
CONTINUOUS
 62
     5
 10
139.0
 20
-65.0
 30
0.0
 11
139.0
 21
-70.0
 31
0.0
  0
LINE
  5
5F
  8
DETAIL
  6
CONTINUOUS
 62
     5
 10
159.0
 20
-65.0
 30
0.0
 11
159.0
 21
-70.0
 31
0.0
  0
LINE
  5
60
  8
DETAIL
  6
CONTINUOUS
 62
     5
 10
159.0
 20
-65.0
 30
0.0
 11
174.0
 21
-65.0
 31
0.0
  0
ARC
  5
61
  8
DETAIL
  6
CONTINUOUS
 62
     5
 10
158.0
 20
-36.0
 30
0.0
 40
3.0
 50
180.0
 51
270.0
  0
ARC
  5
62
  8
DETAIL
  6
CONTINUOUS
 62
     5
 10
140.0
 20
-36.0
 30
0.0
 40
3.0
 50
270.0
 51
0.0
  0
ARC
  5
63
  8
DETAIL
  6
CONTINUOUS
 62
     5
 10
127.0
 20
-36.0
 30
0.0
 40
3.0
 50
180.0
 51
270.0
  0
ARC
  5
64
  8
DETAIL
  6
CONTINUOUS
 62
     5
 10
171.0
 20
-36.0
 30
0.0
 40
3.0
 50
270.0
 51
0.0
  0
CIRCLE
  5
65
  8
DETAIL
  6
CONTINUOUS
 62
     5
 10
149.0
 20
-47.0
 30
0.0
 40
3.5
  0
LINE
  5
66
  8
DETAIL
  6
CONTINUOUS
 62
     5
 10
-97.5
 20
-286.5
 30
0.0
 11
-124.8
 21
-286.5
 31
0.0
  0
LINE
  5
67
  8
DETAIL
  6
CONTINUOUS
 62
     5
 10
-97.5
 20
-252.5
 30
0.0
 11
-124.8
 21
-252.5
 31
0.0
  0
LINE
  5
68
  8
DETAIL
  6
CONTINUOUS
 62
     5
 10
-97.5
 20
-252.5
 30
0.0
 11
-97.5
 21
-286.5
 31
0.0
  0
LINE
  5
69
  8
NOTE
  6
CONTINUOUS
 62
     4
 10
-157.0
 20
-2.0
 30
0.0
 11
-157.0
 21
-62.0
 31
0.0
  0
LINE
  5
6A
  8
NOTE
  6
CONTINUOUS
 62
     4
 10
-187.0
 20
-32.0
 30
0.0
 11
-127.0
 21
-32.0
 31
0.0
  0
CIRCLE
  5
6B
  8
DETAIL
  6
CONTINUOUS
 62
     5
 10
-157.0
 20
-32.0
 30
0.0
 40
22.0
  0
CIRCLE
  5
6C
  8
DETAIL
  6
CONTINUOUS
 62
     5
 10
-157.0
 20
-32.0
 30
0.0
 40
17.0
  0
CIRCLE
  5
6D
  8
DETAIL
  6
CONTINUOUS
 62
     5
 10
-67.0
 20
-128.0
 30
0.0
 40
9.525
  0
CIRCLE
  5
6E
  8
DETAIL
  6
CONTINUOUS
 62
     5
 10
-67.0
 20
-128.0
 30
0.0
 40
10.525
  0
LINE
  5
6F
  8
DETAIL
  6
CONTINUOUS
 62
     5
 10
181.0
 20
-8.474278
 30
0.0
 11
210.000031
 21
-8.474278
 31
0.0
  0
LINE
  5
70
  8
DETAIL
  6
CONTINUOUS
 62
     5
 10
181.0
 20
-37.524911
 30
0.0
 11
210.000031
 21
-37.524911
 31
0.0
  0
LINE
  5
71
  8
DETAIL
  6
CONTINUOUS
 62
     5
 10
239.500031
 20
-30.999248
 30
0.0
 11
239.500031
 21
-14.999278
 31
0.0
  0
LINE
  5
72
  8
DETAIL
  6
CONTINUOUS
 62
     5
 10
229.000031
 20
-30.999248
 30
0.0
 11
229.000031
 21
-14.999278
 31
0.0
  0
LINE
  5
73
  8
DETAIL
  6
CONTINUOUS
 62
     5
 10
229.000031
 20
-30.999248
 30
0.0
 11
239.500031
 21
-30.999248
 31
0.0
  0
LINE
  5
74
  8
DETAIL
  6
CONTINUOUS
 62
     5
 10
239.500031
 20
-14.999278
 30
0.0
 11
229.000031
 21
-14.999278
 31
0.0
  0
LINE
  5
75
  8
DETAIL
  6
CONTINUOUS
 62
     5
 10
226.500031
 20
-30.999248
 30
0.0
 11
226.500031
 21
-14.999278
 31
0.0
  0
LINE
  5
76
  8
DETAIL
  6
CONTINUOUS
 62
     5
 10
210.000031
 20
-33.969462
 30
0.0
 11
224.000031
 21
-33.969462
 31
0.0
  0
LINE
  5
77
  8
DETAIL
  6
CONTINUOUS
 62
     5
 10
229.000031
 20
-16.249278
 30
0.0
 11
226.500031
 21
-16.249278
 31
0.0
  0
LINE
  5
78
  8
DETAIL
  6
CONTINUOUS
 62
     5
 10
229.000031
 20
-29.749248
 30
0.0
 11
226.500031
 21
-29.749248
 31
0.0
  0
ARC
  5
79
  8
DETAIL
  6
CONTINUOUS
 62
     5
 10
223.450012
 20
-15.01588
 30
0.0
 40
3.04353
 50
280.029906
 51
78.921908
  0
ARC
  5
7A
  8
DETAIL
  6
CONTINUOUS
 62
     5
 10
220.309509
 20
-22.998271
 30
0.0
 40
6.19092
 50
306.711357
 51
53.636766
  0
ARC
  5
7B
  8
DETAIL
  6
CONTINUOUS
 62
     5
 10
223.450012
 20
-30.949443
 30
0.0
 40
3.040188
 50
276.603336
 51
79.381333
  0
LINE
  5
7C
  8
DETAIL
  6
CONTINUOUS
 62
     5
 10
210.000031
 20
-18.029063
 30
0.0
 11
224.000031
 21
-18.029063
 31
0.0
  0
LINE
  5
7D
  8
DETAIL
  6
CONTINUOUS
 62
     5
 10
210.000031
 20
-27.969462
 30
0.0
 11
224.000031
 21
-27.969462
 31
0.0
  0
LINE
  5
7E
  8
DETAIL
  6
CONTINUOUS
 62
     5
 10
210.000031
 20
-12.029033
 30
0.0
 11
224.034668
 21
-12.029033
 31
0.0
  0
LINE
  5
7F
  8
DETAIL
  6
CONTINUOUS
 62
     5
 10
210.000031
 20
-37.524911
 30
0.0
 11
210.000031
 21
-8.474278
 31
0.0
  0
LINE
  5
80
  8
DETAIL
  6
CONTINUOUS
 62
     5
 10
239.500031
 20
-29.749248
 30
0.0
 11
243.412537
 21
-29.749248
 31
0.0
  0
LINE
  5
81
  8
DETAIL
  6
CONTINUOUS
 62
     5
 10
239.500031
 20
-16.249278
 30
0.0
 11
243.412323
 21
-16.249278
 31
0.0
  0
LINE
  5
82
  8
DETAIL
  6
CONTINUOUS
 62
     5
 10
244.999928
 20
-18.999304
 30
0.0
 11
243.412279
 21
-16.249732
 31
0.0
  0
LINE
  5
83
  8
DETAIL
  6
CONTINUOUS
 62
     5
 10
245.000053
 20
-26.999766
 30
0.0
 11
243.412589
 21
-29.749752
 31
0.0
  0
LINE
  5
84
  8
DETAIL
  6
CONTINUOUS
 62
     5
 10
243.412537
 20
-29.749248
 30
0.0
 11
243.412537
 21
-16.249278
 31
0.0
  0
LINE
  5
85
  8
DETAIL
  6
CONTINUOUS
 62
     5
 10
245.0
 20
-26.999248
 30
0.0
 11
245.0
 21
-18.999248
 31
0.0
  0
LINE
  5
87
  8
DETAIL
  6
CONTINUOUS
 62
     5
 10
159.5
 20
-70.0
 30
0.0
 11
138.5
 21
-70.0
 31
0.0
  0
LINE
  5
88
  8
DETAIL
  6
CONTINUOUS
 62
     5
 10
138.5
 20
-66.0
 30
0.0
 11
138.5
 21
-70.0
 31
0.0
  0
LINE
  5
89
  8
DETAIL
  6
CONTINUOUS
 62
     5
 10
159.5
 20
-66.0
 30
0.0
 11
159.5
 21
-70.0
 31
0.0
  0
LINE
  5
8A
  8
DETAIL
  6
CONTINUOUS
 62
     5
 10
-17.75
 20
-275.1
 30
0.0
 11
-17.75
 21
-272.371837
 31
0.0
  0
LINE
  5
8B
  8
DETAIL
  6
CONTINUOUS
 62
     5
 10
159.5
 20
-66.0
 30
0.0
 11
159.0
 21
-66.0
 31
0.0
  0
LINE
  5
8C
  8
DETAIL
  6
CONTINUOUS
 62
     5
 10
139.0
 20
-66.0
 30
0.0
 11
138.5
 21
-66.0
 31
0.0
  0
LINE
  5
8D
  8
DETAIL
  6
CONTINUOUS
 62
     5
 10
-302.6
 20
1.0
 30
0.0
 11
-302.6
 21
-300.5
 31
0.0
  0
LINE
  5
8E
  8
DETAIL
  6
CONTINUOUS
 62
     5
 10
-7.610319
 20
-272.486314
 30
0.0
 11
-12.661315
 21
-239.720594
 31
0.0
  0
LINE
  5
8F
  8
DETAIL
  6
CONTINUOUS
 62
     5
 10
-12.661315
 20
-239.720594
 30
0.0
 11
-11.962886
 21
-236.666364
 31
0.0
  0
LINE
  5
90
  8
DETAIL
  6
CONTINUOUS
 62
     5
 10
-7.610319
 20
-272.486314
 30
0.0
 11
-6.041755
 21
-275.153712
 31
0.0
  0
ARC
  5
91
  8
DETAIL
  6
CONTINUOUS
 62
     5
 10
-34.65674
 20
-259.856872
 30
0.0
 40
32.447044
 50
331.872177
 51
45.620147
  0
ARC
  5
92
  8
DETAIL
  6
CONTINUOUS
 62
     5
 10
-3.793671
 20
-255.108708
 30
0.0
 40
20.170674
 50
263.600914
 51
113.891411
  0
ARC
  5
93
  8
DETAIL
  6
CONTINUOUS
 62
     5
 10
-8.078215
 20
-255.767868
 30
0.0
 40
19.492514
 50
275.996859
 51
101.495465
  0
ARC
  5
94
  8
DETAIL
  6
CONTINUOUS
 62
     5
 10
-13.522548
 20
-256.605458
 30
0.0
 40
20.0
 50
291.964969
 51
85.527356
  0
LINE
  5
95
  8
DETAIL
  6
CONTINUOUS
 62
     5
 10
-97.5
 20
-252.5
 30
0.0
 11
-95.202915
 21
-284.503803
 31
0.0
  0
LINE
  5
96
  8
DETAIL
  6
CONTINUOUS
 62
     5
 10
-95.647056
 20
-249.151254
 30
0.0
 11
-89.937351
 21
-253.322497
 31
0.0
  0
LINE
  5
97
  8
DETAIL
  6
CONTINUOUS
 62
     5
 10
-85.766108
 20
-247.612792
 30
0.0
 11
-80.056403
 21
-251.784036
 31
0.0
  0
LINE
  5
98
  8
DETAIL
  6
CONTINUOUS
 62
     5
 10
-75.88516
 20
-246.074331
 30
0.0
 11
-70.175455
 21
-250.245574
 31
0.0
  0
LINE
  5
99
  8
DETAIL
  6
CONTINUOUS
 62
     5
 10
-66.004212
 20
-244.535869
 30
0.0
 11
-60.294507
 21
-248.707113
 31
0.0
  0
LINE
  5
9A
  8
DETAIL
  6
CONTINUOUS
 62
     5
 10
-56.123264
 20
-242.997408
 30
0.0
 11
-50.413559
 21
-247.168651
 31
0.0
  0
LINE
  5
9B
  8
DETAIL
  6
CONTINUOUS
 62
     5
 10
-98.093493
 20
-252.5
 30
0.0
 11
-95.647056
 21
-249.151254
 31
0.0
  0
LINE
  5
9C
  8
DETAIL
  6
CONTINUOUS
 62
     5
 10
-89.937351
 20
-253.322497
 30
0.0
 11
-85.766108
 21
-247.612792
 31
0.0
  0
LINE
  5
9D
  8
DETAIL
  6
CONTINUOUS
 62
     5
 10
-80.056403
 20
-251.784036
 30
0.0
 11
-75.88516
 21
-246.074331
 31
0.0
  0
LINE
  5
9E
  8
DETAIL
  6
CONTINUOUS
 62
     5
 10
-70.175455
 20
-250.245574
 30
0.0
 11
-66.004212
 21
-244.535869
 31
0.0
  0
LINE
  5
9F
  8
DETAIL
  6
CONTINUOUS
 62
     5
 10
-60.294507
 20
-248.707113
 30
0.0
 11
-56.123264
 21
-242.997408
 31
0.0
  0
LINE
  5
A0
  8
DETAIL
  6
CONTINUOUS
 62
     5
 10
-85.321967
 20
-282.965342
 30
0.0
 11
-89.937351
 21
-253.322497
 31
0.0
  0
LINE
  5
A1
  8
DETAIL
  6
CONTINUOUS
 62
     5
 10
-75.441019
 20
-281.42688
 30
0.0
 11
-80.056403
 21
-251.784036
 31
0.0
  0
LINE
  5
A2
  8
DETAIL
  6
CONTINUOUS
 62
     5
 10
-65.56007
 20
-279.888419
 30
0.0
 11
-70.175455
 21
-250.245574
 31
0.0
  0
LINE
  5
A3
  8
DETAIL
  6
CONTINUOUS
 62
     5
 10
-55.679122
 20
-278.349957
 30
0.0
 11
-60.294507
 21
-248.707113
 31
0.0
  0
LINE
  5
A4
  8
DETAIL
  6
CONTINUOUS
 62
     5
 10
-45.798174
 20
-276.811495
 30
0.0
 11
-50.413559
 21
-247.168651
 31
0.0
  0
LINE
  5
A5
  8
DETAIL
  6
CONTINUOUS
 62
     5
 10
-89.49321
 20
-288.675046
 30
0.0
 11
-95.647056
 21
-249.151254
 31
0.0
  0
LINE
  5
A6
  8
DETAIL
  6
CONTINUOUS
 62
     5
 10
-79.612262
 20
-287.136585
 30
0.0
 11
-85.766108
 21
-247.612792
 31
0.0
  0
LINE
  5
A7
  8
DETAIL
  6
CONTINUOUS
 62
     5
 10
-69.731314
 20
-285.598123
 30
0.0
 11
-75.88516
 21
-246.074331
 31
0.0
  0
LINE
  5
A8
  8
DETAIL
  6
CONTINUOUS
 62
     5
 10
-59.850366
 20
-284.059662
 30
0.0
 11
-66.004212
 21
-244.535869
 31
0.0
  0
LINE
  5
A9
  8
DETAIL
  6
CONTINUOUS
 62
     5
 10
-49.969417
 20
-282.5212
 30
0.0
 11
-56.123264
 21
-242.997408
 31
0.0
  0
LINE
  5
AA
  8
DETAIL
  6
CONTINUOUS
 62
     5
 10
-95.202915
 20
-284.503803
 30
0.0
 11
-89.49321
 21
-288.675046
 31
0.0
  0
LINE
  5
AB
  8
DETAIL
  6
CONTINUOUS
 62
     5
 10
-85.321967
 20
-282.965342
 30
0.0
 11
-79.612262
 21
-287.136585
 31
0.0
  0
LINE
  5
AC
  8
DETAIL
  6
CONTINUOUS
 62
     5
 10
-75.441019
 20
-281.42688
 30
0.0
 11
-69.731314
 21
-285.598123
 31
0.0
  0
LINE
  5
AD
  8
DETAIL
  6
CONTINUOUS
 62
     5
 10
-65.56007
 20
-279.888419
 30
0.0
 11
-59.850366
 21
-284.059662
 31
0.0
  0
LINE
  5
AE
  8
DETAIL
  6
CONTINUOUS
 62
     5
 10
-55.679122
 20
-278.349957
 30
0.0
 11
-49.969417
 21
-282.5212
 31
0.0
  0
LINE
  5
AF
  8
DETAIL
  6
CONTINUOUS
 62
     5
 10
-85.321967
 20
-282.965342
 30
0.0
 11
-89.49321
 21
-288.675046
 31
0.0
  0
LINE
  5
B0
  8
DETAIL
  6
CONTINUOUS
 62
     5
 10
-75.441019
 20
-281.42688
 30
0.0
 11
-79.612262
 21
-287.136585
 31
0.0
  0
LINE
  5
B1
  8
DETAIL
  6
CONTINUOUS
 62
     5
 10
-65.56007
 20
-279.888419
 30
0.0
 11
-69.731314
 21
-285.598123
 31
0.0
  0
LINE
  5
B2
  8
DETAIL
  6
CONTINUOUS
 62
     5
 10
-55.679122
 20
-278.349957
 30
0.0
 11
-59.850366
 21
-284.059662
 31
0.0
  0
LINE
  5
B3
  8
DETAIL
  6
CONTINUOUS
 62
     5
 10
-45.798174
 20
-276.811495
 30
0.0
 11
-49.969417
 21
-282.5212
 31
0.0
  0
LINE
  5
B4
  8
DETAIL
  6
CONTINUOUS
 62
     5
 10
-35.917226
 20
-275.273034
 30
0.0
 11
-40.532611
 21
-245.63019
 31
0.0
  0
LINE
  5
B5
  8
DETAIL
  6
CONTINUOUS
 62
     5
 10
-45.798174
 20
-276.811495
 30
0.0
 11
-40.088469
 21
-280.982739
 31
0.0
  0
LINE
  5
B6
  8
DETAIL
  6
CONTINUOUS
 62
     5
 10
-35.917226
 20
-275.273034
 30
0.0
 11
-40.088469
 21
-280.982739
 31
0.0
  0
LINE
  5
B7
  8
DETAIL
  6
CONTINUOUS
 62
     5
 10
-46.242315
 20
-241.458946
 30
0.0
 11
-40.532611
 21
-245.63019
 31
0.0
  0
LINE
  5
B8
  8
DETAIL
  6
CONTINUOUS
 62
     5
 10
-50.413559
 20
-247.168651
 30
0.0
 11
-46.242315
 21
-241.458946
 31
0.0
  0
LINE
  5
B9
  8
DETAIL
  6
CONTINUOUS
 62
     5
 10
-40.088469
 20
-280.982739
 30
0.0
 11
-46.242315
 21
-241.458946
 31
0.0
  0
LINE
  5
BA
  8
DETAIL
  6
CONTINUOUS
 62
     5
 10
-26.036278
 20
-273.734572
 30
0.0
 11
-30.651663
 21
-244.091728
 31
0.0
  0
LINE
  5
BB
  8
DETAIL
  6
CONTINUOUS
 62
     5
 10
-35.917226
 20
-275.273034
 30
0.0
 11
-30.207521
 21
-279.444277
 31
0.0
  0
LINE
  5
BC
  8
DETAIL
  6
CONTINUOUS
 62
     5
 10
-26.036278
 20
-273.734572
 30
0.0
 11
-30.207521
 21
-279.444277
 31
0.0
  0
LINE
  5
BD
  8
DETAIL
  6
CONTINUOUS
 62
     5
 10
-36.361367
 20
-239.920485
 30
0.0
 11
-30.651663
 21
-244.091728
 31
0.0
  0
LINE
  5
BE
  8
DETAIL
  6
CONTINUOUS
 62
     5
 10
-40.532611
 20
-245.63019
 30
0.0
 11
-36.361367
 21
-239.920485
 31
0.0
  0
LINE
  5
BF
  8
DETAIL
  6
CONTINUOUS
 62
     5
 10
-30.207521
 20
-279.444277
 30
0.0
 11
-36.361367
 21
-239.920485
 31
0.0
  0
LINE
  5
C0
  8
DETAIL
  6
CONTINUOUS
 62
     5
 10
-16.15533
 20
-272.196111
 30
0.0
 11
-20.770714
 21
-242.553266
 31
0.0
  0
LINE
  5
C1
  8
DETAIL
  6
CONTINUOUS
 62
     5
 10
-26.036278
 20
-273.734572
 30
0.0
 11
-20.326573
 21
-277.905816
 31
0.0
  0
LINE
  5
C2
  8
DETAIL
  6
CONTINUOUS
 62
     5
 10
-16.15533
 20
-272.196111
 30
0.0
 11
-20.326573
 21
-277.905816
 31
0.0
  0
LINE
  5
C3
  8
DETAIL
  6
CONTINUOUS
 62
     5
 10
-26.480419
 20
-238.382023
 30
0.0
 11
-20.770714
 21
-242.553266
 31
0.0
  0
LINE
  5
C4
  8
DETAIL
  6
CONTINUOUS
 62
     5
 10
-30.651663
 20
-244.091728
 30
0.0
 11
-26.480419
 21
-238.382023
 31
0.0
  0
LINE
  5
C5
  8
DETAIL
  6
CONTINUOUS
 62
     5
 10
-20.326573
 20
-277.905816
 30
0.0
 11
-26.480419
 21
-238.382023
 31
0.0
  0
LINE
  5
C6
  8
DETAIL
  6
CONTINUOUS
 62
     5
 10
-16.15533
 20
-272.196111
 30
0.0
 11
-10.445625
 21
-276.367354
 31
0.0
  0
LINE
  5
C7
  8
DETAIL
  6
CONTINUOUS
 62
     5
 10
-7.610319
 20
-272.486314
 30
0.0
 11
-10.445625
 21
-276.367354
 31
0.0
  0
LINE
  5
C8
  8
DETAIL
  6
CONTINUOUS
 62
     5
 10
-16.599471
 20
-236.843562
 30
0.0
 11
-12.661315
 21
-239.720594
 31
0.0
  0
LINE
  5
C9
  8
DETAIL
  6
CONTINUOUS
 62
     5
 10
-20.770714
 20
-242.553266
 30
0.0
 11
-16.599471
 21
-236.843562
 31
0.0
  0
LINE
  5
CA
  8
DETAIL
  6
CONTINUOUS
 62
     5
 10
-10.445625
 20
-276.367354
 30
0.0
 11
-16.599471
 21
-236.843562
 31
0.0
  0
LINE
  5
CB
  8
NOTE
  6
CONTINUOUS
 62
     4
 10
-181.0
 20
0.0
 30
0.0
 11
-181.0
 21
-284.0
 31
0.0
  0
LINE
  5
CC
  8
DETAIL
  6
CONTINUOUS
 62
     5
 10
-124.8
 20
0.0
 30
0.0
 11
181.0
 21
0.0
 31
0.0
  0
POINT
  5
CD
  8
ARRANGE
  6
CONTINUOUS
 62
     1
 10
0.0
 20
0.0
 30
0.0
  0
CIRCLE
  5
CE
  8
ARRANGE
  6
CONTINUOUS
 62
     1
 10
0.0
 20
0.0
 30
0.0
 40
40.0
  0
LINE
  5
CF
  8
BASIS
  6
DASHDOT
 62
     6
 10
0.0
 20
75.0
 30
0.0
 11
0.0
 21
-344.0
 31
0.0
  0
LINE
  5
D0
  8
DETAIL
  6
CONTINUOUS
 62
     5
 10
-310.0
 20
1.0
 30
0.0
 11
-310.0
 21
-301.0
 31
0.0
  0
LINE
  5
D1
  8
DETAIL
  6
CONTINUOUS
 62
     5
 10
-124.8
 20
-284.0
 30
0.0
 11
-124.723185
 21
-284.0
 31
0.0
  0
LINE
  5
D2
  8
DETAIL
  6
CONTINUOUS
 62
     5
 10
-310.0
 20
-301.0
 30
0.0
 11
-124.8
 21
-301.0
 31
0.0
  0
LINE
  5
D3
  8
NOTE
  6
CONTINUOUS
 62
     4
 10
-181.0
 20
-284.0
 30
0.0
 11
-124.8
 21
-284.0
 31
0.0
  0
LINE
  5
D4
  8
NOTE
  6
CONTINUOUS
 62
     4
 10
-181.0
 20
0.0
 30
0.0
 11
-124.8
 21
0.0
 31
0.0
  0
LINE
  5
D5
  8
DETAIL
  6
CONTINUOUS
 62
     5
 10
-124.8
 20
1.0
 30
0.0
 11
-310.0
 21
1.0
 31
0.0
  0
LINE
  5
D6
  8
OUTLINE
  6
CONTINUOUS
 62
     3
 10
-310.0
 20
1.0
 30
0.0
 11
-124.8
 21
1.0
 31
0.0
  0
LINE
  5
D7
  8
OUTLINE
  6
CONTINUOUS
 62
     3
 10
-124.8
 20
1.0
 30
0.0
 11
-124.8
 21
-301.0
 31
0.0
  0
LINE
  5
D8
  8
OUTLINE
  6
CONTINUOUS
 62
     3
 10
-124.8
 20
-301.0
 30
0.0
 11
-310.0
 21
-301.0
 31
0.0
  0
LINE
  5
D9
  8
OUTLINE
  6
CONTINUOUS
 62
     3
 10
-310.0
 20
-301.0
 30
0.0
 11
-310.0
 21
1.0
 31
0.0
  0
LINE
  5
DA
  8
OUTLINE
  6
CONTINUOUS
 62
     3
 10
-124.8
 20
0.0
 30
0.0
 11
181.0
 21
0.0
 31
0.0
  0
LINE
  5
DB
  8
OUTLINE
  6
CONTINUOUS
 62
     3
 10
181.0
 20
0.0
 30
0.0
 11
181.0
 21
-284.0
 31
0.0
  0
LINE
  5
DC
  8
OUTLINE
  6
CONTINUOUS
 62
     3
 10
181.0
 20
-284.0
 30
0.0
 11
-124.8
 21
-284.0
 31
0.0
  0
LINE
  5
DD
  8
NOTE
  6
CONTINUOUS
 62
     4
 10
149.0
 20
-47.0
 30
0.0
 11
149.0
 21
-7.0
 31
0.0
  0
POINT
  5
DE
  8
DEFPOINTS
  6
CONTINUOUS
 62
     7
 10
149.0
 20
-27.0
 30
0.0
  0
LINE
  5
DF
  8
NOTE
  6
CONTINUOUS
 62
     4
 10
169.0
 20
-27.0
 30
0.0
 11
129.0
 21
-27.0
 31
0.0
  0
CIRCLE
  5
E0
  8
FIX
  6
CONTINUOUS
 62
    11
 10
149.0
 20
-27.0
 30
0.0
 40
20.0
  0
LINE
  5
E1
  8
NOTE
  6
CONTINUOUS
 62
     4
 10
-149.0
 20
-47.0
 30
0.0
 11
-149.0
 21
-7.0
 31
0.0
  0
POINT
  5
E2
  8
DEFPOINTS
  6
CONTINUOUS
 62
     7
 10
-149.0
 20
-27.0
 30
0.0
  0
LINE
  5
E3
  8
NOTE
  6
CONTINUOUS
 62
     4
 10
-129.0
 20
-27.0
 30
0.0
 11
-169.0
 21
-27.0
 31
0.0
  0
CIRCLE
  5
E4
  8
FIX
  6
CONTINUOUS
 62
    11
 10
-149.0
 20
-27.0
 30
0.0
 40
20.0
  0
LINE
  5
E5
  8
SIZE
  6
CONTINUOUS
 62
    30
 10
245.0
 20
-3.999248
 30
0.0
 11
245.0
 21
124.520407
 31
0.0
  0
LINE
  5
E6
  8
SIZE
  6
CONTINUOUS
 62
    30
 10
181.0
 20
15.0
 30
0.0
 11
181.0
 21
124.520407
 31
0.0
  0
LINE
  5
E7
  8
SIZE
  6
CONTINUOUS
 62
    30
 10
181.0
 20
109.520407
 30
0.0
 11
245.0
 21
109.520407
 31
0.0
  0
LINE
  5
E8
  8
SIZE
  6
CONTINUOUS
 62
    30
 10
245.0
 20
109.520407
 30
0.0
 11
380.0
 21
109.520407
 31
0.0
  0
CIRCLE
  5
E9
  8
SIZE
  6
CONTINUOUS
 62
    30
 10
181.0
 20
109.520407
 30
0.0
 40
7.5
  0
CIRCLE
  5
EA
  8
SIZE
  6
CONTINUOUS
 62
    30
 10
245.0
 20
109.520407
 30
0.0
 40
7.5
  0
TEXT
  5
EB
  8
SIZE
  6
CONTINUOUS
 62
    30
 10
290.0
 20
124.520407
 30
0.0
 40
50.0
  1
64
 41
0.9
 72
     1
 11
327.5
 21
124.520407
 31
0.0
  0
POINT
  5
EC
  8
DEFPOINTS
  6
CONTINUOUS
 62
     7
 10
245.0
 20
-18.999248
 30
0.0
  0
POINT
  5
ED
  8
DEFPOINTS
  6
CONTINUOUS
 62
     7
 10
181.0
 20
0.0
 30
0.0
  0
POINT
  5
EE
  8
DEFPOINTS
  6
CONTINUOUS
 62
     7
 10
181.0
 20
109.520407
 30
0.0
  0
LINE
  5
EF
  8
SIZE
  6
CONTINUOUS
 62
    30
 10
181.0
 20
15.0
 30
0.0
 11
181.0
 21
124.520407
 31
0.0
  0
LINE
  5
F0
  8
SIZE
  6
CONTINUOUS
 62
    30
 10
78.0
 20
-15.95
 30
0.0
 11
78.0
 21
124.520407
 31
0.0
  0
LINE
  5
F1
  8
SIZE
  6
CONTINUOUS
 62
    30
 10
181.0
 20
109.520407
 30
0.0
 11
78.0
 21
109.520407
 31
0.0
  0
LINE
  5
F2
  8
SIZE
  6
CONTINUOUS
 62
    30
 10
129.5
 20
109.520407
 30
0.0
 11
74.540284
 21
173.540224
 31
0.0
  0
LINE
  5
F3
  8
SIZE
  6
CONTINUOUS
 62
    30
 10
74.540284
 20
173.540224
 30
0.0
 11
-62.602573
 21
173.540224
 31
0.0
  0
TEXT
  5
F4
  8
SIZE
  6
CONTINUOUS
 62
    30
 10
-47.602573
 20
188.540224
 30
0.0
 40
50.0
  1
103
 41
0.9
 72
     1
 11
5.968855
 21
188.540224
 31
0.0
  0
CIRCLE
  5
F5
  8
SIZE
  6
CONTINUOUS
 62
    30
 10
181.0
 20
109.520407
 30
0.0
 40
7.5
  0
CIRCLE
  5
F6
  8
SIZE
  6
CONTINUOUS
 62
    30
 10
78.0
 20
109.520407
 30
0.0
 40
7.5
  0
POINT
  5
F7
  8
DEFPOINTS
  6
CONTINUOUS
 62
     7
 10
181.0
 20
0.0
 30
0.0
  0
POINT
  5
F8
  8
DEFPOINTS
  6
CONTINUOUS
 62
     7
 10
78.0
 20
-30.95
 30
0.0
  0
POINT
  5
F9
  8
DEFPOINTS
  6
CONTINUOUS
 62
     7
 10
78.0
 20
109.520407
 30
0.0
  0
LINE
  5
FA
  8
SIZE
  6
CONTINUOUS
 62
    30
 10
181.0
 20
15.0
 30
0.0
 11
181.0
 21
280.091801
 31
0.0
  0
LINE
  5
FB
  8
SIZE
  6
CONTINUOUS
 62
    30
 10
-67.0
 20
-85.95
 30
0.0
 11
-67.0
 21
280.091801
 31
0.0
  0
LINE
  5
FC
  8
SIZE
  6
CONTINUOUS
 62
    30
 10
181.0
 20
265.091801
 30
0.0
 11
-67.0
 21
265.091801
 31
0.0
  0
CIRCLE
  5
FD
  8
SIZE
  6
CONTINUOUS
 62
    30
 10
181.0
 20
265.091801
 30
0.0
 40
7.5
  0
CIRCLE
  5
FE
  8
SIZE
  6
CONTINUOUS
 62
    30
 10
-67.0
 20
265.091801
 30
0.0
 40
7.5
  0
TEXT
  5
FF
  8
SIZE
  6
CONTINUOUS
 62
    30
 10
-0.857143
 20
280.091801
 30
0.0
 40
50.0
  1
248
 41
0.9
 72
     1
 11
57.0
 21
280.091801
 31
0.0
  0
POINT
  5
100
  8
DEFPOINTS
  6
CONTINUOUS
 62
     7
 10
181.0
 20
0.0
 30
0.0
  0
POINT
  5
101
  8
DEFPOINTS
  6
CONTINUOUS
 62
     7
 10
-67.0
 20
-100.95
 30
0.0
  0
POINT
  5
102
  8
DEFPOINTS
  6
CONTINUOUS
 62
     7
 10
-67.0
 20
265.091801
 30
0.0
  0
LINE
  5
103
  8
SIZE
  6
CONTINUOUS
 62
    30
 10
181.0
 20
-299.0
 30
0.0
 11
181.0
 21
-504.751223
 31
0.0
  0
LINE
  5
104
  8
SIZE
  6
CONTINUOUS
 62
    30
 10
0.0
 20
-292.5
 30
0.0
 11
0.0
 21
-504.751223
 31
0.0
  0
LINE
  5
105
  8
SIZE
  6
CONTINUOUS
 62
    30
 10
181.0
 20
-489.751223
 30
0.0
 11
0.0
 21
-489.751223
 31
0.0
  0
CIRCLE
  5
106
  8
SIZE
  6
CONTINUOUS
 62
    30
 10
181.0
 20
-489.751223
 30
0.0
 40
7.5
  0
CIRCLE
  5
107
  8
SIZE
  6
CONTINUOUS
 62
    30
 10
0.0
 20
-489.751223
 30
0.0
 40
7.5
  0
TEXT
  5
108
  8
SIZE
  6
CONTINUOUS
 62
    30
 10
46.571429
 20
-474.751223
 30
0.0
 40
50.0
  1
181
 41
0.9
 72
     1
 11
90.5
 21
-474.751223
 31
0.0
  0
POINT
  5
109
  8
DEFPOINTS
  6
CONTINUOUS
 62
     7
 10
181.0
 20
-284.0
 30
0.0
  0
POINT
  5
10A
  8
DEFPOINTS
  6
CONTINUOUS
 62
     7
 10
0.0
 20
-277.5
 30
0.0
  0
POINT
  5
10B
  8
DEFPOINTS
  6
CONTINUOUS
 62
     7
 10
0.0
 20
-489.751223
 30
0.0
  0
LINE
  5
10C
  8
SIZE
  6
CONTINUOUS
 62
    30
 10
-149.0
 20
8.0
 30
0.0
 11
-149.0
 21
457.384687
 31
0.0
  0
LINE
  5
10D
  8
SIZE
  6
CONTINUOUS
 62
    30
 10
149.0
 20
8.0
 30
0.0
 11
149.0
 21
457.384687
 31
0.0
  0
LINE
  5
10E
  8
SIZE
  6
CONTINUOUS
 62
    30
 10
-149.0
 20
442.384687
 30
0.0
 11
149.0
 21
442.384687
 31
0.0
  0
CIRCLE
  5
10F
  8
SIZE
  6
CONTINUOUS
 62
    30
 10
-149.0
 20
442.384687
 30
0.0
 40
7.5
  0
CIRCLE
  5
110
  8
SIZE
  6
CONTINUOUS
 62
    30
 10
149.0
 20
442.384687
 30
0.0
 40
7.5
  0
TEXT
  5
111
  8
SIZE
  6
CONTINUOUS
 62
    30
 10
-57.857143
 20
457.384687
 30
0.0
 40
50.0
  1
298
 41
0.9
 72
     1
 11
0.0
 21
457.384687
 31
0.0
  0
POINT
  5
112
  8
DEFPOINTS
  6
CONTINUOUS
 62
     7
 10
-149.0
 20
-7.0
 30
0.0
  0
POINT
  5
113
  8
DEFPOINTS
  6
CONTINUOUS
 62
     7
 10
149.0
 20
-7.0
 30
0.0
  0
POINT
  5
114
  8
DEFPOINTS
  6
CONTINUOUS
 62
     7
 10
149.0
 20
442.384687
 30
0.0
  0
TEXT
  5
115
  8
SIZE
  6
CONTINUOUS
 62
    30
 10
-165.64826
 20
383.016144
 30
0.0
 40
50.0
  1
（吊りﾎﾞﾙﾄﾋﾟｯﾁ）
 41
0.75
  0
LINE
  5
116
  8
SIZE
  6
CONTINUOUS
 62
    30
 10
-181.0
 20
15.0
 30
0.0
 11
-181.0
 21
560.471735
 31
0.0
  0
LINE
  5
117
  8
SIZE
  6
CONTINUOUS
 62
    30
 10
181.0
 20
15.0
 30
0.0
 11
181.0
 21
560.471735
 31
0.0
  0
LINE
  5
118
  8
SIZE
  6
CONTINUOUS
 62
    30
 10
-181.0
 20
545.471735
 30
0.0
 11
181.0
 21
545.471735
 31
0.0
  0
CIRCLE
  5
119
  8
SIZE
  6
CONTINUOUS
 62
    30
 10
-181.0
 20
545.471735
 30
0.0
 40
7.5
  0
CIRCLE
  5
11A
  8
SIZE
  6
CONTINUOUS
 62
    30
 10
181.0
 20
545.471735
 30
0.0
 40
7.5
  0
TEXT
  5
11B
  8
SIZE
  6
CONTINUOUS
 62
    30
 10
-57.857143
 20
560.471735
 30
0.0
 40
50.0
  1
362
 41
0.9
 72
     1
 11
0.0
 21
560.471735
 31
0.0
  0
POINT
  5
11C
  8
DEFPOINTS
  6
CONTINUOUS
 62
     7
 10
-181.0
 20
0.0
 30
0.0
  0
POINT
  5
11D
  8
DEFPOINTS
  6
CONTINUOUS
 62
     7
 10
181.0
 20
0.0
 30
0.0
  0
POINT
  5
11E
  8
DEFPOINTS
  6
CONTINUOUS
 62
     7
 10
181.0
 20
545.471735
 30
0.0
  0
LINE
  5
11F
  8
SIZE
  6
CONTINUOUS
 62
    30
 10
0.0
 20
-307.5
 30
0.0
 11
0.0
 21
-504.751223
 31
0.0
  0
LINE
  5
120
  8
SIZE
  6
CONTINUOUS
 62
    30
 10
-157.0
 20
-77.0
 30
0.0
 11
-157.0
 21
-504.751223
 31
0.0
  0
LINE
  5
121
  8
SIZE
  6
CONTINUOUS
 62
    30
 10
0.0
 20
-489.751223
 30
0.0
 11
-157.0
 21
-489.751223
 31
0.0
  0
CIRCLE
  5
122
  8
SIZE
  6
CONTINUOUS
 62
    30
 10
0.0
 20
-489.751223
 30
0.0
 40
7.5
  0
CIRCLE
  5
123
  8
SIZE
  6
CONTINUOUS
 62
    30
 10
-157.0
 20
-489.751223
 30
0.0
 40
7.5
  0
TEXT
  5
124
  8
SIZE
  6
CONTINUOUS
 62
    30
 10
-132.071429
 20
-474.751223
 30
0.0
 40
50.0
  1
157
 41
0.9
 72
     1
 11
-78.5
 21
-474.751223
 31
0.0
  0
POINT
  5
125
  8
DEFPOINTS
  6
CONTINUOUS
 62
     7
 10
0.0
 20
-292.5
 30
0.0
  0
POINT
  5
126
  8
DEFPOINTS
  6
CONTINUOUS
 62
     7
 10
-157.0
 20
-62.0
 30
0.0
  0
POINT
  5
127
  8
DEFPOINTS
  6
CONTINUOUS
 62
     7
 10
-157.0
 20
-489.751223
 30
0.0
  0
LINE
  5
128
  8
SIZE
  6
CONTINUOUS
 62
    30
 10
-181.0
 20
15.0
 30
0.0
 11
-181.0
 21
560.471735
 31
0.0
  0
LINE
  5
129
  8
SIZE
  6
CONTINUOUS
 62
    30
 10
-310.0
 20
16.0
 30
0.0
 11
-310.0
 21
560.471735
 31
0.0
  0
LINE
  5
12A
  8
SIZE
  6
CONTINUOUS
 62
    30
 10
-181.0
 20
545.471735
 30
0.0
 11
-310.0
 21
545.471735
 31
0.0
  0
CIRCLE
  5
12B
  8
SIZE
  6
CONTINUOUS
 62
    30
 10
-181.0
 20
545.471735
 30
0.0
 40
7.5
  0
CIRCLE
  5
12C
  8
SIZE
  6
CONTINUOUS
 62
    30
 10
-310.0
 20
545.471735
 30
0.0
 40
7.5
  0
TEXT
  5
12D
  8
SIZE
  6
CONTINUOUS
 62
    30
 10
-303.922943
 20
560.471735
 30
0.0
 40
50.0
  1
129
 41
0.9
 72
     1
 11
-251.422943
 21
560.471735
 31
0.0
  0
POINT
  5
12E
  8
DEFPOINTS
  6
CONTINUOUS
 62
     7
 10
-181.0
 20
0.0
 30
0.0
  0
POINT
  5
12F
  8
DEFPOINTS
  6
CONTINUOUS
 62
     7
 10
-310.0
 20
1.0
 30
0.0
  0
POINT
  5
130
  8
DEFPOINTS
  6
CONTINUOUS
 62
     7
 10
-310.0
 20
545.471735
 30
0.0
  0
LINE
  5
131
  8
SIZE
  6
CONTINUOUS
 62
    30
 10
-109.8
 20
-301.0
 30
0.0
 11
916.348433
 21
-301.0
 31
0.0
  0
LINE
  5
132
  8
SIZE
  6
CONTINUOUS
 62
    30
 10
196.0
 20
-284.0
 30
0.0
 11
916.348433
 21
-284.0
 31
0.0
  0
LINE
  5
133
  8
SIZE
  6
CONTINUOUS
 62
    30
 10
901.348433
 20
-284.0
 30
0.0
 11
901.348433
 21
-254.0
 31
0.0
  0
LINE
  5
134
  8
SIZE
  6
CONTINUOUS
 62
    30
 10
901.348433
 20
-301.0
 30
0.0
 11
901.348433
 21
-455.285714
 31
0.0
  0
LINE
  5
135
  8
SIZE
  6
CONTINUOUS
 62
    30
 10
901.348433
 20
-284.0
 30
0.0
 11
901.348433
 21
-301.0
 31
0.0
  0
CIRCLE
  5
136
  8
SIZE
  6
CONTINUOUS
 62
    30
 10
901.348433
 20
-284.0
 30
0.0
 40
7.5
  0
CIRCLE
  5
137
  8
SIZE
  6
CONTINUOUS
 62
    30
 10
901.348433
 20
-301.0
 30
0.0
 40
7.5
  0
TEXT
  5
138
  8
SIZE
  6
CONTINUOUS
 62
    30
 10
886.348433
 20
-440.285714
 30
0.0
 40
50.0
  1
17
 50
90.0
 41
0.9
 72
     1
 11
886.348433
 21
-408.142857
 31
0.0
  0
POINT
  5
139
  8
DEFPOINTS
  6
CONTINUOUS
 62
     7
 10
-124.8
 20
-301.0
 30
0.0
  0
POINT
  5
13A
  8
DEFPOINTS
  6
CONTINUOUS
 62
     7
 10
181.0
 20
-284.0
 30
0.0
  0
POINT
  5
13B
  8
DEFPOINTS
  6
CONTINUOUS
 62
     7
 10
901.348433
 20
-284.0
 30
0.0
  0
LINE
  5
13C
  8
SIZE
  6
CONTINUOUS
 62
    30
 10
196.0
 20
0.0
 30
0.0
 11
801.22378
 21
0.0
 31
0.0
  0
LINE
  5
13D
  8
SIZE
  6
CONTINUOUS
 62
    30
 10
262.297017
 20
-22.999595
 30
0.0
 11
801.22378
 21
-22.999595
 31
0.0
  0
LINE
  5
13E
  8
SIZE
  6
CONTINUOUS
 62
    30
 10
786.22378
 20
-22.999595
 30
0.0
 11
786.22378
 21
-52.999595
 31
0.0
  0
LINE
  5
13F
  8
SIZE
  6
CONTINUOUS
 62
    30
 10
786.22378
 20
0.0
 30
0.0
 11
786.22378
 21
162.857143
 31
0.0
  0
LINE
  5
140
  8
SIZE
  6
CONTINUOUS
 62
    30
 10
786.22378
 20
-22.999595
 30
0.0
 11
786.22378
 21
0.0
 31
0.0
  0
CIRCLE
  5
141
  8
SIZE
  6
CONTINUOUS
 62
    30
 10
786.22378
 20
-22.999595
 30
0.0
 40
7.5
  0
CIRCLE
  5
142
  8
SIZE
  6
CONTINUOUS
 62
    30
 10
786.22378
 20
0.0
 30
0.0
 40
7.5
  0
TEXT
  5
143
  8
SIZE
  6
CONTINUOUS
 62
    30
 10
771.22378
 20
75.0
 30
0.0
 40
50.0
  1
23
 50
90.0
 41
0.9
 72
     1
 11
771.22378
 21
111.428571
 31
0.0
  0
POINT
  5
144
  8
DEFPOINTS
  6
CONTINUOUS
 62
     7
 10
181.0
 20
0.0
 30
0.0
  0
POINT
  5
145
  8
DEFPOINTS
  6
CONTINUOUS
 62
     7
 10
247.297017
 20
-22.999595
 30
0.0
  0
POINT
  5
146
  8
DEFPOINTS
  6
CONTINUOUS
 62
     7
 10
786.22378
 20
-22.999595
 30
0.0
  0
LINE
  5
147
  8
SIZE
  6
CONTINUOUS
 62
    30
 10
262.297017
 20
-22.999595
 30
0.0
 11
801.22378
 21
-22.999595
 31
0.0
  0
LINE
  5
148
  8
SIZE
  6
CONTINUOUS
 62
    30
 10
266.684171
 20
-153.0
 30
0.0
 11
801.22378
 21
-153.0
 31
0.0
  0
LINE
  5
149
  8
SIZE
  6
CONTINUOUS
 62
    30
 10
786.22378
 20
-22.999595
 30
0.0
 11
786.22378
 21
-153.0
 31
0.0
  0
TEXT
  5
14A
  8
SIZE
  6
CONTINUOUS
 62
    30
 10
771.22378
 20
-141.571226
 30
0.0
 40
50.0
  1
130
 50
90.0
 41
0.9
 72
     1
 11
771.22378
 21
-87.999797
 31
0.0
  0
CIRCLE
  5
14B
  8
SIZE
  6
CONTINUOUS
 62
    30
 10
786.22378
 20
-22.999595
 30
0.0
 40
7.5
  0
CIRCLE
  5
14C
  8
SIZE
  6
CONTINUOUS
 62
    30
 10
786.22378
 20
-153.0
 30
0.0
 40
7.5
  0
POINT
  5
14D
  8
DEFPOINTS
  6
CONTINUOUS
 62
     7
 10
247.297017
 20
-22.999595
 30
0.0
  0
POINT
  5
14E
  8
DEFPOINTS
  6
CONTINUOUS
 62
     7
 10
251.684171
 20
-153.0
 30
0.0
  0
POINT
  5
14F
  8
DEFPOINTS
  6
CONTINUOUS
 62
     7
 10
786.22378
 20
-153.0
 30
0.0
  0
LINE
  5
150
  8
NOTE
  6
CONTINUOUS
 62
     4
 10
245.0
 20
-34.000316
 30
0.0
 11
245.0
 21
-11.999684
 31
0.0
  0
LINE
  5
151
  8
NOTE
  6
CONTINUOUS
 62
     4
 10
256.000316
 20
-23.0
 30
0.0
 11
233.999684
 21
-23.0
 31
0.0
  0
LINE
  5
152
  8
NOTE
  6
CONTINUOUS
 62
     4
 10
259.100442
 20
-153.0
 30
0.0
 11
230.899558
 21
-153.0
 31
0.0
  0
LINE
  5
153
  8
NOTE
  6
CONTINUOUS
 62
     4
 10
245.0
 20
-138.899558
 30
0.0
 11
245.0
 21
-167.100442
 31
0.0
  0
LINE
  5
154
  8
SIZE
  6
CONTINUOUS
 62
    30
 10
196.0
 20
0.0
 30
0.0
 11
916.348433
 21
0.0
 31
0.0
  0
LINE
  5
155
  8
SIZE
  6
CONTINUOUS
 62
    30
 10
196.0
 20
-284.0
 30
0.0
 11
916.348433
 21
-284.0
 31
0.0
  0
LINE
  5
156
  8
SIZE
  6
CONTINUOUS
 62
    30
 10
901.348433
 20
0.0
 30
0.0
 11
901.348433
 21
-284.0
 31
0.0
  0
CIRCLE
  5
157
  8
SIZE
  6
CONTINUOUS
 62
    30
 10
901.348433
 20
0.0
 30
0.0
 40
7.5
  0
CIRCLE
  5
158
  8
SIZE
  6
CONTINUOUS
 62
    30
 10
901.348433
 20
-284.0
 30
0.0
 40
7.5
  0
TEXT
  5
159
  8
SIZE
  6
CONTINUOUS
 62
    30
 10
886.348433
 20
-200.928571
 30
0.0
 40
50.0
  1
284
 50
90.0
 41
0.9
 72
     1
 11
886.348433
 21
-142.0
 31
0.0
  0
POINT
  5
15A
  8
DEFPOINTS
  6
CONTINUOUS
 62
     7
 10
181.0
 20
0.0
 30
0.0
  0
POINT
  5
15B
  8
DEFPOINTS
  6
CONTINUOUS
 62
     7
 10
181.0
 20
-284.0
 30
0.0
  0
POINT
  5
15C
  8
DEFPOINTS
  6
CONTINUOUS
 62
     7
 10
901.348433
 20
-284.0
 30
0.0
  0
LINE
  5
15D
  8
SIZE
  6
CONTINUOUS
 62
    30
 10
196.0
 20
0.0
 30
0.0
 11
474.42902
 21
0.0
 31
0.0
  0
LINE
  5
15E
  8
SIZE
  6
CONTINUOUS
 62
    30
 10
184.0
 20
-27.0
 30
0.0
 11
474.42902
 21
-27.0
 31
0.0
  0
LINE
  5
15F
  8
SIZE
  6
CONTINUOUS
 62
    30
 10
459.42902
 20
-27.0
 30
0.0
 11
459.42902
 21
-57.0
 31
0.0
  0
LINE
  5
160
  8
SIZE
  6
CONTINUOUS
 62
    30
 10
459.42902
 20
0.0
 30
0.0
 11
459.42902
 21
162.857143
 31
0.0
  0
LINE
  5
161
  8
SIZE
  6
CONTINUOUS
 62
    30
 10
459.42902
 20
-27.0
 30
0.0
 11
459.42902
 21
0.0
 31
0.0
  0
CIRCLE
  5
162
  8
SIZE
  6
CONTINUOUS
 62
    30
 10
459.42902
 20
-27.0
 30
0.0
 40
7.5
  0
CIRCLE
  5
163
  8
SIZE
  6
CONTINUOUS
 62
    30
 10
459.42902
 20
0.0
 30
0.0
 40
7.5
  0
TEXT
  5
164
  8
SIZE
  6
CONTINUOUS
 62
    30
 10
444.42902
 20
75.0
 30
0.0
 40
50.0
  1
27
 50
90.0
 41
0.9
 72
     1
 11
444.42902
 21
111.428571
 31
0.0
  0
POINT
  5
165
  8
DEFPOINTS
  6
CONTINUOUS
 62
     7
 10
181.0
 20
0.0
 30
0.0
  0
POINT
  5
166
  8
DEFPOINTS
  6
CONTINUOUS
 62
     7
 10
169.0
 20
-27.0
 30
0.0
  0
POINT
  5
167
  8
DEFPOINTS
  6
CONTINUOUS
 62
     7
 10
459.42902
 20
-27.0
 30
0.0
  0
LINE
  5
168
  8
SIZE
  6
CONTINUOUS
 62
    30
 10
-325.0
 20
-301.0
 30
0.0
 11
-448.764324
 21
-301.0
 31
0.0
  0
LINE
  5
169
  8
SIZE
  6
CONTINUOUS
 62
    30
 10
-38.0
 20
-254.5
 30
0.0
 11
-448.764324
 21
-254.5
 31
0.0
  0
LINE
  5
16A
  8
SIZE
  6
CONTINUOUS
 62
    30
 10
-433.764324
 20
-254.5
 30
0.0
 11
-433.764324
 21
-301.0
 31
0.0
  0
LINE
  5
16B
  8
SIZE
  6
CONTINUOUS
 62
    30
 10
-433.764324
 20
-301.0
 30
0.0
 11
-433.764324
 21
-498.142857
 31
0.0
  0
CIRCLE
  5
16C
  8
SIZE
  6
CONTINUOUS
 62
    30
 10
-433.764324
 20
-254.5
 30
0.0
 40
7.5
  0
CIRCLE
  5
16D
  8
SIZE
  6
CONTINUOUS
 62
    30
 10
-433.764324
 20
-301.0
 30
0.0
 40
7.5
  0
TEXT
  5
16E
  8
SIZE
  6
CONTINUOUS
 62
    30
 10
-448.764324
 20
-483.142857
 30
0.0
 40
50.0
  1
46.5
 50
90.0
 41
0.9
 72
     1
 11
-448.764324
 21
-414.571429
 31
0.0
  0
POINT
  5
16F
  8
DEFPOINTS
  6
CONTINUOUS
 62
     7
 10
-310.0
 20
-301.0
 30
0.0
  0
POINT
  5
170
  8
DEFPOINTS
  6
CONTINUOUS
 62
     7
 10
-23.0
 20
-254.5
 30
0.0
  0
POINT
  5
171
  8
DEFPOINTS
  6
CONTINUOUS
 62
     7
 10
-433.764324
 20
-254.5
 30
0.0
  0
LINE
  5
172
  8
SIZE
  6
CONTINUOUS
 62
    30
 10
196.0
 20
0.0
 30
0.0
 11
578.728926
 21
0.0
 31
0.0
  0
LINE
  5
173
  8
SIZE
  6
CONTINUOUS
 62
    30
 10
120.05
 20
-58.0
 30
0.0
 11
578.728926
 21
-58.0
 31
0.0
  0
LINE
  5
174
  8
SIZE
  6
CONTINUOUS
 62
    30
 10
563.728926
 20
-58.0
 30
0.0
 11
563.728926
 21
0.0
 31
0.0
  0
LINE
  5
175
  8
SIZE
  6
CONTINUOUS
 62
    30
 10
563.728926
 20
0.0
 30
0.0
 11
563.728926
 21
132.857143
 31
0.0
  0
CIRCLE
  5
176
  8
SIZE
  6
CONTINUOUS
 62
    30
 10
563.728926
 20
-58.0
 30
0.0
 40
7.5
  0
CIRCLE
  5
177
  8
SIZE
  6
CONTINUOUS
 62
    30
 10
563.728926
 20
0.0
 30
0.0
 40
7.5
  0
TEXT
  5
178
  8
SIZE
  6
CONTINUOUS
 62
    30
 10
548.728926
 20
45.0
 30
0.0
 40
50.0
  1
58
 50
90.0
 41
0.9
 72
     1
 11
548.728926
 21
81.428571
 31
0.0
  0
POINT
  5
179
  8
DEFPOINTS
  6
CONTINUOUS
 62
     7
 10
181.0
 20
0.0
 30
0.0
  0
POINT
  5
17A
  8
DEFPOINTS
  6
CONTINUOUS
 62
     7
 10
105.05
 20
-58.0
 30
0.0
  0
POINT
  5
17B
  8
DEFPOINTS
  6
CONTINUOUS
 62
     7
 10
563.728926
 20
-58.0
 30
0.0
  0
LINE
  5
17C
  8
SIZE
  6
CONTINUOUS
 62
    30
 10
-24.95
 20
-128.0
 30
0.0
 11
684.37418
 21
-128.0
 31
0.0
  0
LINE
  5
17D
  8
SIZE
  6
CONTINUOUS
 62
    30
 10
196.0
 20
0.0
 30
0.0
 11
684.37418
 21
0.0
 31
0.0
  0
LINE
  5
17E
  8
SIZE
  6
CONTINUOUS
 62
    30
 10
669.37418
 20
-128.0
 30
0.0
 11
669.37418
 21
0.0
 31
0.0
  0
LINE
  5
17F
  8
SIZE
  6
CONTINUOUS
 62
    30
 10
669.37418
 20
0.0
 30
0.0
 11
669.37418
 21
167.142857
 31
0.0
  0
CIRCLE
  5
180
  8
SIZE
  6
CONTINUOUS
 62
    30
 10
669.37418
 20
-128.0
 30
0.0
 40
7.5
  0
CIRCLE
  5
181
  8
SIZE
  6
CONTINUOUS
 62
    30
 10
669.37418
 20
0.0
 30
0.0
 40
7.5
  0
TEXT
  5
182
  8
SIZE
  6
CONTINUOUS
 62
    30
 10
654.37418
 20
45.0
 30
0.0
 40
50.0
  1
128
 50
90.0
 41
0.9
 72
     1
 11
654.37418
 21
98.571429
 31
0.0
  0
POINT
  5
183
  8
DEFPOINTS
  6
CONTINUOUS
 62
     7
 10
-39.95
 20
-128.0
 30
0.0
  0
POINT
  5
184
  8
DEFPOINTS
  6
CONTINUOUS
 62
     7
 10
181.0
 20
0.0
 30
0.0
  0
POINT
  5
185
  8
DEFPOINTS
  6
CONTINUOUS
 62
     7
 10
669.37418
 20
0.0
 30
0.0
  0
LINE
  5
186
  8
SIZE
  6
CONTINUOUS
 62
    30
 10
-15.0
 20
-254.5
 30
0.0
 11
-448.764324
 21
-254.5
 31
0.0
  0
LINE
  5
187
  8
SIZE
  6
CONTINUOUS
 62
    30
 10
-172.0
 20
-32.0
 30
0.0
 11
-448.764324
 21
-32.0
 31
0.0
  0
LINE
  5
188
  8
SIZE
  6
CONTINUOUS
 62
    30
 10
-433.764324
 20
-254.5
 30
0.0
 11
-433.764324
 21
-32.0
 31
0.0
  0
CIRCLE
  5
189
  8
SIZE
  6
CONTINUOUS
 62
    30
 10
-433.764324
 20
-254.5
 30
0.0
 40
7.5
  0
CIRCLE
  5
18A
  8
SIZE
  6
CONTINUOUS
 62
    30
 10
-433.764324
 20
-32.0
 30
0.0
 40
7.5
  0
TEXT
  5
18B
  8
SIZE
  6
CONTINUOUS
 62
    30
 10
-448.764324
 20
-233.25
 30
0.0
 40
50.0
  1
222.5
 50
90.0
 41
0.9
 72
     1
 11
-448.764324
 21
-143.25
 31
0.0
  0
POINT
  5
18C
  8
DEFPOINTS
  6
CONTINUOUS
 62
     7
 10
0.0
 20
-254.5
 30
0.0
  0
POINT
  5
18D
  8
DEFPOINTS
  6
CONTINUOUS
 62
     7
 10
-157.0
 20
-32.0
 30
0.0
  0
POINT
  5
18E
  8
DEFPOINTS
  6
CONTINUOUS
 62
     7
 10
-433.764324
 20
-32.0
 30
0.0
  0
LINE
  5
18F
  8
SIZE
  6
CONTINUOUS
 62
    30
 10
-172.0
 20
-32.0
 30
0.0
 11
-448.764324
 21
-32.0
 31
0.0
  0
LINE
  5
190
  8
SIZE
  6
CONTINUOUS
 62
    30
 10
-325.0
 20
1.0
 30
0.0
 11
-448.764324
 21
1.0
 31
0.0
  0
LINE
  5
191
  8
SIZE
  6
CONTINUOUS
 62
    30
 10
-433.764324
 20
-32.0
 30
0.0
 11
-433.764324
 21
1.0
 31
0.0
  0
LINE
  5
192
  8
SIZE
  6
CONTINUOUS
 62
    30
 10
-433.764324
 20
1.0
 30
0.0
 11
-433.764324
 21
133.857143
 31
0.0
  0
CIRCLE
  5
193
  8
SIZE
  6
CONTINUOUS
 62
    30
 10
-433.764324
 20
-32.0
 30
0.0
 40
7.5
  0
CIRCLE
  5
194
  8
SIZE
  6
CONTINUOUS
 62
    30
 10
-433.764324
 20
1.0
 30
0.0
 40
7.5
  0
TEXT
  5
195
  8
SIZE
  6
CONTINUOUS
 62
    30
 10
-448.764324
 20
46.0
 30
0.0
 40
50.0
  1
33
 50
90.0
 41
0.9
 72
     1
 11
-448.764324
 21
82.428571
 31
0.0
  0
POINT
  5
196
  8
DEFPOINTS
  6
CONTINUOUS
 62
     7
 10
-157.0
 20
-32.0
 30
0.0
  0
POINT
  5
197
  8
DEFPOINTS
  6
CONTINUOUS
 62
     7
 10
-310.0
 20
1.0
 30
0.0
  0
POINT
  5
198
  8
DEFPOINTS
  6
CONTINUOUS
 62
     7
 10
-433.764324
 20
1.0
 30
0.0
  0
LINE
  5
199
  8
NOTE
  6
CONTINUOUS
 62
     4
 10
1157.157129
 20
-576.520812
 30
0.0
 11
425.621324
 21
-576.520812
 31
0.0
  0
TEXT
  5
19A
  8
NOTE
  6
CONTINUOUS
 62
     4
 10
444.288297
 20
-560.287481
 30
0.0
 40
50.0
  1
RG(室内ユニット側)
 41
0.8
 72
     2
 11
900.288297
 21
-560.287481
 31
0.0
  0
TEXT
  5
19B
  8
NOTE
  6
CONTINUOUS
 62
     4
 10
929.396157
 20
-555.22947
 30
0.0
 40
50.0
  1
φ15.88
 41
0.8
  0
TEXT
  5
19C
  8
NOTE
  6
CONTINUOUS
 62
     4
 10
218.82844
 20
237.975727
 30
0.0
 40
50.0
  1
RL(室内ユニット側)
 41
0.8
 72
     2
 11
667.209392
 21
237.975727
 31
0.0
  0
TEXT
  5
19D
  8
NOTE
  6
CONTINUOUS
 62
     4
 10
700.832229
 20
238.015766
 30
0.0
 40
50.0
  1
φ9.52
 41
0.8
  0
LINE
  5
19E
  8
NOTE
  6
CONTINUOUS
 62
     4
 10
215.47102
 20
222.632405
 30
0.0
 11
868.179727
 21
222.632405
 31
0.0
  0
TEXT
  5
19F
  8
NOTE
  6
CONTINUOUS
 62
     4
 10
-693.785595
 20
191.557464
 30
0.0
 40
55.0
  1
D　VP-20
 41
0.8
 72
     2
 11
-385.366547
 21
191.557464
 31
0.0
  0
TEXT
  5
1A0
  8
NOTE
  6
CONTINUOUS
 62
     4
 10
-1400.572238
 20
-637.642685
 30
0.0
 40
50.0
  1
224形：φ15.88〈ロウ付〉(付属配管を使用)
 41
0.8
  0
TEXT
  5
1A1
  8
NOTE
  6
CONTINUOUS
 62
     4
 10
-1400.572238
 20
-720.142685
 30
0.0
 40
50.0
  1
280.335.400形：φ19.05〈ロウ付〉
 41
0.8
  0
TEXT
  5
1A2
  8
NOTE
  6
CONTINUOUS
 62
     4
 10
-1417.926324
 20
-550.489631
 30
0.0
 40
50.0
  1
室外ユニット側配管接続口（高圧）
 41
0.8
 72
     2
 11
-681.926324
 21
-550.489631
 31
0.0
  0
TEXT
  5
1A3
  8
NOTE
  6
CONTINUOUS
 62
     4
 10
406.139001
 20
-920.709912
 30
0.0
 40
50.0
  1
400形：φ25.4〈ロウ付〉（付属配管を使用）
 41
0.8
  0
TEXT
  5
1A4
  8
NOTE
  6
CONTINUOUS
 62
     4
 10
404.847705
 20
-777.72577
 30
0.0
 40
50.0
  1
224形：φ19.05〈ロウ付〉（付属配管を使用）
 41
0.8
  0
TEXT
  5
1A5
  8
NOTE
  6
CONTINUOUS
 62
     4
 10
408.66279
 20
-848.754894
 30
0.0
 40
50.0
  1
280.335形：φ22.2〈ロウ付〉
 41
0.8
  0
TEXT
  5
1A6
  8
NOTE
  6
CONTINUOUS
 62
     4
 10
351.328058
 20
-682.517982
 30
0.0
 40
50.0
  1
室外ユニット側配管接続口（低圧）
 41
0.8
 72
     2
 11
1087.328058
 21
-682.517982
 31
0.0
  0
TEXT
  5
1A7
  8
NOTE
  6
CONTINUOUS
 62
     4
 10
-801.388228
 20
323.885594
 30
0.0
 40
50.0
  1
AH4-12×30長穴
 41
0.8
  0
TEXT
  5
1A8
  8
ETC
  6
CONTINUOUS
 62
    61
 10
-833.853118
 20
727.414088
 30
0.0
 40
64.0
  1
CMB-P1016G(ﾄﾞﾚﾝｱｯﾌﾟﾒｶ組込)_5
 41
0.9
  0
LINE
  5
1A9
  8
NOTE
  6
CONTINUOUS
 62
     4
 10
128.674602
 20
-3.516064
 30
0.0
 11
149.0
 21
-27.0
 31
0.0
  0
LINE
  5
1AA
  8
NOTE
  6
CONTINUOUS
 62
     4
 10
149.0
 20
-27.0
 30
0.0
 11
119.65572
 21
-16.825014
 31
0.0
  0
LINE
  5
1AB
  8
NOTE
  6
CONTINUOUS
 62
     4
 10
149.0
 20
-27.0
 30
0.0
 11
124.165161
 21
-10.170539
 31
0.0
  0
LINE
  5
1AC
  8
NOTE
  6
CONTINUOUS
 62
     4
 10
124.165161
 20
-10.170539
 30
0.0
 11
-342.998109
 21
306.405149
 31
0.0
  0
LINE
  5
1AD
  8
NOTE
  6
CONTINUOUS
 62
     4
 10
-342.998109
 20
306.405149
 30
0.0
 11
-793.585837
 21
306.405149
 31
0.0
  0
LINE
  5
1AE
  8
NOTE
  6
CONTINUOUS
 62
     4
 10
249.374577
 20
-183.748661
 30
0.0
 11
245.0
 21
-153.0
 31
0.0
  0
LINE
  5
1AF
  8
NOTE
  6
CONTINUOUS
 62
     4
 10
245.0
 20
-153.0
 30
0.0
 11
264.162826
 21
-177.441833
 31
0.0
  0
LINE
  5
1B0
  8
NOTE
  6
CONTINUOUS
 62
     4
 10
245.0
 20
-153.0
 30
0.0
 11
256.768702
 21
-180.595247
 31
0.0
  0
LINE
  5
1B1
  8
NOTE
  6
CONTINUOUS
 62
     4
 10
256.768702
 20
-180.595247
 30
0.0
 11
425.621324
 21
-576.520812
 31
0.0
  0
LINE
  5
1B2
  8
NOTE
  6
CONTINUOUS
 62
     4
 10
249.400309
 20
7.744989
 30
0.0
 11
245.0
 21
-23.0
 31
0.0
  0
LINE
  5
1B3
  8
NOTE
  6
CONTINUOUS
 62
     4
 10
245.0
 20
-23.0
 30
0.0
 11
233.438285
 21
5.826096
 31
0.0
  0
LINE
  5
1B4
  8
NOTE
  6
CONTINUOUS
 62
     4
 10
245.0
 20
-23.0
 30
0.0
 11
241.419297
 21
6.785543
 31
0.0
  0
LINE
  5
1B5
  8
NOTE
  6
CONTINUOUS
 62
     4
 10
241.419297
 20
6.785543
 30
0.0
 11
215.47102
 21
222.632405
 31
0.0
  0
LINE
  5
1B6
  8
NOTE
  6
CONTINUOUS
 62
     4
 10
-172.226608
 20
-4.930322
 30
0.0
 11
-157.0
 21
-32.0
 31
0.0
  0
LINE
  5
1B7
  8
NOTE
  6
CONTINUOUS
 62
     4
 10
-157.0
 20
-32.0
 30
0.0
 11
-183.721469
 21
-16.170275
 31
0.0
  0
LINE
  5
1B8
  8
NOTE
  6
CONTINUOUS
 62
     4
 10
-157.0
 20
-32.0
 30
0.0
 11
-177.974039
 21
-10.550298
 31
0.0
  0
LINE
  5
1B9
  8
NOTE
  6
CONTINUOUS
 62
     4
 10
-177.974039
 20
-10.550298
 30
0.0
 11
-361.600471
 21
177.240536
 31
0.0
  0
LINE
  5
1BA
  8
NOTE
  6
CONTINUOUS
 62
     4
 10
-361.600471
 20
177.240536
 30
0.0
 11
-707.224597
 21
177.240536
 31
0.0
  0
LINE
  5
1BB
  8
NOTE
  6
CONTINUOUS
 62
     4
 10
-90.347313
 20
-148.482189
 30
0.0
 11
-67.0
 21
-128.0
 31
0.0
  0
LINE
  5
1BC
  8
NOTE
  6
CONTINUOUS
 62
     4
 10
-67.0
 20
-128.0
 30
0.0
 11
-76.978271
 21
-157.411753
 31
0.0
  0
LINE
  5
1BD
  8
NOTE
  6
CONTINUOUS
 62
     4
 10
-67.0
 20
-128.0
 30
0.0
 11
-83.662792
 21
-152.946971
 31
0.0
  0
LINE
  5
1BE
  8
NOTE
  6
CONTINUOUS
 62
     4
 10
-83.662792
 20
-152.946971
 30
0.0
 11
-358.896692
 21
-565.017895
 31
0.0
  0
LINE
  5
1BF
  8
NOTE
  6
CONTINUOUS
 62
     4
 10
-358.896692
 20
-565.017895
 30
0.0
 11
-1431.149912
 21
-565.017895
 31
0.0
  0
LINE
  5
1C0
  8
NOTE
  6
CONTINUOUS
 62
     4
 10
81.702459
 20
-88.836811
 30
0.0
 11
78.0
 21
-58.0
 31
0.0
  0
LINE
  5
1C1
  8
NOTE
  6
CONTINUOUS
 62
     4
 10
78.0
 20
-58.0
 30
0.0
 11
96.624829
 21
-82.854232
 31
0.0
  0
LINE
  5
1C2
  8
NOTE
  6
CONTINUOUS
 62
     4
 10
78.0
 20
-58.0
 30
0.0
 11
89.163644
 21
-85.845521
 31
0.0
  0
LINE
  5
1C3
  8
NOTE
  6
CONTINUOUS
 62
     4
 10
89.163644
 20
-85.845521
 30
0.0
 11
334.943449
 21
-698.895067
 31
0.0
  0
LINE
  5
1C4
  8
NOTE
  6
CONTINUOUS
 62
     4
 10
334.943449
 20
-698.895067
 30
0.0
 11
1459.075025
 21
-698.895067
 31
0.0
  0
LINE
  5
1C6
  8
DETAIL
  6
CONTINUOUS
 62
     5
 10
-97.5
 20
-284.0
 30
0.0
 11
-95.256363
 21
-284.0
 31
0.0
  0
LINE
  5
1C7
  8
DETAIL
  6
CONTINUOUS
 62
     5
 10
-86.07784
 20
-284.0
 30
0.0
 11
-83.948066
 21
-284.0
 31
0.0
  0
LINE
  5
1C8
  8
DETAIL
  6
CONTINUOUS
 62
     5
 10
-77.32082
 20
-284.0
 30
0.0
 11
-71.878619
 21
-284.0
 31
0.0
  0
LINE
  5
1C9
  8
DETAIL
  6
CONTINUOUS
 62
     5
 10
-68.5638
 20
-284.0
 30
0.0
 11
181.0
 21
-284.0
 31
0.0
  0
ENDSEC
  0
EOF
