  0
SECTION
  2
HEADER
  9
$ACADVER
  1
AC1009
  9
$INSBASE
 10
0.0
 20
0.0
 30
0.0
  9
$EXTMIN
 10
-1982.674156
 20
-978.188523
 30
-0.001526
  9
$EXTMAX
 10
1425.349917
 20
1144.463007
 30
0.0
  9
$LIMMIN
 10
-3837.000175
 20
-3000.109539
  9
$LIMMAX
 10
7319.256881
 20
4045.223003
  9
$ORTHOMODE
 70
     0
  9
$REGENMODE
 70
     1
  9
$FILLMODE
 70
     1
  9
$QTEXTMODE
 70
     0
  9
$MIRRTEXT
 70
     0
  9
$DRAGMODE
 70
     2
  9
$LTSCALE
 40
20.0
  9
$OSMODE
 70
    37
  9
$ATTMODE
 70
     1
  9
$TEXTSIZE
 40
64.0
  9
$TRACEWID
 40
0.05
  9
$TEXTSTYLE
  7
STANDARD
  9
$CLAYER
  8
OUTLINE
  9
$CELTYPE
  6
CONTINUOUS
  9
$CECOLOR
 62
     7
  9
$DIMSCALE
 40
1.0
  9
$DIMASZ
 40
30.0
  9
$DIMEXO
 40
15.0
  9
$DIMDLI
 40
80.0
  9
$DIMRND
 40
0.0
  9
$DIMDLE
 40
0.0
  9
$DIMEXE
 40
15.0
  9
$DIMTP
 40
0.0
  9
$DIMTM
 40
0.0
  9
$DIMTXT
 40
50.0
  9
$DIMCEN
 40
0.09
  9
$DIMTSZ
 40
0.0
  9
$DIMTOL
 70
     0
  9
$DIMLIM
 70
     0
  9
$DIMTIH
 70
     0
  9
$DIMTOH
 70
     0
  9
$DIMSE1
 70
     0
  9
$DIMSE2
 70
     0
  9
$DIMTAD
 70
     1
  9
$DIMZIN
 70
     8
  9
$DIMBLK
  1
_SMALL
  9
$DIMASO
 70
     1
  9
$DIMSHO
 70
     0
  9
$DIMPOST
  1

  9
$DIMAPOST
  1

  9
$DIMALT
 70
     0
  9
$DIMALTD
 70
     2
  9
$DIMALTF
 40
25.4
  9
$DIMLFAC
 40
1.0
  9
$DIMTOFL
 70
     1
  9
$DIMTVP
 40
0.0
  9
$DIMTIX
 70
     0
  9
$DIMSOXD
 70
     0
  9
$DIMSAH
 70
     0
  9
$DIMBLK1
  1

  9
$DIMBLK2
  1

  9
$DIMSTYLE
  2
STANDARD
  9
$DIMCLRD
 70
     0
  9
$DIMCLRE
 70
     0
  9
$DIMCLRT
 70
     0
  9
$DIMTFAC
 40
1.0
  9
$DIMGAP
 40
0.09
  9
$LUNITS
 70
     2
  9
$LUPREC
 70
     4
  9
$SKETCHINC
 40
0.1
  9
$FILLETRAD
 40
10.0
  9
$AUNITS
 70
     1
  9
$AUPREC
 70
     3
  9
$MENU
  1
ACAD
  9
$ELEVATION
 40
0.0
  9
$PELEVATION
 40
0.0
  9
$THICKNESS
 40
0.0
  9
$LIMCHECK
 70
     0
  9
$BLIPMODE
 70
     0
  9
$CHAMFERA
 40
0.0
  9
$CHAMFERB
 40
0.0
  9
$SKPOLY
 70
     0
  9
$TDCREATE
 40
2450330.439931
  9
$TDUPDATE
 40
2454645.651844
  9
$TDINDWG
 40
1.58158
  9
$TDUSRTIMER
 40
1.58158
  9
$USRTIMER
 70
     1
  9
$ANGBASE
 50
0.0
  9
$ANGDIR
 70
     0
  9
$PDMODE
 70
     3
  9
$PDSIZE
 40
-2.0
  9
$PLINEWID
 40
0.0
  9
$COORDS
 70
     0
  9
$SPLFRAME
 70
     0
  9
$SPLINETYPE
 70
     6
  9
$SPLINESEGS
 70
     8
  9
$ATTDIA
 70
     0
  9
$ATTREQ
 70
     1
  9
$HANDLING
 70
     1
  9
$HANDSEED
  5
475
  9
$SURFTAB1
 70
     6
  9
$SURFTAB2
 70
     6
  9
$SURFTYPE
 70
     6
  9
$SURFU
 70
     6
  9
$SURFV
 70
     6
  9
$UCSNAME
  2

  9
$UCSORG
 10
0.0
 20
0.0
 30
0.0
  9
$UCSXDIR
 10
1.0
 20
0.0
 30
0.0
  9
$UCSYDIR
 10
0.0
 20
1.0
 30
0.0
  9
$PUCSNAME
  2

  9
$PUCSORG
 10
0.0
 20
0.0
 30
0.0
  9
$PUCSXDIR
 10
1.0
 20
0.0
 30
0.0
  9
$PUCSYDIR
 10
0.0
 20
1.0
 30
0.0
  9
$USERI1
 70
     0
  9
$USERI2
 70
     0
  9
$USERI3
 70
     0
  9
$USERI4
 70
     0
  9
$USERI5
 70
     0
  9
$USERR1
 40
20.0
  9
$USERR2
 40
0.0
  9
$USERR3
 40
0.0
  9
$USERR4
 40
0.0
  9
$USERR5
 40
0.0
  9
$WORLDVIEW
 70
     1
  9
$SHADEDGE
 70
     3
  9
$SHADEDIF
 70
    70
  9
$TILEMODE
 70
     1
  9
$MAXACTVP
 70
    48
  9
$PLIMCHECK
 70
     0
  9
$PEXTMIN
 10
1.000000E+020
 20
1.000000E+020
 30
1.000000E+020
  9
$PEXTMAX
 10
-1.000000E+020
 20
-1.000000E+020
 30
-1.000000E+020
  9
$PLIMMIN
 10
0.0
 20
0.0
  9
$PLIMMAX
 10
12.0
 20
9.0
  9
$UNITMODE
 70
     0
  9
$VISRETAIN
 70
     1
  9
$PLINEGEN
 70
     0
  9
$PSLTSCALE
 70
     1
  0
ENDSEC
  0
SECTION
  2
TABLES
  0
TABLE
  2
VPORT
 70
     2
  0
VPORT
  2
*ACTIVE
 70
     0
 10
0.0
 20
0.0
 11
1.0
 21
1.0
 12
1741.128353
 22
700.669933
 13
0.0
 23
0.0
 14
50.0
 24
50.0
 15
100.0
 25
100.0
 16
0.0
 26
0.0
 36
1.0
 17
0.0
 27
0.0
 37
0.0
 40
7401.558943
 41
1.507285
 42
50.0
 43
0.0
 44
0.0
 50
0.0
 51
0.0
 71
     0
 72
  1000
 73
     1
 74
     0
 75
     0
 76
     0
 77
     0
 78
     0
  0
ENDTAB
  0
TABLE
  2
LTYPE
 70
     2
  0
LTYPE
  2
CONTINUOUS
 70
     0
  3
実線
 72
    65
 73
     0
 40
0.0
  0
LTYPE
  2
DASHDOT
 70
     0
  3
____ _ ____ _ ____ _ ____ _ ____ _ ____ _ ____
 72
    65
 73
     4
 40
5.5
 49
4.0
 49
-0.6
 49
0.3
 49
-0.6
  0
ENDTAB
  0
TABLE
  2
LAYER
 70
    12
  0
LAYER
  2
0
 70
     0
 62
     7
  6
CONTINUOUS
  0
LAYER
  2
OUTLINE
 70
     0
 62
     3
  6
CONTINUOUS
  0
LAYER
  2
DETAIL
 70
     0
 62
     5
  6
CONTINUOUS
  0
LAYER
  2
BASIS
 70
     0
 62
     6
  6
DASHDOT
  0
LAYER
  2
SIZE
 70
     0
 62
    30
  6
CONTINUOUS
  0
LAYER
  2
NOTE
 70
     0
 62
     4
  6
CONTINUOUS
  0
LAYER
  2
ARRANGE
 70
     0
 62
     1
  6
CONTINUOUS
  0
LAYER
  2
FIX
 70
     0
 62
    11
  6
CONTINUOUS
  0
LAYER
  2
SERVICESPACE
 70
     0
 62
     2
  6
DASHDOT
  0
LAYER
  2
ETC
 70
     0
 62
    61
  6
CONTINUOUS
  0
LAYER
  2
SYMBOLLINE
 70
     0
 62
    15
  6
CONTINUOUS
  0
LAYER
  2
DEFPOINTS
 70
     0
 62
     7
  6
CONTINUOUS
  0
ENDTAB
  0
TABLE
  2
STYLE
 70
     1
  0
STYLE
  2
STANDARD
 70
     0
 40
0.0
 41
0.9
 50
0.0
 71
     0
 42
64.0
  3
SIMPLEX
  4
BIGFONT
  0
ENDTAB
  0
TABLE
  2
VIEW
 70
     1
  0
VIEW
  2
ALL
 70
     0
 40
9000.0
 10
241.506647
 20
0.0
 41
12483.01
 11
0.0
 21
0.0
 31
1.0
 12
0.0
 22
0.0
 32
0.0
 42
50.0
 43
0.0
 44
0.0
 50
0.0
 71
     0
  0
ENDTAB
  0
TABLE
  2
UCS
 70
     0
  0
ENDTAB
  0
TABLE
  2
APPID
 70
     1
  0
APPID
  2
ACAD
 70
     0
  0
ENDTAB
  0
TABLE
  2
DIMSTYLE
 70
     1
  0
DIMSTYLE
  2
STANDARD
 70
     0
  3

  4

  5

  6

  7

 40
1.0
 41
0.18
 42
0.0625
 43
0.38
 44
0.18
 45
0.0
 46
0.0
 47
0.0
 48
0.0
140
0.18
141
0.09
142
0.0
143
25.4
144
1.0
145
0.0
146
1.0
147
0.09
 71
     0
 72
     0
 73
     1
 74
     1
 75
     0
 76
     0
 77
     0
 78
     0
170
     0
171
     2
172
     0
173
     0
174
     0
175
     0
176
     0
177
     0
178
     0
  0
ENDTAB
  0
ENDSEC
  0
SECTION
  2
BLOCKS
  0
BLOCK
  8
0
  2
$MODEL_SPACE
 70
     0
 10
0.0
 20
0.0
 30
0.0
  3
$MODEL_SPACE
  1

  0
ENDBLK
  5
1A
  8
0
  0
BLOCK
 67
     1
  8
0
  2
$PAPER_SPACE
 70
     0
 10
0.0
 20
0.0
 30
0.0
  3
$PAPER_SPACE
  1

  0
ENDBLK
  5
17
 67
     1
  8
0
  0
BLOCK
  8
0
  2
_SMALL
 70
     0
 10
0.0
 20
0.0
 30
0.0
  3
_SMALL
  1

  0
CIRCLE
  5
30
  8
0
  6
CONTINUOUS
 62
     7
 10
0.0
 20
0.0
 30
0.0
 40
0.25
  0
ENDBLK
  5
31
  8
0
  0
ENDSEC
  0
SECTION
  2
ENTITIES
  0
LINE
  5
32
  8
OUTLINE
  6
CONTINUOUS
 62
     3
 10
549.0
 20
-181.0
 30
0.0
 11
-549.0
 21
-181.0
 31
0.0
  0
LINE
  5
33
  8
NOTE
  6
CONTINUOUS
 62
     4
 10
27.0
 20
-245.0
 30
0.0
 11
-13.0
 21
-245.0
 31
0.0
  0
LINE
  5
34
  8
OUTLINE
  6
CONTINUOUS
 62
     3
 10
-549.0
 20
181.0
 30
0.0
 11
41.94262
 21
181.0
 31
0.0
  0
LINE
  5
35
  8
OUTLINE
  6
CONTINUOUS
 62
     3
 10
99.0
 20
-181.0
 30
0.0
 11
-549.0
 21
-181.0
 31
0.0
  0
POINT
  5
36
  8
ARRANGE
  6
CONTINUOUS
 62
     1
 10
0.0
 20
0.0
 30
0.0
  0
CIRCLE
  5
37
  8
ARRANGE
  6
CONTINUOUS
 62
     1
 10
0.0
 20
0.0
 30
0.0
 40
40.0
  0
LINE
  5
38
  8
BASIS
  6
DASHDOT
 62
     6
 10
-758.797076
 20
0.0
 30
0.0
 11
612.281876
 21
0.0
 31
0.0
  0
LINE
  5
39
  8
DETAIL
  6
CONTINUOUS
 62
     5
 10
-549.0
 20
181.0
 30
0.0
 11
549.0
 21
181.0
 31
0.0
  0
LINE
  5
3A
  8
DETAIL
  6
CONTINUOUS
 62
     5
 10
-549.0
 20
-181.0
 30
0.0
 11
549.0
 21
-181.0
 31
0.0
  0
LINE
  5
3B
  8
OUTLINE
  6
CONTINUOUS
 62
     3
 10
-549.0
 20
-181.0
 30
0.0
 11
-549.0
 21
181.0
 31
0.0
  0
LINE
  5
3C
  8
DETAIL
  6
CONTINUOUS
 62
     5
 10
-549.0
 20
180.600221
 30
0.0
 11
-549.0
 21
-181.0
 31
0.0
  0
LINE
  5
3D
  8
DETAIL
  6
CONTINUOUS
 62
     5
 10
-549.0
 20
181.0
 30
0.0
 11
-549.0
 21
-181.0
 31
0.0
  0
LINE
  5
3E
  8
DETAIL
  6
CONTINUOUS
 62
     5
 10
-549.0
 20
181.0
 30
0.0
 11
-549.0
 21
-181.0
 31
0.0
  0
LINE
  5
3F
  8
NOTE
  6
CONTINUOUS
 62
     4
 10
-393.0
 20
-245.0
 30
0.0
 11
-433.0
 21
-245.0
 31
0.0
  0
LINE
  5
40
  8
NOTE
  6
CONTINUOUS
 62
     4
 10
-599.0
 20
-78.0
 30
0.0
 11
-639.0
 21
-78.0
 31
0.0
  0
CIRCLE
  5
41
  8
FIX
  6
CONTINUOUS
 62
    11
 10
-575.999539
 20
-149.0
 30
0.0
 40
20.0
  0
LINE
  5
42
  8
NOTE
  6
CONTINUOUS
 62
     4
 10
-575.999539
 20
-169.0
 30
0.0
 11
-575.999539
 21
-129.0
 31
0.0
  0
LINE
  5
43
  8
DETAIL
  6
CONTINUOUS
 62
     5
 10
-599.001839
 20
-154.996687
 30
0.0
 11
-599.001839
 21
-173.986195
 31
0.0
  0
POINT
  5
44
  8
DEFPOINTS
  6
CONTINUOUS
 62
     7
 10
-549.0
 20
-181.0
 30
0.0
  0
POINT
  5
45
  8
DEFPOINTS
  6
CONTINUOUS
 62
     7
 10
-549.0
 20
-181.0
 30
0.0
  0
POINT
  5
46
  8
DEFPOINTS
  6
CONTINUOUS
 62
     7
 10
-549.0
 20
-181.0
 30
0.0
  0
POINT
  5
47
  8
DEFPOINTS
  6
CONTINUOUS
 62
     7
 10
-549.0
 20
-181.0
 30
0.0
  0
LINE
  5
48
  8
DETAIL
  6
CONTINUOUS
 62
     5
 10
-549.0
 20
-173.986195
 30
0.0
 11
-599.001839
 21
-173.986195
 31
0.0
  0
POINT
  5
49
  8
DEFPOINTS
  6
CONTINUOUS
 62
     7
 10
-473.0
 20
-264.207969
 30
0.0
  0
LINE
  5
4A
  8
NOTE
  6
CONTINUOUS
 62
     4
 10
-413.0
 20
-265.0
 30
0.0
 11
-413.0
 21
-225.0
 31
0.0
  0
LINE
  5
4B
  8
NOTE
  6
CONTINUOUS
 62
     4
 10
-453.0
 20
-245.0
 30
0.0
 11
-493.0
 21
-245.0
 31
0.0
  0
LINE
  5
4C
  8
NOTE
  6
CONTINUOUS
 62
     4
 10
-473.0
 20
-265.0
 30
0.0
 11
-473.0
 21
-225.0
 31
0.0
  0
POINT
  5
4D
  8
DEFPOINTS
  6
CONTINUOUS
 62
     7
 10
-575.999539
 20
-149.0
 30
0.0
  0
LINE
  5
4E
  8
NOTE
  6
CONTINUOUS
 62
     4
 10
-619.0
 20
-98.0
 30
0.0
 11
-619.0
 21
-58.0
 31
0.0
  0
POINT
  5
4F
  8
DEFPOINTS
  6
CONTINUOUS
 62
     7
 10
-619.0
 20
-90.7
 30
0.0
  0
LINE
  5
50
  8
NOTE
  6
CONTINUOUS
 62
     4
 10
-555.999539
 20
-149.0
 30
0.0
 11
-595.999539
 21
-149.0
 31
0.0
  0
LINE
  5
51
  8
DETAIL
  6
CONTINUOUS
 62
     5
 10
-619.0
 20
-65.3
 30
0.0
 11
-619.0
 21
-90.7
 31
0.0
  0
LINE
  5
52
  8
DETAIL
  6
CONTINUOUS
 62
     5
 10
-619.0
 20
-90.7
 30
0.0
 11
-549.0
 21
-90.7
 31
0.0
  0
LINE
  5
53
  8
DETAIL
  6
CONTINUOUS
 62
     5
 10
-619.0
 20
-65.3
 30
0.0
 11
-549.0
 21
-65.3
 31
0.0
  0
LINE
  5
54
  8
DETAIL
  6
CONTINUOUS
 62
     5
 10
-582.999539
 20
-143.0
 30
0.0
 11
-598.986839
 21
-143.0
 31
0.0
  0
LINE
  5
55
  8
DETAIL
  6
CONTINUOUS
 62
     5
 10
-599.001839
 20
-124.013805
 30
0.0
 11
-599.001839
 21
-143.0
 31
0.0
  0
LINE
  5
56
  8
DETAIL
  6
CONTINUOUS
 62
     5
 10
-582.999539
 20
-155.0
 30
0.0
 11
-598.986839
 21
-154.996687
 31
0.0
  0
LINE
  5
57
  8
DETAIL
  6
CONTINUOUS
 62
     5
 10
-582.999539
 20
-157.0
 30
0.0
 11
-582.999539
 21
-155.0
 31
0.0
  0
LINE
  5
58
  8
DETAIL
  6
CONTINUOUS
 62
     5
 10
-568.999539
 20
-157.0
 30
0.0
 11
-568.999539
 21
-149.0
 31
0.0
  0
ARC
  5
59
  8
DETAIL
  6
CONTINUOUS
 62
     5
 10
-575.999539
 20
-157.0
 30
0.0
 40
7.0
 50
180.0
 51
0.0
  0
LINE
  5
5A
  8
DETAIL
  6
CONTINUOUS
 62
     5
 10
-582.999539
 20
-141.0
 30
0.0
 11
-582.999539
 21
-143.0
 31
0.0
  0
LINE
  5
5B
  8
DETAIL
  6
CONTINUOUS
 62
     5
 10
-568.999539
 20
-141.0
 30
0.0
 11
-568.999539
 21
-149.0
 31
0.0
  0
ARC
  5
5C
  8
DETAIL
  6
CONTINUOUS
 62
     5
 10
-575.999539
 20
-141.0
 30
0.0
 40
7.0
 50
0.0
 51
180.0
  0
LINE
  5
5D
  8
DETAIL
  6
CONTINUOUS
 62
     5
 10
-549.0
 20
-124.013805
 30
0.0
 11
-599.001839
 21
-124.013805
 31
0.0
  0
LINE
  5
5E
  8
NOTE
  6
CONTINUOUS
 62
     4
 10
-153.0
 20
-245.0
 30
0.0
 11
-193.0
 21
-245.0
 31
0.0
  0
LINE
  5
5F
  8
NOTE
  6
CONTINUOUS
 62
     4
 10
-273.0
 20
-245.0
 30
0.0
 11
-313.0
 21
-245.0
 31
0.0
  0
LINE
  5
60
  8
NOTE
  6
CONTINUOUS
 62
     4
 10
-333.0
 20
-245.0
 30
0.0
 11
-373.0
 21
-245.0
 31
0.0
  0
LINE
  5
61
  8
NOTE
  6
CONTINUOUS
 62
     4
 10
-353.0
 20
-265.0
 30
0.0
 11
-353.0
 21
-225.0
 31
0.0
  0
LINE
  5
62
  8
NOTE
  6
CONTINUOUS
 62
     4
 10
-213.0
 20
-245.0
 30
0.0
 11
-253.0
 21
-245.0
 31
0.0
  0
LINE
  5
63
  8
NOTE
  6
CONTINUOUS
 62
     4
 10
-233.0
 20
-265.0
 30
0.0
 11
-233.0
 21
-225.0
 31
0.0
  0
LINE
  5
64
  8
NOTE
  6
CONTINUOUS
 62
     4
 10
-293.0
 20
-265.0
 30
0.0
 11
-293.0
 21
-225.0
 31
0.0
  0
LINE
  5
65
  8
NOTE
  6
CONTINUOUS
 62
     4
 10
-93.0
 20
-245.0
 30
0.0
 11
-133.0
 21
-245.0
 31
0.0
  0
LINE
  5
66
  8
NOTE
  6
CONTINUOUS
 62
     4
 10
-113.0
 20
-265.0
 30
0.0
 11
-113.0
 21
-225.0
 31
0.0
  0
LINE
  5
67
  8
NOTE
  6
CONTINUOUS
 62
     4
 10
-173.0
 20
-265.0
 30
0.0
 11
-173.0
 21
-225.0
 31
0.0
  0
LINE
  5
68
  8
NOTE
  6
CONTINUOUS
 62
     4
 10
7.0
 20
-265.0
 30
0.0
 11
7.0
 21
-225.0
 31
0.0
  0
LINE
  5
69
  8
NOTE
  6
CONTINUOUS
 62
     4
 10
-33.0
 20
-245.0
 30
0.0
 11
-73.0
 21
-245.0
 31
0.0
  0
LINE
  5
6A
  8
NOTE
  6
CONTINUOUS
 62
     4
 10
-53.0
 20
-265.0
 30
0.0
 11
-53.0
 21
-225.0
 31
0.0
  0
LINE
  5
6B
  8
NOTE
  6
CONTINUOUS
 62
     4
 10
-599.0
 20
67.0
 30
0.0
 11
-639.0
 21
67.0
 31
0.0
  0
LINE
  5
6C
  8
NOTE
  6
CONTINUOUS
 62
     4
 10
-619.0
 20
47.0
 30
0.0
 11
-619.0
 21
87.0
 31
0.0
  0
LINE
  5
6D
  8
DETAIL
  6
CONTINUOUS
 62
     5
 10
-619.0
 20
76.525
 30
0.0
 11
-549.0
 21
76.525
 31
0.0
  0
LINE
  5
6E
  8
DETAIL
  6
CONTINUOUS
 62
     5
 10
-619.0
 20
57.475
 30
0.0
 11
-549.0
 21
57.475
 31
0.0
  0
LINE
  5
6F
  8
DETAIL
  6
CONTINUOUS
 62
     5
 10
-619.0
 20
76.525
 30
0.0
 11
-619.0
 21
57.475
 31
0.0
  0
LINE
  5
70
  8
NOTE
  6
CONTINUOUS
 62
     4
 10
-555.999539
 20
149.0
 30
0.0
 11
-595.999539
 21
149.0
 31
0.0
  0
LINE
  5
71
  8
NOTE
  6
CONTINUOUS
 62
     4
 10
-575.999539
 20
129.0
 30
0.0
 11
-575.999539
 21
169.0
 31
0.0
  0
LINE
  5
72
  8
DETAIL
  6
CONTINUOUS
 62
     5
 10
-549.0
 20
173.986195
 30
0.0
 11
-560.999986
 21
173.986195
 31
0.0
  0
LINE
  5
73
  8
DETAIL
  6
CONTINUOUS
 62
     5
 10
-549.0
 20
124.013805
 30
0.0
 11
-599.001839
 21
124.013805
 31
0.0
  0
LINE
  5
74
  8
DETAIL
  6
CONTINUOUS
 62
     5
 10
-599.001839
 20
126.900221
 30
0.0
 11
-599.001839
 21
124.013805
 31
0.0
  0
LINE
  5
75
  8
OUTLINE
  6
CONTINUOUS
 62
     3
 10
549.0
 20
181.0
 30
0.0
 11
549.0
 21
-181.0
 31
0.0
  0
LINE
  5
76
  8
DETAIL
  6
CONTINUOUS
 62
     5
 10
549.0
 20
181.0
 30
0.0
 11
549.0
 21
-181.0
 31
0.0
  0
LINE
  5
77
  8
BASIS
  6
DASHDOT
 62
     6
 10
0.0
 20
255.975204
 30
0.0
 11
0.0
 21
-255.975204
 31
0.0
  0
LINE
  5
78
  8
DETAIL
  6
CONTINUOUS
 62
     5
 10
549.0
 20
181.0
 30
0.0
 11
549.0
 21
-180.600221
 31
0.0
  0
LINE
  5
79
  8
NOTE
  6
CONTINUOUS
 62
     4
 10
267.0
 20
-245.0
 30
0.0
 11
227.0
 21
-245.0
 31
0.0
  0
LINE
  5
7A
  8
NOTE
  6
CONTINUOUS
 62
     4
 10
147.0
 20
-245.0
 30
0.0
 11
107.0
 21
-245.0
 31
0.0
  0
LINE
  5
7B
  8
NOTE
  6
CONTINUOUS
 62
     4
 10
127.0
 20
-265.0
 30
0.0
 11
127.0
 21
-225.0
 31
0.0
  0
LINE
  5
7C
  8
NOTE
  6
CONTINUOUS
 62
     4
 10
87.0
 20
-245.0
 30
0.0
 11
47.0
 21
-245.0
 31
0.0
  0
LINE
  5
7D
  8
NOTE
  6
CONTINUOUS
 62
     4
 10
67.0
 20
-265.0
 30
0.0
 11
67.0
 21
-225.0
 31
0.0
  0
LINE
  5
7E
  8
NOTE
  6
CONTINUOUS
 62
     4
 10
207.0
 20
-245.0
 30
0.0
 11
167.0
 21
-245.0
 31
0.0
  0
LINE
  5
7F
  8
NOTE
  6
CONTINUOUS
 62
     4
 10
187.0
 20
-265.0
 30
0.0
 11
187.0
 21
-225.0
 31
0.0
  0
LINE
  5
80
  8
NOTE
  6
CONTINUOUS
 62
     4
 10
387.0
 20
-245.0
 30
0.0
 11
347.0
 21
-245.0
 31
0.0
  0
LINE
  5
81
  8
NOTE
  6
CONTINUOUS
 62
     4
 10
327.0
 20
-245.0
 30
0.0
 11
287.0
 21
-245.0
 31
0.0
  0
LINE
  5
82
  8
NOTE
  6
CONTINUOUS
 62
     4
 10
307.0
 20
-265.0
 30
0.0
 11
307.0
 21
-225.0
 31
0.0
  0
LINE
  5
83
  8
NOTE
  6
CONTINUOUS
 62
     4
 10
247.0
 20
-265.0
 30
0.0
 11
247.0
 21
-225.0
 31
0.0
  0
LINE
  5
84
  8
NOTE
  6
CONTINUOUS
 62
     4
 10
447.0
 20
-245.0
 30
0.0
 11
407.0
 21
-245.0
 31
0.0
  0
LINE
  5
85
  8
NOTE
  6
CONTINUOUS
 62
     4
 10
427.0
 20
-265.0
 30
0.0
 11
427.0
 21
-225.0
 31
0.0
  0
LINE
  5
86
  8
NOTE
  6
CONTINUOUS
 62
     4
 10
367.0
 20
-265.0
 30
0.0
 11
367.0
 21
-225.0
 31
0.0
  0
CIRCLE
  5
87
  8
FIX
  6
CONTINUOUS
 62
    11
 10
575.999539
 20
-149.0
 30
0.0
 40
20.0
  0
LINE
  5
88
  8
NOTE
  6
CONTINUOUS
 62
     4
 10
575.999539
 20
-169.0
 30
0.0
 11
575.999539
 21
-129.0
 31
0.0
  0
LINE
  5
89
  8
DETAIL
  6
CONTINUOUS
 62
     5
 10
599.001839
 20
-154.996687
 30
0.0
 11
599.001839
 21
-173.986195
 31
0.0
  0
LINE
  5
8A
  8
DETAIL
  6
CONTINUOUS
 62
     5
 10
549.0
 20
-173.986195
 30
0.0
 11
599.001839
 21
-173.986195
 31
0.0
  0
POINT
  5
8B
  8
DEFPOINTS
  6
CONTINUOUS
 62
     7
 10
549.0
 20
-181.0
 30
0.0
  0
POINT
  5
8C
  8
DEFPOINTS
  6
CONTINUOUS
 62
     7
 10
549.0
 20
-180.600221
 30
0.0
  0
LINE
  5
8D
  8
NOTE
  6
CONTINUOUS
 62
     4
 10
595.999539
 20
-149.0
 30
0.0
 11
555.999539
 21
-149.0
 31
0.0
  0
ARC
  5
8E
  8
DETAIL
  6
CONTINUOUS
 62
     5
 10
575.999539
 20
-157.0
 30
0.0
 40
7.0
 50
180.0
 51
0.0
  0
ARC
  5
8F
  8
DETAIL
  6
CONTINUOUS
 62
     5
 10
575.999539
 20
-141.0
 30
0.0
 40
7.0
 50
0.0
 51
180.0
  0
LINE
  5
90
  8
DETAIL
  6
CONTINUOUS
 62
     5
 10
549.0
 20
-124.013805
 30
0.0
 11
599.001839
 21
-124.013805
 31
0.0
  0
LINE
  5
91
  8
DETAIL
  6
CONTINUOUS
 62
     5
 10
568.999539
 20
-157.0
 30
0.0
 11
568.999539
 21
-149.0
 31
0.0
  0
LINE
  5
92
  8
DETAIL
  6
CONTINUOUS
 62
     5
 10
568.999539
 20
-141.0
 30
0.0
 11
568.999539
 21
-149.0
 31
0.0
  0
LINE
  5
93
  8
DETAIL
  6
CONTINUOUS
 62
     5
 10
582.999539
 20
-143.0
 30
0.0
 11
598.986839
 21
-143.0
 31
0.0
  0
LINE
  5
94
  8
DETAIL
  6
CONTINUOUS
 62
     5
 10
599.001839
 20
-124.013805
 30
0.0
 11
599.001839
 21
-143.0
 31
0.0
  0
LINE
  5
95
  8
DETAIL
  6
CONTINUOUS
 62
     5
 10
582.999539
 20
-155.0
 30
0.0
 11
598.986839
 21
-154.996687
 31
0.0
  0
LINE
  5
96
  8
DETAIL
  6
CONTINUOUS
 62
     5
 10
582.999539
 20
-157.0
 30
0.0
 11
582.999539
 21
-155.0
 31
0.0
  0
LINE
  5
97
  8
DETAIL
  6
CONTINUOUS
 62
     5
 10
582.999539
 20
-141.0
 30
0.0
 11
582.999539
 21
-143.0
 31
0.0
  0
LINE
  5
98
  8
OUTLINE
  6
CONTINUOUS
 62
     3
 10
41.94262
 20
251.0
 30
0.0
 11
501.937881
 21
251.0
 31
0.0
  0
LINE
  5
99
  8
DETAIL
  6
CONTINUOUS
 62
     5
 10
41.94262
 20
251.0
 30
0.0
 11
501.937881
 21
251.0
 31
0.0
  0
LINE
  5
9A
  8
OUTLINE
  6
CONTINUOUS
 62
     3
 10
41.94262
 20
181.0
 30
0.0
 11
41.94262
 21
251.0
 31
0.0
  0
LINE
  5
9B
  8
DETAIL
  6
CONTINUOUS
 62
     5
 10
41.94262
 20
181.0
 30
0.0
 11
41.94262
 21
251.0
 31
0.0
  0
LINE
  5
9C
  8
OUTLINE
  6
CONTINUOUS
 62
     3
 10
501.937881
 20
251.0
 30
0.0
 11
501.937881
 21
181.0
 31
0.0
  0
LINE
  5
9D
  8
DETAIL
  6
CONTINUOUS
 62
     5
 10
501.937881
 20
181.0
 30
0.0
 11
501.937881
 21
251.0
 31
0.0
  0
CIRCLE
  5
9E
  8
FIX
  6
CONTINUOUS
 62
    11
 10
575.999539
 20
149.0
 30
0.0
 40
20.0
  0
LINE
  5
9F
  8
NOTE
  6
CONTINUOUS
 62
     4
 10
595.999539
 20
149.0
 30
0.0
 11
555.999539
 21
149.0
 31
0.0
  0
ARC
  5
A0
  8
DETAIL
  6
CONTINUOUS
 62
     5
 10
575.999539
 20
141.0
 30
0.0
 40
7.0
 50
180.0
 51
0.0
  0
ARC
  5
A1
  8
DETAIL
  6
CONTINUOUS
 62
     5
 10
575.999539
 20
157.0
 30
0.0
 40
7.0
 50
0.0
 51
180.0
  0
LINE
  5
A2
  8
DETAIL
  6
CONTINUOUS
 62
     5
 10
548.985
 20
173.986195
 30
0.0
 11
598.986839
 21
173.986195
 31
0.0
  0
LINE
  5
A3
  8
DETAIL
  6
CONTINUOUS
 62
     5
 10
548.985
 20
124.013805
 30
0.0
 11
598.986839
 21
124.013805
 31
0.0
  0
POINT
  5
A4
  8
DEFPOINTS
  6
CONTINUOUS
 62
     7
 10
501.937881
 20
181.0
 30
0.0
  0
LINE
  5
A5
  8
OUTLINE
  6
CONTINUOUS
 62
     3
 10
501.937881
 20
181.0
 30
0.0
 11
549.0
 21
181.0
 31
0.0
  0
POINT
  5
A6
  8
DEFPOINTS
  6
CONTINUOUS
 62
     7
 10
568.999539
 20
157.399779
 30
0.0
  0
LINE
  5
A7
  8
DETAIL
  6
CONTINUOUS
 62
     5
 10
568.999539
 20
141.0
 30
0.0
 11
568.999539
 21
149.0
 31
0.0
  0
LINE
  5
A8
  8
DETAIL
  6
CONTINUOUS
 62
     5
 10
568.999539
 20
157.0
 30
0.0
 11
568.999539
 21
149.0
 31
0.0
  0
POINT
  5
A9
  8
DEFPOINTS
  6
CONTINUOUS
 62
     7
 10
575.999539
 20
134.0
 30
0.0
  0
POINT
  5
AA
  8
DEFPOINTS
  6
CONTINUOUS
 62
     7
 10
575.999539
 20
164.0
 30
0.0
  0
POINT
  5
AB
  8
DEFPOINTS
  6
CONTINUOUS
 62
     7
 10
582.999539
 20
143.0
 30
0.0
  0
POINT
  5
AC
  8
DEFPOINTS
  6
CONTINUOUS
 62
     7
 10
582.999539
 20
155.0
 30
0.0
  0
LINE
  5
AD
  8
NOTE
  6
CONTINUOUS
 62
     4
 10
575.999539
 20
129.0
 30
0.0
 11
575.999539
 21
169.0
 31
0.0
  0
LINE
  5
AE
  8
DETAIL
  6
CONTINUOUS
 62
     5
 10
582.999539
 20
155.0
 30
0.0
 11
598.986839
 21
155.0
 31
0.0
  0
POINT
  5
AF
  8
DEFPOINTS
  6
CONTINUOUS
 62
     7
 10
582.999539
 20
157.399779
 30
0.0
  0
LINE
  5
B0
  8
DETAIL
  6
CONTINUOUS
 62
     5
 10
582.999539
 20
143.0
 30
0.0
 11
598.986839
 21
143.003313
 31
0.0
  0
LINE
  5
B1
  8
DETAIL
  6
CONTINUOUS
 62
     5
 10
582.999539
 20
141.0
 30
0.0
 11
582.999539
 21
143.0
 31
0.0
  0
LINE
  5
B2
  8
DETAIL
  6
CONTINUOUS
 62
     5
 10
582.999539
 20
157.0
 30
0.0
 11
582.999539
 21
155.0
 31
0.0
  0
LINE
  5
B3
  8
DETAIL
  6
CONTINUOUS
 62
     5
 10
598.986839
 20
173.986195
 30
0.0
 11
598.986839
 21
155.0
 31
0.0
  0
LINE
  5
B4
  8
DETAIL
  6
CONTINUOUS
 62
     5
 10
598.986839
 20
143.003313
 30
0.0
 11
598.986839
 21
124.013805
 31
0.0
  0
POINT
  5
B5
  8
DEFPOINTS
  6
CONTINUOUS
 62
     7
 10
501.937881
 20
251.0
 30
0.0
  0
TEXT
  5
B6
  8
SIZE
  6
CONTINUOUS
 62
    30
 10
-74.919719
 20
-632.368831
 30
0.0
 40
50.0
  1
（吊りﾎﾞﾙﾄﾋﾟｯﾁ）
 41
0.75
  0
TEXT
  5
B7
  8
NOTE
  6
CONTINUOUS
 62
     4
 10
-1257.723207
 20
315.363043
 30
0.0
 40
55.0
  1
D　VP-20
 41
0.8
 72
     2
 11
-949.304159
 21
315.363043
 31
0.0
  0
LINE
  5
B8
  8
DETAIL
  6
CONTINUOUS
 62
     5
 10
-602.999986
 20
125.400221
 30
0.0
 11
-745.0
 21
125.400221
 31
0.0
  0
LINE
  5
B9
  8
DETAIL
  6
CONTINUOUS
 62
     5
 10
-745.0
 20
310.0
 30
0.0
 11
-602.999986
 21
310.0
 31
0.0
  0
LINE
  5
BA
  8
DETAIL
  6
CONTINUOUS
 62
     5
 10
-745.0
 20
302.200221
 30
0.0
 11
-602.999986
 21
302.200221
 31
0.0
  0
LINE
  5
BB
  8
DETAIL
  6
CONTINUOUS
 62
     5
 10
-624.732843
 20
-19.946676
 30
0.0
 11
-621.229244
 21
20.099646
 31
0.0
  0
LINE
  5
BC
  8
DETAIL
  6
CONTINUOUS
 62
     5
 10
-628.681614
 20
15.693615
 30
0.0
 11
-621.229244
 21
20.099646
 31
0.0
  0
LINE
  5
BD
  8
DETAIL
  6
CONTINUOUS
 62
     5
 10
-615.597244
 20
-14.507136
 30
0.0
 11
-624.732843
 21
-19.946676
 31
0.0
  0
LINE
  5
BE
  8
DETAIL
  6
CONTINUOUS
 62
     5
 10
-648.333244
 20
101.124785
 30
0.0
 11
-643.746921
 21
94.084785
 31
0.0
  0
LINE
  5
BF
  8
DETAIL
  6
CONTINUOUS
 62
     5
 10
-684.253079
 20
94.084785
 30
0.0
 11
-680.013244
 21
101.124785
 31
0.0
  0
LINE
  5
C0
  8
DETAIL
  6
CONTINUOUS
 62
     5
 10
-646.843695
 20
-12.758898
 30
0.0
 11
-639.190934
 21
15.801597
 31
0.0
  0
LINE
  5
C1
  8
DETAIL
  6
CONTINUOUS
 62
     5
 10
-640.881778
 20
-19.488929
 30
0.0
 11
-633.901244
 21
20.099646
 31
0.0
  0
LINE
  5
C2
  8
DETAIL
  6
CONTINUOUS
 62
     5
 10
-640.941244
 20
20.099646
 30
0.0
 11
-639.190934
 21
15.801597
 31
0.0
  0
LINE
  5
C3
  8
DETAIL
  6
CONTINUOUS
 62
     5
 10
-631.258635
 20
-13.76187
 30
0.0
 11
-640.881778
 21
-19.488929
 31
0.0
  0
LINE
  5
C4
  8
DETAIL
  6
CONTINUOUS
 62
     5
 10
-661.947109
 20
-8.289517
 30
0.0
 11
-645.843222
 21
16.508294
 31
0.0
  0
LINE
  5
C5
  8
DETAIL
  6
CONTINUOUS
 62
     5
 10
-657.930199
 20
-16.333286
 30
0.0
 11
-640.941244
 21
20.099646
 31
0.0
  0
LINE
  5
C6
  8
DETAIL
  6
CONTINUOUS
 62
     5
 10
-643.746921
 20
94.084785
 30
0.0
 11
-684.253079
 21
94.084785
 31
0.0
  0
LINE
  5
C7
  8
DETAIL
  6
CONTINUOUS
 62
     5
 10
-648.333244
 20
58.884785
 30
0.0
 11
-680.013244
 21
58.884785
 31
0.0
  0
LINE
  5
C8
  8
DETAIL
  6
CONTINUOUS
 62
     5
 10
-643.746921
 20
51.844785
 30
0.0
 11
-684.253079
 21
51.844785
 31
0.0
  0
LINE
  5
C9
  8
DETAIL
  6
CONTINUOUS
 62
     5
 10
-648.929368
 20
47.194271
 30
0.0
 11
-680.488816
 21
44.433177
 31
0.0
  0
LINE
  5
CA
  8
DETAIL
  6
CONTINUOUS
 62
     5
 10
-643.746921
 20
41.988785
 30
0.0
 11
-684.098941
 21
38.458441
 31
0.0
  0
LINE
  5
CB
  8
DETAIL
  6
CONTINUOUS
 62
     5
 10
-644.511756
 20
34.17473
 30
0.0
 11
-683.637699
 21
23.690965
 31
0.0
  0
LINE
  5
CC
  8
DETAIL
  6
CONTINUOUS
 62
     5
 10
-649.486051
 20
36.861425
 30
0.0
 11
-680.68476
 21
31.360251
 31
0.0
  0
LINE
  5
CD
  8
DETAIL
  6
CONTINUOUS
 62
     5
 10
-641.695756
 20
28.54273
 30
0.0
 11
-676.775117
 21
8.289651
 31
0.0
  0
LINE
  5
CE
  8
DETAIL
  6
CONTINUOUS
 62
     5
 10
-647.195924
 20
29.850436
 30
0.0
 11
-675.907754
 21
16.461889
 31
0.0
  0
LINE
  5
CF
  8
DETAIL
  6
CONTINUOUS
 62
     5
 10
-670.379018
 20
-9.854454
 30
0.0
 11
-645.629862
 21
21.823021
 31
0.0
  0
LINE
  5
D0
  8
DETAIL
  6
CONTINUOUS
 62
     5
 10
-647.983591
 20
20.312581
 30
0.0
 11
-668.488979
 21
3.106517
 31
0.0
  0
LINE
  5
D1
  8
DETAIL
  6
CONTINUOUS
 62
     5
 10
-643.746921
 20
94.084785
 30
0.0
 11
-648.333244
 21
87.044785
 31
0.0
  0
LINE
  5
D2
  8
DETAIL
  6
CONTINUOUS
 62
     5
 10
-648.333244
 20
58.884785
 30
0.0
 11
-643.746921
 21
51.844785
 31
0.0
  0
LINE
  5
D3
  8
DETAIL
  6
CONTINUOUS
 62
     5
 10
-643.746921
 20
51.844785
 30
0.0
 11
-648.929368
 21
47.194271
 31
0.0
  0
LINE
  5
D4
  8
DETAIL
  6
CONTINUOUS
 62
     5
 10
-648.929368
 20
47.194271
 30
0.0
 11
-643.746921
 21
41.988785
 31
0.0
  0
LINE
  5
D5
  8
DETAIL
  6
CONTINUOUS
 62
     5
 10
-643.746921
 20
41.988785
 30
0.0
 11
-649.486051
 21
36.861425
 31
0.0
  0
LINE
  5
D6
  8
DETAIL
  6
CONTINUOUS
 62
     5
 10
-649.486051
 20
36.861425
 30
0.0
 11
-644.511756
 21
34.17473
 31
0.0
  0
LINE
  5
D7
  8
DETAIL
  6
CONTINUOUS
 62
     5
 10
-644.511756
 20
34.17473
 30
0.0
 11
-647.195924
 21
29.850436
 31
0.0
  0
LINE
  5
D8
  8
DETAIL
  6
CONTINUOUS
 62
     5
 10
-647.195924
 20
29.850436
 30
0.0
 11
-641.695756
 21
28.54273
 31
0.0
  0
LINE
  5
D9
  8
DETAIL
  6
CONTINUOUS
 62
     5
 10
-641.695756
 20
28.54273
 30
0.0
 11
-647.983591
 21
20.312581
 31
0.0
  0
LINE
  5
DA
  8
DETAIL
  6
CONTINUOUS
 62
     5
 10
-647.983591
 20
20.312581
 30
0.0
 11
-645.629862
 21
21.823021
 31
0.0
  0
LINE
  5
DB
  8
DETAIL
  6
CONTINUOUS
 62
     5
 10
-645.629862
 20
21.823021
 30
0.0
 11
-645.843222
 21
16.508294
 31
0.0
  0
LINE
  5
DC
  8
DETAIL
  6
CONTINUOUS
 62
     5
 10
-645.843222
 20
16.508294
 30
0.0
 11
-640.941244
 21
20.099646
 31
0.0
  0
LINE
  5
DD
  8
DETAIL
  6
CONTINUOUS
 62
     5
 10
-640.881778
 20
-19.488929
 30
0.0
 11
-646.843695
 21
-12.758898
 31
0.0
  0
LINE
  5
DE
  8
DETAIL
  6
CONTINUOUS
 62
     5
 10
-646.843695
 20
-12.758898
 30
0.0
 11
-658.818672
 21
-16.532457
 31
0.0
  0
LINE
  5
DF
  8
DETAIL
  6
CONTINUOUS
 62
     5
 10
-658.818672
 20
-16.532457
 30
0.0
 11
-661.947109
 21
-8.289517
 31
0.0
  0
LINE
  5
E0
  8
DETAIL
  6
CONTINUOUS
 62
     5
 10
-661.947109
 20
-8.289517
 30
0.0
 11
-670.379018
 21
-9.854454
 31
0.0
  0
LINE
  5
E1
  8
DETAIL
  6
CONTINUOUS
 62
     5
 10
-670.379018
 20
-9.854454
 30
0.0
 11
-668.488979
 21
3.106517
 31
0.0
  0
LINE
  5
E2
  8
DETAIL
  6
CONTINUOUS
 62
     5
 10
-668.488979
 20
3.106517
 30
0.0
 11
-676.775117
 21
8.289651
 31
0.0
  0
LINE
  5
E3
  8
DETAIL
  6
CONTINUOUS
 62
     5
 10
-676.775117
 20
8.289651
 30
0.0
 11
-675.907754
 21
16.461889
 31
0.0
  0
LINE
  5
E4
  8
DETAIL
  6
CONTINUOUS
 62
     5
 10
-675.907754
 20
16.461889
 30
0.0
 11
-683.637699
 21
23.690965
 31
0.0
  0
LINE
  5
E5
  8
DETAIL
  6
CONTINUOUS
 62
     5
 10
-683.637699
 20
23.690965
 30
0.0
 11
-680.68476
 21
31.360251
 31
0.0
  0
LINE
  5
E6
  8
DETAIL
  6
CONTINUOUS
 62
     5
 10
-680.68476
 20
31.360251
 30
0.0
 11
-684.098941
 21
38.458441
 31
0.0
  0
LINE
  5
E7
  8
DETAIL
  6
CONTINUOUS
 62
     5
 10
-684.098941
 20
38.458441
 30
0.0
 11
-680.488816
 21
44.433177
 31
0.0
  0
LINE
  5
E8
  8
DETAIL
  6
CONTINUOUS
 62
     5
 10
-680.488816
 20
44.433177
 30
0.0
 11
-684.253079
 21
51.844785
 31
0.0
  0
LINE
  5
E9
  8
DETAIL
  6
CONTINUOUS
 62
     5
 10
-684.253079
 20
51.844785
 30
0.0
 11
-680.013244
 21
58.884785
 31
0.0
  0
LINE
  5
EA
  8
DETAIL
  6
CONTINUOUS
 62
     5
 10
-680.013244
 20
87.044785
 30
0.0
 11
-684.253079
 21
94.084785
 31
0.0
  0
LINE
  5
EB
  8
DETAIL
  6
CONTINUOUS
 62
     5
 10
-680.013244
 20
87.044785
 30
0.0
 11
-648.333244
 21
87.044785
 31
0.0
  0
LINE
  5
EC
  8
DETAIL
  6
CONTINUOUS
 62
     5
 10
-680.013244
 20
72.964785
 30
0.0
 11
-648.333244
 21
72.964785
 31
0.0
  0
LINE
  5
ED
  8
DETAIL
  6
CONTINUOUS
 62
     5
 10
-643.746921
 20
80.004785
 30
0.0
 11
-684.253079
 21
80.004785
 31
0.0
  0
LINE
  5
EE
  8
DETAIL
  6
CONTINUOUS
 62
     5
 10
-648.333244
 20
87.044785
 30
0.0
 11
-643.746921
 21
80.004785
 31
0.0
  0
LINE
  5
EF
  8
DETAIL
  6
CONTINUOUS
 62
     5
 10
-643.746921
 20
80.004785
 30
0.0
 11
-648.333244
 21
72.964785
 31
0.0
  0
LINE
  5
F0
  8
DETAIL
  6
CONTINUOUS
 62
     5
 10
-680.013244
 20
72.964785
 30
0.0
 11
-684.253079
 21
80.004785
 31
0.0
  0
LINE
  5
F1
  8
DETAIL
  6
CONTINUOUS
 62
     5
 10
-684.253079
 20
80.004785
 30
0.0
 11
-680.013244
 21
87.044785
 31
0.0
  0
LINE
  5
F2
  8
DETAIL
  6
CONTINUOUS
 62
     5
 10
-680.013244
 20
58.884785
 30
0.0
 11
-648.333244
 21
58.884785
 31
0.0
  0
LINE
  5
F3
  8
DETAIL
  6
CONTINUOUS
 62
     5
 10
-643.746921
 20
65.924785
 30
0.0
 11
-684.253079
 21
65.924785
 31
0.0
  0
LINE
  5
F4
  8
DETAIL
  6
CONTINUOUS
 62
     5
 10
-648.333244
 20
72.964785
 30
0.0
 11
-643.746921
 21
65.924785
 31
0.0
  0
LINE
  5
F5
  8
DETAIL
  6
CONTINUOUS
 62
     5
 10
-643.746921
 20
65.924785
 30
0.0
 11
-648.333244
 21
58.884785
 31
0.0
  0
LINE
  5
F6
  8
DETAIL
  6
CONTINUOUS
 62
     5
 10
-680.013244
 20
58.884785
 30
0.0
 11
-684.253079
 21
65.924785
 31
0.0
  0
LINE
  5
F7
  8
DETAIL
  6
CONTINUOUS
 62
     5
 10
-684.253079
 20
65.924785
 30
0.0
 11
-680.013244
 21
72.964785
 31
0.0
  0
LINE
  5
F8
  8
DETAIL
  6
CONTINUOUS
 62
     5
 10
-631.258635
 20
-13.76187
 30
0.0
 11
-628.681614
 21
15.693615
 31
0.0
  0
LINE
  5
F9
  8
DETAIL
  6
CONTINUOUS
 62
     5
 10
-639.190934
 20
15.801597
 30
0.0
 11
-633.901244
 21
20.099646
 31
0.0
  0
LINE
  5
FA
  8
DETAIL
  6
CONTINUOUS
 62
     5
 10
-633.901244
 20
20.099646
 30
0.0
 11
-628.681614
 21
15.693615
 31
0.0
  0
LINE
  5
FB
  8
DETAIL
  6
CONTINUOUS
 62
     5
 10
-624.732843
 20
-19.946676
 30
0.0
 11
-631.258635
 21
-13.76187
 31
0.0
  0
LINE
  5
FC
  8
DETAIL
  6
CONTINUOUS
 62
     5
 10
-843.0
 20
142.0
 30
0.0
 11
-838.0
 21
137.0
 31
0.0
  0
LINE
  5
FD
  8
DETAIL
  6
CONTINUOUS
 62
     5
 10
-843.0
 20
172.0
 30
0.0
 11
-838.0
 21
177.0
 31
0.0
  0
LINE
  5
FE
  8
DETAIL
  6
CONTINUOUS
 62
     5
 10
-918.0
 20
140.0
 30
0.0
 11
-888.0
 21
140.0
 31
0.0
  0
LINE
  5
FF
  8
DETAIL
  6
CONTINUOUS
 62
     5
 10
-888.0
 20
135.4
 30
0.0
 11
-883.0
 21
135.4
 31
0.0
  0
LINE
  5
100
  8
DETAIL
  6
CONTINUOUS
 62
     5
 10
-843.0
 20
142.0
 30
0.0
 11
-848.0
 21
137.0
 31
0.0
  0
LINE
  5
101
  8
DETAIL
  6
CONTINUOUS
 62
     5
 10
-853.0
 20
142.0
 30
0.0
 11
-858.0
 21
137.0
 31
0.0
  0
LINE
  5
102
  8
DETAIL
  6
CONTINUOUS
 62
     5
 10
-863.0
 20
142.0
 30
0.0
 11
-868.0
 21
137.0
 31
0.0
  0
LINE
  5
103
  8
DETAIL
  6
CONTINUOUS
 62
     5
 10
-873.0
 20
142.0
 30
0.0
 11
-878.0
 21
137.0
 31
0.0
  0
LINE
  5
104
  8
DETAIL
  6
CONTINUOUS
 62
     5
 10
-853.0
 20
142.0
 30
0.0
 11
-848.0
 21
137.0
 31
0.0
  0
LINE
  5
105
  8
DETAIL
  6
CONTINUOUS
 62
     5
 10
-863.0
 20
142.0
 30
0.0
 11
-858.0
 21
137.0
 31
0.0
  0
LINE
  5
106
  8
DETAIL
  6
CONTINUOUS
 62
     5
 10
-873.0
 20
142.0
 30
0.0
 11
-868.0
 21
137.0
 31
0.0
  0
LINE
  5
107
  8
DETAIL
  6
CONTINUOUS
 62
     5
 10
-883.0
 20
142.0
 30
0.0
 11
-878.0
 21
137.0
 31
0.0
  0
LINE
  5
108
  8
DETAIL
  6
CONTINUOUS
 62
     5
 10
-888.0
 20
135.4
 30
0.0
 11
-888.0
 21
179.4
 31
0.0
  0
LINE
  5
109
  8
DETAIL
  6
CONTINUOUS
 62
     5
 10
-883.0
 20
135.4
 30
0.0
 11
-883.0
 21
179.4
 31
0.0
  0
LINE
  5
10A
  8
DETAIL
  6
CONTINUOUS
 62
     5
 10
-848.0
 20
137.0
 30
0.0
 11
-848.0
 21
177.0
 31
0.0
  0
LINE
  5
10B
  8
DETAIL
  6
CONTINUOUS
 62
     5
 10
-858.0
 20
137.0
 30
0.0
 11
-858.0
 21
177.0
 31
0.0
  0
LINE
  5
10C
  8
DETAIL
  6
CONTINUOUS
 62
     5
 10
-868.0
 20
137.0
 30
0.0
 11
-868.0
 21
177.0
 31
0.0
  0
LINE
  5
10D
  8
DETAIL
  6
CONTINUOUS
 62
     5
 10
-878.0
 20
137.0
 30
0.0
 11
-878.0
 21
177.0
 31
0.0
  0
LINE
  5
10E
  8
DETAIL
  6
CONTINUOUS
 62
     5
 10
-843.0
 20
142.0
 30
0.0
 11
-843.0
 21
172.0
 31
0.0
  0
LINE
  5
10F
  8
DETAIL
  6
CONTINUOUS
 62
     5
 10
-853.0
 20
142.0
 30
0.0
 11
-853.0
 21
172.0
 31
0.0
  0
LINE
  5
110
  8
DETAIL
  6
CONTINUOUS
 62
     5
 10
-863.0
 20
142.0
 30
0.0
 11
-863.0
 21
172.0
 31
0.0
  0
LINE
  5
111
  8
DETAIL
  6
CONTINUOUS
 62
     5
 10
-873.0
 20
142.0
 30
0.0
 11
-873.0
 21
172.0
 31
0.0
  0
LINE
  5
112
  8
DETAIL
  6
CONTINUOUS
 62
     5
 10
-918.0
 20
174.0
 30
0.0
 11
-888.0
 21
174.0
 31
0.0
  0
LINE
  5
113
  8
DETAIL
  6
CONTINUOUS
 62
     5
 10
-888.0
 20
179.4
 30
0.0
 11
-883.0
 21
179.4
 31
0.0
  0
LINE
  5
114
  8
DETAIL
  6
CONTINUOUS
 62
     5
 10
-853.0
 20
172.0
 30
0.0
 11
-848.0
 21
177.0
 31
0.0
  0
LINE
  5
115
  8
DETAIL
  6
CONTINUOUS
 62
     5
 10
-863.0
 20
172.0
 30
0.0
 11
-858.0
 21
177.0
 31
0.0
  0
LINE
  5
116
  8
DETAIL
  6
CONTINUOUS
 62
     5
 10
-873.0
 20
172.0
 30
0.0
 11
-868.0
 21
177.0
 31
0.0
  0
LINE
  5
117
  8
DETAIL
  6
CONTINUOUS
 62
     5
 10
-883.0
 20
172.0
 30
0.0
 11
-878.0
 21
177.0
 31
0.0
  0
LINE
  5
118
  8
DETAIL
  6
CONTINUOUS
 62
     5
 10
-848.0
 20
177.0
 30
0.0
 11
-843.0
 21
172.0
 31
0.0
  0
LINE
  5
119
  8
DETAIL
  6
CONTINUOUS
 62
     5
 10
-858.0
 20
177.0
 30
0.0
 11
-853.0
 21
172.0
 31
0.0
  0
LINE
  5
11A
  8
DETAIL
  6
CONTINUOUS
 62
     5
 10
-868.0
 20
177.0
 30
0.0
 11
-863.0
 21
172.0
 31
0.0
  0
LINE
  5
11B
  8
DETAIL
  6
CONTINUOUS
 62
     5
 10
-878.0
 20
177.0
 30
0.0
 11
-873.0
 21
172.0
 31
0.0
  0
LINE
  5
11C
  8
DETAIL
  6
CONTINUOUS
 62
     5
 10
-918.0
 20
140.0
 30
0.0
 11
-918.0
 21
174.0
 31
0.0
  0
LINE
  5
11D
  8
DETAIL
  6
CONTINUOUS
 62
     5
 10
-745.000014
 20
172.5
 30
0.0
 11
-754.602708
 21
172.5
 31
0.0
  0
LINE
  5
11E
  8
DETAIL
  6
CONTINUOUS
 62
     5
 10
-745.000014
 20
141.5
 30
0.0
 11
-754.602708
 21
141.5
 31
0.0
  0
LINE
  5
11F
  8
DETAIL
  6
CONTINUOUS
 62
     5
 10
-745.0
 20
310.0
 30
0.0
 11
-745.0
 21
125.400221
 31
0.0
  0
LINE
  5
120
  8
DETAIL
  6
CONTINUOUS
 62
     5
 10
-773.0
 20
172.5
 30
0.0
 11
-773.0
 21
141.5
 31
0.0
  0
LINE
  5
121
  8
DETAIL
  6
CONTINUOUS
 62
     5
 10
-764.602708
 20
178.398489
 30
0.0
 11
-764.602708
 21
134.603293
 31
0.0
  0
LINE
  5
122
  8
DETAIL
  6
CONTINUOUS
 62
     5
 10
-754.602708
 20
178.398489
 30
0.0
 11
-754.602708
 21
134.603293
 31
0.0
  0
LINE
  5
123
  8
DETAIL
  6
CONTINUOUS
 62
     5
 10
-764.602708
 20
178.398489
 30
0.0
 11
-754.602708
 21
178.398489
 31
0.0
  0
LINE
  5
124
  8
DETAIL
  6
CONTINUOUS
 62
     5
 10
-764.602708
 20
134.603293
 30
0.0
 11
-754.602708
 21
134.603293
 31
0.0
  0
LINE
  5
125
  8
DETAIL
  6
CONTINUOUS
 62
     5
 10
-764.602708
 20
172.5
 30
0.0
 11
-773.0
 21
172.5
 31
0.0
  0
LINE
  5
126
  8
DETAIL
  6
CONTINUOUS
 62
     5
 10
-764.602708
 20
141.5
 30
0.0
 11
-773.0
 21
141.5
 31
0.0
  0
LINE
  5
127
  8
DETAIL
  6
CONTINUOUS
 62
     5
 10
-778.0
 20
137.0
 30
0.0
 11
-778.0
 21
177.0
 31
0.0
  0
LINE
  5
128
  8
DETAIL
  6
CONTINUOUS
 62
     5
 10
-783.0
 20
172.0
 30
0.0
 11
-778.0
 21
177.0
 31
0.0
  0
LINE
  5
129
  8
DETAIL
  6
CONTINUOUS
 62
     5
 10
-778.0
 20
177.0
 30
0.0
 11
-773.0
 21
172.0
 31
0.0
  0
LINE
  5
12A
  8
DETAIL
  6
CONTINUOUS
 62
     5
 10
-773.0
 20
142.0
 30
0.0
 11
-778.0
 21
137.0
 31
0.0
  0
LINE
  5
12B
  8
DETAIL
  6
CONTINUOUS
 62
     5
 10
-783.0
 20
142.0
 30
0.0
 11
-778.0
 21
137.0
 31
0.0
  0
LINE
  5
12C
  8
DETAIL
  6
CONTINUOUS
 62
     5
 10
-788.0
 20
137.0
 30
0.0
 11
-788.0
 21
177.0
 31
0.0
  0
LINE
  5
12D
  8
DETAIL
  6
CONTINUOUS
 62
     5
 10
-793.0
 20
172.0
 30
0.0
 11
-788.0
 21
177.0
 31
0.0
  0
LINE
  5
12E
  8
DETAIL
  6
CONTINUOUS
 62
     5
 10
-788.0
 20
177.0
 30
0.0
 11
-783.0
 21
172.0
 31
0.0
  0
LINE
  5
12F
  8
DETAIL
  6
CONTINUOUS
 62
     5
 10
-783.0
 20
142.0
 30
0.0
 11
-788.0
 21
137.0
 31
0.0
  0
LINE
  5
130
  8
DETAIL
  6
CONTINUOUS
 62
     5
 10
-793.0
 20
142.0
 30
0.0
 11
-788.0
 21
137.0
 31
0.0
  0
LINE
  5
131
  8
DETAIL
  6
CONTINUOUS
 62
     5
 10
-783.0
 20
142.0
 30
0.0
 11
-783.0
 21
172.0
 31
0.0
  0
LINE
  5
132
  8
DETAIL
  6
CONTINUOUS
 62
     5
 10
-798.0
 20
137.0
 30
0.0
 11
-798.0
 21
177.0
 31
0.0
  0
LINE
  5
133
  8
DETAIL
  6
CONTINUOUS
 62
     5
 10
-803.0
 20
172.0
 30
0.0
 11
-798.0
 21
177.0
 31
0.0
  0
LINE
  5
134
  8
DETAIL
  6
CONTINUOUS
 62
     5
 10
-798.0
 20
177.0
 30
0.0
 11
-793.0
 21
172.0
 31
0.0
  0
LINE
  5
135
  8
DETAIL
  6
CONTINUOUS
 62
     5
 10
-793.0
 20
142.0
 30
0.0
 11
-798.0
 21
137.0
 31
0.0
  0
LINE
  5
136
  8
DETAIL
  6
CONTINUOUS
 62
     5
 10
-803.0
 20
142.0
 30
0.0
 11
-798.0
 21
137.0
 31
0.0
  0
LINE
  5
137
  8
DETAIL
  6
CONTINUOUS
 62
     5
 10
-793.0
 20
142.0
 30
0.0
 11
-793.0
 21
172.0
 31
0.0
  0
LINE
  5
138
  8
DETAIL
  6
CONTINUOUS
 62
     5
 10
-803.0
 20
142.0
 30
0.0
 11
-803.0
 21
172.0
 31
0.0
  0
LINE
  5
139
  8
DETAIL
  6
CONTINUOUS
 62
     5
 10
-808.0
 20
137.0
 30
0.0
 11
-808.0
 21
177.0
 31
0.0
  0
LINE
  5
13A
  8
DETAIL
  6
CONTINUOUS
 62
     5
 10
-813.0
 20
172.0
 30
0.0
 11
-808.0
 21
177.0
 31
0.0
  0
LINE
  5
13B
  8
DETAIL
  6
CONTINUOUS
 62
     5
 10
-813.0
 20
142.0
 30
0.0
 11
-808.0
 21
137.0
 31
0.0
  0
LINE
  5
13C
  8
DETAIL
  6
CONTINUOUS
 62
     5
 10
-813.0
 20
142.0
 30
0.0
 11
-818.0
 21
137.0
 31
0.0
  0
LINE
  5
13D
  8
DETAIL
  6
CONTINUOUS
 62
     5
 10
-823.0
 20
142.0
 30
0.0
 11
-828.0
 21
137.0
 31
0.0
  0
LINE
  5
13E
  8
DETAIL
  6
CONTINUOUS
 62
     5
 10
-833.0
 20
142.0
 30
0.0
 11
-838.0
 21
137.0
 31
0.0
  0
LINE
  5
13F
  8
DETAIL
  6
CONTINUOUS
 62
     5
 10
-823.0
 20
142.0
 30
0.0
 11
-818.0
 21
137.0
 31
0.0
  0
LINE
  5
140
  8
DETAIL
  6
CONTINUOUS
 62
     5
 10
-833.0
 20
142.0
 30
0.0
 11
-828.0
 21
137.0
 31
0.0
  0
LINE
  5
141
  8
DETAIL
  6
CONTINUOUS
 62
     5
 10
-818.0
 20
137.0
 30
0.0
 11
-818.0
 21
177.0
 31
0.0
  0
LINE
  5
142
  8
DETAIL
  6
CONTINUOUS
 62
     5
 10
-828.0
 20
137.0
 30
0.0
 11
-828.0
 21
177.0
 31
0.0
  0
LINE
  5
143
  8
DETAIL
  6
CONTINUOUS
 62
     5
 10
-838.0
 20
137.0
 30
0.0
 11
-838.0
 21
177.0
 31
0.0
  0
LINE
  5
144
  8
DETAIL
  6
CONTINUOUS
 62
     5
 10
-813.0
 20
142.0
 30
0.0
 11
-813.0
 21
172.0
 31
0.0
  0
LINE
  5
145
  8
DETAIL
  6
CONTINUOUS
 62
     5
 10
-823.0
 20
142.0
 30
0.0
 11
-823.0
 21
172.0
 31
0.0
  0
LINE
  5
146
  8
DETAIL
  6
CONTINUOUS
 62
     5
 10
-833.0
 20
142.0
 30
0.0
 11
-833.0
 21
172.0
 31
0.0
  0
LINE
  5
147
  8
DETAIL
  6
CONTINUOUS
 62
     5
 10
-823.0
 20
172.0
 30
0.0
 11
-818.0
 21
177.0
 31
0.0
  0
LINE
  5
148
  8
DETAIL
  6
CONTINUOUS
 62
     5
 10
-833.0
 20
172.0
 30
0.0
 11
-828.0
 21
177.0
 31
0.0
  0
LINE
  5
149
  8
DETAIL
  6
CONTINUOUS
 62
     5
 10
-818.0
 20
177.0
 30
0.0
 11
-813.0
 21
172.0
 31
0.0
  0
LINE
  5
14A
  8
DETAIL
  6
CONTINUOUS
 62
     5
 10
-828.0
 20
177.0
 30
0.0
 11
-823.0
 21
172.0
 31
0.0
  0
LINE
  5
14B
  8
DETAIL
  6
CONTINUOUS
 62
     5
 10
-838.0
 20
177.0
 30
0.0
 11
-833.0
 21
172.0
 31
0.0
  0
LINE
  5
14C
  8
DETAIL
  6
CONTINUOUS
 62
     5
 10
-808.0
 20
177.0
 30
0.0
 11
-803.0
 21
172.0
 31
0.0
  0
LINE
  5
14D
  8
DETAIL
  6
CONTINUOUS
 62
     5
 10
-803.0
 20
142.0
 30
0.0
 11
-808.0
 21
137.0
 31
0.0
  0
LINE
  5
14E
  8
DETAIL
  6
CONTINUOUS
 62
     5
 10
-680.013244
 20
101.124785
 30
0.0
 11
-680.013244
 21
125.400221
 31
0.0
  0
LINE
  5
14F
  8
DETAIL
  6
CONTINUOUS
 62
     5
 10
-648.333244
 20
101.124785
 30
0.0
 11
-648.333244
 21
125.400221
 31
0.0
  0
LINE
  5
150
  8
DETAIL
  6
CONTINUOUS
 62
     5
 10
-648.333244
 20
101.124785
 30
0.0
 11
-680.013244
 21
101.124785
 31
0.0
  0
LINE
  5
151
  8
DETAIL
  6
CONTINUOUS
 62
     5
 10
-575.074022
 20
15.488
 30
0.0
 11
-575.074022
 21
-15.488
 31
0.0
  0
LINE
  5
152
  8
DETAIL
  6
CONTINUOUS
 62
     5
 10
-575.711982
 20
-15.488
 30
0.0
 11
-581.517244
 21
-20.099646
 31
0.0
  0
LINE
  5
153
  8
DETAIL
  6
CONTINUOUS
 62
     5
 10
-581.517244
 20
20.099646
 30
0.0
 11
-575.074022
 21
15.488
 31
0.0
  0
LINE
  5
154
  8
DETAIL
  6
CONTINUOUS
 62
     5
 10
-581.517244
 20
-20.099646
 30
0.0
 11
-581.517244
 21
20.099646
 31
0.0
  0
LINE
  5
155
  8
DETAIL
  6
CONTINUOUS
 62
     5
 10
-549.0
 20
-15.488
 30
0.0
 11
-575.711982
 21
-15.488
 31
0.0
  0
LINE
  5
156
  8
DETAIL
  6
CONTINUOUS
 62
     5
 10
-549.0
 20
15.488
 30
0.0
 11
-575.074022
 21
15.488
 31
0.0
  0
LINE
  5
157
  8
DETAIL
  6
CONTINUOUS
 62
     5
 10
-615.597244
 20
-14.507136
 30
0.0
 11
-615.597244
 21
15.060864
 31
0.0
  0
LINE
  5
158
  8
DETAIL
  6
CONTINUOUS
 62
     5
 10
-621.229244
 20
20.099646
 30
0.0
 11
-615.597244
 21
15.060864
 31
0.0
  0
LINE
  5
159
  8
DETAIL
  6
CONTINUOUS
 62
     5
 10
-595.000466
 20
19.672511
 30
0.0
 11
-588.557244
 21
15.060864
 31
0.0
  0
LINE
  5
15A
  8
DETAIL
  6
CONTINUOUS
 62
     5
 10
-595.000466
 20
-20.526782
 30
0.0
 11
-595.000466
 21
19.672511
 31
0.0
  0
LINE
  5
15B
  8
DETAIL
  6
CONTINUOUS
 62
     5
 10
-602.040466
 20
14.633729
 30
0.0
 11
-595.000466
 21
19.672511
 31
0.0
  0
LINE
  5
15C
  8
DETAIL
  6
CONTINUOUS
 62
     5
 10
-595.000466
 20
-20.526782
 30
0.0
 11
-602.040466
 21
-14.934271
 31
0.0
  0
LINE
  5
15D
  8
DETAIL
  6
CONTINUOUS
 62
     5
 10
-588.557244
 20
15.060864
 30
0.0
 11
-588.557244
 21
-14.507136
 31
0.0
  0
LINE
  5
15E
  8
DETAIL
  6
CONTINUOUS
 62
     5
 10
-608.483688
 20
19.245375
 30
0.0
 11
-602.040466
 21
14.633729
 31
0.0
  0
LINE
  5
15F
  8
DETAIL
  6
CONTINUOUS
 62
     5
 10
-608.483688
 20
-20.953917
 30
0.0
 11
-608.483688
 21
19.245375
 31
0.0
  0
LINE
  5
160
  8
DETAIL
  6
CONTINUOUS
 62
     5
 10
-615.523688
 20
14.206593
 30
0.0
 11
-608.483688
 21
19.245375
 31
0.0
  0
LINE
  5
161
  8
DETAIL
  6
CONTINUOUS
 62
     5
 10
-602.040466
 20
14.633729
 30
0.0
 11
-602.040466
 21
-14.934271
 31
0.0
  0
LINE
  5
162
  8
DETAIL
  6
CONTINUOUS
 62
     5
 10
-595.000466
 20
-20.526782
 30
0.0
 11
-588.557244
 21
-14.507136
 31
0.0
  0
LINE
  5
163
  8
DETAIL
  6
CONTINUOUS
 62
     5
 10
-608.483688
 20
-20.953917
 30
0.0
 11
-602.040466
 21
-14.934271
 31
0.0
  0
LINE
  5
164
  8
DETAIL
  6
CONTINUOUS
 62
     5
 10
-608.483688
 20
-20.953917
 30
0.0
 11
-615.597244
 21
-14.507136
 31
0.0
  0
LINE
  5
165
  8
DETAIL
  6
CONTINUOUS
 62
     5
 10
-588.557244
 20
15.060864
 30
0.0
 11
-581.517244
 21
20.099646
 31
0.0
  0
LINE
  5
166
  8
DETAIL
  6
CONTINUOUS
 62
     5
 10
-581.517244
 20
-20.099646
 30
0.0
 11
-588.557244
 21
-14.507136
 31
0.0
  0
LINE
  5
167
  8
DETAIL
  6
CONTINUOUS
 62
     5
 10
-560.999986
 20
179.000221
 30
0.0
 11
-549.0
 21
179.000221
 31
0.0
  0
LINE
  5
168
  8
DETAIL
  6
CONTINUOUS
 62
     5
 10
-602.999986
 20
310.0
 30
0.0
 11
-602.999986
 21
125.400221
 31
0.0
  0
LINE
  5
169
  8
DETAIL
  6
CONTINUOUS
 62
     5
 10
-565.999986
 20
237.900221
 30
0.0
 11
-560.999986
 21
232.900221
 31
0.0
  0
LINE
  5
16A
  8
DETAIL
  6
CONTINUOUS
 62
     5
 10
-565.999986
 20
237.900221
 30
0.0
 11
-602.999986
 21
237.900221
 31
0.0
  0
LINE
  5
16B
  8
DETAIL
  6
CONTINUOUS
 62
     5
 10
-599.001839
 20
126.900221
 30
0.0
 11
-602.999986
 21
126.900221
 31
0.0
  0
LINE
  5
16C
  8
DETAIL
  6
CONTINUOUS
 62
     5
 10
-602.999986
 20
237.900221
 30
0.0
 11
-602.999986
 21
126.900221
 31
0.0
  0
LINE
  5
16D
  8
NOTE
  6
CONTINUOUS
 62
     4
 10
-745.0
 20
137.0
 30
0.0
 11
-745.0
 21
177.0
 31
0.0
  0
LINE
  5
16E
  8
NOTE
  6
CONTINUOUS
 62
     4
 10
-725.0
 20
157.0
 30
0.0
 11
-765.0
 21
157.0
 31
0.0
  0
LINE
  5
16F
  8
SIZE
  6
CONTINUOUS
 62
    30
 10
-549.0
 20
-196.0
 30
0.0
 11
-549.0
 21
-776.66733
 31
0.0
  0
LINE
  5
170
  8
SIZE
  6
CONTINUOUS
 62
    30
 10
549.0
 20
-196.0
 30
0.0
 11
549.0
 21
-776.66733
 31
0.0
  0
LINE
  5
171
  8
SIZE
  6
CONTINUOUS
 62
    30
 10
-549.0
 20
-761.66733
 30
0.0
 11
549.0
 21
-761.66733
 31
0.0
  0
CIRCLE
  5
172
  8
SIZE
  6
CONTINUOUS
 62
    30
 10
-549.0
 20
-761.66733
 30
0.0
 40
7.5
  0
CIRCLE
  5
173
  8
SIZE
  6
CONTINUOUS
 62
    30
 10
549.0
 20
-761.66733
 30
0.0
 40
7.5
  0
TEXT
  5
174
  8
SIZE
  6
CONTINUOUS
 62
    30
 10
-75.0
 20
-746.66733
 30
0.0
 40
50.0
  1
1098
 41
0.9
 72
     1
 11
0.0
 21
-746.66733
 31
0.0
  0
POINT
  5
175
  8
DEFPOINTS
  6
CONTINUOUS
 62
     7
 10
-549.0
 20
-181.0
 30
0.0
  0
POINT
  5
176
  8
DEFPOINTS
  6
CONTINUOUS
 62
     7
 10
549.0
 20
-181.0
 30
0.0
  0
POINT
  5
177
  8
DEFPOINTS
  6
CONTINUOUS
 62
     7
 10
549.0
 20
-761.66733
 30
0.0
  0
LINE
  5
178
  8
DETAIL
  6
CONTINUOUS
 62
     5
 10
-466.250089
 20
-238.0
 30
0.0
 11
-466.250089
 21
-243.0
 31
0.0
  0
LINE
  5
179
  8
DETAIL
  6
CONTINUOUS
 62
     5
 10
-479.750058
 20
-238.0
 30
0.0
 11
-479.750058
 21
-243.0
 31
0.0
  0
LINE
  5
17A
  8
DETAIL
  6
CONTINUOUS
 62
     5
 10
-481.000058
 20
-238.0
 30
0.0
 11
-461.899963
 21
-238.0
 31
0.0
  0
LINE
  5
17B
  8
DETAIL
  6
CONTINUOUS
 62
     5
 10
-482.549988
 20
-243.0
 30
0.0
 11
-466.444204
 21
-243.0
 31
0.0
  0
LINE
  5
17C
  8
DETAIL
  6
CONTINUOUS
 62
     5
 10
-457.900024
 20
-209.475928
 30
0.0
 11
-457.900024
 21
-220.996307
 31
0.0
  0
LINE
  5
17D
  8
DETAIL
  6
CONTINUOUS
 62
     5
 10
-488.100037
 20
-209.475928
 30
0.0
 11
-488.100037
 21
-220.996307
 31
0.0
  0
LINE
  5
17E
  8
DETAIL
  6
CONTINUOUS
 62
     5
 10
-488.525542
 20
-209.475928
 30
0.0
 11
-488.525542
 21
-180.975869
 31
0.0
  0
LINE
  5
17F
  8
DETAIL
  6
CONTINUOUS
 62
     5
 10
-488.525542
 20
-209.475928
 30
0.0
 11
-457.475269
 21
-209.475928
 31
0.0
  0
LINE
  5
180
  8
DETAIL
  6
CONTINUOUS
 62
     5
 10
-457.475269
 20
-209.475928
 30
0.0
 11
-457.475269
 21
-180.975869
 31
0.0
  0
LINE
  5
181
  8
DETAIL
  6
CONTINUOUS
 62
     5
 10
-481.000058
 20
-225.975928
 30
0.0
 11
-465.000089
 21
-225.975928
 31
0.0
  0
LINE
  5
182
  8
DETAIL
  6
CONTINUOUS
 62
     5
 10
-483.970273
 20
-209.475928
 30
0.0
 11
-483.970273
 21
-223.475928
 31
0.0
  0
ARC
  5
183
  8
DETAIL
  6
CONTINUOUS
 62
     5
 10
-465.016691
 20
-222.92591
 30
0.0
 40
3.04353
 50
190.029906
 51
348.921908
  0
ARC
  5
184
  8
DETAIL
  6
CONTINUOUS
 62
     5
 10
-472.999082
 20
-219.785407
 30
0.0
 40
6.19092
 50
216.711357
 51
323.636766
  0
ARC
  5
185
  8
DETAIL
  6
CONTINUOUS
 62
     5
 10
-480.950254
 20
-222.92591
 30
0.0
 40
3.040188
 50
186.603336
 51
349.381333
  0
LINE
  5
186
  8
DETAIL
  6
CONTINUOUS
 62
     5
 10
-468.029874
 20
-209.475928
 30
0.0
 11
-468.029874
 21
-223.475928
 31
0.0
  0
LINE
  5
187
  8
DETAIL
  6
CONTINUOUS
 62
     5
 10
-477.970273
 20
-209.475928
 30
0.0
 11
-477.970273
 21
-223.475928
 31
0.0
  0
LINE
  5
188
  8
DETAIL
  6
CONTINUOUS
 62
     5
 10
-462.029844
 20
-209.475928
 30
0.0
 11
-462.029844
 21
-223.510566
 31
0.0
  0
LINE
  5
189
  8
DETAIL
  6
CONTINUOUS
 62
     5
 10
-466.444204
 20
-243.0
 30
0.0
 11
-463.450012
 21
-243.0
 31
0.0
  0
LINE
  5
18A
  8
DETAIL
  6
CONTINUOUS
 62
     5
 10
-482.567907
 20
-225.5
 30
0.0
 11
-484.100037
 21
-225.5
 31
0.0
  0
LINE
  5
18B
  8
DETAIL
  6
CONTINUOUS
 62
     5
 10
-482.549988
 20
-243.0
 30
0.0
 11
-482.549988
 21
-238.0
 31
0.0
  0
LINE
  5
18C
  8
DETAIL
  6
CONTINUOUS
 62
     5
 10
-484.100037
 20
-238.0
 30
0.0
 11
-484.100037
 21
-225.5
 31
0.0
  0
ARC
  5
18D
  8
DETAIL
  6
CONTINUOUS
 62
     5
 10
-483.600037
 20
-216.952332
 30
0.0
 40
6.050119
 50
221.944975
 51
266.491596
  0
LINE
  5
18E
  8
DETAIL
  6
CONTINUOUS
 62
     5
 10
-482.549981
 20
-242.999918
 30
0.0
 11
-480.549988
 21
-244.999758
 31
0.0
  0
ARC
  5
18F
  8
DETAIL
  6
CONTINUOUS
 62
     5
 10
-462.400085
 20
-216.952332
 30
0.0
 40
6.050117
 50
273.508454
 51
318.055026
  0
LINE
  5
190
  8
DETAIL
  6
CONTINUOUS
 62
     5
 10
-461.899963
 20
-225.5
 30
0.0
 11
-463.392765
 21
-225.5
 31
0.0
  0
LINE
  5
191
  8
DETAIL
  6
CONTINUOUS
 62
     5
 10
-484.100037
 20
-238.0
 30
0.0
 11
-481.000058
 21
-238.0
 31
0.0
  0
LINE
  5
192
  8
DETAIL
  6
CONTINUOUS
 62
     5
 10
-463.450012
 20
-243.0
 30
0.0
 11
-463.450012
 21
-238.0
 31
0.0
  0
LINE
  5
193
  8
DETAIL
  6
CONTINUOUS
 62
     5
 10
-461.899963
 20
-238.0
 30
0.0
 11
-461.899963
 21
-225.5
 31
0.0
  0
LINE
  5
194
  8
DETAIL
  6
CONTINUOUS
 62
     5
 10
-480.549988
 20
-245.0
 30
0.0
 11
-465.450012
 21
-245.0
 31
0.0
  0
LINE
  5
195
  8
DETAIL
  6
CONTINUOUS
 62
     5
 10
-465.450029
 20
-245.000101
 30
0.0
 11
-463.450143
 21
-243.000154
 31
0.0
  0
LINE
  5
196
  8
DETAIL
  6
CONTINUOUS
 62
     5
 10
-406.250089
 20
-238.0
 30
0.0
 11
-406.250089
 21
-243.0
 31
0.0
  0
LINE
  5
197
  8
DETAIL
  6
CONTINUOUS
 62
     5
 10
-419.750058
 20
-238.0
 30
0.0
 11
-419.750058
 21
-243.0
 31
0.0
  0
LINE
  5
198
  8
DETAIL
  6
CONTINUOUS
 62
     5
 10
-421.000058
 20
-238.0
 30
0.0
 11
-401.899963
 21
-238.0
 31
0.0
  0
LINE
  5
199
  8
DETAIL
  6
CONTINUOUS
 62
     5
 10
-422.549988
 20
-243.0
 30
0.0
 11
-406.444204
 21
-243.0
 31
0.0
  0
LINE
  5
19A
  8
DETAIL
  6
CONTINUOUS
 62
     5
 10
-397.900024
 20
-209.475928
 30
0.0
 11
-397.900024
 21
-220.996307
 31
0.0
  0
LINE
  5
19B
  8
DETAIL
  6
CONTINUOUS
 62
     5
 10
-421.000058
 20
-225.975928
 30
0.0
 11
-405.000089
 21
-225.975928
 31
0.0
  0
LINE
  5
19C
  8
DETAIL
  6
CONTINUOUS
 62
     5
 10
-423.970273
 20
-209.475928
 30
0.0
 11
-423.970273
 21
-223.475928
 31
0.0
  0
ARC
  5
19D
  8
DETAIL
  6
CONTINUOUS
 62
     5
 10
-405.016691
 20
-222.92591
 30
0.0
 40
3.04353
 50
190.029906
 51
348.921908
  0
ARC
  5
19E
  8
DETAIL
  6
CONTINUOUS
 62
     5
 10
-412.999082
 20
-219.785407
 30
0.0
 40
6.19092
 50
216.711357
 51
323.636766
  0
ARC
  5
19F
  8
DETAIL
  6
CONTINUOUS
 62
     5
 10
-420.950254
 20
-222.92591
 30
0.0
 40
3.040188
 50
186.603336
 51
349.381333
  0
LINE
  5
1A0
  8
DETAIL
  6
CONTINUOUS
 62
     5
 10
-408.029874
 20
-209.475928
 30
0.0
 11
-408.029874
 21
-223.475928
 31
0.0
  0
LINE
  5
1A1
  8
DETAIL
  6
CONTINUOUS
 62
     5
 10
-417.970273
 20
-209.475928
 30
0.0
 11
-417.970273
 21
-223.475928
 31
0.0
  0
LINE
  5
1A2
  8
DETAIL
  6
CONTINUOUS
 62
     5
 10
-402.029844
 20
-209.475928
 30
0.0
 11
-402.029844
 21
-223.510566
 31
0.0
  0
LINE
  5
1A3
  8
DETAIL
  6
CONTINUOUS
 62
     5
 10
-406.444204
 20
-243.0
 30
0.0
 11
-403.450012
 21
-243.0
 31
0.0
  0
LINE
  5
1A4
  8
DETAIL
  6
CONTINUOUS
 62
     5
 10
-422.567907
 20
-225.5
 30
0.0
 11
-424.100037
 21
-225.5
 31
0.0
  0
LINE
  5
1A5
  8
DETAIL
  6
CONTINUOUS
 62
     5
 10
-422.549988
 20
-243.0
 30
0.0
 11
-422.549988
 21
-238.0
 31
0.0
  0
LINE
  5
1A6
  8
DETAIL
  6
CONTINUOUS
 62
     5
 10
-424.100037
 20
-238.0
 30
0.0
 11
-424.100037
 21
-225.5
 31
0.0
  0
LINE
  5
1A7
  8
DETAIL
  6
CONTINUOUS
 62
     5
 10
-422.549981
 20
-242.999918
 30
0.0
 11
-420.549988
 21
-244.999758
 31
0.0
  0
ARC
  5
1A8
  8
DETAIL
  6
CONTINUOUS
 62
     5
 10
-402.400085
 20
-216.952332
 30
0.0
 40
6.050117
 50
273.508454
 51
318.055026
  0
LINE
  5
1A9
  8
DETAIL
  6
CONTINUOUS
 62
     5
 10
-401.899963
 20
-225.5
 30
0.0
 11
-403.392765
 21
-225.5
 31
0.0
  0
LINE
  5
1AA
  8
DETAIL
  6
CONTINUOUS
 62
     5
 10
-424.100037
 20
-238.0
 30
0.0
 11
-421.000058
 21
-238.0
 31
0.0
  0
LINE
  5
1AB
  8
DETAIL
  6
CONTINUOUS
 62
     5
 10
-403.450012
 20
-243.0
 30
0.0
 11
-403.450012
 21
-238.0
 31
0.0
  0
LINE
  5
1AC
  8
DETAIL
  6
CONTINUOUS
 62
     5
 10
-401.899963
 20
-238.0
 30
0.0
 11
-401.899963
 21
-225.5
 31
0.0
  0
LINE
  5
1AD
  8
DETAIL
  6
CONTINUOUS
 62
     5
 10
-420.549988
 20
-245.0
 30
0.0
 11
-405.450012
 21
-245.0
 31
0.0
  0
LINE
  5
1AE
  8
DETAIL
  6
CONTINUOUS
 62
     5
 10
-405.450029
 20
-245.000101
 30
0.0
 11
-403.450143
 21
-243.000154
 31
0.0
  0
LINE
  5
1AF
  8
DETAIL
  6
CONTINUOUS
 62
     5
 10
-397.475269
 20
-209.475928
 30
0.0
 11
-397.475269
 21
-180.975869
 31
0.0
  0
LINE
  5
1B0
  8
DETAIL
  6
CONTINUOUS
 62
     5
 10
-428.100037
 20
-209.475928
 30
0.0
 11
-428.100037
 21
-220.996307
 31
0.0
  0
LINE
  5
1B1
  8
DETAIL
  6
CONTINUOUS
 62
     5
 10
-428.525542
 20
-209.475928
 30
0.0
 11
-428.525542
 21
-180.975869
 31
0.0
  0
LINE
  5
1B2
  8
DETAIL
  6
CONTINUOUS
 62
     5
 10
-428.525542
 20
-209.475928
 30
0.0
 11
-397.475269
 21
-209.475928
 31
0.0
  0
ARC
  5
1B3
  8
DETAIL
  6
CONTINUOUS
 62
     5
 10
-423.600037
 20
-216.952332
 30
0.0
 40
6.050119
 50
221.944975
 51
266.491596
  0
LINE
  5
1B4
  8
DETAIL
  6
CONTINUOUS
 62
     5
 10
-346.250089
 20
-238.0
 30
0.0
 11
-346.250089
 21
-243.0
 31
0.0
  0
LINE
  5
1B5
  8
DETAIL
  6
CONTINUOUS
 62
     5
 10
-359.750058
 20
-238.0
 30
0.0
 11
-359.750058
 21
-243.0
 31
0.0
  0
LINE
  5
1B6
  8
DETAIL
  6
CONTINUOUS
 62
     5
 10
-361.000058
 20
-238.0
 30
0.0
 11
-341.899963
 21
-238.0
 31
0.0
  0
LINE
  5
1B7
  8
DETAIL
  6
CONTINUOUS
 62
     5
 10
-362.549988
 20
-243.0
 30
0.0
 11
-346.444204
 21
-243.0
 31
0.0
  0
LINE
  5
1B8
  8
DETAIL
  6
CONTINUOUS
 62
     5
 10
-337.900024
 20
-209.475928
 30
0.0
 11
-337.900024
 21
-220.996307
 31
0.0
  0
LINE
  5
1B9
  8
DETAIL
  6
CONTINUOUS
 62
     5
 10
-361.000058
 20
-225.975928
 30
0.0
 11
-345.000089
 21
-225.975928
 31
0.0
  0
LINE
  5
1BA
  8
DETAIL
  6
CONTINUOUS
 62
     5
 10
-363.970273
 20
-209.475928
 30
0.0
 11
-363.970273
 21
-223.475928
 31
0.0
  0
ARC
  5
1BB
  8
DETAIL
  6
CONTINUOUS
 62
     5
 10
-345.016691
 20
-222.92591
 30
0.0
 40
3.04353
 50
190.029906
 51
348.921908
  0
ARC
  5
1BC
  8
DETAIL
  6
CONTINUOUS
 62
     5
 10
-352.999082
 20
-219.785407
 30
0.0
 40
6.19092
 50
216.711357
 51
323.636766
  0
ARC
  5
1BD
  8
DETAIL
  6
CONTINUOUS
 62
     5
 10
-360.950254
 20
-222.92591
 30
0.0
 40
3.040188
 50
186.603336
 51
349.381333
  0
LINE
  5
1BE
  8
DETAIL
  6
CONTINUOUS
 62
     5
 10
-348.029874
 20
-209.475928
 30
0.0
 11
-348.029874
 21
-223.475928
 31
0.0
  0
LINE
  5
1BF
  8
DETAIL
  6
CONTINUOUS
 62
     5
 10
-357.970273
 20
-209.475928
 30
0.0
 11
-357.970273
 21
-223.475928
 31
0.0
  0
LINE
  5
1C0
  8
DETAIL
  6
CONTINUOUS
 62
     5
 10
-342.029844
 20
-209.475928
 30
0.0
 11
-342.029844
 21
-223.510566
 31
0.0
  0
LINE
  5
1C1
  8
DETAIL
  6
CONTINUOUS
 62
     5
 10
-346.444204
 20
-243.0
 30
0.0
 11
-343.450012
 21
-243.0
 31
0.0
  0
LINE
  5
1C2
  8
DETAIL
  6
CONTINUOUS
 62
     5
 10
-362.567907
 20
-225.5
 30
0.0
 11
-364.100037
 21
-225.5
 31
0.0
  0
LINE
  5
1C3
  8
DETAIL
  6
CONTINUOUS
 62
     5
 10
-362.549988
 20
-243.0
 30
0.0
 11
-362.549988
 21
-238.0
 31
0.0
  0
LINE
  5
1C4
  8
DETAIL
  6
CONTINUOUS
 62
     5
 10
-364.100037
 20
-238.0
 30
0.0
 11
-364.100037
 21
-225.5
 31
0.0
  0
LINE
  5
1C5
  8
DETAIL
  6
CONTINUOUS
 62
     5
 10
-362.549981
 20
-242.999918
 30
0.0
 11
-360.549988
 21
-244.999758
 31
0.0
  0
ARC
  5
1C6
  8
DETAIL
  6
CONTINUOUS
 62
     5
 10
-342.400085
 20
-216.952332
 30
0.0
 40
6.050117
 50
273.508454
 51
318.055026
  0
LINE
  5
1C7
  8
DETAIL
  6
CONTINUOUS
 62
     5
 10
-341.899963
 20
-225.5
 30
0.0
 11
-343.392765
 21
-225.5
 31
0.0
  0
LINE
  5
1C8
  8
DETAIL
  6
CONTINUOUS
 62
     5
 10
-364.100037
 20
-238.0
 30
0.0
 11
-361.000058
 21
-238.0
 31
0.0
  0
LINE
  5
1C9
  8
DETAIL
  6
CONTINUOUS
 62
     5
 10
-343.450012
 20
-243.0
 30
0.0
 11
-343.450012
 21
-238.0
 31
0.0
  0
LINE
  5
1CA
  8
DETAIL
  6
CONTINUOUS
 62
     5
 10
-341.899963
 20
-238.0
 30
0.0
 11
-341.899963
 21
-225.5
 31
0.0
  0
LINE
  5
1CB
  8
DETAIL
  6
CONTINUOUS
 62
     5
 10
-360.549988
 20
-245.0
 30
0.0
 11
-345.450012
 21
-245.0
 31
0.0
  0
LINE
  5
1CC
  8
DETAIL
  6
CONTINUOUS
 62
     5
 10
-345.450029
 20
-245.000101
 30
0.0
 11
-343.450143
 21
-243.000154
 31
0.0
  0
LINE
  5
1CD
  8
DETAIL
  6
CONTINUOUS
 62
     5
 10
-337.475269
 20
-209.475928
 30
0.0
 11
-337.475269
 21
-180.975869
 31
0.0
  0
LINE
  5
1CE
  8
DETAIL
  6
CONTINUOUS
 62
     5
 10
-368.100037
 20
-209.475928
 30
0.0
 11
-368.100037
 21
-220.996307
 31
0.0
  0
LINE
  5
1CF
  8
DETAIL
  6
CONTINUOUS
 62
     5
 10
-368.525542
 20
-209.475928
 30
0.0
 11
-368.525542
 21
-180.975869
 31
0.0
  0
LINE
  5
1D0
  8
DETAIL
  6
CONTINUOUS
 62
     5
 10
-368.525542
 20
-209.475928
 30
0.0
 11
-337.475269
 21
-209.475928
 31
0.0
  0
ARC
  5
1D1
  8
DETAIL
  6
CONTINUOUS
 62
     5
 10
-363.600037
 20
-216.952332
 30
0.0
 40
6.050119
 50
221.944975
 51
266.491596
  0
LINE
  5
1D2
  8
DETAIL
  6
CONTINUOUS
 62
     5
 10
-286.250089
 20
-238.0
 30
0.0
 11
-286.250089
 21
-243.0
 31
0.0
  0
LINE
  5
1D3
  8
DETAIL
  6
CONTINUOUS
 62
     5
 10
-299.750058
 20
-238.0
 30
0.0
 11
-299.750058
 21
-243.0
 31
0.0
  0
LINE
  5
1D4
  8
DETAIL
  6
CONTINUOUS
 62
     5
 10
-301.000058
 20
-238.0
 30
0.0
 11
-281.899963
 21
-238.0
 31
0.0
  0
LINE
  5
1D5
  8
DETAIL
  6
CONTINUOUS
 62
     5
 10
-302.549988
 20
-243.0
 30
0.0
 11
-286.444204
 21
-243.0
 31
0.0
  0
LINE
  5
1D6
  8
DETAIL
  6
CONTINUOUS
 62
     5
 10
-277.900024
 20
-209.475928
 30
0.0
 11
-277.900024
 21
-220.996307
 31
0.0
  0
LINE
  5
1D7
  8
DETAIL
  6
CONTINUOUS
 62
     5
 10
-301.000058
 20
-225.975928
 30
0.0
 11
-285.000089
 21
-225.975928
 31
0.0
  0
LINE
  5
1D8
  8
DETAIL
  6
CONTINUOUS
 62
     5
 10
-303.970273
 20
-209.475928
 30
0.0
 11
-303.970273
 21
-223.475928
 31
0.0
  0
ARC
  5
1D9
  8
DETAIL
  6
CONTINUOUS
 62
     5
 10
-285.016691
 20
-222.92591
 30
0.0
 40
3.04353
 50
190.029906
 51
348.921908
  0
ARC
  5
1DA
  8
DETAIL
  6
CONTINUOUS
 62
     5
 10
-292.999082
 20
-219.785407
 30
0.0
 40
6.19092
 50
216.711357
 51
323.636766
  0
ARC
  5
1DB
  8
DETAIL
  6
CONTINUOUS
 62
     5
 10
-300.950254
 20
-222.92591
 30
0.0
 40
3.040188
 50
186.603336
 51
349.381333
  0
LINE
  5
1DC
  8
DETAIL
  6
CONTINUOUS
 62
     5
 10
-288.029874
 20
-209.475928
 30
0.0
 11
-288.029874
 21
-223.475928
 31
0.0
  0
LINE
  5
1DD
  8
DETAIL
  6
CONTINUOUS
 62
     5
 10
-297.970273
 20
-209.475928
 30
0.0
 11
-297.970273
 21
-223.475928
 31
0.0
  0
LINE
  5
1DE
  8
DETAIL
  6
CONTINUOUS
 62
     5
 10
-282.029844
 20
-209.475928
 30
0.0
 11
-282.029844
 21
-223.510566
 31
0.0
  0
LINE
  5
1DF
  8
DETAIL
  6
CONTINUOUS
 62
     5
 10
-286.444204
 20
-243.0
 30
0.0
 11
-283.450012
 21
-243.0
 31
0.0
  0
LINE
  5
1E0
  8
DETAIL
  6
CONTINUOUS
 62
     5
 10
-302.567907
 20
-225.5
 30
0.0
 11
-304.100037
 21
-225.5
 31
0.0
  0
LINE
  5
1E1
  8
DETAIL
  6
CONTINUOUS
 62
     5
 10
-302.549988
 20
-243.0
 30
0.0
 11
-302.549988
 21
-238.0
 31
0.0
  0
LINE
  5
1E2
  8
DETAIL
  6
CONTINUOUS
 62
     5
 10
-304.100037
 20
-238.0
 30
0.0
 11
-304.100037
 21
-225.5
 31
0.0
  0
LINE
  5
1E3
  8
DETAIL
  6
CONTINUOUS
 62
     5
 10
-302.549981
 20
-242.999918
 30
0.0
 11
-300.549988
 21
-244.999758
 31
0.0
  0
ARC
  5
1E4
  8
DETAIL
  6
CONTINUOUS
 62
     5
 10
-282.400085
 20
-216.952332
 30
0.0
 40
6.050117
 50
273.508454
 51
318.055026
  0
LINE
  5
1E5
  8
DETAIL
  6
CONTINUOUS
 62
     5
 10
-281.899963
 20
-225.5
 30
0.0
 11
-283.392765
 21
-225.5
 31
0.0
  0
LINE
  5
1E6
  8
DETAIL
  6
CONTINUOUS
 62
     5
 10
-304.100037
 20
-238.0
 30
0.0
 11
-301.000058
 21
-238.0
 31
0.0
  0
LINE
  5
1E7
  8
DETAIL
  6
CONTINUOUS
 62
     5
 10
-283.450012
 20
-243.0
 30
0.0
 11
-283.450012
 21
-238.0
 31
0.0
  0
LINE
  5
1E8
  8
DETAIL
  6
CONTINUOUS
 62
     5
 10
-281.899963
 20
-238.0
 30
0.0
 11
-281.899963
 21
-225.5
 31
0.0
  0
LINE
  5
1E9
  8
DETAIL
  6
CONTINUOUS
 62
     5
 10
-300.549988
 20
-245.0
 30
0.0
 11
-285.450012
 21
-245.0
 31
0.0
  0
LINE
  5
1EA
  8
DETAIL
  6
CONTINUOUS
 62
     5
 10
-285.450029
 20
-245.000101
 30
0.0
 11
-283.450143
 21
-243.000154
 31
0.0
  0
LINE
  5
1EB
  8
DETAIL
  6
CONTINUOUS
 62
     5
 10
-277.475269
 20
-209.475928
 30
0.0
 11
-277.475269
 21
-180.975869
 31
0.0
  0
LINE
  5
1EC
  8
DETAIL
  6
CONTINUOUS
 62
     5
 10
-308.100037
 20
-209.475928
 30
0.0
 11
-308.100037
 21
-220.996307
 31
0.0
  0
LINE
  5
1ED
  8
DETAIL
  6
CONTINUOUS
 62
     5
 10
-308.525542
 20
-209.475928
 30
0.0
 11
-308.525542
 21
-180.975869
 31
0.0
  0
LINE
  5
1EE
  8
DETAIL
  6
CONTINUOUS
 62
     5
 10
-308.525542
 20
-209.475928
 30
0.0
 11
-277.475269
 21
-209.475928
 31
0.0
  0
ARC
  5
1EF
  8
DETAIL
  6
CONTINUOUS
 62
     5
 10
-303.600037
 20
-216.952332
 30
0.0
 40
6.050119
 50
221.944975
 51
266.491596
  0
LINE
  5
1F0
  8
DETAIL
  6
CONTINUOUS
 62
     5
 10
-226.250089
 20
-238.0
 30
0.0
 11
-226.250089
 21
-243.0
 31
0.0
  0
LINE
  5
1F1
  8
DETAIL
  6
CONTINUOUS
 62
     5
 10
-239.750058
 20
-238.0
 30
0.0
 11
-239.750058
 21
-243.0
 31
0.0
  0
LINE
  5
1F2
  8
DETAIL
  6
CONTINUOUS
 62
     5
 10
-241.000058
 20
-238.0
 30
0.0
 11
-221.899963
 21
-238.0
 31
0.0
  0
LINE
  5
1F3
  8
DETAIL
  6
CONTINUOUS
 62
     5
 10
-242.549988
 20
-243.0
 30
0.0
 11
-226.444204
 21
-243.0
 31
0.0
  0
LINE
  5
1F4
  8
DETAIL
  6
CONTINUOUS
 62
     5
 10
-217.900024
 20
-209.475928
 30
0.0
 11
-217.900024
 21
-220.996307
 31
0.0
  0
LINE
  5
1F5
  8
DETAIL
  6
CONTINUOUS
 62
     5
 10
-241.000058
 20
-225.975928
 30
0.0
 11
-225.000089
 21
-225.975928
 31
0.0
  0
LINE
  5
1F6
  8
DETAIL
  6
CONTINUOUS
 62
     5
 10
-243.970273
 20
-209.475928
 30
0.0
 11
-243.970273
 21
-223.475928
 31
0.0
  0
ARC
  5
1F7
  8
DETAIL
  6
CONTINUOUS
 62
     5
 10
-225.016691
 20
-222.92591
 30
0.0
 40
3.04353
 50
190.029906
 51
348.921908
  0
ARC
  5
1F8
  8
DETAIL
  6
CONTINUOUS
 62
     5
 10
-232.999082
 20
-219.785407
 30
0.0
 40
6.19092
 50
216.711357
 51
323.636766
  0
ARC
  5
1F9
  8
DETAIL
  6
CONTINUOUS
 62
     5
 10
-240.950254
 20
-222.92591
 30
0.0
 40
3.040188
 50
186.603336
 51
349.381333
  0
LINE
  5
1FA
  8
DETAIL
  6
CONTINUOUS
 62
     5
 10
-228.029874
 20
-209.475928
 30
0.0
 11
-228.029874
 21
-223.475928
 31
0.0
  0
LINE
  5
1FB
  8
DETAIL
  6
CONTINUOUS
 62
     5
 10
-237.970273
 20
-209.475928
 30
0.0
 11
-237.970273
 21
-223.475928
 31
0.0
  0
LINE
  5
1FC
  8
DETAIL
  6
CONTINUOUS
 62
     5
 10
-222.029844
 20
-209.475928
 30
0.0
 11
-222.029844
 21
-223.510566
 31
0.0
  0
LINE
  5
1FD
  8
DETAIL
  6
CONTINUOUS
 62
     5
 10
-226.444204
 20
-243.0
 30
0.0
 11
-223.450012
 21
-243.0
 31
0.0
  0
LINE
  5
1FE
  8
DETAIL
  6
CONTINUOUS
 62
     5
 10
-242.567907
 20
-225.5
 30
0.0
 11
-244.100037
 21
-225.5
 31
0.0
  0
LINE
  5
1FF
  8
DETAIL
  6
CONTINUOUS
 62
     5
 10
-242.549988
 20
-243.0
 30
0.0
 11
-242.549988
 21
-238.0
 31
0.0
  0
LINE
  5
200
  8
DETAIL
  6
CONTINUOUS
 62
     5
 10
-244.100037
 20
-238.0
 30
0.0
 11
-244.100037
 21
-225.5
 31
0.0
  0
LINE
  5
201
  8
DETAIL
  6
CONTINUOUS
 62
     5
 10
-242.549981
 20
-242.999918
 30
0.0
 11
-240.549988
 21
-244.999758
 31
0.0
  0
ARC
  5
202
  8
DETAIL
  6
CONTINUOUS
 62
     5
 10
-222.400085
 20
-216.952332
 30
0.0
 40
6.050117
 50
273.508454
 51
318.055026
  0
LINE
  5
203
  8
DETAIL
  6
CONTINUOUS
 62
     5
 10
-221.899963
 20
-225.5
 30
0.0
 11
-223.392765
 21
-225.5
 31
0.0
  0
LINE
  5
204
  8
DETAIL
  6
CONTINUOUS
 62
     5
 10
-244.100037
 20
-238.0
 30
0.0
 11
-241.000058
 21
-238.0
 31
0.0
  0
LINE
  5
205
  8
DETAIL
  6
CONTINUOUS
 62
     5
 10
-223.450012
 20
-243.0
 30
0.0
 11
-223.450012
 21
-238.0
 31
0.0
  0
LINE
  5
206
  8
DETAIL
  6
CONTINUOUS
 62
     5
 10
-221.899963
 20
-238.0
 30
0.0
 11
-221.899963
 21
-225.5
 31
0.0
  0
LINE
  5
207
  8
DETAIL
  6
CONTINUOUS
 62
     5
 10
-240.549988
 20
-245.0
 30
0.0
 11
-225.450012
 21
-245.0
 31
0.0
  0
LINE
  5
208
  8
DETAIL
  6
CONTINUOUS
 62
     5
 10
-225.450029
 20
-245.000101
 30
0.0
 11
-223.450143
 21
-243.000154
 31
0.0
  0
LINE
  5
209
  8
DETAIL
  6
CONTINUOUS
 62
     5
 10
-217.475269
 20
-209.475928
 30
0.0
 11
-217.475269
 21
-180.975869
 31
0.0
  0
LINE
  5
20A
  8
DETAIL
  6
CONTINUOUS
 62
     5
 10
-248.100037
 20
-209.475928
 30
0.0
 11
-248.100037
 21
-220.996307
 31
0.0
  0
LINE
  5
20B
  8
DETAIL
  6
CONTINUOUS
 62
     5
 10
-248.525542
 20
-209.475928
 30
0.0
 11
-248.525542
 21
-180.975869
 31
0.0
  0
LINE
  5
20C
  8
DETAIL
  6
CONTINUOUS
 62
     5
 10
-248.525542
 20
-209.475928
 30
0.0
 11
-217.475269
 21
-209.475928
 31
0.0
  0
ARC
  5
20D
  8
DETAIL
  6
CONTINUOUS
 62
     5
 10
-243.600037
 20
-216.952332
 30
0.0
 40
6.050119
 50
221.944975
 51
266.491596
  0
LINE
  5
20E
  8
DETAIL
  6
CONTINUOUS
 62
     5
 10
-166.250089
 20
-238.0
 30
0.0
 11
-166.250089
 21
-243.0
 31
0.0
  0
LINE
  5
20F
  8
DETAIL
  6
CONTINUOUS
 62
     5
 10
-179.750058
 20
-238.0
 30
0.0
 11
-179.750058
 21
-243.0
 31
0.0
  0
LINE
  5
210
  8
DETAIL
  6
CONTINUOUS
 62
     5
 10
-181.000058
 20
-238.0
 30
0.0
 11
-161.899963
 21
-238.0
 31
0.0
  0
LINE
  5
211
  8
DETAIL
  6
CONTINUOUS
 62
     5
 10
-182.549988
 20
-243.0
 30
0.0
 11
-166.444204
 21
-243.0
 31
0.0
  0
LINE
  5
212
  8
DETAIL
  6
CONTINUOUS
 62
     5
 10
-157.900024
 20
-209.475928
 30
0.0
 11
-157.900024
 21
-220.996307
 31
0.0
  0
LINE
  5
213
  8
DETAIL
  6
CONTINUOUS
 62
     5
 10
-181.000058
 20
-225.975928
 30
0.0
 11
-165.000089
 21
-225.975928
 31
0.0
  0
LINE
  5
214
  8
DETAIL
  6
CONTINUOUS
 62
     5
 10
-183.970273
 20
-209.475928
 30
0.0
 11
-183.970273
 21
-223.475928
 31
0.0
  0
ARC
  5
215
  8
DETAIL
  6
CONTINUOUS
 62
     5
 10
-165.016691
 20
-222.92591
 30
0.0
 40
3.04353
 50
190.029906
 51
348.921908
  0
ARC
  5
216
  8
DETAIL
  6
CONTINUOUS
 62
     5
 10
-172.999082
 20
-219.785407
 30
0.0
 40
6.19092
 50
216.711357
 51
323.636766
  0
ARC
  5
217
  8
DETAIL
  6
CONTINUOUS
 62
     5
 10
-180.950254
 20
-222.92591
 30
0.0
 40
3.040188
 50
186.603336
 51
349.381333
  0
LINE
  5
218
  8
DETAIL
  6
CONTINUOUS
 62
     5
 10
-168.029874
 20
-209.475928
 30
0.0
 11
-168.029874
 21
-223.475928
 31
0.0
  0
LINE
  5
219
  8
DETAIL
  6
CONTINUOUS
 62
     5
 10
-177.970273
 20
-209.475928
 30
0.0
 11
-177.970273
 21
-223.475928
 31
0.0
  0
LINE
  5
21A
  8
DETAIL
  6
CONTINUOUS
 62
     5
 10
-162.029844
 20
-209.475928
 30
0.0
 11
-162.029844
 21
-223.510566
 31
0.0
  0
LINE
  5
21B
  8
DETAIL
  6
CONTINUOUS
 62
     5
 10
-166.444204
 20
-243.0
 30
0.0
 11
-163.450012
 21
-243.0
 31
0.0
  0
LINE
  5
21C
  8
DETAIL
  6
CONTINUOUS
 62
     5
 10
-182.567907
 20
-225.5
 30
0.0
 11
-184.100037
 21
-225.5
 31
0.0
  0
LINE
  5
21D
  8
DETAIL
  6
CONTINUOUS
 62
     5
 10
-182.549988
 20
-243.0
 30
0.0
 11
-182.549988
 21
-238.0
 31
0.0
  0
LINE
  5
21E
  8
DETAIL
  6
CONTINUOUS
 62
     5
 10
-184.100037
 20
-238.0
 30
0.0
 11
-184.100037
 21
-225.5
 31
0.0
  0
LINE
  5
21F
  8
DETAIL
  6
CONTINUOUS
 62
     5
 10
-182.549981
 20
-242.999918
 30
0.0
 11
-180.549988
 21
-244.999758
 31
0.0
  0
ARC
  5
220
  8
DETAIL
  6
CONTINUOUS
 62
     5
 10
-162.400085
 20
-216.952332
 30
0.0
 40
6.050117
 50
273.508454
 51
318.055026
  0
LINE
  5
221
  8
DETAIL
  6
CONTINUOUS
 62
     5
 10
-161.899963
 20
-225.5
 30
0.0
 11
-163.392765
 21
-225.5
 31
0.0
  0
LINE
  5
222
  8
DETAIL
  6
CONTINUOUS
 62
     5
 10
-184.100037
 20
-238.0
 30
0.0
 11
-181.000058
 21
-238.0
 31
0.0
  0
LINE
  5
223
  8
DETAIL
  6
CONTINUOUS
 62
     5
 10
-163.450012
 20
-243.0
 30
0.0
 11
-163.450012
 21
-238.0
 31
0.0
  0
LINE
  5
224
  8
DETAIL
  6
CONTINUOUS
 62
     5
 10
-161.899963
 20
-238.0
 30
0.0
 11
-161.899963
 21
-225.5
 31
0.0
  0
LINE
  5
225
  8
DETAIL
  6
CONTINUOUS
 62
     5
 10
-180.549988
 20
-245.0
 30
0.0
 11
-165.450012
 21
-245.0
 31
0.0
  0
LINE
  5
226
  8
DETAIL
  6
CONTINUOUS
 62
     5
 10
-165.450029
 20
-245.000101
 30
0.0
 11
-163.450143
 21
-243.000154
 31
0.0
  0
LINE
  5
227
  8
DETAIL
  6
CONTINUOUS
 62
     5
 10
-157.475269
 20
-209.475928
 30
0.0
 11
-157.475269
 21
-180.975869
 31
0.0
  0
LINE
  5
228
  8
DETAIL
  6
CONTINUOUS
 62
     5
 10
-188.100037
 20
-209.475928
 30
0.0
 11
-188.100037
 21
-220.996307
 31
0.0
  0
LINE
  5
229
  8
DETAIL
  6
CONTINUOUS
 62
     5
 10
-188.525542
 20
-209.475928
 30
0.0
 11
-188.525542
 21
-180.975869
 31
0.0
  0
LINE
  5
22A
  8
DETAIL
  6
CONTINUOUS
 62
     5
 10
-188.525542
 20
-209.475928
 30
0.0
 11
-157.475269
 21
-209.475928
 31
0.0
  0
ARC
  5
22B
  8
DETAIL
  6
CONTINUOUS
 62
     5
 10
-183.600037
 20
-216.952332
 30
0.0
 40
6.050119
 50
221.944975
 51
266.491596
  0
LINE
  5
22C
  8
DETAIL
  6
CONTINUOUS
 62
     5
 10
-106.250089
 20
-238.0
 30
0.0
 11
-106.250089
 21
-243.0
 31
0.0
  0
LINE
  5
22D
  8
DETAIL
  6
CONTINUOUS
 62
     5
 10
-119.750058
 20
-238.0
 30
0.0
 11
-119.750058
 21
-243.0
 31
0.0
  0
LINE
  5
22E
  8
DETAIL
  6
CONTINUOUS
 62
     5
 10
-121.000058
 20
-238.0
 30
0.0
 11
-101.899963
 21
-238.0
 31
0.0
  0
LINE
  5
22F
  8
DETAIL
  6
CONTINUOUS
 62
     5
 10
-122.549988
 20
-243.0
 30
0.0
 11
-106.444204
 21
-243.0
 31
0.0
  0
LINE
  5
230
  8
DETAIL
  6
CONTINUOUS
 62
     5
 10
-97.900024
 20
-209.475928
 30
0.0
 11
-97.900024
 21
-220.996307
 31
0.0
  0
LINE
  5
231
  8
DETAIL
  6
CONTINUOUS
 62
     5
 10
-121.000058
 20
-225.975928
 30
0.0
 11
-105.000089
 21
-225.975928
 31
0.0
  0
LINE
  5
232
  8
DETAIL
  6
CONTINUOUS
 62
     5
 10
-123.970273
 20
-209.475928
 30
0.0
 11
-123.970273
 21
-223.475928
 31
0.0
  0
ARC
  5
233
  8
DETAIL
  6
CONTINUOUS
 62
     5
 10
-105.016691
 20
-222.92591
 30
0.0
 40
3.04353
 50
190.029906
 51
348.921908
  0
ARC
  5
234
  8
DETAIL
  6
CONTINUOUS
 62
     5
 10
-112.999082
 20
-219.785407
 30
0.0
 40
6.19092
 50
216.711357
 51
323.636766
  0
ARC
  5
235
  8
DETAIL
  6
CONTINUOUS
 62
     5
 10
-120.950254
 20
-222.92591
 30
0.0
 40
3.040188
 50
186.603336
 51
349.381333
  0
LINE
  5
236
  8
DETAIL
  6
CONTINUOUS
 62
     5
 10
-108.029874
 20
-209.475928
 30
0.0
 11
-108.029874
 21
-223.475928
 31
0.0
  0
LINE
  5
237
  8
DETAIL
  6
CONTINUOUS
 62
     5
 10
-117.970273
 20
-209.475928
 30
0.0
 11
-117.970273
 21
-223.475928
 31
0.0
  0
LINE
  5
238
  8
DETAIL
  6
CONTINUOUS
 62
     5
 10
-102.029844
 20
-209.475928
 30
0.0
 11
-102.029844
 21
-223.510566
 31
0.0
  0
LINE
  5
239
  8
DETAIL
  6
CONTINUOUS
 62
     5
 10
-106.444204
 20
-243.0
 30
0.0
 11
-103.450012
 21
-243.0
 31
0.0
  0
LINE
  5
23A
  8
DETAIL
  6
CONTINUOUS
 62
     5
 10
-122.567907
 20
-225.5
 30
0.0
 11
-124.100037
 21
-225.5
 31
0.0
  0
LINE
  5
23B
  8
DETAIL
  6
CONTINUOUS
 62
     5
 10
-122.549988
 20
-243.0
 30
0.0
 11
-122.549988
 21
-238.0
 31
0.0
  0
LINE
  5
23C
  8
DETAIL
  6
CONTINUOUS
 62
     5
 10
-124.100037
 20
-238.0
 30
0.0
 11
-124.100037
 21
-225.5
 31
0.0
  0
LINE
  5
23D
  8
DETAIL
  6
CONTINUOUS
 62
     5
 10
-122.549981
 20
-242.999918
 30
0.0
 11
-120.549988
 21
-244.999758
 31
0.0
  0
ARC
  5
23E
  8
DETAIL
  6
CONTINUOUS
 62
     5
 10
-102.400085
 20
-216.952332
 30
0.0
 40
6.050117
 50
273.508454
 51
318.055026
  0
LINE
  5
23F
  8
DETAIL
  6
CONTINUOUS
 62
     5
 10
-101.899963
 20
-225.5
 30
0.0
 11
-103.392765
 21
-225.5
 31
0.0
  0
LINE
  5
240
  8
DETAIL
  6
CONTINUOUS
 62
     5
 10
-124.100037
 20
-238.0
 30
0.0
 11
-121.000058
 21
-238.0
 31
0.0
  0
LINE
  5
241
  8
DETAIL
  6
CONTINUOUS
 62
     5
 10
-103.450012
 20
-243.0
 30
0.0
 11
-103.450012
 21
-238.0
 31
0.0
  0
LINE
  5
242
  8
DETAIL
  6
CONTINUOUS
 62
     5
 10
-101.899963
 20
-238.0
 30
0.0
 11
-101.899963
 21
-225.5
 31
0.0
  0
LINE
  5
243
  8
DETAIL
  6
CONTINUOUS
 62
     5
 10
-120.549988
 20
-245.0
 30
0.0
 11
-105.450012
 21
-245.0
 31
0.0
  0
LINE
  5
244
  8
DETAIL
  6
CONTINUOUS
 62
     5
 10
-105.450029
 20
-245.000101
 30
0.0
 11
-103.450143
 21
-243.000154
 31
0.0
  0
LINE
  5
245
  8
DETAIL
  6
CONTINUOUS
 62
     5
 10
-97.475269
 20
-209.475928
 30
0.0
 11
-97.475269
 21
-180.975869
 31
0.0
  0
LINE
  5
246
  8
DETAIL
  6
CONTINUOUS
 62
     5
 10
-128.100037
 20
-209.475928
 30
0.0
 11
-128.100037
 21
-220.996307
 31
0.0
  0
LINE
  5
247
  8
DETAIL
  6
CONTINUOUS
 62
     5
 10
-128.525542
 20
-209.475928
 30
0.0
 11
-128.525542
 21
-180.975869
 31
0.0
  0
LINE
  5
248
  8
DETAIL
  6
CONTINUOUS
 62
     5
 10
-128.525542
 20
-209.475928
 30
0.0
 11
-97.475269
 21
-209.475928
 31
0.0
  0
ARC
  5
249
  8
DETAIL
  6
CONTINUOUS
 62
     5
 10
-123.600037
 20
-216.952332
 30
0.0
 40
6.050119
 50
221.944975
 51
266.491596
  0
LINE
  5
24A
  8
DETAIL
  6
CONTINUOUS
 62
     5
 10
-46.250089
 20
-238.0
 30
0.0
 11
-46.250089
 21
-243.0
 31
0.0
  0
LINE
  5
24B
  8
DETAIL
  6
CONTINUOUS
 62
     5
 10
-59.750058
 20
-238.0
 30
0.0
 11
-59.750058
 21
-243.0
 31
0.0
  0
LINE
  5
24C
  8
DETAIL
  6
CONTINUOUS
 62
     5
 10
-61.000058
 20
-238.0
 30
0.0
 11
-41.899963
 21
-238.0
 31
0.0
  0
LINE
  5
24D
  8
DETAIL
  6
CONTINUOUS
 62
     5
 10
-62.549988
 20
-243.0
 30
0.0
 11
-46.444204
 21
-243.0
 31
0.0
  0
LINE
  5
24E
  8
DETAIL
  6
CONTINUOUS
 62
     5
 10
-37.900024
 20
-209.475928
 30
0.0
 11
-37.900024
 21
-220.996307
 31
0.0
  0
LINE
  5
24F
  8
DETAIL
  6
CONTINUOUS
 62
     5
 10
-61.000058
 20
-225.975928
 30
0.0
 11
-45.000089
 21
-225.975928
 31
0.0
  0
LINE
  5
250
  8
DETAIL
  6
CONTINUOUS
 62
     5
 10
-63.970273
 20
-209.475928
 30
0.0
 11
-63.970273
 21
-223.475928
 31
0.0
  0
ARC
  5
251
  8
DETAIL
  6
CONTINUOUS
 62
     5
 10
-45.016691
 20
-222.92591
 30
0.0
 40
3.04353
 50
190.029906
 51
348.921908
  0
ARC
  5
252
  8
DETAIL
  6
CONTINUOUS
 62
     5
 10
-52.999082
 20
-219.785407
 30
0.0
 40
6.19092
 50
216.711357
 51
323.636766
  0
ARC
  5
253
  8
DETAIL
  6
CONTINUOUS
 62
     5
 10
-60.950254
 20
-222.92591
 30
0.0
 40
3.040188
 50
186.603336
 51
349.381333
  0
LINE
  5
254
  8
DETAIL
  6
CONTINUOUS
 62
     5
 10
-48.029874
 20
-209.475928
 30
0.0
 11
-48.029874
 21
-223.475928
 31
0.0
  0
LINE
  5
255
  8
DETAIL
  6
CONTINUOUS
 62
     5
 10
-57.970273
 20
-209.475928
 30
0.0
 11
-57.970273
 21
-223.475928
 31
0.0
  0
LINE
  5
256
  8
DETAIL
  6
CONTINUOUS
 62
     5
 10
-42.029844
 20
-209.475928
 30
0.0
 11
-42.029844
 21
-223.510566
 31
0.0
  0
LINE
  5
257
  8
DETAIL
  6
CONTINUOUS
 62
     5
 10
-46.444204
 20
-243.0
 30
0.0
 11
-43.450012
 21
-243.0
 31
0.0
  0
LINE
  5
258
  8
DETAIL
  6
CONTINUOUS
 62
     5
 10
-62.567907
 20
-225.5
 30
0.0
 11
-64.100037
 21
-225.5
 31
0.0
  0
LINE
  5
259
  8
DETAIL
  6
CONTINUOUS
 62
     5
 10
-62.549988
 20
-243.0
 30
0.0
 11
-62.549988
 21
-238.0
 31
0.0
  0
LINE
  5
25A
  8
DETAIL
  6
CONTINUOUS
 62
     5
 10
-64.100037
 20
-238.0
 30
0.0
 11
-64.100037
 21
-225.5
 31
0.0
  0
LINE
  5
25B
  8
DETAIL
  6
CONTINUOUS
 62
     5
 10
-62.549981
 20
-242.999918
 30
0.0
 11
-60.549988
 21
-244.999758
 31
0.0
  0
ARC
  5
25C
  8
DETAIL
  6
CONTINUOUS
 62
     5
 10
-42.400085
 20
-216.952332
 30
0.0
 40
6.050117
 50
273.508454
 51
318.055026
  0
LINE
  5
25D
  8
DETAIL
  6
CONTINUOUS
 62
     5
 10
-41.899963
 20
-225.5
 30
0.0
 11
-43.392765
 21
-225.5
 31
0.0
  0
LINE
  5
25E
  8
DETAIL
  6
CONTINUOUS
 62
     5
 10
-64.100037
 20
-238.0
 30
0.0
 11
-61.000058
 21
-238.0
 31
0.0
  0
LINE
  5
25F
  8
DETAIL
  6
CONTINUOUS
 62
     5
 10
-43.450012
 20
-243.0
 30
0.0
 11
-43.450012
 21
-238.0
 31
0.0
  0
LINE
  5
260
  8
DETAIL
  6
CONTINUOUS
 62
     5
 10
-41.899963
 20
-238.0
 30
0.0
 11
-41.899963
 21
-225.5
 31
0.0
  0
LINE
  5
261
  8
DETAIL
  6
CONTINUOUS
 62
     5
 10
-60.549988
 20
-245.0
 30
0.0
 11
-45.450012
 21
-245.0
 31
0.0
  0
LINE
  5
262
  8
DETAIL
  6
CONTINUOUS
 62
     5
 10
-45.450029
 20
-245.000101
 30
0.0
 11
-43.450143
 21
-243.000154
 31
0.0
  0
LINE
  5
263
  8
DETAIL
  6
CONTINUOUS
 62
     5
 10
-37.475269
 20
-209.475928
 30
0.0
 11
-37.475269
 21
-180.975869
 31
0.0
  0
LINE
  5
264
  8
DETAIL
  6
CONTINUOUS
 62
     5
 10
-68.100037
 20
-209.475928
 30
0.0
 11
-68.100037
 21
-220.996307
 31
0.0
  0
LINE
  5
265
  8
DETAIL
  6
CONTINUOUS
 62
     5
 10
-68.525542
 20
-209.475928
 30
0.0
 11
-68.525542
 21
-180.975869
 31
0.0
  0
LINE
  5
266
  8
DETAIL
  6
CONTINUOUS
 62
     5
 10
-68.525542
 20
-209.475928
 30
0.0
 11
-37.475269
 21
-209.475928
 31
0.0
  0
ARC
  5
267
  8
DETAIL
  6
CONTINUOUS
 62
     5
 10
-63.600037
 20
-216.952332
 30
0.0
 40
6.050119
 50
221.944975
 51
266.491596
  0
LINE
  5
268
  8
DETAIL
  6
CONTINUOUS
 62
     5
 10
13.749911
 20
-238.0
 30
0.0
 11
13.749911
 21
-243.0
 31
0.0
  0
LINE
  5
269
  8
DETAIL
  6
CONTINUOUS
 62
     5
 10
0.249942
 20
-238.0
 30
0.0
 11
0.249942
 21
-243.0
 31
0.0
  0
LINE
  5
26A
  8
DETAIL
  6
CONTINUOUS
 62
     5
 10
-1.000058
 20
-238.0
 30
0.0
 11
18.100037
 21
-238.0
 31
0.0
  0
LINE
  5
26B
  8
DETAIL
  6
CONTINUOUS
 62
     5
 10
-2.549988
 20
-243.0
 30
0.0
 11
13.555796
 21
-243.0
 31
0.0
  0
LINE
  5
26C
  8
DETAIL
  6
CONTINUOUS
 62
     5
 10
22.099976
 20
-209.475928
 30
0.0
 11
22.099976
 21
-220.996307
 31
0.0
  0
LINE
  5
26D
  8
DETAIL
  6
CONTINUOUS
 62
     5
 10
-1.000058
 20
-225.975928
 30
0.0
 11
14.999911
 21
-225.975928
 31
0.0
  0
LINE
  5
26E
  8
DETAIL
  6
CONTINUOUS
 62
     5
 10
-3.970273
 20
-209.475928
 30
0.0
 11
-3.970273
 21
-223.475928
 31
0.0
  0
ARC
  5
26F
  8
DETAIL
  6
CONTINUOUS
 62
     5
 10
14.983309
 20
-222.92591
 30
0.0
 40
3.04353
 50
190.029906
 51
348.921908
  0
ARC
  5
270
  8
DETAIL
  6
CONTINUOUS
 62
     5
 10
7.000918
 20
-219.785407
 30
0.0
 40
6.19092
 50
216.711357
 51
323.636766
  0
ARC
  5
271
  8
DETAIL
  6
CONTINUOUS
 62
     5
 10
-0.950254
 20
-222.92591
 30
0.0
 40
3.040188
 50
186.603336
 51
349.381333
  0
LINE
  5
272
  8
DETAIL
  6
CONTINUOUS
 62
     5
 10
11.970126
 20
-209.475928
 30
0.0
 11
11.970126
 21
-223.475928
 31
0.0
  0
LINE
  5
273
  8
DETAIL
  6
CONTINUOUS
 62
     5
 10
2.029727
 20
-209.475928
 30
0.0
 11
2.029727
 21
-223.475928
 31
0.0
  0
LINE
  5
274
  8
DETAIL
  6
CONTINUOUS
 62
     5
 10
17.970156
 20
-209.475928
 30
0.0
 11
17.970156
 21
-223.510566
 31
0.0
  0
LINE
  5
275
  8
DETAIL
  6
CONTINUOUS
 62
     5
 10
13.555796
 20
-243.0
 30
0.0
 11
16.549988
 21
-243.0
 31
0.0
  0
LINE
  5
276
  8
DETAIL
  6
CONTINUOUS
 62
     5
 10
-2.567907
 20
-225.5
 30
0.0
 11
-4.100037
 21
-225.5
 31
0.0
  0
LINE
  5
277
  8
DETAIL
  6
CONTINUOUS
 62
     5
 10
-2.549988
 20
-243.0
 30
0.0
 11
-2.549988
 21
-238.0
 31
0.0
  0
LINE
  5
278
  8
DETAIL
  6
CONTINUOUS
 62
     5
 10
-4.100037
 20
-238.0
 30
0.0
 11
-4.100037
 21
-225.5
 31
0.0
  0
LINE
  5
279
  8
DETAIL
  6
CONTINUOUS
 62
     5
 10
-2.549981
 20
-242.999918
 30
0.0
 11
-0.549988
 21
-244.999758
 31
0.0
  0
ARC
  5
27A
  8
DETAIL
  6
CONTINUOUS
 62
     5
 10
17.599915
 20
-216.952332
 30
0.0
 40
6.050117
 50
273.508454
 51
318.055026
  0
LINE
  5
27B
  8
DETAIL
  6
CONTINUOUS
 62
     5
 10
18.100037
 20
-225.5
 30
0.0
 11
16.607235
 21
-225.5
 31
0.0
  0
LINE
  5
27C
  8
DETAIL
  6
CONTINUOUS
 62
     5
 10
-4.100037
 20
-238.0
 30
0.0
 11
-1.000058
 21
-238.0
 31
0.0
  0
LINE
  5
27D
  8
DETAIL
  6
CONTINUOUS
 62
     5
 10
16.549988
 20
-243.0
 30
0.0
 11
16.549988
 21
-238.0
 31
0.0
  0
LINE
  5
27E
  8
DETAIL
  6
CONTINUOUS
 62
     5
 10
18.100037
 20
-238.0
 30
0.0
 11
18.100037
 21
-225.5
 31
0.0
  0
LINE
  5
27F
  8
DETAIL
  6
CONTINUOUS
 62
     5
 10
-0.549988
 20
-245.0
 30
0.0
 11
14.549988
 21
-245.0
 31
0.0
  0
LINE
  5
280
  8
DETAIL
  6
CONTINUOUS
 62
     5
 10
14.549971
 20
-245.000101
 30
0.0
 11
16.549857
 21
-243.000154
 31
0.0
  0
LINE
  5
281
  8
DETAIL
  6
CONTINUOUS
 62
     5
 10
22.524731
 20
-209.475928
 30
0.0
 11
22.524731
 21
-180.975869
 31
0.0
  0
LINE
  5
282
  8
DETAIL
  6
CONTINUOUS
 62
     5
 10
-8.100037
 20
-209.475928
 30
0.0
 11
-8.100037
 21
-220.996307
 31
0.0
  0
LINE
  5
283
  8
DETAIL
  6
CONTINUOUS
 62
     5
 10
-8.525542
 20
-209.475928
 30
0.0
 11
-8.525542
 21
-180.975869
 31
0.0
  0
LINE
  5
284
  8
DETAIL
  6
CONTINUOUS
 62
     5
 10
-8.525542
 20
-209.475928
 30
0.0
 11
22.524731
 21
-209.475928
 31
0.0
  0
ARC
  5
285
  8
DETAIL
  6
CONTINUOUS
 62
     5
 10
-3.600037
 20
-216.952332
 30
0.0
 40
6.050119
 50
221.944975
 51
266.491596
  0
LINE
  5
286
  8
DETAIL
  6
CONTINUOUS
 62
     5
 10
73.749911
 20
-238.0
 30
0.0
 11
73.749911
 21
-243.0
 31
0.0
  0
LINE
  5
287
  8
DETAIL
  6
CONTINUOUS
 62
     5
 10
60.249942
 20
-238.0
 30
0.0
 11
60.249942
 21
-243.0
 31
0.0
  0
LINE
  5
288
  8
DETAIL
  6
CONTINUOUS
 62
     5
 10
58.999942
 20
-238.0
 30
0.0
 11
78.100037
 21
-238.0
 31
0.0
  0
LINE
  5
289
  8
DETAIL
  6
CONTINUOUS
 62
     5
 10
57.450012
 20
-243.0
 30
0.0
 11
73.555796
 21
-243.0
 31
0.0
  0
LINE
  5
28A
  8
DETAIL
  6
CONTINUOUS
 62
     5
 10
82.099976
 20
-209.475928
 30
0.0
 11
82.099976
 21
-220.996307
 31
0.0
  0
LINE
  5
28B
  8
DETAIL
  6
CONTINUOUS
 62
     5
 10
58.999942
 20
-225.975928
 30
0.0
 11
74.999911
 21
-225.975928
 31
0.0
  0
LINE
  5
28C
  8
DETAIL
  6
CONTINUOUS
 62
     5
 10
56.029727
 20
-209.475928
 30
0.0
 11
56.029727
 21
-223.475928
 31
0.0
  0
ARC
  5
28D
  8
DETAIL
  6
CONTINUOUS
 62
     5
 10
74.983309
 20
-222.92591
 30
0.0
 40
3.04353
 50
190.029906
 51
348.921908
  0
ARC
  5
28E
  8
DETAIL
  6
CONTINUOUS
 62
     5
 10
67.000918
 20
-219.785407
 30
0.0
 40
6.19092
 50
216.711357
 51
323.636766
  0
ARC
  5
28F
  8
DETAIL
  6
CONTINUOUS
 62
     5
 10
59.049746
 20
-222.92591
 30
0.0
 40
3.040188
 50
186.603336
 51
349.381333
  0
LINE
  5
290
  8
DETAIL
  6
CONTINUOUS
 62
     5
 10
71.970126
 20
-209.475928
 30
0.0
 11
71.970126
 21
-223.475928
 31
0.0
  0
LINE
  5
291
  8
DETAIL
  6
CONTINUOUS
 62
     5
 10
62.029727
 20
-209.475928
 30
0.0
 11
62.029727
 21
-223.475928
 31
0.0
  0
LINE
  5
292
  8
DETAIL
  6
CONTINUOUS
 62
     5
 10
77.970156
 20
-209.475928
 30
0.0
 11
77.970156
 21
-223.510566
 31
0.0
  0
LINE
  5
293
  8
DETAIL
  6
CONTINUOUS
 62
     5
 10
73.555796
 20
-243.0
 30
0.0
 11
76.549988
 21
-243.0
 31
0.0
  0
LINE
  5
294
  8
DETAIL
  6
CONTINUOUS
 62
     5
 10
57.432093
 20
-225.5
 30
0.0
 11
55.899963
 21
-225.5
 31
0.0
  0
LINE
  5
295
  8
DETAIL
  6
CONTINUOUS
 62
     5
 10
57.450012
 20
-243.0
 30
0.0
 11
57.450012
 21
-238.0
 31
0.0
  0
LINE
  5
296
  8
DETAIL
  6
CONTINUOUS
 62
     5
 10
55.899963
 20
-238.0
 30
0.0
 11
55.899963
 21
-225.5
 31
0.0
  0
LINE
  5
297
  8
DETAIL
  6
CONTINUOUS
 62
     5
 10
57.450019
 20
-242.999918
 30
0.0
 11
59.450012
 21
-244.999758
 31
0.0
  0
ARC
  5
298
  8
DETAIL
  6
CONTINUOUS
 62
     5
 10
77.599915
 20
-216.952332
 30
0.0
 40
6.050117
 50
273.508454
 51
318.055026
  0
LINE
  5
299
  8
DETAIL
  6
CONTINUOUS
 62
     5
 10
78.100037
 20
-225.5
 30
0.0
 11
76.607235
 21
-225.5
 31
0.0
  0
LINE
  5
29A
  8
DETAIL
  6
CONTINUOUS
 62
     5
 10
55.899963
 20
-238.0
 30
0.0
 11
58.999942
 21
-238.0
 31
0.0
  0
LINE
  5
29B
  8
DETAIL
  6
CONTINUOUS
 62
     5
 10
76.549988
 20
-243.0
 30
0.0
 11
76.549988
 21
-238.0
 31
0.0
  0
LINE
  5
29C
  8
DETAIL
  6
CONTINUOUS
 62
     5
 10
78.100037
 20
-238.0
 30
0.0
 11
78.100037
 21
-225.5
 31
0.0
  0
LINE
  5
29D
  8
DETAIL
  6
CONTINUOUS
 62
     5
 10
59.450012
 20
-245.0
 30
0.0
 11
74.549988
 21
-245.0
 31
0.0
  0
LINE
  5
29E
  8
DETAIL
  6
CONTINUOUS
 62
     5
 10
74.549971
 20
-245.000101
 30
0.0
 11
76.549857
 21
-243.000154
 31
0.0
  0
LINE
  5
29F
  8
DETAIL
  6
CONTINUOUS
 62
     5
 10
82.524731
 20
-209.475928
 30
0.0
 11
82.524731
 21
-180.975869
 31
0.0
  0
LINE
  5
2A0
  8
DETAIL
  6
CONTINUOUS
 62
     5
 10
51.899963
 20
-209.475928
 30
0.0
 11
51.899963
 21
-220.996307
 31
0.0
  0
LINE
  5
2A1
  8
DETAIL
  6
CONTINUOUS
 62
     5
 10
51.474458
 20
-209.475928
 30
0.0
 11
51.474458
 21
-180.975869
 31
0.0
  0
LINE
  5
2A2
  8
DETAIL
  6
CONTINUOUS
 62
     5
 10
51.474458
 20
-209.475928
 30
0.0
 11
82.524731
 21
-209.475928
 31
0.0
  0
ARC
  5
2A3
  8
DETAIL
  6
CONTINUOUS
 62
     5
 10
56.399963
 20
-216.952332
 30
0.0
 40
6.050119
 50
221.944975
 51
266.491596
  0
LINE
  5
2A4
  8
DETAIL
  6
CONTINUOUS
 62
     5
 10
133.749911
 20
-238.0
 30
0.0
 11
133.749911
 21
-243.0
 31
0.0
  0
LINE
  5
2A5
  8
DETAIL
  6
CONTINUOUS
 62
     5
 10
120.249942
 20
-238.0
 30
0.0
 11
120.249942
 21
-243.0
 31
0.0
  0
LINE
  5
2A6
  8
DETAIL
  6
CONTINUOUS
 62
     5
 10
118.999942
 20
-238.0
 30
0.0
 11
138.100037
 21
-238.0
 31
0.0
  0
LINE
  5
2A7
  8
DETAIL
  6
CONTINUOUS
 62
     5
 10
117.450012
 20
-243.0
 30
0.0
 11
133.555796
 21
-243.0
 31
0.0
  0
LINE
  5
2A8
  8
DETAIL
  6
CONTINUOUS
 62
     5
 10
142.099976
 20
-209.475928
 30
0.0
 11
142.099976
 21
-220.996307
 31
0.0
  0
LINE
  5
2A9
  8
DETAIL
  6
CONTINUOUS
 62
     5
 10
118.999942
 20
-225.975928
 30
0.0
 11
134.999911
 21
-225.975928
 31
0.0
  0
LINE
  5
2AA
  8
DETAIL
  6
CONTINUOUS
 62
     5
 10
116.029727
 20
-209.475928
 30
0.0
 11
116.029727
 21
-223.475928
 31
0.0
  0
ARC
  5
2AB
  8
DETAIL
  6
CONTINUOUS
 62
     5
 10
134.983309
 20
-222.92591
 30
0.0
 40
3.04353
 50
190.029906
 51
348.921908
  0
ARC
  5
2AC
  8
DETAIL
  6
CONTINUOUS
 62
     5
 10
127.000918
 20
-219.785407
 30
0.0
 40
6.19092
 50
216.711357
 51
323.636766
  0
ARC
  5
2AD
  8
DETAIL
  6
CONTINUOUS
 62
     5
 10
119.049746
 20
-222.92591
 30
0.0
 40
3.040188
 50
186.603336
 51
349.381333
  0
LINE
  5
2AE
  8
DETAIL
  6
CONTINUOUS
 62
     5
 10
131.970126
 20
-209.475928
 30
0.0
 11
131.970126
 21
-223.475928
 31
0.0
  0
LINE
  5
2AF
  8
DETAIL
  6
CONTINUOUS
 62
     5
 10
122.029727
 20
-209.475928
 30
0.0
 11
122.029727
 21
-223.475928
 31
0.0
  0
LINE
  5
2B0
  8
DETAIL
  6
CONTINUOUS
 62
     5
 10
137.970156
 20
-209.475928
 30
0.0
 11
137.970156
 21
-223.510566
 31
0.0
  0
LINE
  5
2B1
  8
DETAIL
  6
CONTINUOUS
 62
     5
 10
133.555796
 20
-243.0
 30
0.0
 11
136.549988
 21
-243.0
 31
0.0
  0
LINE
  5
2B2
  8
DETAIL
  6
CONTINUOUS
 62
     5
 10
117.432093
 20
-225.5
 30
0.0
 11
115.899963
 21
-225.5
 31
0.0
  0
LINE
  5
2B3
  8
DETAIL
  6
CONTINUOUS
 62
     5
 10
117.450012
 20
-243.0
 30
0.0
 11
117.450012
 21
-238.0
 31
0.0
  0
LINE
  5
2B4
  8
DETAIL
  6
CONTINUOUS
 62
     5
 10
115.899963
 20
-238.0
 30
0.0
 11
115.899963
 21
-225.5
 31
0.0
  0
LINE
  5
2B5
  8
DETAIL
  6
CONTINUOUS
 62
     5
 10
117.450019
 20
-242.999918
 30
0.0
 11
119.450012
 21
-244.999758
 31
0.0
  0
ARC
  5
2B6
  8
DETAIL
  6
CONTINUOUS
 62
     5
 10
137.599915
 20
-216.952332
 30
0.0
 40
6.050117
 50
273.508454
 51
318.055026
  0
LINE
  5
2B7
  8
DETAIL
  6
CONTINUOUS
 62
     5
 10
138.100037
 20
-225.5
 30
0.0
 11
136.607235
 21
-225.5
 31
0.0
  0
LINE
  5
2B8
  8
DETAIL
  6
CONTINUOUS
 62
     5
 10
115.899963
 20
-238.0
 30
0.0
 11
118.999942
 21
-238.0
 31
0.0
  0
LINE
  5
2B9
  8
DETAIL
  6
CONTINUOUS
 62
     5
 10
136.549988
 20
-243.0
 30
0.0
 11
136.549988
 21
-238.0
 31
0.0
  0
LINE
  5
2BA
  8
DETAIL
  6
CONTINUOUS
 62
     5
 10
138.100037
 20
-238.0
 30
0.0
 11
138.100037
 21
-225.5
 31
0.0
  0
LINE
  5
2BB
  8
DETAIL
  6
CONTINUOUS
 62
     5
 10
119.450012
 20
-245.0
 30
0.0
 11
134.549988
 21
-245.0
 31
0.0
  0
LINE
  5
2BC
  8
DETAIL
  6
CONTINUOUS
 62
     5
 10
134.549971
 20
-245.000101
 30
0.0
 11
136.549857
 21
-243.000154
 31
0.0
  0
LINE
  5
2BD
  8
DETAIL
  6
CONTINUOUS
 62
     5
 10
142.524731
 20
-209.475928
 30
0.0
 11
142.524731
 21
-180.975869
 31
0.0
  0
LINE
  5
2BE
  8
DETAIL
  6
CONTINUOUS
 62
     5
 10
111.899963
 20
-209.475928
 30
0.0
 11
111.899963
 21
-220.996307
 31
0.0
  0
LINE
  5
2BF
  8
DETAIL
  6
CONTINUOUS
 62
     5
 10
111.474458
 20
-209.475928
 30
0.0
 11
111.474458
 21
-180.975869
 31
0.0
  0
LINE
  5
2C0
  8
DETAIL
  6
CONTINUOUS
 62
     5
 10
111.474458
 20
-209.475928
 30
0.0
 11
142.524731
 21
-209.475928
 31
0.0
  0
ARC
  5
2C1
  8
DETAIL
  6
CONTINUOUS
 62
     5
 10
116.399963
 20
-216.952332
 30
0.0
 40
6.050119
 50
221.944975
 51
266.491596
  0
LINE
  5
2C2
  8
DETAIL
  6
CONTINUOUS
 62
     5
 10
193.749911
 20
-238.0
 30
0.0
 11
193.749911
 21
-243.0
 31
0.0
  0
LINE
  5
2C3
  8
DETAIL
  6
CONTINUOUS
 62
     5
 10
180.249942
 20
-238.0
 30
0.0
 11
180.249942
 21
-243.0
 31
0.0
  0
LINE
  5
2C4
  8
DETAIL
  6
CONTINUOUS
 62
     5
 10
178.999942
 20
-238.0
 30
0.0
 11
198.100037
 21
-238.0
 31
0.0
  0
LINE
  5
2C5
  8
DETAIL
  6
CONTINUOUS
 62
     5
 10
177.450012
 20
-243.0
 30
0.0
 11
193.555796
 21
-243.0
 31
0.0
  0
LINE
  5
2C6
  8
DETAIL
  6
CONTINUOUS
 62
     5
 10
202.099976
 20
-209.475928
 30
0.0
 11
202.099976
 21
-220.996307
 31
0.0
  0
LINE
  5
2C7
  8
DETAIL
  6
CONTINUOUS
 62
     5
 10
178.999942
 20
-225.975928
 30
0.0
 11
194.999911
 21
-225.975928
 31
0.0
  0
LINE
  5
2C8
  8
DETAIL
  6
CONTINUOUS
 62
     5
 10
176.029727
 20
-209.475928
 30
0.0
 11
176.029727
 21
-223.475928
 31
0.0
  0
ARC
  5
2C9
  8
DETAIL
  6
CONTINUOUS
 62
     5
 10
194.983309
 20
-222.92591
 30
0.0
 40
3.04353
 50
190.029906
 51
348.921908
  0
ARC
  5
2CA
  8
DETAIL
  6
CONTINUOUS
 62
     5
 10
187.000918
 20
-219.785407
 30
0.0
 40
6.19092
 50
216.711357
 51
323.636766
  0
ARC
  5
2CB
  8
DETAIL
  6
CONTINUOUS
 62
     5
 10
179.049746
 20
-222.92591
 30
0.0
 40
3.040188
 50
186.603336
 51
349.381333
  0
LINE
  5
2CC
  8
DETAIL
  6
CONTINUOUS
 62
     5
 10
191.970126
 20
-209.475928
 30
0.0
 11
191.970126
 21
-223.475928
 31
0.0
  0
LINE
  5
2CD
  8
DETAIL
  6
CONTINUOUS
 62
     5
 10
182.029727
 20
-209.475928
 30
0.0
 11
182.029727
 21
-223.475928
 31
0.0
  0
LINE
  5
2CE
  8
DETAIL
  6
CONTINUOUS
 62
     5
 10
197.970156
 20
-209.475928
 30
0.0
 11
197.970156
 21
-223.510566
 31
0.0
  0
LINE
  5
2CF
  8
DETAIL
  6
CONTINUOUS
 62
     5
 10
193.555796
 20
-243.0
 30
0.0
 11
196.549988
 21
-243.0
 31
0.0
  0
LINE
  5
2D0
  8
DETAIL
  6
CONTINUOUS
 62
     5
 10
177.432093
 20
-225.5
 30
0.0
 11
175.899963
 21
-225.5
 31
0.0
  0
LINE
  5
2D1
  8
DETAIL
  6
CONTINUOUS
 62
     5
 10
177.450012
 20
-243.0
 30
0.0
 11
177.450012
 21
-238.0
 31
0.0
  0
LINE
  5
2D2
  8
DETAIL
  6
CONTINUOUS
 62
     5
 10
175.899963
 20
-238.0
 30
0.0
 11
175.899963
 21
-225.5
 31
0.0
  0
LINE
  5
2D3
  8
DETAIL
  6
CONTINUOUS
 62
     5
 10
177.450019
 20
-242.999918
 30
0.0
 11
179.450012
 21
-244.999758
 31
0.0
  0
ARC
  5
2D4
  8
DETAIL
  6
CONTINUOUS
 62
     5
 10
197.599915
 20
-216.952332
 30
0.0
 40
6.050117
 50
273.508454
 51
318.055026
  0
LINE
  5
2D5
  8
DETAIL
  6
CONTINUOUS
 62
     5
 10
198.100037
 20
-225.5
 30
0.0
 11
196.607235
 21
-225.5
 31
0.0
  0
LINE
  5
2D6
  8
DETAIL
  6
CONTINUOUS
 62
     5
 10
175.899963
 20
-238.0
 30
0.0
 11
178.999942
 21
-238.0
 31
0.0
  0
LINE
  5
2D7
  8
DETAIL
  6
CONTINUOUS
 62
     5
 10
196.549988
 20
-243.0
 30
0.0
 11
196.549988
 21
-238.0
 31
0.0
  0
LINE
  5
2D8
  8
DETAIL
  6
CONTINUOUS
 62
     5
 10
198.100037
 20
-238.0
 30
0.0
 11
198.100037
 21
-225.5
 31
0.0
  0
LINE
  5
2D9
  8
DETAIL
  6
CONTINUOUS
 62
     5
 10
179.450012
 20
-245.0
 30
0.0
 11
194.549988
 21
-245.0
 31
0.0
  0
LINE
  5
2DA
  8
DETAIL
  6
CONTINUOUS
 62
     5
 10
194.549971
 20
-245.000101
 30
0.0
 11
196.549857
 21
-243.000154
 31
0.0
  0
LINE
  5
2DB
  8
DETAIL
  6
CONTINUOUS
 62
     5
 10
202.524731
 20
-209.475928
 30
0.0
 11
202.524731
 21
-180.975869
 31
0.0
  0
LINE
  5
2DC
  8
DETAIL
  6
CONTINUOUS
 62
     5
 10
171.899963
 20
-209.475928
 30
0.0
 11
171.899963
 21
-220.996307
 31
0.0
  0
LINE
  5
2DD
  8
DETAIL
  6
CONTINUOUS
 62
     5
 10
171.474458
 20
-209.475928
 30
0.0
 11
171.474458
 21
-180.975869
 31
0.0
  0
LINE
  5
2DE
  8
DETAIL
  6
CONTINUOUS
 62
     5
 10
171.474458
 20
-209.475928
 30
0.0
 11
202.524731
 21
-209.475928
 31
0.0
  0
ARC
  5
2DF
  8
DETAIL
  6
CONTINUOUS
 62
     5
 10
176.399963
 20
-216.952332
 30
0.0
 40
6.050119
 50
221.944975
 51
266.491596
  0
LINE
  5
2E0
  8
DETAIL
  6
CONTINUOUS
 62
     5
 10
253.749911
 20
-238.0
 30
0.0
 11
253.749911
 21
-243.0
 31
0.0
  0
LINE
  5
2E1
  8
DETAIL
  6
CONTINUOUS
 62
     5
 10
240.249942
 20
-238.0
 30
0.0
 11
240.249942
 21
-243.0
 31
0.0
  0
LINE
  5
2E2
  8
DETAIL
  6
CONTINUOUS
 62
     5
 10
238.999942
 20
-238.0
 30
0.0
 11
258.100037
 21
-238.0
 31
0.0
  0
LINE
  5
2E3
  8
DETAIL
  6
CONTINUOUS
 62
     5
 10
237.450012
 20
-243.0
 30
0.0
 11
253.555796
 21
-243.0
 31
0.0
  0
LINE
  5
2E4
  8
DETAIL
  6
CONTINUOUS
 62
     5
 10
262.099976
 20
-209.475928
 30
0.0
 11
262.099976
 21
-220.996307
 31
0.0
  0
LINE
  5
2E5
  8
DETAIL
  6
CONTINUOUS
 62
     5
 10
238.999942
 20
-225.975928
 30
0.0
 11
254.999911
 21
-225.975928
 31
0.0
  0
LINE
  5
2E6
  8
DETAIL
  6
CONTINUOUS
 62
     5
 10
236.029727
 20
-209.475928
 30
0.0
 11
236.029727
 21
-223.475928
 31
0.0
  0
ARC
  5
2E7
  8
DETAIL
  6
CONTINUOUS
 62
     5
 10
254.983309
 20
-222.92591
 30
0.0
 40
3.04353
 50
190.029906
 51
348.921908
  0
ARC
  5
2E8
  8
DETAIL
  6
CONTINUOUS
 62
     5
 10
247.000918
 20
-219.785407
 30
0.0
 40
6.19092
 50
216.711357
 51
323.636766
  0
ARC
  5
2E9
  8
DETAIL
  6
CONTINUOUS
 62
     5
 10
239.049746
 20
-222.92591
 30
0.0
 40
3.040188
 50
186.603336
 51
349.381333
  0
LINE
  5
2EA
  8
DETAIL
  6
CONTINUOUS
 62
     5
 10
251.970126
 20
-209.475928
 30
0.0
 11
251.970126
 21
-223.475928
 31
0.0
  0
LINE
  5
2EB
  8
DETAIL
  6
CONTINUOUS
 62
     5
 10
242.029727
 20
-209.475928
 30
0.0
 11
242.029727
 21
-223.475928
 31
0.0
  0
LINE
  5
2EC
  8
DETAIL
  6
CONTINUOUS
 62
     5
 10
257.970156
 20
-209.475928
 30
0.0
 11
257.970156
 21
-223.510566
 31
0.0
  0
LINE
  5
2ED
  8
DETAIL
  6
CONTINUOUS
 62
     5
 10
253.555796
 20
-243.0
 30
0.0
 11
256.549988
 21
-243.0
 31
0.0
  0
LINE
  5
2EE
  8
DETAIL
  6
CONTINUOUS
 62
     5
 10
237.432093
 20
-225.5
 30
0.0
 11
235.899963
 21
-225.5
 31
0.0
  0
LINE
  5
2EF
  8
DETAIL
  6
CONTINUOUS
 62
     5
 10
237.450012
 20
-243.0
 30
0.0
 11
237.450012
 21
-238.0
 31
0.0
  0
LINE
  5
2F0
  8
DETAIL
  6
CONTINUOUS
 62
     5
 10
235.899963
 20
-238.0
 30
0.0
 11
235.899963
 21
-225.5
 31
0.0
  0
LINE
  5
2F1
  8
DETAIL
  6
CONTINUOUS
 62
     5
 10
237.450019
 20
-242.999918
 30
0.0
 11
239.450012
 21
-244.999758
 31
0.0
  0
ARC
  5
2F2
  8
DETAIL
  6
CONTINUOUS
 62
     5
 10
257.599915
 20
-216.952332
 30
0.0
 40
6.050117
 50
273.508454
 51
318.055026
  0
LINE
  5
2F3
  8
DETAIL
  6
CONTINUOUS
 62
     5
 10
258.100037
 20
-225.5
 30
0.0
 11
256.607235
 21
-225.5
 31
0.0
  0
LINE
  5
2F4
  8
DETAIL
  6
CONTINUOUS
 62
     5
 10
235.899963
 20
-238.0
 30
0.0
 11
238.999942
 21
-238.0
 31
0.0
  0
LINE
  5
2F5
  8
DETAIL
  6
CONTINUOUS
 62
     5
 10
256.549988
 20
-243.0
 30
0.0
 11
256.549988
 21
-238.0
 31
0.0
  0
LINE
  5
2F6
  8
DETAIL
  6
CONTINUOUS
 62
     5
 10
258.100037
 20
-238.0
 30
0.0
 11
258.100037
 21
-225.5
 31
0.0
  0
LINE
  5
2F7
  8
DETAIL
  6
CONTINUOUS
 62
     5
 10
239.450012
 20
-245.0
 30
0.0
 11
254.549988
 21
-245.0
 31
0.0
  0
LINE
  5
2F8
  8
DETAIL
  6
CONTINUOUS
 62
     5
 10
254.549971
 20
-245.000101
 30
0.0
 11
256.549857
 21
-243.000154
 31
0.0
  0
LINE
  5
2F9
  8
DETAIL
  6
CONTINUOUS
 62
     5
 10
262.524731
 20
-209.475928
 30
0.0
 11
262.524731
 21
-180.975869
 31
0.0
  0
LINE
  5
2FA
  8
DETAIL
  6
CONTINUOUS
 62
     5
 10
231.899963
 20
-209.475928
 30
0.0
 11
231.899963
 21
-220.996307
 31
0.0
  0
LINE
  5
2FB
  8
DETAIL
  6
CONTINUOUS
 62
     5
 10
231.474458
 20
-209.475928
 30
0.0
 11
231.474458
 21
-180.975869
 31
0.0
  0
LINE
  5
2FC
  8
DETAIL
  6
CONTINUOUS
 62
     5
 10
231.474458
 20
-209.475928
 30
0.0
 11
262.524731
 21
-209.475928
 31
0.0
  0
ARC
  5
2FD
  8
DETAIL
  6
CONTINUOUS
 62
     5
 10
236.399963
 20
-216.952332
 30
0.0
 40
6.050119
 50
221.944975
 51
266.491596
  0
LINE
  5
2FE
  8
DETAIL
  6
CONTINUOUS
 62
     5
 10
313.749911
 20
-238.0
 30
0.0
 11
313.749911
 21
-243.0
 31
0.0
  0
LINE
  5
2FF
  8
DETAIL
  6
CONTINUOUS
 62
     5
 10
300.249942
 20
-238.0
 30
0.0
 11
300.249942
 21
-243.0
 31
0.0
  0
LINE
  5
300
  8
DETAIL
  6
CONTINUOUS
 62
     5
 10
298.999942
 20
-238.0
 30
0.0
 11
318.100037
 21
-238.0
 31
0.0
  0
LINE
  5
301
  8
DETAIL
  6
CONTINUOUS
 62
     5
 10
297.450012
 20
-243.0
 30
0.0
 11
313.555796
 21
-243.0
 31
0.0
  0
LINE
  5
302
  8
DETAIL
  6
CONTINUOUS
 62
     5
 10
322.099976
 20
-209.475928
 30
0.0
 11
322.099976
 21
-220.996307
 31
0.0
  0
LINE
  5
303
  8
DETAIL
  6
CONTINUOUS
 62
     5
 10
298.999942
 20
-225.975928
 30
0.0
 11
314.999911
 21
-225.975928
 31
0.0
  0
LINE
  5
304
  8
DETAIL
  6
CONTINUOUS
 62
     5
 10
296.029727
 20
-209.475928
 30
0.0
 11
296.029727
 21
-223.475928
 31
0.0
  0
ARC
  5
305
  8
DETAIL
  6
CONTINUOUS
 62
     5
 10
314.983309
 20
-222.92591
 30
0.0
 40
3.04353
 50
190.029906
 51
348.921908
  0
ARC
  5
306
  8
DETAIL
  6
CONTINUOUS
 62
     5
 10
307.000918
 20
-219.785407
 30
0.0
 40
6.19092
 50
216.711357
 51
323.636766
  0
ARC
  5
307
  8
DETAIL
  6
CONTINUOUS
 62
     5
 10
299.049746
 20
-222.92591
 30
0.0
 40
3.040188
 50
186.603336
 51
349.381333
  0
LINE
  5
308
  8
DETAIL
  6
CONTINUOUS
 62
     5
 10
311.970126
 20
-209.475928
 30
0.0
 11
311.970126
 21
-223.475928
 31
0.0
  0
LINE
  5
309
  8
DETAIL
  6
CONTINUOUS
 62
     5
 10
302.029727
 20
-209.475928
 30
0.0
 11
302.029727
 21
-223.475928
 31
0.0
  0
LINE
  5
30A
  8
DETAIL
  6
CONTINUOUS
 62
     5
 10
317.970156
 20
-209.475928
 30
0.0
 11
317.970156
 21
-223.510566
 31
0.0
  0
LINE
  5
30B
  8
DETAIL
  6
CONTINUOUS
 62
     5
 10
313.555796
 20
-243.0
 30
0.0
 11
316.549988
 21
-243.0
 31
0.0
  0
LINE
  5
30C
  8
DETAIL
  6
CONTINUOUS
 62
     5
 10
297.432093
 20
-225.5
 30
0.0
 11
295.899963
 21
-225.5
 31
0.0
  0
LINE
  5
30D
  8
DETAIL
  6
CONTINUOUS
 62
     5
 10
297.450012
 20
-243.0
 30
0.0
 11
297.450012
 21
-238.0
 31
0.0
  0
LINE
  5
30E
  8
DETAIL
  6
CONTINUOUS
 62
     5
 10
295.899963
 20
-238.0
 30
0.0
 11
295.899963
 21
-225.5
 31
0.0
  0
LINE
  5
30F
  8
DETAIL
  6
CONTINUOUS
 62
     5
 10
297.450019
 20
-242.999918
 30
0.0
 11
299.450012
 21
-244.999758
 31
0.0
  0
ARC
  5
310
  8
DETAIL
  6
CONTINUOUS
 62
     5
 10
317.599915
 20
-216.952332
 30
0.0
 40
6.050117
 50
273.508454
 51
318.055026
  0
LINE
  5
311
  8
DETAIL
  6
CONTINUOUS
 62
     5
 10
318.100037
 20
-225.5
 30
0.0
 11
316.607235
 21
-225.5
 31
0.0
  0
LINE
  5
312
  8
DETAIL
  6
CONTINUOUS
 62
     5
 10
295.899963
 20
-238.0
 30
0.0
 11
298.999942
 21
-238.0
 31
0.0
  0
LINE
  5
313
  8
DETAIL
  6
CONTINUOUS
 62
     5
 10
316.549988
 20
-243.0
 30
0.0
 11
316.549988
 21
-238.0
 31
0.0
  0
LINE
  5
314
  8
DETAIL
  6
CONTINUOUS
 62
     5
 10
318.100037
 20
-238.0
 30
0.0
 11
318.100037
 21
-225.5
 31
0.0
  0
LINE
  5
315
  8
DETAIL
  6
CONTINUOUS
 62
     5
 10
299.450012
 20
-245.0
 30
0.0
 11
314.549988
 21
-245.0
 31
0.0
  0
LINE
  5
316
  8
DETAIL
  6
CONTINUOUS
 62
     5
 10
314.549971
 20
-245.000101
 30
0.0
 11
316.549857
 21
-243.000154
 31
0.0
  0
LINE
  5
317
  8
DETAIL
  6
CONTINUOUS
 62
     5
 10
322.524731
 20
-209.475928
 30
0.0
 11
322.524731
 21
-180.975869
 31
0.0
  0
LINE
  5
318
  8
DETAIL
  6
CONTINUOUS
 62
     5
 10
291.899963
 20
-209.475928
 30
0.0
 11
291.899963
 21
-220.996307
 31
0.0
  0
LINE
  5
319
  8
DETAIL
  6
CONTINUOUS
 62
     5
 10
291.474458
 20
-209.475928
 30
0.0
 11
291.474458
 21
-180.975869
 31
0.0
  0
LINE
  5
31A
  8
DETAIL
  6
CONTINUOUS
 62
     5
 10
291.474458
 20
-209.475928
 30
0.0
 11
322.524731
 21
-209.475928
 31
0.0
  0
ARC
  5
31B
  8
DETAIL
  6
CONTINUOUS
 62
     5
 10
296.399963
 20
-216.952332
 30
0.0
 40
6.050119
 50
221.944975
 51
266.491596
  0
LINE
  5
31C
  8
DETAIL
  6
CONTINUOUS
 62
     5
 10
373.749911
 20
-238.0
 30
0.0
 11
373.749911
 21
-243.0
 31
0.0
  0
LINE
  5
31D
  8
DETAIL
  6
CONTINUOUS
 62
     5
 10
360.249942
 20
-238.0
 30
0.0
 11
360.249942
 21
-243.0
 31
0.0
  0
LINE
  5
31E
  8
DETAIL
  6
CONTINUOUS
 62
     5
 10
358.999942
 20
-238.0
 30
0.0
 11
378.100037
 21
-238.0
 31
0.0
  0
LINE
  5
31F
  8
DETAIL
  6
CONTINUOUS
 62
     5
 10
357.450012
 20
-243.0
 30
0.0
 11
373.555796
 21
-243.0
 31
0.0
  0
LINE
  5
320
  8
DETAIL
  6
CONTINUOUS
 62
     5
 10
382.099976
 20
-209.475928
 30
0.0
 11
382.099976
 21
-220.996307
 31
0.0
  0
LINE
  5
321
  8
DETAIL
  6
CONTINUOUS
 62
     5
 10
358.999942
 20
-225.975928
 30
0.0
 11
374.999911
 21
-225.975928
 31
0.0
  0
LINE
  5
322
  8
DETAIL
  6
CONTINUOUS
 62
     5
 10
356.029727
 20
-209.475928
 30
0.0
 11
356.029727
 21
-223.475928
 31
0.0
  0
ARC
  5
323
  8
DETAIL
  6
CONTINUOUS
 62
     5
 10
374.983309
 20
-222.92591
 30
0.0
 40
3.04353
 50
190.029906
 51
348.921908
  0
ARC
  5
324
  8
DETAIL
  6
CONTINUOUS
 62
     5
 10
367.000918
 20
-219.785407
 30
0.0
 40
6.19092
 50
216.711357
 51
323.636766
  0
ARC
  5
325
  8
DETAIL
  6
CONTINUOUS
 62
     5
 10
359.049746
 20
-222.92591
 30
0.0
 40
3.040188
 50
186.603336
 51
349.381333
  0
LINE
  5
326
  8
DETAIL
  6
CONTINUOUS
 62
     5
 10
371.970126
 20
-209.475928
 30
0.0
 11
371.970126
 21
-223.475928
 31
0.0
  0
LINE
  5
327
  8
DETAIL
  6
CONTINUOUS
 62
     5
 10
362.029727
 20
-209.475928
 30
0.0
 11
362.029727
 21
-223.475928
 31
0.0
  0
LINE
  5
328
  8
DETAIL
  6
CONTINUOUS
 62
     5
 10
377.970156
 20
-209.475928
 30
0.0
 11
377.970156
 21
-223.510566
 31
0.0
  0
LINE
  5
329
  8
DETAIL
  6
CONTINUOUS
 62
     5
 10
373.555796
 20
-243.0
 30
0.0
 11
376.549988
 21
-243.0
 31
0.0
  0
LINE
  5
32A
  8
DETAIL
  6
CONTINUOUS
 62
     5
 10
357.432093
 20
-225.5
 30
0.0
 11
355.899963
 21
-225.5
 31
0.0
  0
LINE
  5
32B
  8
DETAIL
  6
CONTINUOUS
 62
     5
 10
357.450012
 20
-243.0
 30
0.0
 11
357.450012
 21
-238.0
 31
0.0
  0
LINE
  5
32C
  8
DETAIL
  6
CONTINUOUS
 62
     5
 10
355.899963
 20
-238.0
 30
0.0
 11
355.899963
 21
-225.5
 31
0.0
  0
LINE
  5
32D
  8
DETAIL
  6
CONTINUOUS
 62
     5
 10
357.450019
 20
-242.999918
 30
0.0
 11
359.450012
 21
-244.999758
 31
0.0
  0
ARC
  5
32E
  8
DETAIL
  6
CONTINUOUS
 62
     5
 10
377.599915
 20
-216.952332
 30
0.0
 40
6.050117
 50
273.508454
 51
318.055026
  0
LINE
  5
32F
  8
DETAIL
  6
CONTINUOUS
 62
     5
 10
378.100037
 20
-225.5
 30
0.0
 11
376.607235
 21
-225.5
 31
0.0
  0
LINE
  5
330
  8
DETAIL
  6
CONTINUOUS
 62
     5
 10
355.899963
 20
-238.0
 30
0.0
 11
358.999942
 21
-238.0
 31
0.0
  0
LINE
  5
331
  8
DETAIL
  6
CONTINUOUS
 62
     5
 10
376.549988
 20
-243.0
 30
0.0
 11
376.549988
 21
-238.0
 31
0.0
  0
LINE
  5
332
  8
DETAIL
  6
CONTINUOUS
 62
     5
 10
378.100037
 20
-238.0
 30
0.0
 11
378.100037
 21
-225.5
 31
0.0
  0
LINE
  5
333
  8
DETAIL
  6
CONTINUOUS
 62
     5
 10
359.450012
 20
-245.0
 30
0.0
 11
374.549988
 21
-245.0
 31
0.0
  0
LINE
  5
334
  8
DETAIL
  6
CONTINUOUS
 62
     5
 10
374.549971
 20
-245.000101
 30
0.0
 11
376.549857
 21
-243.000154
 31
0.0
  0
LINE
  5
335
  8
DETAIL
  6
CONTINUOUS
 62
     5
 10
382.524731
 20
-209.475928
 30
0.0
 11
382.524731
 21
-180.975869
 31
0.0
  0
LINE
  5
336
  8
DETAIL
  6
CONTINUOUS
 62
     5
 10
351.899963
 20
-209.475928
 30
0.0
 11
351.899963
 21
-220.996307
 31
0.0
  0
LINE
  5
337
  8
DETAIL
  6
CONTINUOUS
 62
     5
 10
351.474458
 20
-209.475928
 30
0.0
 11
351.474458
 21
-180.975869
 31
0.0
  0
LINE
  5
338
  8
DETAIL
  6
CONTINUOUS
 62
     5
 10
351.474458
 20
-209.475928
 30
0.0
 11
382.524731
 21
-209.475928
 31
0.0
  0
ARC
  5
339
  8
DETAIL
  6
CONTINUOUS
 62
     5
 10
356.399963
 20
-216.952332
 30
0.0
 40
6.050119
 50
221.944975
 51
266.491596
  0
LINE
  5
33A
  8
DETAIL
  6
CONTINUOUS
 62
     5
 10
433.749911
 20
-238.0
 30
0.0
 11
433.749911
 21
-243.0
 31
0.0
  0
LINE
  5
33B
  8
DETAIL
  6
CONTINUOUS
 62
     5
 10
420.249942
 20
-238.0
 30
0.0
 11
420.249942
 21
-243.0
 31
0.0
  0
LINE
  5
33C
  8
DETAIL
  6
CONTINUOUS
 62
     5
 10
418.999942
 20
-238.0
 30
0.0
 11
438.100037
 21
-238.0
 31
0.0
  0
LINE
  5
33D
  8
DETAIL
  6
CONTINUOUS
 62
     5
 10
417.450012
 20
-243.0
 30
0.0
 11
433.555796
 21
-243.0
 31
0.0
  0
LINE
  5
33E
  8
DETAIL
  6
CONTINUOUS
 62
     5
 10
442.099976
 20
-209.475928
 30
0.0
 11
442.099976
 21
-220.996307
 31
0.0
  0
LINE
  5
33F
  8
DETAIL
  6
CONTINUOUS
 62
     5
 10
418.999942
 20
-225.975928
 30
0.0
 11
434.999911
 21
-225.975928
 31
0.0
  0
LINE
  5
340
  8
DETAIL
  6
CONTINUOUS
 62
     5
 10
416.029727
 20
-209.475928
 30
0.0
 11
416.029727
 21
-223.475928
 31
0.0
  0
ARC
  5
341
  8
DETAIL
  6
CONTINUOUS
 62
     5
 10
434.983309
 20
-222.92591
 30
0.0
 40
3.04353
 50
190.029906
 51
348.921908
  0
ARC
  5
342
  8
DETAIL
  6
CONTINUOUS
 62
     5
 10
427.000918
 20
-219.785407
 30
0.0
 40
6.19092
 50
216.711357
 51
323.636766
  0
ARC
  5
343
  8
DETAIL
  6
CONTINUOUS
 62
     5
 10
419.049746
 20
-222.92591
 30
0.0
 40
3.040188
 50
186.603336
 51
349.381333
  0
LINE
  5
344
  8
DETAIL
  6
CONTINUOUS
 62
     5
 10
431.970126
 20
-209.475928
 30
0.0
 11
431.970126
 21
-223.475928
 31
0.0
  0
LINE
  5
345
  8
DETAIL
  6
CONTINUOUS
 62
     5
 10
422.029727
 20
-209.475928
 30
0.0
 11
422.029727
 21
-223.475928
 31
0.0
  0
LINE
  5
346
  8
DETAIL
  6
CONTINUOUS
 62
     5
 10
437.970156
 20
-209.475928
 30
0.0
 11
437.970156
 21
-223.510566
 31
0.0
  0
LINE
  5
347
  8
DETAIL
  6
CONTINUOUS
 62
     5
 10
433.555796
 20
-243.0
 30
0.0
 11
436.549988
 21
-243.0
 31
0.0
  0
LINE
  5
348
  8
DETAIL
  6
CONTINUOUS
 62
     5
 10
417.432093
 20
-225.5
 30
0.0
 11
415.899963
 21
-225.5
 31
0.0
  0
LINE
  5
349
  8
DETAIL
  6
CONTINUOUS
 62
     5
 10
417.450012
 20
-243.0
 30
0.0
 11
417.450012
 21
-238.0
 31
0.0
  0
LINE
  5
34A
  8
DETAIL
  6
CONTINUOUS
 62
     5
 10
415.899963
 20
-238.0
 30
0.0
 11
415.899963
 21
-225.5
 31
0.0
  0
LINE
  5
34B
  8
DETAIL
  6
CONTINUOUS
 62
     5
 10
417.450019
 20
-242.999918
 30
0.0
 11
419.450012
 21
-244.999758
 31
0.0
  0
ARC
  5
34C
  8
DETAIL
  6
CONTINUOUS
 62
     5
 10
437.599915
 20
-216.952332
 30
0.0
 40
6.050117
 50
273.508454
 51
318.055026
  0
LINE
  5
34D
  8
DETAIL
  6
CONTINUOUS
 62
     5
 10
438.100037
 20
-225.5
 30
0.0
 11
436.607235
 21
-225.5
 31
0.0
  0
LINE
  5
34E
  8
DETAIL
  6
CONTINUOUS
 62
     5
 10
415.899963
 20
-238.0
 30
0.0
 11
418.999942
 21
-238.0
 31
0.0
  0
LINE
  5
34F
  8
DETAIL
  6
CONTINUOUS
 62
     5
 10
436.549988
 20
-243.0
 30
0.0
 11
436.549988
 21
-238.0
 31
0.0
  0
LINE
  5
350
  8
DETAIL
  6
CONTINUOUS
 62
     5
 10
438.100037
 20
-238.0
 30
0.0
 11
438.100037
 21
-225.5
 31
0.0
  0
LINE
  5
351
  8
DETAIL
  6
CONTINUOUS
 62
     5
 10
419.450012
 20
-245.0
 30
0.0
 11
434.549988
 21
-245.0
 31
0.0
  0
LINE
  5
352
  8
DETAIL
  6
CONTINUOUS
 62
     5
 10
434.549971
 20
-245.000101
 30
0.0
 11
436.549857
 21
-243.000154
 31
0.0
  0
LINE
  5
353
  8
DETAIL
  6
CONTINUOUS
 62
     5
 10
442.524731
 20
-209.475928
 30
0.0
 11
442.524731
 21
-180.975869
 31
0.0
  0
LINE
  5
354
  8
DETAIL
  6
CONTINUOUS
 62
     5
 10
411.899963
 20
-209.475928
 30
0.0
 11
411.899963
 21
-220.996307
 31
0.0
  0
LINE
  5
355
  8
DETAIL
  6
CONTINUOUS
 62
     5
 10
411.474458
 20
-209.475928
 30
0.0
 11
411.474458
 21
-180.975869
 31
0.0
  0
LINE
  5
356
  8
DETAIL
  6
CONTINUOUS
 62
     5
 10
411.474458
 20
-209.475928
 30
0.0
 11
442.524731
 21
-209.475928
 31
0.0
  0
ARC
  5
357
  8
DETAIL
  6
CONTINUOUS
 62
     5
 10
416.399963
 20
-216.952332
 30
0.0
 40
6.050119
 50
221.944975
 51
266.491596
  0
LINE
  5
358
  8
SIZE
  6
CONTINUOUS
 62
    30
 10
-473.0
 20
-280.0
 30
0.0
 11
-473.0
 21
-378.464072
 31
0.0
  0
LINE
  5
359
  8
SIZE
  6
CONTINUOUS
 62
    30
 10
-413.0
 20
-280.0
 30
0.0
 11
-413.0
 21
-378.464072
 31
0.0
  0
LINE
  5
35A
  8
SIZE
  6
CONTINUOUS
 62
    30
 10
-473.0
 20
-363.464072
 30
0.0
 11
-413.0
 21
-363.464072
 31
0.0
  0
LINE
  5
35B
  8
SIZE
  6
CONTINUOUS
 62
    30
 10
-413.0
 20
-363.464072
 30
0.0
 11
-280.142857
 21
-363.464072
 31
0.0
  0
CIRCLE
  5
35C
  8
SIZE
  6
CONTINUOUS
 62
    30
 10
-473.0
 20
-363.464072
 30
0.0
 40
7.5
  0
CIRCLE
  5
35D
  8
SIZE
  6
CONTINUOUS
 62
    30
 10
-413.0
 20
-363.464072
 30
0.0
 40
7.5
  0
TEXT
  5
35E
  8
SIZE
  6
CONTINUOUS
 62
    30
 10
-368.0
 20
-348.464072
 30
0.0
 40
50.0
  1
60
 41
0.9
 72
     1
 11
-331.571429
 21
-348.464072
 31
0.0
  0
POINT
  5
35F
  8
DEFPOINTS
  6
CONTINUOUS
 62
     7
 10
-473.0
 20
-265.0
 30
0.0
  0
POINT
  5
360
  8
DEFPOINTS
  6
CONTINUOUS
 62
     7
 10
-413.0
 20
-265.0
 30
0.0
  0
POINT
  5
361
  8
DEFPOINTS
  6
CONTINUOUS
 62
     7
 10
-413.0
 20
-363.464072
 30
0.0
  0
LINE
  5
362
  8
SIZE
  6
CONTINUOUS
 62
    30
 10
427.0
 20
-280.0
 30
0.0
 11
427.0
 21
-495.234772
 31
0.0
  0
LINE
  5
363
  8
SIZE
  6
CONTINUOUS
 62
    30
 10
-473.0
 20
-280.0
 30
0.0
 11
-473.0
 21
-495.234772
 31
0.0
  0
LINE
  5
364
  8
SIZE
  6
CONTINUOUS
 62
    30
 10
427.0
 20
-480.234772
 30
0.0
 11
-473.0
 21
-480.234772
 31
0.0
  0
CIRCLE
  5
365
  8
SIZE
  6
CONTINUOUS
 62
    30
 10
427.0
 20
-480.234772
 30
0.0
 40
7.5
  0
CIRCLE
  5
366
  8
SIZE
  6
CONTINUOUS
 62
    30
 10
-473.0
 20
-480.234772
 30
0.0
 40
7.5
  0
TEXT
  5
367
  8
SIZE
  6
CONTINUOUS
 62
    30
 10
-216.285714
 20
-465.234772
 30
0.0
 40
50.0
  1
60×15＝900
 41
0.9
 72
     1
 11
-23.0
 21
-465.234772
 31
0.0
  0
POINT
  5
368
  8
DEFPOINTS
  6
CONTINUOUS
 62
     7
 10
427.0
 20
-265.0
 30
0.0
  0
POINT
  5
369
  8
DEFPOINTS
  6
CONTINUOUS
 62
     7
 10
-473.0
 20
-265.0
 30
0.0
  0
POINT
  5
36A
  8
DEFPOINTS
  6
CONTINUOUS
 62
     7
 10
-473.0
 20
-480.234772
 30
0.0
  0
LINE
  5
36B
  8
SIZE
  6
CONTINUOUS
 62
    30
 10
-473.0
 20
-280.0
 30
0.0
 11
-473.0
 21
-495.234772
 31
0.0
  0
LINE
  5
36C
  8
SIZE
  6
CONTINUOUS
 62
    30
 10
-549.0
 20
-196.0
 30
0.0
 11
-549.0
 21
-495.234772
 31
0.0
  0
LINE
  5
36D
  8
SIZE
  6
CONTINUOUS
 62
    30
 10
-473.0
 20
-480.234772
 30
0.0
 11
-549.0
 21
-480.234772
 31
0.0
  0
LINE
  5
36E
  8
SIZE
  6
CONTINUOUS
 62
    30
 10
-511.0
 20
-480.234772
 30
0.0
 11
-477.25
 21
-592.734772
 31
0.0
  0
LINE
  5
36F
  8
SIZE
  6
CONTINUOUS
 62
    30
 10
-477.25
 20
-592.734772
 30
0.0
 11
-376.535714
 21
-592.734772
 31
0.0
  0
TEXT
  5
370
  8
SIZE
  6
CONTINUOUS
 62
    30
 10
-462.25
 20
-577.734772
 30
0.0
 40
50.0
  1
76
 41
0.9
 72
     1
 11
-426.892857
 21
-577.734772
 31
0.0
  0
CIRCLE
  5
371
  8
SIZE
  6
CONTINUOUS
 62
    30
 10
-473.0
 20
-480.234772
 30
0.0
 40
7.5
  0
CIRCLE
  5
372
  8
SIZE
  6
CONTINUOUS
 62
    30
 10
-549.0
 20
-480.234772
 30
0.0
 40
7.5
  0
POINT
  5
373
  8
DEFPOINTS
  6
CONTINUOUS
 62
     7
 10
-473.0
 20
-265.0
 30
0.0
  0
POINT
  5
374
  8
DEFPOINTS
  6
CONTINUOUS
 62
     7
 10
-549.0
 20
-181.0
 30
0.0
  0
POINT
  5
375
  8
DEFPOINTS
  6
CONTINUOUS
 62
     7
 10
-549.0
 20
-480.234772
 30
0.0
  0
LINE
  5
376
  8
SIZE
  6
CONTINUOUS
 62
    30
 10
-745.0
 20
110.400221
 30
0.0
 11
-745.0
 21
-776.66733
 31
0.0
  0
LINE
  5
377
  8
SIZE
  6
CONTINUOUS
 62
    30
 10
-549.0
 20
-196.0
 30
0.0
 11
-549.0
 21
-776.66733
 31
0.0
  0
LINE
  5
378
  8
SIZE
  6
CONTINUOUS
 62
    30
 10
-745.0
 20
-761.66733
 30
0.0
 11
-549.0
 21
-761.66733
 31
0.0
  0
CIRCLE
  5
379
  8
SIZE
  6
CONTINUOUS
 62
    30
 10
-745.0
 20
-761.66733
 30
0.0
 40
7.5
  0
CIRCLE
  5
37A
  8
SIZE
  6
CONTINUOUS
 62
    30
 10
-549.0
 20
-761.66733
 30
0.0
 40
7.5
  0
TEXT
  5
37B
  8
SIZE
  6
CONTINUOUS
 62
    30
 10
-699.5
 20
-746.66733
 30
0.0
 40
50.0
  1
196
 41
0.9
 72
     1
 11
-647.0
 21
-746.66733
 31
0.0
  0
POINT
  5
37C
  8
DEFPOINTS
  6
CONTINUOUS
 62
     7
 10
-745.0
 20
125.400221
 30
0.0
  0
POINT
  5
37D
  8
DEFPOINTS
  6
CONTINUOUS
 62
     7
 10
-549.0
 20
-181.0
 30
0.0
  0
POINT
  5
37E
  8
DEFPOINTS
  6
CONTINUOUS
 62
     7
 10
-549.0
 20
-761.66733
 30
0.0
  0
LINE
  5
37F
  8
SIZE
  6
CONTINUOUS
 62
    30
 10
-564.0
 20
-181.0
 30
0.0
 11
-1089.584968
 21
-181.0
 31
0.0
  0
LINE
  5
380
  8
SIZE
  6
CONTINUOUS
 62
    30
 10
-758.558062
 20
0.0
 30
0.0
 11
-1089.584968
 21
0.0
 31
0.0
  0
LINE
  5
381
  8
SIZE
  6
CONTINUOUS
 62
    30
 10
-1074.584968
 20
-181.0
 30
0.0
 11
-1074.584968
 21
0.0
 31
0.0
  0
CIRCLE
  5
382
  8
SIZE
  6
CONTINUOUS
 62
    30
 10
-1074.584968
 20
-181.0
 30
0.0
 40
7.5
  0
CIRCLE
  5
383
  8
SIZE
  6
CONTINUOUS
 62
    30
 10
-1074.584968
 20
0.0
 30
0.0
 40
7.5
  0
TEXT
  5
384
  8
SIZE
  6
CONTINUOUS
 62
    30
 10
-1089.584968
 20
-134.428571
 30
0.0
 40
50.0
  1
181
 50
90.0
 41
0.9
 72
     1
 11
-1089.584968
 21
-90.5
 31
0.0
  0
POINT
  5
385
  8
DEFPOINTS
  6
CONTINUOUS
 62
     7
 10
-549.0
 20
-181.0
 30
0.0
  0
POINT
  5
386
  8
DEFPOINTS
  6
CONTINUOUS
 62
     7
 10
-743.558062
 20
0.0
 30
0.0
  0
POINT
  5
387
  8
DEFPOINTS
  6
CONTINUOUS
 62
     7
 10
-1074.584968
 20
0.0
 30
0.0
  0
LINE
  5
389
  8
SIZE
  6
CONTINUOUS
 62
    30
 10
-758.558062
 20
0.0
 30
0.0
 11
-1089.584968
 21
0.0
 31
0.0
  0
LINE
  5
38A
  8
SIZE
  6
CONTINUOUS
 62
    30
 10
-954.558062
 20
157.0
 30
0.0
 11
-1089.584968
 21
157.0
 31
0.0
  0
LINE
  5
38B
  8
SIZE
  6
CONTINUOUS
 62
    30
 10
-1074.584968
 20
0.0
 30
0.0
 11
-1074.584968
 21
157.0
 31
0.0
  0
CIRCLE
  5
38C
  8
SIZE
  6
CONTINUOUS
 62
    30
 10
-1074.584968
 20
0.0
 30
0.0
 40
7.5
  0
CIRCLE
  5
38D
  8
SIZE
  6
CONTINUOUS
 62
    30
 10
-1074.584968
 20
157.0
 30
0.0
 40
7.5
  0
TEXT
  5
38E
  8
SIZE
  6
CONTINUOUS
 62
    30
 10
-1089.584968
 20
24.928571
 30
0.0
 40
50.0
  1
157
 50
90.0
 41
0.9
 72
     1
 11
-1089.584968
 21
78.5
 31
0.0
  0
POINT
  5
38F
  8
DEFPOINTS
  6
CONTINUOUS
 62
     7
 10
-743.558062
 20
0.0
 30
0.0
  0
POINT
  5
390
  8
DEFPOINTS
  6
CONTINUOUS
 62
     7
 10
-939.558062
 20
157.0
 30
0.0
  0
POINT
  5
391
  8
DEFPOINTS
  6
CONTINUOUS
 62
     7
 10
-1074.584968
 20
157.0
 30
0.0
  0
LINE
  5
392
  8
SIZE
  6
CONTINUOUS
 62
    30
 10
-564.0
 20
-181.0
 30
0.0
 11
-822.72669
 21
-181.0
 31
0.0
  0
LINE
  5
393
  8
SIZE
  6
CONTINUOUS
 62
    30
 10
-654.0
 20
-78.0
 30
0.0
 11
-822.72669
 21
-78.0
 31
0.0
  0
LINE
  5
394
  8
SIZE
  6
CONTINUOUS
 62
    30
 10
-807.72669
 20
-181.0
 30
0.0
 11
-807.72669
 21
-78.0
 31
0.0
  0
CIRCLE
  5
395
  8
SIZE
  6
CONTINUOUS
 62
    30
 10
-807.72669
 20
-181.0
 30
0.0
 40
7.5
  0
CIRCLE
  5
396
  8
SIZE
  6
CONTINUOUS
 62
    30
 10
-807.72669
 20
-78.0
 30
0.0
 40
7.5
  0
TEXT
  5
397
  8
SIZE
  6
CONTINUOUS
 62
    30
 10
-822.72669
 20
-183.071429
 30
0.0
 40
50.0
  1
103
 50
90.0
 41
0.9
 72
     1
 11
-822.72669
 21
-129.5
 31
0.0
  0
POINT
  5
398
  8
DEFPOINTS
  6
CONTINUOUS
 62
     7
 10
-549.0
 20
-181.0
 30
0.0
  0
POINT
  5
399
  8
DEFPOINTS
  6
CONTINUOUS
 62
     7
 10
-639.0
 20
-78.0
 30
0.0
  0
POINT
  5
39A
  8
DEFPOINTS
  6
CONTINUOUS
 62
     7
 10
-807.72669
 20
-78.0
 30
0.0
  0
LINE
  5
39B
  8
SIZE
  6
CONTINUOUS
 62
    30
 10
-654.0
 20
67.0
 30
0.0
 11
-960.756848
 21
67.0
 31
0.0
  0
LINE
  5
39C
  8
SIZE
  6
CONTINUOUS
 62
    30
 10
-564.0
 20
-181.0
 30
0.0
 11
-960.756848
 21
-181.0
 31
0.0
  0
LINE
  5
39D
  8
SIZE
  6
CONTINUOUS
 62
    30
 10
-945.756848
 20
67.0
 30
0.0
 11
-945.756848
 21
-181.0
 31
0.0
  0
CIRCLE
  5
39E
  8
SIZE
  6
CONTINUOUS
 62
    30
 10
-945.756848
 20
67.0
 30
0.0
 40
7.5
  0
CIRCLE
  5
39F
  8
SIZE
  6
CONTINUOUS
 62
    30
 10
-945.756848
 20
-181.0
 30
0.0
 40
7.5
  0
TEXT
  5
3A0
  8
SIZE
  6
CONTINUOUS
 62
    30
 10
-960.756848
 20
-141.672539
 30
0.0
 40
50.0
  1
248
 50
90.0
 41
0.9
 72
     1
 11
-960.756848
 21
-83.815396
 31
0.0
  0
POINT
  5
3A1
  8
DEFPOINTS
  6
CONTINUOUS
 62
     7
 10
-639.0
 20
67.0
 30
0.0
  0
POINT
  5
3A2
  8
DEFPOINTS
  6
CONTINUOUS
 62
     7
 10
-549.0
 20
-181.0
 30
0.0
  0
POINT
  5
3A3
  8
DEFPOINTS
  6
CONTINUOUS
 62
     7
 10
-945.756848
 20
-181.0
 30
0.0
  0
LINE
  5
3A4
  8
SIZE
  6
CONTINUOUS
 62
    30
 10
-575.999539
 20
-184.0
 30
0.0
 11
-575.999539
 21
-665.524183
 31
0.0
  0
LINE
  5
3A5
  8
SIZE
  6
CONTINUOUS
 62
    30
 10
575.999539
 20
-184.0
 30
0.0
 11
575.999539
 21
-665.524183
 31
0.0
  0
LINE
  5
3A6
  8
SIZE
  6
CONTINUOUS
 62
    30
 10
-575.999539
 20
-650.524183
 30
0.0
 11
575.999539
 21
-650.524183
 31
0.0
  0
CIRCLE
  5
3A7
  8
SIZE
  6
CONTINUOUS
 62
    30
 10
-575.999539
 20
-650.524183
 30
0.0
 40
7.5
  0
CIRCLE
  5
3A8
  8
SIZE
  6
CONTINUOUS
 62
    30
 10
575.999539
 20
-650.524183
 30
0.0
 40
7.5
  0
TEXT
  5
3A9
  8
SIZE
  6
CONTINUOUS
 62
    30
 10
-236.451655
 20
-635.524183
 30
0.0
 40
50.0
  1
1152
 41
0.9
 72
     1
 11
-165.73737
 21
-635.524183
 31
0.0
  0
POINT
  5
3AA
  8
DEFPOINTS
  6
CONTINUOUS
 62
     7
 10
-575.999539
 20
-169.0
 30
0.0
  0
POINT
  5
3AB
  8
DEFPOINTS
  6
CONTINUOUS
 62
     7
 10
575.999539
 20
-169.0
 30
0.0
  0
POINT
  5
3AC
  8
DEFPOINTS
  6
CONTINUOUS
 62
     7
 10
575.999539
 20
-650.524183
 30
0.0
  0
LINE
  5
3AD
  8
SIZE
  6
CONTINUOUS
 62
    30
 10
-549.0
 20
-196.0
 30
0.0
 11
-549.0
 21
-495.234772
 31
0.0
  0
LINE
  5
3AE
  8
SIZE
  6
CONTINUOUS
 62
    30
 10
-619.0
 20
47.0
 30
0.0
 11
-619.0
 21
-495.234772
 31
0.0
  0
LINE
  5
3AF
  8
SIZE
  6
CONTINUOUS
 62
    30
 10
-549.0
 20
-480.234772
 30
0.0
 11
-619.0
 21
-480.234772
 31
0.0
  0
LINE
  5
3B0
  8
SIZE
  6
CONTINUOUS
 62
    30
 10
-710.87003
 20
-480.234772
 30
0.0
 11
-619.0
 21
-480.234772
 31
0.0
  0
TEXT
  5
3B1
  8
SIZE
  6
CONTINUOUS
 62
    30
 10
-707.55758
 20
-465.234772
 30
0.0
 40
50.0
  1
70
 41
0.9
 72
     1
 11
-671.129009
 21
-465.234772
 31
0.0
  0
CIRCLE
  5
3B2
  8
SIZE
  6
CONTINUOUS
 62
    30
 10
-549.0
 20
-480.234772
 30
0.0
 40
7.5
  0
CIRCLE
  5
3B3
  8
SIZE
  6
CONTINUOUS
 62
    30
 10
-619.0
 20
-480.234772
 30
0.0
 40
7.5
  0
LINE
  5
3B4
  8
SIZE
  6
CONTINUOUS
 62
    30
 10
614.001839
 20
-143.0
 30
0.0
 11
763.649985
 21
-143.0
 31
0.0
  0
LINE
  5
3B5
  8
SIZE
  6
CONTINUOUS
 62
    30
 10
614.001839
 20
-154.996687
 30
0.0
 11
763.649985
 21
-154.996687
 31
0.0
  0
LINE
  5
3B6
  8
SIZE
  6
CONTINUOUS
 62
    30
 10
748.649985
 20
-154.996687
 30
0.0
 11
748.649985
 21
-184.996687
 31
0.0
  0
LINE
  5
3B7
  8
SIZE
  6
CONTINUOUS
 62
    30
 10
748.649985
 20
-143.0
 30
0.0
 11
748.649985
 21
11.285714
 31
0.0
  0
LINE
  5
3B8
  8
SIZE
  6
CONTINUOUS
 62
    30
 10
748.649985
 20
-154.996687
 30
0.0
 11
748.649985
 21
-143.0
 31
0.0
  0
CIRCLE
  5
3B9
  8
SIZE
  6
CONTINUOUS
 62
    30
 10
748.649985
 20
-154.996687
 30
0.0
 40
7.5
  0
CIRCLE
  5
3BA
  8
SIZE
  6
CONTINUOUS
 62
    30
 10
748.649985
 20
-143.0
 30
0.0
 40
7.5
  0
TEXT
  5
3BB
  8
SIZE
  6
CONTINUOUS
 62
    30
 10
733.649985
 20
-68.0
 30
0.0
 40
50.0
  1
12
 50
90.0
 41
0.9
 72
     1
 11
733.649985
 21
-35.857143
 31
0.0
  0
POINT
  5
3BC
  8
DEFPOINTS
  6
CONTINUOUS
 62
     7
 10
599.001839
 20
-143.0
 30
0.0
  0
POINT
  5
3BD
  8
DEFPOINTS
  6
CONTINUOUS
 62
     7
 10
599.001839
 20
-154.996687
 30
0.0
  0
POINT
  5
3BE
  8
DEFPOINTS
  6
CONTINUOUS
 62
     7
 10
748.649985
 20
-154.996687
 30
0.0
  0
LINE
  5
3BF
  8
SIZE
  6
CONTINUOUS
 62
    30
 10
590.999539
 20
-164.0
 30
0.0
 11
868.676227
 21
-164.0
 31
0.0
  0
LINE
  5
3C0
  8
SIZE
  6
CONTINUOUS
 62
    30
 10
590.999539
 20
-134.0
 30
0.0
 11
868.676227
 21
-134.0
 31
0.0
  0
LINE
  5
3C1
  8
SIZE
  6
CONTINUOUS
 62
    30
 10
853.676227
 20
-164.0
 30
0.0
 11
853.676227
 21
-134.0
 31
0.0
  0
LINE
  5
3C2
  8
SIZE
  6
CONTINUOUS
 62
    30
 10
853.676227
 20
-134.0
 30
0.0
 11
853.676227
 21
-1.142857
 31
0.0
  0
CIRCLE
  5
3C3
  8
SIZE
  6
CONTINUOUS
 62
    30
 10
853.676227
 20
-164.0
 30
0.0
 40
7.5
  0
CIRCLE
  5
3C4
  8
SIZE
  6
CONTINUOUS
 62
    30
 10
853.676227
 20
-134.0
 30
0.0
 40
7.5
  0
TEXT
  5
3C5
  8
SIZE
  6
CONTINUOUS
 62
    30
 10
838.676227
 20
-89.0
 30
0.0
 40
50.0
  1
30
 50
90.0
 41
0.9
 72
     1
 11
838.676227
 21
-52.571429
 31
0.0
  0
POINT
  5
3C6
  8
DEFPOINTS
  6
CONTINUOUS
 62
     7
 10
575.999539
 20
-164.0
 30
0.0
  0
POINT
  5
3C7
  8
DEFPOINTS
  6
CONTINUOUS
 62
     7
 10
575.999539
 20
-134.0
 30
0.0
  0
POINT
  5
3C8
  8
DEFPOINTS
  6
CONTINUOUS
 62
     7
 10
853.676227
 20
-134.0
 30
0.0
  0
LINE
  5
3C9
  8
SIZE
  6
CONTINUOUS
 62
    30
 10
568.999539
 20
-126.0
 30
0.0
 11
568.999539
 21
-69.461868
 31
0.0
  0
LINE
  5
3CA
  8
SIZE
  6
CONTINUOUS
 62
    30
 10
582.999539
 20
-126.0
 30
0.0
 11
582.999539
 21
-69.461868
 31
0.0
  0
LINE
  5
3CB
  8
SIZE
  6
CONTINUOUS
 62
    30
 10
568.999539
 20
-84.461868
 30
0.0
 11
538.999539
 21
-84.461868
 31
0.0
  0
LINE
  5
3CC
  8
SIZE
  6
CONTINUOUS
 62
    30
 10
582.999539
 20
-84.461868
 30
0.0
 11
660.259982
 21
-84.461868
 31
0.0
  0
LINE
  5
3CD
  8
SIZE
  6
CONTINUOUS
 62
    30
 10
568.999539
 20
-84.461868
 30
0.0
 11
582.999539
 21
-84.461868
 31
0.0
  0
CIRCLE
  5
3CE
  8
SIZE
  6
CONTINUOUS
 62
    30
 10
568.999539
 20
-84.461868
 30
0.0
 40
7.5
  0
CIRCLE
  5
3CF
  8
SIZE
  6
CONTINUOUS
 62
    30
 10
582.999539
 20
-84.461868
 30
0.0
 40
7.5
  0
TEXT
  5
3D0
  8
SIZE
  6
CONTINUOUS
 62
    30
 10
590.319863
 20
-75.018512
 30
0.0
 40
50.0
  1
14
 41
0.9
 72
     1
 11
623.534149
 21
-75.018512
 31
0.0
  0
LINE
  5
3D1
  8
SIZE
  6
CONTINUOUS
 62
    30
 10
564.0
 20
-181.0
 30
0.0
 11
678.712614
 21
-181.0
 31
0.0
  0
LINE
  5
3D2
  8
SIZE
  6
CONTINUOUS
 62
    30
 10
-438.0
 20
-245.0
 30
0.0
 11
678.712614
 21
-245.0
 31
0.0
  0
LINE
  5
3D3
  8
SIZE
  6
CONTINUOUS
 62
    30
 10
663.712614
 20
-181.0
 30
0.0
 11
663.712614
 21
-245.0
 31
0.0
  0
LINE
  5
3D4
  8
SIZE
  6
CONTINUOUS
 62
    30
 10
663.712614
 20
-245.0
 30
0.0
 11
663.712614
 21
-380.0
 31
0.0
  0
CIRCLE
  5
3D5
  8
SIZE
  6
CONTINUOUS
 62
    30
 10
663.712614
 20
-181.0
 30
0.0
 40
7.5
  0
CIRCLE
  5
3D6
  8
SIZE
  6
CONTINUOUS
 62
    30
 10
663.712614
 20
-245.0
 30
0.0
 40
7.5
  0
TEXT
  5
3D7
  8
SIZE
  6
CONTINUOUS
 62
    30
 10
648.712614
 20
-365.0
 30
0.0
 40
50.0
  1
64
 50
90.0
 41
0.9
 72
     1
 11
648.712614
 21
-327.5
 31
0.0
  0
POINT
  5
3D8
  8
DEFPOINTS
  6
CONTINUOUS
 62
     7
 10
549.0
 20
-181.0
 30
0.0
  0
POINT
  5
3D9
  8
DEFPOINTS
  6
CONTINUOUS
 62
     7
 10
-453.0
 20
-245.0
 30
0.0
  0
POINT
  5
3DA
  8
DEFPOINTS
  6
CONTINUOUS
 62
     7
 10
663.712614
 20
-245.0
 30
0.0
  0
LINE
  5
3DB
  8
SIZE
  6
CONTINUOUS
 62
    30
 10
610.999539
 20
-149.0
 30
0.0
 11
985.461196
 21
-149.0
 31
0.0
  0
LINE
  5
3DC
  8
SIZE
  6
CONTINUOUS
 62
    30
 10
610.999539
 20
149.0
 30
0.0
 11
985.461196
 21
149.0
 31
0.0
  0
LINE
  5
3DD
  8
SIZE
  6
CONTINUOUS
 62
    30
 10
970.461196
 20
-149.0
 30
0.0
 11
970.461196
 21
149.0
 31
0.0
  0
CIRCLE
  5
3DE
  8
SIZE
  6
CONTINUOUS
 62
    30
 10
970.461196
 20
-149.0
 30
0.0
 40
7.5
  0
CIRCLE
  5
3DF
  8
SIZE
  6
CONTINUOUS
 62
    30
 10
970.461196
 20
149.0
 30
0.0
 40
7.5
  0
TEXT
  5
3E0
  8
SIZE
  6
CONTINUOUS
 62
    30
 10
955.461196
 20
-57.857143
 30
0.0
 40
50.0
  1
298
 50
90.0
 41
0.9
 72
     1
 11
955.461196
 21
0.0
 31
0.0
  0
POINT
  5
3E1
  8
DEFPOINTS
  6
CONTINUOUS
 62
     7
 10
595.999539
 20
-149.0
 30
0.0
  0
POINT
  5
3E2
  8
DEFPOINTS
  6
CONTINUOUS
 62
     7
 10
595.999539
 20
149.0
 30
0.0
  0
POINT
  5
3E3
  8
DEFPOINTS
  6
CONTINUOUS
 62
     7
 10
970.461196
 20
149.0
 30
0.0
  0
TEXT
  5
3E4
  8
SIZE
  6
CONTINUOUS
 62
    30
 10
1039.713797
 20
-153.754545
 30
0.0
 40
50.0
  1
（吊りﾎﾞﾙﾄﾋﾟｯﾁ）
 50
90.0
 41
0.75
  0
LINE
  5
3E5
  8
SIZE
  6
CONTINUOUS
 62
    30
 10
564.0
 20
-181.0
 30
0.0
 11
1168.171157
 21
-181.0
 31
0.0
  0
LINE
  5
3E6
  8
SIZE
  6
CONTINUOUS
 62
    30
 10
564.0
 20
181.0
 30
0.0
 11
1168.171157
 21
181.0
 31
0.0
  0
LINE
  5
3E7
  8
SIZE
  6
CONTINUOUS
 62
    30
 10
1153.171157
 20
-181.0
 30
0.0
 11
1153.171157
 21
181.0
 31
0.0
  0
CIRCLE
  5
3E8
  8
SIZE
  6
CONTINUOUS
 62
    30
 10
1153.171157
 20
-181.0
 30
0.0
 40
7.5
  0
CIRCLE
  5
3E9
  8
SIZE
  6
CONTINUOUS
 62
    30
 10
1153.171157
 20
181.0
 30
0.0
 40
7.5
  0
TEXT
  5
3EA
  8
SIZE
  6
CONTINUOUS
 62
    30
 10
1138.171157
 20
-57.857143
 30
0.0
 40
50.0
  1
362
 50
90.0
 41
0.9
 72
     1
 11
1138.171157
 21
0.0
 31
0.0
  0
POINT
  5
3EB
  8
DEFPOINTS
  6
CONTINUOUS
 62
     7
 10
549.0
 20
-181.0
 30
0.0
  0
POINT
  5
3EC
  8
DEFPOINTS
  6
CONTINUOUS
 62
     7
 10
549.0
 20
181.0
 30
0.0
  0
POINT
  5
3ED
  8
DEFPOINTS
  6
CONTINUOUS
 62
     7
 10
1153.171157
 20
181.0
 30
0.0
  0
LINE
  5
3EE
  8
SIZE
  6
CONTINUOUS
 62
    30
 10
-587.999986
 20
310.0
 30
0.0
 11
-349.492764
 21
310.0
 31
0.0
  0
LINE
  5
3EF
  8
SIZE
  6
CONTINUOUS
 62
    30
 10
-534.0
 20
181.0
 30
0.0
 11
-349.492764
 21
181.0
 31
0.0
  0
LINE
  5
3F0
  8
SIZE
  6
CONTINUOUS
 62
    30
 10
-364.492764
 20
310.0
 30
0.0
 11
-364.492764
 21
181.0
 31
0.0
  0
CIRCLE
  5
3F1
  8
SIZE
  6
CONTINUOUS
 62
    30
 10
-364.492764
 20
310.0
 30
0.0
 40
7.5
  0
CIRCLE
  5
3F2
  8
SIZE
  6
CONTINUOUS
 62
    30
 10
-364.492764
 20
181.0
 30
0.0
 40
7.5
  0
TEXT
  5
3F3
  8
SIZE
  6
CONTINUOUS
 62
    30
 10
-379.492764
 20
193.0
 30
0.0
 40
50.0
  1
129
 50
90.0
 41
0.9
 72
     1
 11
-379.492764
 21
245.5
 31
0.0
  0
POINT
  5
3F4
  8
DEFPOINTS
  6
CONTINUOUS
 62
     7
 10
-602.999986
 20
310.0
 30
0.0
  0
POINT
  5
3F5
  8
DEFPOINTS
  6
CONTINUOUS
 62
     7
 10
-549.0
 20
181.0
 30
0.0
  0
POINT
  5
3F6
  8
DEFPOINTS
  6
CONTINUOUS
 62
     7
 10
-364.492764
 20
181.0
 30
0.0
  0
TEXT
  5
3F7
  8
NOTE
  6
CONTINUOUS
 62
     4
 10
712.270836
 20
-564.730078
 30
0.0
 40
50.0
  1
RG(室内ユニット側)
 41
0.8
 72
     2
 11
1168.270836
 21
-564.730078
 31
0.0
  0
TEXT
  5
3F8
  8
NOTE
  6
CONTINUOUS
 62
     4
 10
1197.826122
 20
-561.358324
 30
0.0
 40
50.0
  1
φ15.88
 41
0.8
  0
TEXT
  5
3F9
  8
NOTE
  6
CONTINUOUS
 62
     4
 10
713.141519
 20
-659.475737
 30
0.0
 40
50.0
  1
RL(室内ユニット側)
 41
0.8
 72
     2
 11
1161.522471
 21
-659.475737
 31
0.0
  0
TEXT
  5
3FA
  8
NOTE
  6
CONTINUOUS
 62
     4
 10
1195.145308
 20
-659.435698
 30
0.0
 40
50.0
  1
φ9.52
 41
0.8
  0
LINE
  5
3FB
  8
NOTE
  6
CONTINUOUS
 62
     4
 10
1425.139668
 20
-580.963409
 30
0.0
 11
635.494202
 21
-580.963409
 31
0.0
  0
TEXT
  5
3FC
  8
ETC
  6
CONTINUOUS
 62
    61
 10
-1978.676228
 20
485.114436
 30
0.0
 40
64.0
  1
CMB-P1016G(ﾄﾞﾚﾝｱｯﾌﾟﾒｶ組込)_6
 41
0.9
  0
LINE
  5
3FD
  8
SERVICESPACE
  6
DASHDOT
 62
     2
 10
-301.0
 20
881.0
 30
0.0
 11
149.0
 21
431.0
 31
0.0
  0
LINE
  5
3FE
  8
SERVICESPACE
  6
DASHDOT
 62
     2
 10
-301.0
 20
431.0
 30
0.0
 11
149.0
 21
881.0
 31
0.0
  0
LINE
  5
3FF
  8
SERVICESPACE
  6
DASHDOT
 62
     2
 10
-749.0
 20
881.0
 30
0.0
 11
549.0
 21
881.0
 31
0.0
  0
LINE
  5
400
  8
SERVICESPACE
  6
DASHDOT
 62
     2
 10
-301.0
 20
881.0
 30
0.0
 11
-301.0
 21
431.0
 31
0.0
  0
LINE
  5
401
  8
SERVICESPACE
  6
DASHDOT
 62
     2
 10
149.0
 20
881.0
 30
0.0
 11
149.0
 21
431.0
 31
0.0
  0
LINE
  5
402
  8
SERVICESPACE
  6
DASHDOT
 62
     2
 10
549.0
 20
881.0
 30
0.0
 11
549.0
 21
181.0
 31
0.0
  0
LINE
  5
403
  8
SERVICESPACE
  6
DASHDOT
 62
     2
 10
-301.0
 20
431.0
 30
0.0
 11
149.0
 21
431.0
 31
0.0
  0
LINE
  5
404
  8
SERVICESPACE
  6
DASHDOT
 62
     2
 10
-549.0
 20
181.0
 30
0.0
 11
549.0
 21
181.0
 31
0.0
  0
LINE
  5
405
  8
SERVICESPACE
  6
DASHDOT
 62
     2
 10
-749.0
 20
881.0
 30
0.0
 11
-749.0
 21
-181.0
 31
0.0
  0
LINE
  5
406
  8
SERVICESPACE
  6
DASHDOT
 62
     2
 10
-749.0
 20
-181.0
 30
0.0
 11
-549.0
 21
-181.0
 31
0.0
  0
LINE
  5
407
  8
SERVICESPACE
  6
DASHDOT
 62
     2
 10
-549.0
 20
181.0
 30
0.0
 11
-549.0
 21
-181.0
 31
0.0
  0
LINE
  5
408
  8
SIZE
  6
CONTINUOUS
 62
    30
 10
516.937881
 20
251.0
 30
0.0
 11
759.237839
 21
251.0
 31
0.0
  0
LINE
  5
409
  8
SIZE
  6
CONTINUOUS
 62
    30
 10
579.0
 20
181.0
 30
0.0
 11
759.237839
 21
181.0
 31
0.0
  0
LINE
  5
40A
  8
SIZE
  6
CONTINUOUS
 62
    30
 10
744.237839
 20
181.0
 30
0.0
 11
744.237839
 21
251.0
 31
0.0
  0
LINE
  5
40B
  8
SIZE
  6
CONTINUOUS
 62
    30
 10
744.237839
 20
251.0
 30
0.0
 11
744.237839
 21
428.886522
 31
0.0
  0
CIRCLE
  5
40C
  8
SIZE
  6
CONTINUOUS
 62
    30
 10
744.237839
 20
181.0
 30
0.0
 40
7.5
  0
CIRCLE
  5
40D
  8
SIZE
  6
CONTINUOUS
 62
    30
 10
744.237839
 20
251.0
 30
0.0
 40
7.5
  0
TEXT
  5
40E
  8
SIZE
  6
CONTINUOUS
 62
    30
 10
729.237839
 20
341.029379
 30
0.0
 40
50.0
  1
70
 50
90.0
 41
0.9
 72
     1
 11
729.237839
 21
377.45795
 31
0.0
  0
POINT
  5
40F
  8
DEFPOINTS
  6
CONTINUOUS
 62
     7
 10
501.937881
 20
251.0
 30
0.0
  0
POINT
  5
410
  8
DEFPOINTS
  6
CONTINUOUS
 62
     7
 10
564.0
 20
181.0
 30
0.0
  0
POINT
  5
411
  8
DEFPOINTS
  6
CONTINUOUS
 62
     7
 10
744.237839
 20
181.0
 30
0.0
  0
LINE
  5
412
  8
SIZE
  6
CONTINUOUS
 62
    30
 10
564.0
 20
881.0
 30
0.0
 11
1168.171157
 21
881.0
 31
0.0
  0
LINE
  5
413
  8
SIZE
  6
CONTINUOUS
 62
    30
 10
564.0
 20
181.0
 30
0.0
 11
1168.171157
 21
181.0
 31
0.0
  0
LINE
  5
414
  8
SIZE
  6
CONTINUOUS
 62
    30
 10
1153.171157
 20
881.0
 30
0.0
 11
1153.171157
 21
181.0
 31
0.0
  0
CIRCLE
  5
415
  8
SIZE
  6
CONTINUOUS
 62
    30
 10
1153.171157
 20
881.0
 30
0.0
 40
7.5
  0
CIRCLE
  5
416
  8
SIZE
  6
CONTINUOUS
 62
    30
 10
1153.171157
 20
181.0
 30
0.0
 40
7.5
  0
TEXT
  5
417
  8
SIZE
  6
CONTINUOUS
 62
    30
 10
1125.075919
 20
444.214286
 30
0.0
 40
50.0
  1
(700)
 50
90.0
 41
0.9
 72
     1
 11
1125.075919
 21
531.0
 31
0.0
  0
POINT
  5
418
  8
DEFPOINTS
  6
CONTINUOUS
 62
     7
 10
549.0
 20
881.0
 30
0.0
  0
POINT
  5
419
  8
DEFPOINTS
  6
CONTINUOUS
 62
     7
 10
549.0
 20
181.0
 30
0.0
  0
POINT
  5
41A
  8
DEFPOINTS
  6
CONTINUOUS
 62
     7
 10
1153.171157
 20
181.0
 30
0.0
  0
LINE
  5
41B
  8
SIZE
  6
CONTINUOUS
 62
    30
 10
-301.0
 20
896.0
 30
0.0
 11
-301.0
 21
1091.789381
 31
0.0
  0
LINE
  5
41C
  8
SIZE
  6
CONTINUOUS
 62
    30
 10
149.0
 20
896.0
 30
0.0
 11
149.0
 21
1091.789381
 31
0.0
  0
LINE
  5
41D
  8
SIZE
  6
CONTINUOUS
 62
    30
 10
-301.0
 20
1076.789381
 30
0.0
 11
149.0
 21
1076.789381
 31
0.0
  0
CIRCLE
  5
41E
  8
SIZE
  6
CONTINUOUS
 62
    30
 10
-301.0
 20
1076.789381
 30
0.0
 40
7.5
  0
CIRCLE
  5
41F
  8
SIZE
  6
CONTINUOUS
 62
    30
 10
149.0
 20
1076.789381
 30
0.0
 40
7.5
  0
TEXT
  5
420
  8
SIZE
  6
CONTINUOUS
 62
    30
 10
-133.857143
 20
1091.789381
 30
0.0
 40
50.0
  1
450
 41
0.9
 72
     1
 11
-76.0
 21
1091.789381
 31
0.0
  0
POINT
  5
421
  8
DEFPOINTS
  6
CONTINUOUS
 62
     7
 10
-301.0
 20
881.0
 30
0.0
  0
POINT
  5
422
  8
DEFPOINTS
  6
CONTINUOUS
 62
     7
 10
149.0
 20
881.0
 30
0.0
  0
POINT
  5
423
  8
DEFPOINTS
  6
CONTINUOUS
 62
     7
 10
149.0
 20
1076.789381
 30
0.0
  0
LINE
  5
424
  8
SIZE
  6
CONTINUOUS
 62
    30
 10
-549.0
 20
194.000221
 30
0.0
 11
-549.0
 21
1094.056306
 31
0.0
  0
LINE
  5
425
  8
SIZE
  6
CONTINUOUS
 62
    30
 10
-749.0
 20
896.0
 30
0.0
 11
-749.0
 21
1094.056306
 31
0.0
  0
LINE
  5
426
  8
SIZE
  6
CONTINUOUS
 62
    30
 10
-549.0
 20
1079.056306
 30
0.0
 11
-749.0
 21
1079.056306
 31
0.0
  0
CIRCLE
  5
427
  8
SIZE
  6
CONTINUOUS
 62
    30
 10
-549.0
 20
1079.056306
 30
0.0
 40
7.5
  0
CIRCLE
  5
428
  8
SIZE
  6
CONTINUOUS
 62
    30
 10
-749.0
 20
1079.056306
 30
0.0
 40
7.5
  0
TEXT
  5
429
  8
SIZE
  6
CONTINUOUS
 62
    30
 10
-759.785714
 20
1094.056306
 30
0.0
 40
50.0
  1
（200）
 41
0.9
 72
     1
 11
-649.0
 21
1094.056306
 31
0.0
  0
POINT
  5
42A
  8
DEFPOINTS
  6
CONTINUOUS
 62
     7
 10
-549.0
 20
179.000221
 30
0.0
  0
POINT
  5
42B
  8
DEFPOINTS
  6
CONTINUOUS
 62
     7
 10
-749.0
 20
881.0
 30
0.0
  0
POINT
  5
42C
  8
DEFPOINTS
  6
CONTINUOUS
 62
     7
 10
-749.0
 20
1079.056306
 30
0.0
  0
LINE
  5
42D
  8
SIZE
  6
CONTINUOUS
 62
    30
 10
549.0
 20
896.0
 30
0.0
 11
549.0
 21
1091.789381
 31
0.0
  0
LINE
  5
42E
  8
SIZE
  6
CONTINUOUS
 62
    30
 10
149.0
 20
896.0
 30
0.0
 11
149.0
 21
1091.789381
 31
0.0
  0
LINE
  5
42F
  8
SIZE
  6
CONTINUOUS
 62
    30
 10
549.0
 20
1076.789381
 30
0.0
 11
149.0
 21
1076.789381
 31
0.0
  0
CIRCLE
  5
430
  8
SIZE
  6
CONTINUOUS
 62
    30
 10
549.0
 20
1076.789381
 30
0.0
 40
7.5
  0
CIRCLE
  5
431
  8
SIZE
  6
CONTINUOUS
 62
    30
 10
149.0
 20
1076.789381
 30
0.0
 40
7.5
  0
TEXT
  5
432
  8
SIZE
  6
CONTINUOUS
 62
    30
 10
238.214286
 20
1091.789381
 30
0.0
 40
50.0
  1
（400）
 41
0.9
 72
     1
 11
349.0
 21
1091.789381
 31
0.0
  0
POINT
  5
433
  8
DEFPOINTS
  6
CONTINUOUS
 62
     7
 10
549.0
 20
881.0
 30
0.0
  0
POINT
  5
434
  8
DEFPOINTS
  6
CONTINUOUS
 62
     7
 10
149.0
 20
881.0
 30
0.0
  0
POINT
  5
435
  8
DEFPOINTS
  6
CONTINUOUS
 62
     7
 10
149.0
 20
1076.789381
 30
0.0
  0
TEXT
  5
436
  8
NOTE
  6
CONTINUOUS
 62
     4
 10
-398.061603
 20
337.690122
 30
0.0
 40
50.0
  1
サービススペース
 41
0.8
  0
TEXT
  5
437
  8
NOTE
  6
CONTINUOUS
 62
     4
 10
-137.622124
 20
753.696695
 30
0.0
 40
50.0
  1
点検口
 41
0.8
  0
LINE
  5
438
  8
SIZE
  6
CONTINUOUS
 62
    30
 10
164.0
 20
881.0
 30
0.0
 11
324.922698
 21
881.0
 31
0.0
  0
LINE
  5
439
  8
SIZE
  6
CONTINUOUS
 62
    30
 10
164.0
 20
431.0
 30
0.0
 11
324.922698
 21
431.0
 31
0.0
  0
LINE
  5
43A
  8
SIZE
  6
CONTINUOUS
 62
    30
 10
309.922698
 20
881.0
 30
0.0
 11
309.922698
 21
431.0
 31
0.0
  0
CIRCLE
  5
43B
  8
SIZE
  6
CONTINUOUS
 62
    30
 10
309.922698
 20
881.0
 30
0.0
 40
7.5
  0
CIRCLE
  5
43C
  8
SIZE
  6
CONTINUOUS
 62
    30
 10
309.922698
 20
431.0
 30
0.0
 40
7.5
  0
TEXT
  5
43D
  8
SIZE
  6
CONTINUOUS
 62
    30
 10
294.922698
 20
598.142857
 30
0.0
 40
50.0
  1
450
 50
90.0
 41
0.9
 72
     1
 11
294.922698
 21
656.0
 31
0.0
  0
POINT
  5
43E
  8
DEFPOINTS
  6
CONTINUOUS
 62
     7
 10
149.0
 20
881.0
 30
0.0
  0
POINT
  5
43F
  8
DEFPOINTS
  6
CONTINUOUS
 62
     7
 10
149.0
 20
431.0
 30
0.0
  0
POINT
  5
440
  8
DEFPOINTS
  6
CONTINUOUS
 62
     7
 10
309.922698
 20
431.0
 30
0.0
  0
TEXT
  5
441
  8
NOTE
  6
CONTINUOUS
 62
     4
 10
-1974.961453
 20
-739.634317
 30
0.0
 40
50.0
  1
室外ユニット側配管接続口（低圧）
 41
0.8
 72
     2
 11
-1238.961453
 21
-739.634317
 31
0.0
  0
TEXT
  5
442
  8
NOTE
  6
CONTINUOUS
 62
     4
 10
-1884.206227
 20
-388.415654
 30
0.0
 40
50.0
  1
224形：φ15.88〈ロウ付〉(付属配管を使用)
 41
0.8
  0
TEXT
  5
443
  8
NOTE
  6
CONTINUOUS
 62
     4
 10
-1920.15051
 20
-977.826247
 30
0.0
 40
50.0
  1
400形：φ25.4〈ロウ付〉（付属配管を使用）
 41
0.8
  0
TEXT
  5
444
  8
NOTE
  6
CONTINUOUS
 62
     4
 10
-1921.441806
 20
-834.842105
 30
0.0
 40
50.0
  1
224形：φ19.05〈ロウ付〉（付属配管を使用）
 41
0.8
  0
TEXT
  5
445
  8
NOTE
  6
CONTINUOUS
 62
     4
 10
-1917.626721
 20
-905.871229
 30
0.0
 40
50.0
  1
280.335形：φ22.2〈ロウ付〉
 41
0.8
  0
TEXT
  5
446
  8
NOTE
  6
CONTINUOUS
 62
     4
 10
-1901.560314
 20
-301.2626
 30
0.0
 40
50.0
  1
室外ユニット側配管接続口（高圧）
 41
0.8
 72
     2
 11
-1165.560314
 21
-301.2626
 31
0.0
  0
TEXT
  5
447
  8
NOTE
  6
CONTINUOUS
 62
     4
 10
-1884.206227
 20
-470.915654
 30
0.0
 40
50.0
  1
280.335.400形：φ19.05〈ロウ付〉
 41
0.8
  0
LINE
  5
448
  8
DETAIL
  6
CONTINUOUS
 62
     5
 10
-599.001839
 20
143.003313
 30
0.0
 11
-599.001839
 21
124.013805
 31
0.0
  0
LINE
  5
449
  8
DETAIL
  6
CONTINUOUS
 62
     5
 10
-599.001839
 20
173.986195
 30
0.0
 11
-599.001839
 21
155.0
 31
0.0
  0
LINE
  5
44A
  8
DETAIL
  6
CONTINUOUS
 62
     5
 10
-549.0
 20
173.986195
 30
0.0
 11
-599.001839
 21
173.986195
 31
0.0
  0
LINE
  5
44B
  8
DETAIL
  6
CONTINUOUS
 62
     5
 10
-549.0
 20
124.013805
 30
0.0
 11
-599.001839
 21
124.013805
 31
0.0
  0
LINE
  5
44C
  8
DETAIL
  6
CONTINUOUS
 62
     5
 10
-549.0
 20
173.986195
 30
0.0
 11
-599.001839
 21
173.986195
 31
0.0
  0
ARC
  5
44D
  8
DETAIL
  6
CONTINUOUS
 62
     5
 10
-575.999539
 20
157.0
 30
0.0
 40
7.0
 50
0.0
 51
180.0
  0
LINE
  5
44E
  8
DETAIL
  6
CONTINUOUS
 62
     5
 10
-568.999539
 20
157.0
 30
0.0
 11
-568.999539
 21
149.0
 31
0.0
  0
LINE
  5
44F
  8
DETAIL
  6
CONTINUOUS
 62
     5
 10
-582.999539
 20
157.0
 30
0.0
 11
-582.999539
 21
155.0
 31
0.0
  0
ARC
  5
450
  8
DETAIL
  6
CONTINUOUS
 62
     5
 10
-575.999539
 20
141.0
 30
0.0
 40
7.0
 50
180.0
 51
0.0
  0
LINE
  5
451
  8
DETAIL
  6
CONTINUOUS
 62
     5
 10
-568.999539
 20
141.0
 30
0.0
 11
-568.999539
 21
149.0
 31
0.0
  0
LINE
  5
452
  8
DETAIL
  6
CONTINUOUS
 62
     5
 10
-582.999539
 20
141.0
 30
0.0
 11
-582.999539
 21
143.0
 31
0.0
  0
LINE
  5
453
  8
DETAIL
  6
CONTINUOUS
 62
     5
 10
-582.999539
 20
143.0
 30
0.0
 11
-598.986839
 21
143.003313
 31
0.0
  0
LINE
  5
454
  8
DETAIL
  6
CONTINUOUS
 62
     5
 10
-599.001839
 20
173.986195
 30
0.0
 11
-599.001839
 21
155.0
 31
0.0
  0
LINE
  5
455
  8
DETAIL
  6
CONTINUOUS
 62
     5
 10
-582.999539
 20
155.0
 30
0.0
 11
-598.986839
 21
155.0
 31
0.0
  0
LINE
  5
456
  8
DETAIL
  6
CONTINUOUS
 62
     5
 10
-549.0
 20
124.013805
 30
0.0
 11
-599.001839
 21
124.013805
 31
0.0
  0
LINE
  5
457
  8
DETAIL
  6
CONTINUOUS
 62
     5
 10
-599.001839
 20
143.003313
 30
0.0
 11
-599.001839
 21
124.013805
 31
0.0
  0
CIRCLE
  5
458
  8
FIX
  6
CONTINUOUS
 62
    11
 10
-575.999539
 20
149.0
 30
0.0
 40
20.0
  0
LINE
  5
459
  8
DETAIL
  6
CONTINUOUS
 62
     5
 10
-560.999986
 20
232.900221
 30
0.0
 11
-560.999986
 21
173.986195
 31
0.0
  0
LINE
  5
45A
  8
OUTLINE
  6
CONTINUOUS
 62
     3
 10
41.94262
 20
181.0
 30
0.0
 11
501.937881
 21
181.0
 31
0.0
  0
LINE
  5
45B
  8
OUTLINE
  6
CONTINUOUS
 62
     3
 10
-745.0
 20
310.0
 30
0.0
 11
-602.999986
 21
310.0
 31
0.0
  0
LINE
  5
45C
  8
OUTLINE
  6
CONTINUOUS
 62
     3
 10
-602.999986
 20
310.0
 30
0.0
 11
-602.999986
 21
125.400221
 31
0.0
  0
LINE
  5
45D
  8
OUTLINE
  6
CONTINUOUS
 62
     3
 10
-602.999986
 20
125.400221
 30
0.0
 11
-745.0
 21
125.400221
 31
0.0
  0
LINE
  5
45E
  8
OUTLINE
  6
CONTINUOUS
 62
     3
 10
-745.0
 20
125.400221
 30
0.0
 11
-745.0
 21
310.0
 31
0.0
  0
LINE
  5
45F
  8
NOTE
  6
CONTINUOUS
 62
     4
 10
-763.436963
 20
181.993909
 30
0.0
 11
-745.0
 21
157.0
 31
0.0
  0
LINE
  5
460
  8
NOTE
  6
CONTINUOUS
 62
     4
 10
-745.0
 20
157.0
 30
0.0
 11
-773.463833
 21
169.426879
 31
0.0
  0
LINE
  5
461
  8
NOTE
  6
CONTINUOUS
 62
     4
 10
-745.0
 20
157.0
 30
0.0
 11
-768.450398
 21
175.710394
 31
0.0
  0
LINE
  5
462
  8
NOTE
  6
CONTINUOUS
 62
     4
 10
-768.450398
 20
175.710394
 30
0.0
 11
-925.538083
 21
301.046115
 31
0.0
  0
LINE
  5
463
  8
NOTE
  6
CONTINUOUS
 62
     4
 10
-925.538083
 20
301.046115
 30
0.0
 11
-1271.16221
 21
301.046115
 31
0.0
  0
LINE
  5
464
  8
NOTE
  6
CONTINUOUS
 62
     4
 10
435.98885
 20
-274.729071
 30
0.0
 11
427.0
 21
-245.0
 31
0.0
  0
LINE
  5
465
  8
NOTE
  6
CONTINUOUS
 62
     4
 10
427.0
 20
-245.0
 30
0.0
 11
449.649108
 21
-266.251706
 31
0.0
  0
LINE
  5
466
  8
NOTE
  6
CONTINUOUS
 62
     4
 10
427.0
 20
-245.0
 30
0.0
 11
442.818979
 21
-270.490388
 31
0.0
  0
LINE
  5
467
  8
NOTE
  6
CONTINUOUS
 62
     4
 10
442.818979
 20
-270.490388
 30
0.0
 11
699.918551
 21
-684.775522
 31
0.0
  0
LINE
  5
468
  8
NOTE
  6
CONTINUOUS
 62
     4
 10
699.918551
 20
-684.775522
 30
0.0
 11
1421.12382
 21
-684.775522
 31
0.0
  0
LINE
  5
469
  8
NOTE
  6
CONTINUOUS
 62
     4
 10
-636.305819
 20
-103.790031
 30
0.0
 11
-619.0
 21
-78.0
 31
0.0
  0
LINE
  5
46A
  8
NOTE
  6
CONTINUOUS
 62
     4
 10
-619.0
 20
-78.0
 30
0.0
 11
-621.092264
 21
-108.987732
 31
0.0
  0
LINE
  5
46B
  8
NOTE
  6
CONTINUOUS
 62
     4
 10
-619.0
 20
-78.0
 30
0.0
 11
-628.699042
 21
-106.388881
 31
0.0
  0
LINE
  5
46C
  8
NOTE
  6
CONTINUOUS
 62
     4
 10
-628.699042
 20
-106.388881
 30
0.0
 11
-848.924502
 21
-750.983955
 31
0.0
  0
LINE
  5
46D
  8
NOTE
  6
CONTINUOUS
 62
     4
 10
-848.924502
 20
-750.983955
 30
0.0
 11
-1982.348473
 21
-750.983955
 31
0.0
  0
LINE
  5
46E
  8
NOTE
  6
CONTINUOUS
 62
     4
 10
-641.069649
 20
45.147135
 30
0.0
 11
-619.0
 21
67.0
 31
0.0
  0
LINE
  5
46F
  8
NOTE
  6
CONTINUOUS
 62
     4
 10
-619.0
 20
67.0
 30
0.0
 11
-627.186444
 21
37.04004
 31
0.0
  0
LINE
  5
470
  8
NOTE
  6
CONTINUOUS
 62
     4
 10
-619.0
 20
67.0
 30
0.0
 11
-634.128047
 21
41.093588
 31
0.0
  0
LINE
  5
471
  8
NOTE
  6
CONTINUOUS
 62
     4
 10
-634.128047
 20
41.093588
 30
0.0
 11
-842.530681
 21
-315.790863
 31
0.0
  0
LINE
  5
472
  8
NOTE
  6
CONTINUOUS
 62
     4
 10
-842.530681
 20
-315.790863
 30
0.0
 11
-1914.783901
 21
-315.790863
 31
0.0
  0
ENDSEC
  0
EOF
