  0
SECTION
  2
HEADER
  9
$ACADVER
  1
AC1009
  9
$INSBASE
 10
0.0
 20
0.0
 30
0.0
  9
$EXTMIN
 10
-941.711754
 20
-751.894196
 30
0.0
  9
$EXTMAX
 10
1861.992364
 20
705.312258
 30
0.0
  9
$LIMMIN
 10
-3837.000175
 20
-3000.109539
  9
$LIMMAX
 10
7319.256881
 20
4045.223003
  9
$ORTHOMODE
 70
     0
  9
$REGENMODE
 70
     1
  9
$FILLMODE
 70
     1
  9
$QTEXTMODE
 70
     0
  9
$MIRRTEXT
 70
     0
  9
$DRAGMODE
 70
     2
  9
$LTSCALE
 40
20.0
  9
$OSMODE
 70
    37
  9
$ATTMODE
 70
     1
  9
$TEXTSIZE
 40
64.0
  9
$TRACEWID
 40
0.05
  9
$TEXTSTYLE
  7
STANDARD
  9
$CLAYER
  8
SIZE
  9
$CELTYPE
  6
CONTINUOUS
  9
$CECOLOR
 62
     7
  9
$DIMSCALE
 40
1.0
  9
$DIMASZ
 40
30.0
  9
$DIMEXO
 40
15.0
  9
$DIMDLI
 40
80.0
  9
$DIMRND
 40
0.0
  9
$DIMDLE
 40
0.0
  9
$DIMEXE
 40
15.0
  9
$DIMTP
 40
0.0
  9
$DIMTM
 40
0.0
  9
$DIMTXT
 40
50.0
  9
$DIMCEN
 40
0.09
  9
$DIMTSZ
 40
0.0
  9
$DIMTOL
 70
     0
  9
$DIMLIM
 70
     0
  9
$DIMTIH
 70
     0
  9
$DIMTOH
 70
     0
  9
$DIMSE1
 70
     0
  9
$DIMSE2
 70
     0
  9
$DIMTAD
 70
     1
  9
$DIMZIN
 70
     8
  9
$DIMBLK
  1
_SMALL
  9
$DIMASO
 70
     1
  9
$DIMSHO
 70
     0
  9
$DIMPOST
  1

  9
$DIMAPOST
  1

  9
$DIMALT
 70
     0
  9
$DIMALTD
 70
     2
  9
$DIMALTF
 40
25.4
  9
$DIMLFAC
 40
1.0
  9
$DIMTOFL
 70
     1
  9
$DIMTVP
 40
0.0
  9
$DIMTIX
 70
     0
  9
$DIMSOXD
 70
     0
  9
$DIMSAH
 70
     0
  9
$DIMBLK1
  1

  9
$DIMBLK2
  1

  9
$DIMSTYLE
  2
STANDARD
  9
$DIMCLRD
 70
     0
  9
$DIMCLRE
 70
     0
  9
$DIMCLRT
 70
     0
  9
$DIMTFAC
 40
1.0
  9
$DIMGAP
 40
0.09
  9
$LUNITS
 70
     2
  9
$LUPREC
 70
     4
  9
$SKETCHINC
 40
0.1
  9
$FILLETRAD
 40
10.0
  9
$AUNITS
 70
     1
  9
$AUPREC
 70
     3
  9
$MENU
  1
ACAD
  9
$ELEVATION
 40
0.0
  9
$PELEVATION
 40
0.0
  9
$THICKNESS
 40
0.0
  9
$LIMCHECK
 70
     0
  9
$BLIPMODE
 70
     0
  9
$CHAMFERA
 40
0.0
  9
$CHAMFERB
 40
0.0
  9
$SKPOLY
 70
     0
  9
$TDCREATE
 40
2450330.439931
  9
$TDUPDATE
 40
2454645.659061
  9
$TDINDWG
 40
1.60141
  9
$TDUSRTIMER
 40
1.60141
  9
$USRTIMER
 70
     1
  9
$ANGBASE
 50
0.0
  9
$ANGDIR
 70
     0
  9
$PDMODE
 70
     3
  9
$PDSIZE
 40
-2.0
  9
$PLINEWID
 40
0.0
  9
$COORDS
 70
     0
  9
$SPLFRAME
 70
     0
  9
$SPLINETYPE
 70
     6
  9
$SPLINESEGS
 70
     8
  9
$ATTDIA
 70
     0
  9
$ATTREQ
 70
     1
  9
$HANDLING
 70
     1
  9
$HANDSEED
  5
1A9
  9
$SURFTAB1
 70
     6
  9
$SURFTAB2
 70
     6
  9
$SURFTYPE
 70
     6
  9
$SURFU
 70
     6
  9
$SURFV
 70
     6
  9
$UCSNAME
  2

  9
$UCSORG
 10
0.0
 20
0.0
 30
0.0
  9
$UCSXDIR
 10
1.0
 20
0.0
 30
0.0
  9
$UCSYDIR
 10
0.0
 20
1.0
 30
0.0
  9
$PUCSNAME
  2

  9
$PUCSORG
 10
0.0
 20
0.0
 30
0.0
  9
$PUCSXDIR
 10
1.0
 20
0.0
 30
0.0
  9
$PUCSYDIR
 10
0.0
 20
1.0
 30
0.0
  9
$USERI1
 70
     0
  9
$USERI2
 70
     0
  9
$USERI3
 70
     0
  9
$USERI4
 70
     0
  9
$USERI5
 70
     0
  9
$USERR1
 40
20.0
  9
$USERR2
 40
0.0
  9
$USERR3
 40
0.0
  9
$USERR4
 40
0.0
  9
$USERR5
 40
0.0
  9
$WORLDVIEW
 70
     1
  9
$SHADEDGE
 70
     3
  9
$SHADEDIF
 70
    70
  9
$TILEMODE
 70
     1
  9
$MAXACTVP
 70
    48
  9
$PLIMCHECK
 70
     0
  9
$PEXTMIN
 10
1.000000E+020
 20
1.000000E+020
 30
1.000000E+020
  9
$PEXTMAX
 10
-1.000000E+020
 20
-1.000000E+020
 30
-1.000000E+020
  9
$PLIMMIN
 10
0.0
 20
0.0
  9
$PLIMMAX
 10
12.0
 20
9.0
  9
$UNITMODE
 70
     0
  9
$VISRETAIN
 70
     1
  9
$PLINEGEN
 70
     0
  9
$PSLTSCALE
 70
     1
  0
ENDSEC
  0
SECTION
  2
TABLES
  0
TABLE
  2
VPORT
 70
     2
  0
VPORT
  2
*ACTIVE
 70
     0
 10
0.0
 20
0.0
 11
1.0
 21
1.0
 12
1741.128353
 22
585.157192
 13
0.0
 23
0.0
 14
50.0
 24
50.0
 15
100.0
 25
100.0
 16
0.0
 26
0.0
 36
1.0
 17
0.0
 27
0.0
 37
0.0
 40
7170.533463
 41
1.555848
 42
50.0
 43
0.0
 44
0.0
 50
0.0
 51
0.0
 71
     0
 72
  1000
 73
     1
 74
     0
 75
     0
 76
     0
 77
     0
 78
     0
  0
ENDTAB
  0
TABLE
  2
LTYPE
 70
     2
  0
LTYPE
  2
CONTINUOUS
 70
     0
  3
実線
 72
    65
 73
     0
 40
0.0
  0
LTYPE
  2
DASHDOT
 70
     0
  3
____ _ ____ _ ____ _ ____ _ ____ _ ____ _ ____
 72
    65
 73
     4
 40
5.5
 49
4.0
 49
-0.6
 49
0.3
 49
-0.6
  0
ENDTAB
  0
TABLE
  2
LAYER
 70
    12
  0
LAYER
  2
0
 70
     0
 62
     7
  6
CONTINUOUS
  0
LAYER
  2
SIZE
 70
     0
 62
    30
  6
CONTINUOUS
  0
LAYER
  2
OUTLINE
 70
     0
 62
     3
  6
CONTINUOUS
  0
LAYER
  2
DETAIL
 70
     0
 62
     5
  6
CONTINUOUS
  0
LAYER
  2
BASIS
 70
     0
 62
     6
  6
DASHDOT
  0
LAYER
  2
NOTE
 70
     0
 62
     4
  6
CONTINUOUS
  0
LAYER
  2
ARRANGE
 70
     0
 62
     1
  6
CONTINUOUS
  0
LAYER
  2
FIX
 70
     0
 62
    11
  6
CONTINUOUS
  0
LAYER
  2
SERVICESPACE
 70
     0
 62
     2
  6
DASHDOT
  0
LAYER
  2
ETC
 70
     0
 62
    61
  6
CONTINUOUS
  0
LAYER
  2
SYMBOLLINE
 70
     0
 62
    15
  6
CONTINUOUS
  0
LAYER
  2
DEFPOINTS
 70
     0
 62
     7
  6
CONTINUOUS
  0
ENDTAB
  0
TABLE
  2
STYLE
 70
     1
  0
STYLE
  2
STANDARD
 70
     0
 40
0.0
 41
0.9
 50
0.0
 71
     0
 42
64.0
  3
SIMPLEX
  4
BIGFONT
  0
ENDTAB
  0
TABLE
  2
VIEW
 70
     1
  0
VIEW
  2
ALL
 70
     0
 40
9000.0
 10
241.506647
 20
0.0
 41
12483.01
 11
0.0
 21
0.0
 31
1.0
 12
0.0
 22
0.0
 32
0.0
 42
50.0
 43
0.0
 44
0.0
 50
0.0
 71
     0
  0
ENDTAB
  0
TABLE
  2
UCS
 70
     0
  0
ENDTAB
  0
TABLE
  2
APPID
 70
     1
  0
APPID
  2
ACAD
 70
     0
  0
ENDTAB
  0
TABLE
  2
DIMSTYLE
 70
     1
  0
DIMSTYLE
  2
STANDARD
 70
     0
  3

  4

  5

  6

  7

 40
1.0
 41
0.18
 42
0.0625
 43
0.38
 44
0.18
 45
0.0
 46
0.0
 47
0.0
 48
0.0
140
0.18
141
0.09
142
0.0
143
25.4
144
1.0
145
0.0
146
1.0
147
0.09
 71
     0
 72
     0
 73
     1
 74
     1
 75
     0
 76
     0
 77
     0
 78
     0
170
     0
171
     2
172
     0
173
     0
174
     0
175
     0
176
     0
177
     0
178
     0
  0
ENDTAB
  0
ENDSEC
  0
SECTION
  2
BLOCKS
  0
BLOCK
  8
0
  2
$MODEL_SPACE
 70
     0
 10
0.0
 20
0.0
 30
0.0
  3
$MODEL_SPACE
  1

  0
ENDBLK
  5
18B
  8
0
  0
BLOCK
 67
     1
  8
0
  2
$PAPER_SPACE
 70
     0
 10
0.0
 20
0.0
 30
0.0
  3
$PAPER_SPACE
  1

  0
ENDBLK
  5
188
 67
     1
  8
0
  0
BLOCK
  8
0
  2
_SMALL
 70
     0
 10
0.0
 20
0.0
 30
0.0
  3
_SMALL
  1

  0
CIRCLE
  5
30
  8
0
  6
CONTINUOUS
 62
     7
 10
0.0
 20
0.0
 30
0.0
 40
0.25
  0
ENDBLK
  5
31
  8
0
  0
ENDSEC
  0
SECTION
  2
ENTITIES
  0
LINE
  5
32
  8
SIZE
  6
CONTINUOUS
 62
    30
 10
339.0
 20
0.0
 30
0.0
 11
769.516043
 21
0.0
 31
0.0
  0
LINE
  5
33
  8
SIZE
  6
CONTINUOUS
 62
    30
 10
420.000316
 20
-58.0
 30
0.0
 11
769.516043
 21
-58.0
 31
0.0
  0
LINE
  5
34
  8
SIZE
  6
CONTINUOUS
 62
    30
 10
754.516043
 20
-58.0
 30
0.0
 11
754.516043
 21
0.0
 31
0.0
  0
LINE
  5
35
  8
SIZE
  6
CONTINUOUS
 62
    30
 10
754.516043
 20
0.0
 30
0.0
 11
754.516043
 21
132.857143
 31
0.0
  0
CIRCLE
  5
36
  8
SIZE
  6
CONTINUOUS
 62
    30
 10
754.516043
 20
-58.0
 30
0.0
 40
7.5
  0
CIRCLE
  5
37
  8
SIZE
  6
CONTINUOUS
 62
    30
 10
754.516043
 20
0.0
 30
0.0
 40
7.5
  0
TEXT
  5
38
  8
SIZE
  6
CONTINUOUS
 62
    30
 10
739.516043
 20
45.0
 30
0.0
 40
50.0
  1
58
 50
90.0
 41
0.9
 72
     1
 11
739.516043
 21
81.428571
 31
0.0
  0
POINT
  5
39
  8
DEFPOINTS
  6
CONTINUOUS
 62
     7
 10
324.0
 20
0.0
 30
0.0
  0
POINT
  5
3A
  8
DEFPOINTS
  6
CONTINUOUS
 62
     7
 10
405.000316
 20
-58.0
 30
0.0
  0
POINT
  5
3B
  8
DEFPOINTS
  6
CONTINUOUS
 62
     7
 10
754.516043
 20
-58.0
 30
0.0
  0
LINE
  5
3C
  8
SIZE
  6
CONTINUOUS
 62
    30
 10
339.0
 20
0.0
 30
0.0
 11
883.080536
 21
0.0
 31
0.0
  0
LINE
  5
3D
  8
SIZE
  6
CONTINUOUS
 62
    30
 10
420.000316
 20
-128.0
 30
0.0
 11
883.080536
 21
-128.0
 31
0.0
  0
LINE
  5
3E
  8
SIZE
  6
CONTINUOUS
 62
    30
 10
868.080536
 20
-128.0
 30
0.0
 11
868.080536
 21
0.0
 31
0.0
  0
LINE
  5
3F
  8
SIZE
  6
CONTINUOUS
 62
    30
 10
868.080536
 20
0.0
 30
0.0
 11
868.080536
 21
167.142857
 31
0.0
  0
CIRCLE
  5
40
  8
SIZE
  6
CONTINUOUS
 62
    30
 10
868.080536
 20
-128.0
 30
0.0
 40
7.5
  0
CIRCLE
  5
41
  8
SIZE
  6
CONTINUOUS
 62
    30
 10
868.080536
 20
0.0
 30
0.0
 40
7.5
  0
TEXT
  5
42
  8
SIZE
  6
CONTINUOUS
 62
    30
 10
853.080536
 20
45.0
 30
0.0
 40
50.0
  1
128
 50
90.0
 41
0.9
 72
     1
 11
853.080536
 21
98.571429
 31
0.0
  0
POINT
  5
43
  8
DEFPOINTS
  6
CONTINUOUS
 62
     7
 10
324.0
 20
0.0
 30
0.0
  0
POINT
  5
44
  8
DEFPOINTS
  6
CONTINUOUS
 62
     7
 10
405.000316
 20
-128.0
 30
0.0
  0
POINT
  5
45
  8
DEFPOINTS
  6
CONTINUOUS
 62
     7
 10
868.080536
 20
-128.0
 30
0.0
  0
LINE
  5
46
  8
SIZE
  6
CONTINUOUS
 62
    30
 10
719.449609
 20
-32.0
 30
0.0
 11
989.259436
 21
-32.0
 31
0.0
  0
LINE
  5
47
  8
SIZE
  6
CONTINUOUS
 62
    30
 10
535.0
 20
1.0
 30
0.0
 11
989.259436
 21
1.0
 31
0.0
  0
LINE
  5
48
  8
SIZE
  6
CONTINUOUS
 62
    30
 10
974.259436
 20
-32.0
 30
0.0
 11
974.259436
 21
1.0
 31
0.0
  0
LINE
  5
49
  8
SIZE
  6
CONTINUOUS
 62
    30
 10
974.259436
 20
1.0
 30
0.0
 11
974.259436
 21
133.857143
 31
0.0
  0
CIRCLE
  5
4A
  8
SIZE
  6
CONTINUOUS
 62
    30
 10
974.259436
 20
-32.0
 30
0.0
 40
7.5
  0
CIRCLE
  5
4B
  8
SIZE
  6
CONTINUOUS
 62
    30
 10
974.259436
 20
1.0
 30
0.0
 40
7.5
  0
TEXT
  5
4C
  8
SIZE
  6
CONTINUOUS
 62
    30
 10
959.259436
 20
46.0
 30
0.0
 40
50.0
  1
33
 50
90.0
 41
0.9
 72
     1
 11
959.259436
 21
82.428571
 31
0.0
  0
POINT
  5
4D
  8
DEFPOINTS
  6
CONTINUOUS
 62
     7
 10
704.449609
 20
-32.0
 30
0.0
  0
POINT
  5
4E
  8
DEFPOINTS
  6
CONTINUOUS
 62
     7
 10
520.0
 20
1.0
 30
0.0
  0
POINT
  5
4F
  8
DEFPOINTS
  6
CONTINUOUS
 62
     7
 10
974.259436
 20
1.0
 30
0.0
  0
LINE
  5
50
  8
SIZE
  6
CONTINUOUS
 62
    30
 10
-339.0
 20
0.0
 30
0.0
 11
-511.873824
 21
0.0
 31
0.0
  0
LINE
  5
51
  8
SIZE
  6
CONTINUOUS
 62
    30
 10
-385.999539
 20
-27.0
 30
0.0
 11
-511.873824
 21
-27.0
 31
0.0
  0
LINE
  5
52
  8
SIZE
  6
CONTINUOUS
 62
    30
 10
-496.873824
 20
-27.0
 30
0.0
 11
-496.873824
 21
-57.0
 31
0.0
  0
LINE
  5
53
  8
SIZE
  6
CONTINUOUS
 62
    30
 10
-496.873824
 20
0.0
 30
0.0
 11
-496.873824
 21
162.857143
 31
0.0
  0
LINE
  5
54
  8
SIZE
  6
CONTINUOUS
 62
    30
 10
-496.873824
 20
-27.0
 30
0.0
 11
-496.873824
 21
0.0
 31
0.0
  0
CIRCLE
  5
55
  8
SIZE
  6
CONTINUOUS
 62
    30
 10
-496.873824
 20
-27.0
 30
0.0
 40
7.5
  0
CIRCLE
  5
56
  8
SIZE
  6
CONTINUOUS
 62
    30
 10
-496.873824
 20
0.0
 30
0.0
 40
7.5
  0
TEXT
  5
57
  8
SIZE
  6
CONTINUOUS
 62
    30
 10
-511.873824
 20
75.0
 30
0.0
 40
50.0
  1
27
 50
90.0
 41
0.9
 72
     1
 11
-511.873824
 21
111.428571
 31
0.0
  0
POINT
  5
58
  8
DEFPOINTS
  6
CONTINUOUS
 62
     7
 10
-324.0
 20
0.0
 30
0.0
  0
POINT
  5
59
  8
DEFPOINTS
  6
CONTINUOUS
 62
     7
 10
-370.999539
 20
-27.0
 30
0.0
  0
POINT
  5
5A
  8
DEFPOINTS
  6
CONTINUOUS
 62
     7
 10
-496.873824
 20
-27.0
 30
0.0
  0
LINE
  5
5B
  8
SIZE
  6
CONTINUOUS
 62
    30
 10
394.0
 20
-101.999684
 30
0.0
 11
394.0
 21
143.552503
 31
0.0
  0
LINE
  5
5C
  8
SIZE
  6
CONTINUOUS
 62
    30
 10
324.0
 20
15.0
 30
0.0
 11
324.0
 21
143.552503
 31
0.0
  0
LINE
  5
5D
  8
SIZE
  6
CONTINUOUS
 62
    30
 10
394.0
 20
128.552503
 30
0.0
 11
324.0
 21
128.552503
 31
0.0
  0
LINE
  5
5E
  8
SIZE
  6
CONTINUOUS
 62
    30
 10
324.0
 20
128.552503
 30
0.0
 11
191.142857
 21
128.552503
 31
0.0
  0
CIRCLE
  5
5F
  8
SIZE
  6
CONTINUOUS
 62
    30
 10
394.0
 20
128.552503
 30
0.0
 40
7.5
  0
CIRCLE
  5
60
  8
SIZE
  6
CONTINUOUS
 62
    30
 10
324.0
 20
128.552503
 30
0.0
 40
7.5
  0
TEXT
  5
61
  8
SIZE
  6
CONTINUOUS
 62
    30
 10
206.142858
 20
143.552503
 30
0.0
 40
50.0
  1
70
 41
0.9
 72
     1
 11
242.571429
 21
143.552503
 31
0.0
  0
POINT
  5
62
  8
DEFPOINTS
  6
CONTINUOUS
 62
     7
 10
394.0
 20
-116.999684
 30
0.0
  0
POINT
  5
63
  8
DEFPOINTS
  6
CONTINUOUS
 62
     7
 10
324.0
 20
0.0
 30
0.0
  0
POINT
  5
64
  8
DEFPOINTS
  6
CONTINUOUS
 62
     7
 10
324.0
 20
128.552503
 30
0.0
  0
LINE
  5
65
  8
SIZE
  6
CONTINUOUS
 62
    30
 10
350.999539
 20
8.0
 30
0.0
 11
350.999539
 21
255.314363
 31
0.0
  0
LINE
  5
66
  8
SIZE
  6
CONTINUOUS
 62
    30
 10
-350.999539
 20
8.0
 30
0.0
 11
-350.999539
 21
255.314363
 31
0.0
  0
LINE
  5
67
  8
SIZE
  6
CONTINUOUS
 62
    30
 10
350.999539
 20
240.314363
 30
0.0
 11
-350.999539
 21
240.314363
 31
0.0
  0
CIRCLE
  5
68
  8
SIZE
  6
CONTINUOUS
 62
    30
 10
350.999539
 20
240.314363
 30
0.0
 40
7.5
  0
CIRCLE
  5
69
  8
SIZE
  6
CONTINUOUS
 62
    30
 10
-350.999539
 20
240.314363
 30
0.0
 40
7.5
  0
TEXT
  5
6A
  8
SIZE
  6
CONTINUOUS
 62
    30
 10
-213.707246
 20
255.314363
 30
0.0
 40
50.0
  1
702
 41
0.9
 72
     1
 11
-155.850103
 21
255.314363
 31
0.0
  0
POINT
  5
6B
  8
DEFPOINTS
  6
CONTINUOUS
 62
     7
 10
350.999539
 20
-7.0
 30
0.0
  0
POINT
  5
6C
  8
DEFPOINTS
  6
CONTINUOUS
 62
     7
 10
-350.999539
 20
-7.0
 30
0.0
  0
POINT
  5
6D
  8
DEFPOINTS
  6
CONTINUOUS
 62
     7
 10
-350.999539
 20
240.314363
 30
0.0
  0
LINE
  5
6E
  8
SIZE
  6
CONTINUOUS
 62
    30
 10
535.0
 20
-301.0
 30
0.0
 11
989.259436
 21
-301.0
 31
0.0
  0
LINE
  5
6F
  8
SIZE
  6
CONTINUOUS
 62
    30
 10
353.100442
 20
-254.5
 30
0.0
 11
989.259436
 21
-254.5
 31
0.0
  0
LINE
  5
70
  8
SIZE
  6
CONTINUOUS
 62
    30
 10
974.259436
 20
-254.5
 30
0.0
 11
974.259436
 21
-301.0
 31
0.0
  0
LINE
  5
71
  8
SIZE
  6
CONTINUOUS
 62
    30
 10
974.259436
 20
-301.0
 30
0.0
 11
974.259436
 21
-498.142857
 31
0.0
  0
CIRCLE
  5
72
  8
SIZE
  6
CONTINUOUS
 62
    30
 10
974.259436
 20
-254.5
 30
0.0
 40
7.5
  0
CIRCLE
  5
73
  8
SIZE
  6
CONTINUOUS
 62
    30
 10
974.259436
 20
-301.0
 30
0.0
 40
7.5
  0
TEXT
  5
74
  8
SIZE
  6
CONTINUOUS
 62
    30
 10
959.259436
 20
-483.142858
 30
0.0
 40
50.0
  1
46.5
 50
90.0
 41
0.9
 72
     1
 11
959.259436
 21
-414.571429
 31
0.0
  0
POINT
  5
75
  8
DEFPOINTS
  6
CONTINUOUS
 62
     7
 10
520.0
 20
-301.0
 30
0.0
  0
POINT
  5
76
  8
DEFPOINTS
  6
CONTINUOUS
 62
     7
 10
338.100442
 20
-254.5
 30
0.0
  0
POINT
  5
77
  8
DEFPOINTS
  6
CONTINUOUS
 62
     7
 10
974.259436
 20
-254.5
 30
0.0
  0
LINE
  5
78
  8
SIZE
  6
CONTINUOUS
 62
    30
 10
353.100442
 20
-254.5
 30
0.0
 11
989.259436
 21
-254.5
 31
0.0
  0
LINE
  5
79
  8
SIZE
  6
CONTINUOUS
 62
    30
 10
719.449609
 20
-32.0
 30
0.0
 11
989.259436
 21
-32.0
 31
0.0
  0
LINE
  5
7A
  8
SIZE
  6
CONTINUOUS
 62
    30
 10
974.259436
 20
-254.5
 30
0.0
 11
974.259436
 21
-32.0
 31
0.0
  0
CIRCLE
  5
7B
  8
SIZE
  6
CONTINUOUS
 62
    30
 10
974.259436
 20
-254.5
 30
0.0
 40
7.5
  0
CIRCLE
  5
7C
  8
SIZE
  6
CONTINUOUS
 62
    30
 10
974.259436
 20
-32.0
 30
0.0
 40
7.5
  0
TEXT
  5
7D
  8
SIZE
  6
CONTINUOUS
 62
    30
 10
959.259436
 20
-233.25
 30
0.0
 40
50.0
  1
222.5
 50
90.0
 41
0.9
 72
     1
 11
959.259436
 21
-143.25
 31
0.0
  0
POINT
  5
7E
  8
DEFPOINTS
  6
CONTINUOUS
 62
     7
 10
338.100442
 20
-254.5
 30
0.0
  0
POINT
  5
7F
  8
DEFPOINTS
  6
CONTINUOUS
 62
     7
 10
704.449609
 20
-32.0
 30
0.0
  0
POINT
  5
80
  8
DEFPOINTS
  6
CONTINUOUS
 62
     7
 10
974.259436
 20
-32.0
 30
0.0
  0
TEXT
  5
81
  8
NOTE
  6
CONTINUOUS
 62
     4
 10
718.414873
 20
-668.918829
 30
0.0
 40
50.0
  1
224形：φ15.88〈ロウ付〉(付属配管を使用)
 41
0.8
  0
TEXT
  5
82
  8
NOTE
  6
CONTINUOUS
 62
     4
 10
715.782254
 20
-751.418829
 30
0.0
 40
50.0
  1
280.335.400形：φ19.05〈ロウ付〉
 41
0.8
  0
TEXT
  5
83
  8
NOTE
  6
CONTINUOUS
 62
     4
 10
681.315667
 20
-581.765775
 30
0.0
 40
50.0
  1
室外ユニット側配管接続口（高圧）
 41
0.8
 72
     2
 11
1417.315667
 21
-581.765775
 31
0.0
  0
LINE
  5
84
  8
DETAIL
  6
CONTINUOUS
 62
     5
 10
-324.0
 20
0.0
 30
0.0
 11
324.0
 21
0.0
 31
0.0
  0
LINE
  5
85
  8
DETAIL
  6
CONTINUOUS
 62
     5
 10
-324.0
 20
-284.0
 30
0.0
 11
324.0
 21
-284.0
 31
0.0
  0
LINE
  5
86
  8
OUTLINE
  6
CONTINUOUS
 62
     3
 10
324.0
 20
0.0
 30
0.0
 11
-324.0
 21
0.0
 31
0.0
  0
LINE
  5
87
  8
OUTLINE
  6
CONTINUOUS
 62
     3
 10
-324.0
 20
-284.0
 30
0.0
 11
324.0
 21
-284.0
 31
0.0
  0
LINE
  5
88
  8
SIZE
  6
CONTINUOUS
 62
    30
 10
324.0
 20
-299.0
 30
0.0
 11
324.0
 21
-469.019993
 31
0.0
  0
LINE
  5
89
  8
SIZE
  6
CONTINUOUS
 62
    30
 10
-324.0
 20
-299.0
 30
0.0
 11
-324.0
 21
-469.019993
 31
0.0
  0
LINE
  5
8A
  8
SIZE
  6
CONTINUOUS
 62
    30
 10
324.0
 20
-454.019993
 30
0.0
 11
-324.0
 21
-454.019993
 31
0.0
  0
CIRCLE
  5
8B
  8
SIZE
  6
CONTINUOUS
 62
    30
 10
324.0
 20
-454.019993
 30
0.0
 40
7.5
  0
CIRCLE
  5
8C
  8
SIZE
  6
CONTINUOUS
 62
    30
 10
-324.0
 20
-454.019993
 30
0.0
 40
7.5
  0
TEXT
  5
8D
  8
SIZE
  6
CONTINUOUS
 62
    30
 10
-57.857143
 20
-439.019993
 30
0.0
 40
50.0
  1
648
 41
0.9
 72
     1
 11
0.0
 21
-439.019993
 31
0.0
  0
POINT
  5
8E
  8
DEFPOINTS
  6
CONTINUOUS
 62
     7
 10
324.0
 20
-284.0
 30
0.0
  0
POINT
  5
8F
  8
DEFPOINTS
  6
CONTINUOUS
 62
     7
 10
-324.0
 20
-284.0
 30
0.0
  0
POINT
  5
90
  8
DEFPOINTS
  6
CONTINUOUS
 62
     7
 10
-324.0
 20
-454.019993
 30
0.0
  0
LINE
  5
91
  8
DETAIL
  6
CONTINUOUS
 62
     5
 10
324.0
 20
0.0
 30
0.0
 11
324.0
 21
-284.0
 31
0.0
  0
LINE
  5
92
  8
OUTLINE
  6
CONTINUOUS
 62
     3
 10
324.0
 20
-284.0
 30
0.0
 11
324.0
 21
0.0
 31
0.0
  0
LINE
  5
93
  8
DETAIL
  6
CONTINUOUS
 62
     5
 10
520.0
 20
-301.0
 30
0.0
 11
520.0
 21
0.0
 31
0.0
  0
LINE
  5
94
  8
DETAIL
  6
CONTINUOUS
 62
     5
 10
378.138107
 20
1.0
 30
0.0
 11
378.138107
 21
-301.0
 31
0.0
  0
LINE
  5
95
  8
OUTLINE
  6
CONTINUOUS
 62
     3
 10
378.138107
 20
1.0
 30
0.0
 11
378.138107
 21
-301.0
 31
0.0
  0
LINE
  5
96
  8
OUTLINE
  6
CONTINUOUS
 62
     3
 10
520.0
 20
-301.0
 30
0.0
 11
520.0
 21
1.0
 31
0.0
  0
LINE
  5
97
  8
SIZE
  6
CONTINUOUS
 62
    30
 10
535.0
 20
-301.0
 30
0.0
 11
777.129718
 21
-301.0
 31
0.0
  0
LINE
  5
98
  8
SIZE
  6
CONTINUOUS
 62
    30
 10
339.0
 20
-284.0
 30
0.0
 11
777.129718
 21
-284.0
 31
0.0
  0
LINE
  5
99
  8
SIZE
  6
CONTINUOUS
 62
    30
 10
762.129718
 20
-284.0
 30
0.0
 11
762.129718
 21
-254.0
 31
0.0
  0
LINE
  5
9A
  8
SIZE
  6
CONTINUOUS
 62
    30
 10
762.129718
 20
-301.0
 30
0.0
 11
762.129718
 21
-455.285714
 31
0.0
  0
LINE
  5
9B
  8
SIZE
  6
CONTINUOUS
 62
    30
 10
762.129718
 20
-284.0
 30
0.0
 11
762.129718
 21
-301.0
 31
0.0
  0
CIRCLE
  5
9C
  8
SIZE
  6
CONTINUOUS
 62
    30
 10
762.129718
 20
-284.0
 30
0.0
 40
7.5
  0
CIRCLE
  5
9D
  8
SIZE
  6
CONTINUOUS
 62
    30
 10
762.129718
 20
-301.0
 30
0.0
 40
7.5
  0
TEXT
  5
9E
  8
SIZE
  6
CONTINUOUS
 62
    30
 10
747.129718
 20
-440.285714
 30
0.0
 40
50.0
  1
17
 50
90.0
 41
0.9
 72
     1
 11
747.129718
 21
-408.142857
 31
0.0
  0
POINT
  5
9F
  8
DEFPOINTS
  6
CONTINUOUS
 62
     7
 10
520.0
 20
-301.0
 30
0.0
  0
POINT
  5
A0
  8
DEFPOINTS
  6
CONTINUOUS
 62
     7
 10
324.0
 20
-284.0
 30
0.0
  0
POINT
  5
A1
  8
DEFPOINTS
  6
CONTINUOUS
 62
     7
 10
762.129718
 20
-284.0
 30
0.0
  0
LINE
  5
A2
  8
SIZE
  6
CONTINUOUS
 62
    30
 10
324.0
 20
-299.0
 30
0.0
 11
324.0
 21
-469.019993
 31
0.0
  0
LINE
  5
A3
  8
SIZE
  6
CONTINUOUS
 62
    30
 10
520.0
 20
-316.0
 30
0.0
 11
520.0
 21
-469.019993
 31
0.0
  0
LINE
  5
A4
  8
SIZE
  6
CONTINUOUS
 62
    30
 10
324.0
 20
-454.019993
 30
0.0
 11
520.0
 21
-454.019993
 31
0.0
  0
CIRCLE
  5
A5
  8
SIZE
  6
CONTINUOUS
 62
    30
 10
324.0
 20
-454.019993
 30
0.0
 40
7.5
  0
CIRCLE
  5
A6
  8
SIZE
  6
CONTINUOUS
 62
    30
 10
520.0
 20
-454.019993
 30
0.0
 40
7.5
  0
TEXT
  5
A7
  8
SIZE
  6
CONTINUOUS
 62
    30
 10
369.5
 20
-439.019993
 30
0.0
 40
50.0
  1
196
 41
0.9
 72
     1
 11
422.0
 21
-439.019993
 31
0.0
  0
POINT
  5
A8
  8
DEFPOINTS
  6
CONTINUOUS
 62
     7
 10
324.0
 20
-284.0
 30
0.0
  0
POINT
  5
A9
  8
DEFPOINTS
  6
CONTINUOUS
 62
     7
 10
520.0
 20
-301.0
 30
0.0
  0
POINT
  5
AA
  8
DEFPOINTS
  6
CONTINUOUS
 62
     7
 10
520.0
 20
-454.019993
 30
0.0
  0
LINE
  5
AB
  8
DETAIL
  6
CONTINUOUS
 62
     5
 10
378.138107
 20
-301.0
 30
0.0
 11
520.0
 21
-301.0
 31
0.0
  0
LINE
  5
AC
  8
OUTLINE
  6
CONTINUOUS
 62
     3
 10
378.138107
 20
-301.0
 30
0.0
 11
520.0
 21
-301.0
 31
0.0
  0
LINE
  5
AD
  8
DETAIL
  6
CONTINUOUS
 62
     5
 10
378.138107
 20
-229.28491
 30
0.0
 11
324.0
 21
-229.28491
 31
0.0
  0
LINE
  5
AE
  8
DETAIL
  6
CONTINUOUS
 62
     5
 10
375.832225
 20
-199.208184
 30
0.0
 11
324.0
 21
-199.208184
 31
0.0
  0
LINE
  5
AF
  8
DETAIL
  6
CONTINUOUS
 62
     5
 10
364.102302
 20
-254.5
 30
0.0
 11
324.0
 21
-254.5
 31
0.0
  0
LINE
  5
B0
  8
DETAIL
  6
CONTINUOUS
 62
     5
 10
324.0
 20
-232.443734
 30
0.0
 11
364.102302
 21
-232.443734
 31
0.0
  0
LINE
  5
B1
  8
DETAIL
  6
CONTINUOUS
 62
     5
 10
324.0
 20
-276.556266
 30
0.0
 11
364.102302
 21
-276.556266
 31
0.0
  0
LINE
  5
B2
  8
DETAIL
  6
CONTINUOUS
 62
     5
 10
366.804384
 20
-234.631749
 30
0.0
 11
364.221511
 21
-272.22248
 31
0.0
  0
LINE
  5
B3
  8
DETAIL
  6
CONTINUOUS
 62
     5
 10
376.976929
 20
-271.42775
 30
0.0
 11
378.138107
 21
-262.88967
 31
0.0
  0
LINE
  5
B4
  8
DETAIL
  6
CONTINUOUS
 62
     5
 10
376.976929
 20
-271.42775
 30
0.0
 11
378.138107
 21
-272.954485
 31
0.0
  0
LINE
  5
B5
  8
DETAIL
  6
CONTINUOUS
 62
     5
 10
367.042803
 20
-270.076709
 30
0.0
 11
371.095926
 21
-240.274332
 31
0.0
  0
LINE
  5
B6
  8
DETAIL
  6
CONTINUOUS
 62
     5
 10
376.976929
 20
-271.42775
 30
0.0
 11
371.334345
 21
-275.719292
 31
0.0
  0
LINE
  5
B7
  8
DETAIL
  6
CONTINUOUS
 62
     5
 10
367.042803
 20
-270.076709
 30
0.0
 11
371.334345
 21
-275.719292
 31
0.0
  0
LINE
  5
B8
  8
DETAIL
  6
CONTINUOUS
 62
     5
 10
376.73851
 20
-235.98279
 30
0.0
 11
371.095926
 21
-240.274332
 31
0.0
  0
LINE
  5
B9
  8
DETAIL
  6
CONTINUOUS
 62
     5
 10
378.138107
 20
-237.823002
 30
0.0
 11
376.73851
 21
-235.98279
 31
0.0
  0
LINE
  5
BA
  8
DETAIL
  6
CONTINUOUS
 62
     5
 10
371.334345
 20
-275.719292
 30
0.0
 11
376.73851
 21
-235.98279
 31
0.0
  0
LINE
  5
BB
  8
DETAIL
  6
CONTINUOUS
 62
     5
 10
367.042803
 20
-270.076709
 30
0.0
 11
364.102302
 21
-272.313146
 31
0.0
  0
LINE
  5
BC
  8
DETAIL
  6
CONTINUOUS
 62
     5
 10
366.804384
 20
-234.631749
 30
0.0
 11
364.102302
 21
-236.686854
 31
0.0
  0
LINE
  5
BD
  8
DETAIL
  6
CONTINUOUS
 62
     5
 10
371.095926
 20
-240.274332
 30
0.0
 11
366.804384
 21
-234.631749
 31
0.0
  0
LINE
  5
BE
  8
DETAIL
  6
CONTINUOUS
 62
     5
 10
364.102302
 20
-269.538363
 30
0.0
 11
364.102302
 21
-239.461637
 31
0.0
  0
LINE
  5
BF
  8
DETAIL
  6
CONTINUOUS
 62
     5
 10
364.102302
 20
-276.556266
 30
0.0
 11
364.102302
 21
-232.443734
 31
0.0
  0
LINE
  5
C0
  8
NOTE
  6
CONTINUOUS
 62
     4
 10
324.0
 20
-240.399558
 30
0.0
 11
324.0
 21
-268.600442
 31
0.0
  0
LINE
  5
C1
  8
NOTE
  6
CONTINUOUS
 62
     4
 10
309.899558
 20
-254.5
 30
0.0
 11
338.100442
 21
-254.5
 31
0.0
  0
LINE
  5
C2
  8
DETAIL
  6
CONTINUOUS
 62
     5
 10
520.0
 20
-47.539642
 30
0.0
 11
548.57289
 21
-47.539642
 31
0.0
  0
LINE
  5
C3
  8
DETAIL
  6
CONTINUOUS
 62
     5
 10
520.0
 20
-16.460358
 30
0.0
 11
548.57289
 21
-16.460358
 31
0.0
  0
LINE
  5
C4
  8
NOTE
  6
CONTINUOUS
 62
     4
 10
531.184454
 20
-32.0
 30
0.0
 11
508.815546
 21
-32.0
 31
0.0
  0
LINE
  5
C5
  8
DETAIL
  6
CONTINUOUS
 62
     5
 10
568.624041
 20
-47.038363
 30
0.0
 11
568.624041
 21
-16.961637
 31
0.0
  0
LINE
  5
C6
  8
DETAIL
  6
CONTINUOUS
 62
     5
 10
558.598465
 20
-47.038363
 30
0.0
 11
558.598465
 21
-16.961637
 31
0.0
  0
LINE
  5
C7
  8
DETAIL
  6
CONTINUOUS
 62
     5
 10
548.57289
 20
-16.460358
 30
0.0
 11
548.57289
 21
-47.539642
 31
0.0
  0
LINE
  5
C8
  8
DETAIL
  6
CONTINUOUS
 62
     5
 10
563.611253
 20
-52.051151
 30
0.0
 11
563.611253
 21
-11.948849
 31
0.0
  0
LINE
  5
C9
  8
DETAIL
  6
CONTINUOUS
 62
     5
 10
553.585678
 20
-52.051151
 30
0.0
 11
553.585678
 21
-11.948849
 31
0.0
  0
LINE
  5
CA
  8
DETAIL
  6
CONTINUOUS
 62
     5
 10
648.828645
 20
-47.038363
 30
0.0
 11
648.828645
 21
-16.961637
 31
0.0
  0
LINE
  5
CB
  8
DETAIL
  6
CONTINUOUS
 62
     5
 10
638.803069
 20
-47.038363
 30
0.0
 11
638.803069
 21
-16.961637
 31
0.0
  0
LINE
  5
CC
  8
DETAIL
  6
CONTINUOUS
 62
     5
 10
628.777494
 20
-47.038363
 30
0.0
 11
628.777494
 21
-16.961637
 31
0.0
  0
LINE
  5
CD
  8
DETAIL
  6
CONTINUOUS
 62
     5
 10
618.751918
 20
-47.038363
 30
0.0
 11
618.751918
 21
-16.961637
 31
0.0
  0
LINE
  5
CE
  8
DETAIL
  6
CONTINUOUS
 62
     5
 10
608.726343
 20
-47.038363
 30
0.0
 11
608.726343
 21
-16.961637
 31
0.0
  0
LINE
  5
CF
  8
DETAIL
  6
CONTINUOUS
 62
     5
 10
598.700767
 20
-47.038363
 30
0.0
 11
598.700767
 21
-16.961637
 31
0.0
  0
LINE
  5
D0
  8
DETAIL
  6
CONTINUOUS
 62
     5
 10
588.675192
 20
-47.038363
 30
0.0
 11
588.675192
 21
-16.961637
 31
0.0
  0
LINE
  5
D1
  8
DETAIL
  6
CONTINUOUS
 62
     5
 10
578.649616
 20
-47.038363
 30
0.0
 11
578.649616
 21
-16.961637
 31
0.0
  0
LINE
  5
D2
  8
DETAIL
  6
CONTINUOUS
 62
     5
 10
693.943734
 20
-49.043478
 30
0.0
 11
693.943734
 21
-14.956522
 31
0.0
  0
LINE
  5
D3
  8
DETAIL
  6
CONTINUOUS
 62
     5
 10
653.841432
 20
-52.051151
 30
0.0
 11
653.841432
 21
-11.948849
 31
0.0
  0
LINE
  5
D4
  8
DETAIL
  6
CONTINUOUS
 62
     5
 10
643.815857
 20
-52.051151
 30
0.0
 11
643.815857
 21
-11.948849
 31
0.0
  0
LINE
  5
D5
  8
DETAIL
  6
CONTINUOUS
 62
     5
 10
633.790281
 20
-52.051151
 30
0.0
 11
633.790281
 21
-11.948849
 31
0.0
  0
LINE
  5
D6
  8
DETAIL
  6
CONTINUOUS
 62
     5
 10
623.764706
 20
-52.051151
 30
0.0
 11
623.764706
 21
-11.948849
 31
0.0
  0
LINE
  5
D7
  8
DETAIL
  6
CONTINUOUS
 62
     5
 10
613.73913
 20
-52.051151
 30
0.0
 11
613.73913
 21
-11.948849
 31
0.0
  0
LINE
  5
D8
  8
DETAIL
  6
CONTINUOUS
 62
     5
 10
603.713555
 20
-52.051151
 30
0.0
 11
603.713555
 21
-11.948849
 31
0.0
  0
LINE
  5
D9
  8
DETAIL
  6
CONTINUOUS
 62
     5
 10
593.68798
 20
-52.051151
 30
0.0
 11
593.68798
 21
-11.948849
 31
0.0
  0
LINE
  5
DA
  8
DETAIL
  6
CONTINUOUS
 62
     5
 10
658.85422
 20
-53.655243
 30
0.0
 11
658.85422
 21
-9.542711
 31
0.0
  0
LINE
  5
DB
  8
DETAIL
  6
CONTINUOUS
 62
     5
 10
663.867008
 20
-53.655243
 30
0.0
 11
663.867008
 21
-9.542711
 31
0.0
  0
LINE
  5
DC
  8
DETAIL
  6
CONTINUOUS
 62
     5
 10
583.662404
 20
-52.051151
 30
0.0
 11
583.662404
 21
-11.948849
 31
0.0
  0
LINE
  5
DD
  8
DETAIL
  6
CONTINUOUS
 62
     5
 10
573.636829
 20
-52.051151
 30
0.0
 11
573.636829
 21
-11.948849
 31
0.0
  0
LINE
  5
DE
  8
DETAIL
  6
CONTINUOUS
 62
     5
 10
693.943734
 20
-49.043478
 30
0.0
 11
663.867008
 21
-49.043478
 31
0.0
  0
LINE
  5
DF
  8
DETAIL
  6
CONTINUOUS
 62
     5
 10
568.624041
 20
-47.038363
 30
0.0
 11
563.611253
 21
-52.051151
 31
0.0
  0
LINE
  5
E0
  8
DETAIL
  6
CONTINUOUS
 62
     5
 10
558.598465
 20
-47.038363
 30
0.0
 11
563.611253
 21
-52.051151
 31
0.0
  0
LINE
  5
E1
  8
DETAIL
  6
CONTINUOUS
 62
     5
 10
558.598465
 20
-47.038363
 30
0.0
 11
553.585678
 21
-52.051151
 31
0.0
  0
LINE
  5
E2
  8
DETAIL
  6
CONTINUOUS
 62
     5
 10
548.57289
 20
-47.038363
 30
0.0
 11
553.585678
 21
-52.051151
 31
0.0
  0
LINE
  5
E3
  8
DETAIL
  6
CONTINUOUS
 62
     5
 10
658.85422
 20
-47.038363
 30
0.0
 11
653.841432
 21
-52.051151
 31
0.0
  0
LINE
  5
E4
  8
DETAIL
  6
CONTINUOUS
 62
     5
 10
648.828645
 20
-47.038363
 30
0.0
 11
643.815857
 21
-52.051151
 31
0.0
  0
LINE
  5
E5
  8
DETAIL
  6
CONTINUOUS
 62
     5
 10
638.803069
 20
-47.038363
 30
0.0
 11
633.790281
 21
-52.051151
 31
0.0
  0
LINE
  5
E6
  8
DETAIL
  6
CONTINUOUS
 62
     5
 10
628.777494
 20
-47.038363
 30
0.0
 11
623.764706
 21
-52.051151
 31
0.0
  0
LINE
  5
E7
  8
DETAIL
  6
CONTINUOUS
 62
     5
 10
618.751918
 20
-47.038363
 30
0.0
 11
613.73913
 21
-52.051151
 31
0.0
  0
LINE
  5
E8
  8
DETAIL
  6
CONTINUOUS
 62
     5
 10
608.726343
 20
-47.038363
 30
0.0
 11
603.713555
 21
-52.051151
 31
0.0
  0
LINE
  5
E9
  8
DETAIL
  6
CONTINUOUS
 62
     5
 10
598.700767
 20
-47.038363
 30
0.0
 11
593.68798
 21
-52.051151
 31
0.0
  0
LINE
  5
EA
  8
DETAIL
  6
CONTINUOUS
 62
     5
 10
648.828645
 20
-47.038363
 30
0.0
 11
653.841432
 21
-52.051151
 31
0.0
  0
LINE
  5
EB
  8
DETAIL
  6
CONTINUOUS
 62
     5
 10
638.803069
 20
-47.038363
 30
0.0
 11
643.815857
 21
-52.051151
 31
0.0
  0
LINE
  5
EC
  8
DETAIL
  6
CONTINUOUS
 62
     5
 10
628.777494
 20
-47.038363
 30
0.0
 11
633.790281
 21
-52.051151
 31
0.0
  0
LINE
  5
ED
  8
DETAIL
  6
CONTINUOUS
 62
     5
 10
618.751918
 20
-47.038363
 30
0.0
 11
623.764706
 21
-52.051151
 31
0.0
  0
LINE
  5
EE
  8
DETAIL
  6
CONTINUOUS
 62
     5
 10
608.726343
 20
-47.038363
 30
0.0
 11
613.73913
 21
-52.051151
 31
0.0
  0
LINE
  5
EF
  8
DETAIL
  6
CONTINUOUS
 62
     5
 10
598.700767
 20
-47.038363
 30
0.0
 11
603.713555
 21
-52.051151
 31
0.0
  0
LINE
  5
F0
  8
DETAIL
  6
CONTINUOUS
 62
     5
 10
588.675192
 20
-47.038363
 30
0.0
 11
593.68798
 21
-52.051151
 31
0.0
  0
LINE
  5
F1
  8
DETAIL
  6
CONTINUOUS
 62
     5
 10
663.867008
 20
-53.655243
 30
0.0
 11
658.85422
 21
-53.655243
 31
0.0
  0
LINE
  5
F2
  8
DETAIL
  6
CONTINUOUS
 62
     5
 10
588.675192
 20
-47.038363
 30
0.0
 11
583.662404
 21
-52.051151
 31
0.0
  0
LINE
  5
F3
  8
DETAIL
  6
CONTINUOUS
 62
     5
 10
578.649616
 20
-47.038363
 30
0.0
 11
583.662404
 21
-52.051151
 31
0.0
  0
LINE
  5
F4
  8
DETAIL
  6
CONTINUOUS
 62
     5
 10
578.649616
 20
-47.038363
 30
0.0
 11
573.636829
 21
-52.051151
 31
0.0
  0
LINE
  5
F5
  8
DETAIL
  6
CONTINUOUS
 62
     5
 10
568.624041
 20
-47.038363
 30
0.0
 11
573.636829
 21
-52.051151
 31
0.0
  0
LINE
  5
F6
  8
DETAIL
  6
CONTINUOUS
 62
     5
 10
693.943734
 20
-14.956522
 30
0.0
 11
663.867008
 21
-14.956522
 31
0.0
  0
LINE
  5
F7
  8
DETAIL
  6
CONTINUOUS
 62
     5
 10
563.611253
 20
-11.948849
 30
0.0
 11
558.598465
 21
-16.961637
 31
0.0
  0
LINE
  5
F8
  8
DETAIL
  6
CONTINUOUS
 62
     5
 10
568.624041
 20
-16.961637
 30
0.0
 11
563.611253
 21
-11.948849
 31
0.0
  0
LINE
  5
F9
  8
DETAIL
  6
CONTINUOUS
 62
     5
 10
553.585678
 20
-11.948849
 30
0.0
 11
548.57289
 21
-16.961637
 31
0.0
  0
LINE
  5
FA
  8
DETAIL
  6
CONTINUOUS
 62
     5
 10
558.598465
 20
-16.961637
 30
0.0
 11
553.585678
 21
-11.948849
 31
0.0
  0
LINE
  5
FB
  8
DETAIL
  6
CONTINUOUS
 62
     5
 10
663.867008
 20
-9.542711
 30
0.0
 11
658.85422
 21
-9.542711
 31
0.0
  0
LINE
  5
FC
  8
DETAIL
  6
CONTINUOUS
 62
     5
 10
653.841432
 20
-11.948849
 30
0.0
 11
648.828645
 21
-16.961637
 31
0.0
  0
LINE
  5
FD
  8
DETAIL
  6
CONTINUOUS
 62
     5
 10
643.815857
 20
-11.948849
 30
0.0
 11
638.803069
 21
-16.961637
 31
0.0
  0
LINE
  5
FE
  8
DETAIL
  6
CONTINUOUS
 62
     5
 10
633.790281
 20
-11.948849
 30
0.0
 11
628.777494
 21
-16.961637
 31
0.0
  0
LINE
  5
FF
  8
DETAIL
  6
CONTINUOUS
 62
     5
 10
623.764706
 20
-11.948849
 30
0.0
 11
618.751918
 21
-16.961637
 31
0.0
  0
LINE
  5
100
  8
DETAIL
  6
CONTINUOUS
 62
     5
 10
613.73913
 20
-11.948849
 30
0.0
 11
608.726343
 21
-16.961637
 31
0.0
  0
LINE
  5
101
  8
DETAIL
  6
CONTINUOUS
 62
     5
 10
603.713555
 20
-11.948849
 30
0.0
 11
598.700767
 21
-16.961637
 31
0.0
  0
LINE
  5
102
  8
DETAIL
  6
CONTINUOUS
 62
     5
 10
593.68798
 20
-11.948849
 30
0.0
 11
588.675192
 21
-16.961637
 31
0.0
  0
LINE
  5
103
  8
DETAIL
  6
CONTINUOUS
 62
     5
 10
658.85422
 20
-16.961637
 30
0.0
 11
653.841432
 21
-11.948849
 31
0.0
  0
LINE
  5
104
  8
DETAIL
  6
CONTINUOUS
 62
     5
 10
648.828645
 20
-16.961637
 30
0.0
 11
643.815857
 21
-11.948849
 31
0.0
  0
LINE
  5
105
  8
DETAIL
  6
CONTINUOUS
 62
     5
 10
638.803069
 20
-16.961637
 30
0.0
 11
633.790281
 21
-11.948849
 31
0.0
  0
LINE
  5
106
  8
DETAIL
  6
CONTINUOUS
 62
     5
 10
628.777494
 20
-16.961637
 30
0.0
 11
623.764706
 21
-11.948849
 31
0.0
  0
LINE
  5
107
  8
DETAIL
  6
CONTINUOUS
 62
     5
 10
618.751918
 20
-16.961637
 30
0.0
 11
613.73913
 21
-11.948849
 31
0.0
  0
LINE
  5
108
  8
DETAIL
  6
CONTINUOUS
 62
     5
 10
608.726343
 20
-16.961637
 30
0.0
 11
603.713555
 21
-11.948849
 31
0.0
  0
LINE
  5
109
  8
DETAIL
  6
CONTINUOUS
 62
     5
 10
598.700767
 20
-16.961637
 30
0.0
 11
593.68798
 21
-11.948849
 31
0.0
  0
LINE
  5
10A
  8
DETAIL
  6
CONTINUOUS
 62
     5
 10
583.662404
 20
-11.948849
 30
0.0
 11
578.649616
 21
-16.961637
 31
0.0
  0
LINE
  5
10B
  8
DETAIL
  6
CONTINUOUS
 62
     5
 10
588.675192
 20
-16.961637
 30
0.0
 11
583.662404
 21
-11.948849
 31
0.0
  0
LINE
  5
10C
  8
DETAIL
  6
CONTINUOUS
 62
     5
 10
578.649616
 20
-16.961637
 30
0.0
 11
573.636829
 21
-11.948849
 31
0.0
  0
LINE
  5
10D
  8
DETAIL
  6
CONTINUOUS
 62
     5
 10
573.636829
 20
-11.948849
 30
0.0
 11
568.624041
 21
-16.961637
 31
0.0
  0
ARC
  5
10E
  8
DETAIL
  6
CONTINUOUS
 62
     5
 10
375.832225
 20
-27.0
 30
0.0
 40
2.305882
 50
0.0
 51
90.0
  0
LINE
  5
10F
  8
DETAIL
  6
CONTINUOUS
 62
     5
 10
336.030691
 20
-24.694118
 30
0.0
 11
336.030691
 21
-27.0
 31
0.0
  0
CIRCLE
  5
110
  8
FIX
  6
CONTINUOUS
 62
    11
 10
350.999539
 20
-27.0
 30
0.0
 40
20.0
  0
LINE
  5
111
  8
NOTE
  6
CONTINUOUS
 62
     4
 10
350.999539
 20
-47.0
 30
0.0
 11
350.999539
 21
-7.0
 31
0.0
  0
LINE
  5
112
  8
NOTE
  6
CONTINUOUS
 62
     4
 10
520.0
 20
-43.000316
 30
0.0
 11
520.0
 21
-20.999684
 31
0.0
  0
LINE
  5
113
  8
DETAIL
  6
CONTINUOUS
 62
     5
 10
378.138107
 20
-47.448082
 30
0.0
 11
373.948849
 21
-47.448082
 31
0.0
  0
LINE
  5
114
  8
DETAIL
  6
CONTINUOUS
 62
     5
 10
378.138107
 20
-68.551918
 30
0.0
 11
373.948849
 21
-68.551918
 31
0.0
  0
LINE
  5
115
  8
DETAIL
  6
CONTINUOUS
 62
     5
 10
373.948849
 20
-140.531969
 30
0.0
 11
378.138107
 21
-140.531969
 31
0.0
  0
LINE
  5
116
  8
DETAIL
  6
CONTINUOUS
 62
     5
 10
373.948849
 20
-115.468031
 30
0.0
 11
378.138107
 21
-115.468031
 31
0.0
  0
LINE
  5
117
  8
NOTE
  6
CONTINUOUS
 62
     4
 10
382.999684
 20
-58.0
 30
0.0
 11
405.000316
 21
-58.0
 31
0.0
  0
LINE
  5
118
  8
NOTE
  6
CONTINUOUS
 62
     4
 10
382.999684
 20
-128.0
 30
0.0
 11
405.000316
 21
-128.0
 31
0.0
  0
LINE
  5
119
  8
NOTE
  6
CONTINUOUS
 62
     4
 10
394.0
 20
-69.000316
 30
0.0
 11
394.0
 21
-46.999684
 31
0.0
  0
LINE
  5
11A
  8
NOTE
  6
CONTINUOUS
 62
     4
 10
394.0
 20
-139.000316
 30
0.0
 11
394.0
 21
-116.999684
 31
0.0
  0
LINE
  5
11B
  8
DETAIL
  6
CONTINUOUS
 62
     5
 10
324.0
 20
-29.305882
 30
0.0
 11
371.821995
 21
-29.305882
 31
0.0
  0
LINE
  5
11C
  8
DETAIL
  6
CONTINUOUS
 62
     5
 10
324.0
 20
-27.0
 30
0.0
 11
371.821995
 21
-27.0
 31
0.0
  0
ARC
  5
11D
  8
DETAIL
  6
CONTINUOUS
 62
     5
 10
371.821995
 20
-29.305882
 30
0.0
 40
2.305882
 50
0.0
 51
90.0
  0
LINE
  5
11E
  8
DETAIL
  6
CONTINUOUS
 62
     5
 10
374.127877
 20
-39.030691
 30
0.0
 11
371.821995
 21
-39.030691
 31
0.0
  0
LINE
  5
11F
  8
DETAIL
  6
CONTINUOUS
 62
     5
 10
374.127877
 20
-39.030691
 30
0.0
 11
374.127877
 21
-29.305882
 31
0.0
  0
LINE
  5
120
  8
DETAIL
  6
CONTINUOUS
 62
     5
 10
371.821995
 20
-29.305882
 30
0.0
 11
371.821995
 21
-39.030691
 31
0.0
  0
LINE
  5
121
  8
DETAIL
  6
CONTINUOUS
 62
     5
 10
375.832225
 20
-27.0
 30
0.0
 11
336.030691
 21
-27.0
 31
0.0
  0
LINE
  5
122
  8
DETAIL
  6
CONTINUOUS
 62
     5
 10
375.832225
 20
-27.0
 30
0.0
 11
375.832225
 21
-47.295652
 31
0.0
  0
LINE
  5
123
  8
NOTE
  6
CONTINUOUS
 62
     4
 10
330.999539
 20
-27.0
 30
0.0
 11
370.999539
 21
-27.0
 31
0.0
  0
LINE
  5
124
  8
DETAIL
  6
CONTINUOUS
 62
     5
 10
373.948849
 20
-68.551918
 30
0.0
 11
373.948849
 21
-47.448082
 31
0.0
  0
LINE
  5
125
  8
DETAIL
  6
CONTINUOUS
 62
     5
 10
373.948849
 20
-68.551918
 30
0.0
 11
372.946292
 21
-67.549361
 31
0.0
  0
LINE
  5
126
  8
DETAIL
  6
CONTINUOUS
 62
     5
 10
373.948849
 20
-47.448082
 30
0.0
 11
372.946292
 21
-48.450639
 31
0.0
  0
LINE
  5
127
  8
DETAIL
  6
CONTINUOUS
 62
     5
 10
372.946292
 20
-48.450639
 30
0.0
 11
372.946292
 21
-67.549361
 31
0.0
  0
LINE
  5
128
  8
DETAIL
  6
CONTINUOUS
 62
     5
 10
372.946292
 20
-67.549361
 30
0.0
 11
343.872123
 21
-67.549361
 31
0.0
  0
LINE
  5
129
  8
DETAIL
  6
CONTINUOUS
 62
     5
 10
372.946292
 20
-48.450639
 30
0.0
 11
343.872123
 21
-48.450639
 31
0.0
  0
LINE
  5
12A
  8
DETAIL
  6
CONTINUOUS
 62
     5
 10
343.872123
 20
-33.637852
 30
0.0
 11
323.820972
 21
-33.637852
 31
0.0
  0
LINE
  5
12B
  8
DETAIL
  6
CONTINUOUS
 62
     5
 10
343.872123
 20
-82.362148
 30
0.0
 11
343.872123
 21
-33.637852
 31
0.0
  0
LINE
  5
12C
  8
DETAIL
  6
CONTINUOUS
 62
     5
 10
343.872123
 20
-82.362148
 30
0.0
 11
323.820972
 21
-82.362148
 31
0.0
  0
LINE
  5
12D
  8
DETAIL
  6
CONTINUOUS
 62
     5
 10
343.872123
 20
-103.637852
 30
0.0
 11
323.820972
 21
-103.637852
 31
0.0
  0
LINE
  5
12E
  8
DETAIL
  6
CONTINUOUS
 62
     5
 10
343.872123
 20
-152.362148
 30
0.0
 11
323.820972
 21
-152.362148
 31
0.0
  0
LINE
  5
12F
  8
DETAIL
  6
CONTINUOUS
 62
     5
 10
372.144246
 20
-113.663427
 30
0.0
 11
372.144246
 21
-142.336573
 31
0.0
  0
LINE
  5
130
  8
DETAIL
  6
CONTINUOUS
 62
     5
 10
373.948849
 20
-140.531969
 30
0.0
 11
372.144246
 21
-142.336573
 31
0.0
  0
LINE
  5
131
  8
DETAIL
  6
CONTINUOUS
 62
     5
 10
373.948849
 20
-115.468031
 30
0.0
 11
372.144246
 21
-113.663427
 31
0.0
  0
LINE
  5
132
  8
DETAIL
  6
CONTINUOUS
 62
     5
 10
373.948849
 20
-140.531969
 30
0.0
 11
373.948849
 21
-115.468031
 31
0.0
  0
LINE
  5
133
  8
DETAIL
  6
CONTINUOUS
 62
     5
 10
343.872123
 20
-152.362148
 30
0.0
 11
343.872123
 21
-103.637852
 31
0.0
  0
LINE
  5
134
  8
DETAIL
  6
CONTINUOUS
 62
     5
 10
343.872123
 20
-142.336573
 30
0.0
 11
372.144246
 21
-142.336573
 31
0.0
  0
LINE
  5
135
  8
DETAIL
  6
CONTINUOUS
 62
     5
 10
343.872123
 20
-113.663427
 30
0.0
 11
372.144246
 21
-113.663427
 31
0.0
  0
LINE
  5
136
  8
OUTLINE
  6
CONTINUOUS
 62
     3
 10
520.0
 20
1.0
 30
0.0
 11
378.138107
 21
1.0
 31
0.0
  0
LINE
  5
137
  8
DETAIL
  6
CONTINUOUS
 62
     5
 10
520.0
 20
1.0
 30
0.0
 11
378.138107
 21
1.0
 31
0.0
  0
LINE
  5
138
  8
DETAIL
  6
CONTINUOUS
 62
     5
 10
375.832225
 20
-24.694118
 30
0.0
 11
336.030691
 21
-24.694118
 31
0.0
  0
LINE
  5
139
  8
BASIS
  6
DASHDOT
 62
     6
 10
0.0
 20
75.0
 30
0.0
 11
0.0
 21
-344.0
 31
0.0
  0
CIRCLE
  5
13A
  8
ARRANGE
  6
CONTINUOUS
 62
     1
 10
0.0
 20
0.0
 30
0.0
 40
40.0
  0
POINT
  5
13B
  8
ARRANGE
  6
CONTINUOUS
 62
     1
 10
0.0
 20
0.0
 30
0.0
  0
LINE
  5
13C
  8
SIZE
  6
CONTINUOUS
 62
    30
 10
-339.0
 20
0.0
 30
0.0
 11
-646.929789
 21
0.0
 31
0.0
  0
LINE
  5
13D
  8
SIZE
  6
CONTINUOUS
 62
    30
 10
-339.0
 20
-284.0
 30
0.0
 11
-646.929789
 21
-284.0
 31
0.0
  0
LINE
  5
13E
  8
SIZE
  6
CONTINUOUS
 62
    30
 10
-631.929789
 20
0.0
 30
0.0
 11
-631.929789
 21
-284.0
 31
0.0
  0
CIRCLE
  5
13F
  8
SIZE
  6
CONTINUOUS
 62
    30
 10
-631.929789
 20
0.0
 30
0.0
 40
7.5
  0
CIRCLE
  5
140
  8
SIZE
  6
CONTINUOUS
 62
    30
 10
-631.929789
 20
-284.0
 30
0.0
 40
7.5
  0
TEXT
  5
141
  8
SIZE
  6
CONTINUOUS
 62
    30
 10
-646.929789
 20
-200.928571
 30
0.0
 40
50.0
  1
284
 50
90.0
 41
0.9
 72
     1
 11
-646.929789
 21
-142.0
 31
0.0
  0
POINT
  5
142
  8
DEFPOINTS
  6
CONTINUOUS
 62
     7
 10
-324.0
 20
0.0
 30
0.0
  0
POINT
  5
143
  8
DEFPOINTS
  6
CONTINUOUS
 62
     7
 10
-324.0
 20
-284.0
 30
0.0
  0
POINT
  5
144
  8
DEFPOINTS
  6
CONTINUOUS
 62
     7
 10
-631.929789
 20
-284.0
 30
0.0
  0
LINE
  5
145
  8
DETAIL
  6
CONTINUOUS
 62
     5
 10
-324.0
 20
0.0
 30
0.0
 11
-324.0
 21
-284.0
 31
0.0
  0
LINE
  5
146
  8
OUTLINE
  6
CONTINUOUS
 62
     3
 10
-324.0
 20
0.0
 30
0.0
 11
-324.0
 21
-284.0
 31
0.0
  0
LINE
  5
147
  8
NOTE
  6
CONTINUOUS
 62
     4
 10
-350.999539
 20
-47.0
 30
0.0
 11
-350.999539
 21
-7.0
 31
0.0
  0
CIRCLE
  5
148
  8
FIX
  6
CONTINUOUS
 62
    11
 10
-350.999539
 20
-27.0
 30
0.0
 40
20.0
  0
LINE
  5
149
  8
DETAIL
  6
CONTINUOUS
 62
     5
 10
-324.0
 20
-27.0
 30
0.0
 11
-371.821995
 21
-27.0
 31
0.0
  0
LINE
  5
14A
  8
NOTE
  6
CONTINUOUS
 62
     4
 10
-330.999539
 20
-27.0
 30
0.0
 11
-370.999539
 21
-27.0
 31
0.0
  0
LINE
  5
14B
  8
DETAIL
  6
CONTINUOUS
 62
     5
 10
-324.0
 20
-29.305882
 30
0.0
 11
-371.821995
 21
-29.305882
 31
0.0
  0
LINE
  5
14C
  8
DETAIL
  6
CONTINUOUS
 62
     5
 10
-374.127877
 20
-39.030691
 30
0.0
 11
-371.821995
 21
-39.030691
 31
0.0
  0
ARC
  5
14D
  8
DETAIL
  6
CONTINUOUS
 62
     5
 10
-371.821995
 20
-29.305882
 30
0.0
 40
2.305882
 50
90.0
 51
180.0
  0
LINE
  5
14E
  8
DETAIL
  6
CONTINUOUS
 62
     5
 10
-374.127877
 20
-39.030691
 30
0.0
 11
-374.127877
 21
-29.305882
 31
0.0
  0
LINE
  5
14F
  8
DETAIL
  6
CONTINUOUS
 62
     5
 10
-371.821995
 20
-29.305882
 30
0.0
 11
-371.821995
 21
-39.030691
 31
0.0
  0
TEXT
  5
150
  8
NOTE
  6
CONTINUOUS
 62
     4
 10
767.631445
 20
326.192236
 30
0.0
 40
50.0
  1
400形：φ25.4〈ロウ付〉（付属配管を使用）
 41
0.8
  0
TEXT
  5
151
  8
NOTE
  6
CONTINUOUS
 62
     4
 10
770.657634
 20
469.176378
 30
0.0
 40
50.0
  1
224形：φ19.05〈ロウ付〉（付属配管を使用）
 41
0.8
  0
TEXT
  5
152
  8
NOTE
  6
CONTINUOUS
 62
     4
 10
761.189058
 20
191.557464
 30
0.0
 40
55.0
  1
D　VP-20
 41
0.8
 72
     2
 11
1069.608106
 21
191.557464
 31
0.0
  0
TEXT
  5
153
  8
NOTE
  6
CONTINUOUS
 62
     4
 10
766.913111
 20
398.147254
 30
0.0
 40
50.0
  1
280.335形：φ22.2〈ロウ付〉
 41
0.8
  0
TEXT
  5
154
  8
NOTE
  6
CONTINUOUS
 62
     4
 10
733.675886
 20
564.384166
 30
0.0
 40
50.0
  1
室外ユニット側配管接続口（低圧）
 41
0.8
 72
     2
 11
1469.675886
 21
564.384166
 31
0.0
  0
TEXT
  5
155
  8
ETC
  6
CONTINUOUS
 62
    61
 10
-878.248451
 20
628.607573
 30
0.0
 40
64.0
  1
CMB-P105G(ﾄﾞﾚﾝｱｯﾌﾟﾒｶ組込)_3
 41
0.9
  0
TEXT
  5
156
  8
SIZE
  6
CONTINUOUS
 62
    30
 10
-58.985087
 20
255.846509
 30
0.0
 40
50.0
  1
（吊りﾎﾞﾙﾄﾋﾟｯﾁ）
 41
0.75
  0
TEXT
  5
157
  8
NOTE
  6
CONTINUOUS
 62
     4
 10
-919.171818
 20
273.430736
 30
0.0
 40
50.0
  1
AH4-12×30長穴
 41
0.8
  0
LINE
  5
158
  8
DETAIL
  6
CONTINUOUS
 62
     5
 10
183.05738
 20
-265.952167
 30
0.0
 11
183.05738
 21
-8.466861
 31
0.0
  0
LINE
  5
159
  8
DETAIL
  6
CONTINUOUS
 62
     5
 10
-276.937881
 20
-265.952167
 30
0.0
 11
-276.937881
 21
-8.466861
 31
0.0
  0
LINE
  5
15A
  8
DETAIL
  6
CONTINUOUS
 62
     5
 10
-276.937881
 20
-265.952167
 30
0.0
 11
183.05738
 21
-265.952167
 31
0.0
  0
LINE
  5
15B
  8
DETAIL
  6
CONTINUOUS
 62
     5
 10
-276.937881
 20
-8.466861
 30
0.0
 11
183.05738
 21
-8.466861
 31
0.0
  0
LINE
  5
15C
  8
NOTE
  6
CONTINUOUS
 62
     4
 10
401.33651
 20
-27.820657
 30
0.0
 11
394.0
 21
-58.0
 31
0.0
210
0.0
220
0.0
230
-1.0
  0
LINE
  5
15D
  8
NOTE
  6
CONTINUOUS
 62
     4
 10
394.0
 20
-58.0
 30
0.0
 11
415.443275
 21
-35.532177
 31
0.0
210
0.0
220
0.0
230
-1.0
  0
LINE
  5
15E
  8
NOTE
  6
CONTINUOUS
 62
     4
 10
394.0
 20
-58.0
 30
0.0
 11
408.389892
 21
-31.676417
 31
0.0
210
0.0
220
0.0
230
-1.0
  0
LINE
  5
15F
  8
NOTE
  6
CONTINUOUS
 62
     4
 10
408.389892
 20
-31.676417
 30
0.0
 11
728.024485
 21
553.034528
 31
0.0
210
0.0
220
0.0
230
-1.0
  0
LINE
  5
160
  8
NOTE
  6
CONTINUOUS
 62
     4
 10
728.024485
 20
553.034528
 30
0.0
 11
1861.448456
 21
553.034528
 31
0.0
210
0.0
220
0.0
230
-1.0
  0
LINE
  5
161
  8
NOTE
  6
CONTINUOUS
 62
     4
 10
536.042022
 20
-5.40544
 30
0.0
 11
520.0
 21
-32.0
 31
0.0
210
0.0
220
0.0
230
-1.0
  0
LINE
  5
162
  8
NOTE
  6
CONTINUOUS
 62
     4
 10
520.0
 20
-32.0
 30
0.0
 11
547.190079
 21
-16.989446
 31
0.0
210
0.0
220
0.0
230
-1.0
  0
LINE
  5
163
  8
NOTE
  6
CONTINUOUS
 62
     4
 10
520.0
 20
-32.0
 30
0.0
 11
541.61605
 21
-11.197443
 31
0.0
210
0.0
220
0.0
230
-1.0
  0
LINE
  5
164
  8
NOTE
  6
CONTINUOUS
 62
     4
 10
541.61605
 20
-11.197443
 30
0.0
 11
737.422982
 21
177.240536
 31
0.0
210
0.0
220
0.0
230
-1.0
  0
LINE
  5
165
  8
NOTE
  6
CONTINUOUS
 62
     4
 10
737.422982
 20
177.240536
 30
0.0
 11
1083.047108
 21
177.240536
 31
0.0
210
0.0
220
0.0
230
-1.0
  0
LINE
  5
166
  8
NOTE
  6
CONTINUOUS
 62
     4
 10
-369.515345
 20
-2.064443
 30
0.0
 11
-350.999539
 21
-27.0
 31
0.0
210
0.0
220
0.0
230
-1.0
  0
LINE
  5
167
  8
NOTE
  6
CONTINUOUS
 62
     4
 10
-350.999539
 20
-27.0
 30
0.0
 11
-354.566919
 21
3.852729
 31
0.0
210
0.0
220
0.0
230
-1.0
  0
LINE
  5
168
  8
NOTE
  6
CONTINUOUS
 62
     4
 10
-350.999539
 20
-27.0
 30
0.0
 11
-362.041132
 21
0.894143
 31
0.0
210
0.0
220
0.0
230
-1.0
  0
LINE
  5
169
  8
NOTE
  6
CONTINUOUS
 62
     4
 10
-362.041132
 20
0.894143
 30
0.0
 11
-465.092341
 21
261.230235
 31
0.0
210
0.0
220
0.0
230
-1.0
  0
LINE
  5
16A
  8
NOTE
  6
CONTINUOUS
 62
     4
 10
-465.092341
 20
261.230235
 30
0.0
 11
-941.589573
 21
261.230235
 31
0.0
210
0.0
220
0.0
230
-1.0
  0
LINE
  5
16B
  8
NOTE
  6
CONTINUOUS
 62
     4
 10
415.659843
 20
-150.259117
 30
0.0
 11
394.0
 21
-128.0
 31
0.0
210
0.0
220
0.0
230
-1.0
  0
LINE
  5
16C
  8
NOTE
  6
CONTINUOUS
 62
     4
 10
394.0
 20
-128.0
 30
0.0
 11
401.628415
 21
-158.106882
 31
0.0
210
0.0
220
0.0
230
-1.0
  0
LINE
  5
16D
  8
NOTE
  6
CONTINUOUS
 62
     4
 10
394.0
 20
-128.0
 30
0.0
 11
408.644129
 21
-154.183
 31
0.0
210
0.0
220
0.0
230
-1.0
  0
LINE
  5
16E
  8
NOTE
  6
CONTINUOUS
 62
     4
 10
408.644129
 20
-154.183
 30
0.0
 11
655.916446
 21
-596.294038
 31
0.0
210
0.0
220
0.0
230
-1.0
  0
LINE
  5
16F
  8
NOTE
  6
CONTINUOUS
 62
     4
 10
655.916446
 20
-596.294038
 30
0.0
 11
1728.169666
 21
-596.294038
 31
0.0
210
0.0
220
0.0
230
-1.0
  0
ENDSEC
  0
EOF
