  0
SECTION
  2
HEADER
  9
$ACADVER
  1
AC1009
  9
$INSBASE
 10
0.0
 20
0.0
 30
0.0
  9
$EXTMIN
 10
-1065.980365
 20
-488.51125
 30
-0.001526
  9
$EXTMAX
 10
2277.355939
 20
1204.127307
 30
0.0
  9
$LIMMIN
 10
-3837.000175
 20
-3000.109539
  9
$LIMMAX
 10
7319.256881
 20
4045.223003
  9
$ORTHOMODE
 70
     1
  9
$REGENMODE
 70
     1
  9
$FILLMODE
 70
     1
  9
$QTEXTMODE
 70
     0
  9
$MIRRTEXT
 70
     0
  9
$DRAGMODE
 70
     2
  9
$LTSCALE
 40
20.0
  9
$OSMODE
 70
    37
  9
$ATTMODE
 70
     1
  9
$TEXTSIZE
 40
64.0
  9
$TRACEWID
 40
0.05
  9
$TEXTSTYLE
  7
STANDARD
  9
$CLAYER
  8
SIZE
  9
$CELTYPE
  6
CONTINUOUS
  9
$CECOLOR
 62
     7
  9
$DIMSCALE
 40
1.0
  9
$DIMASZ
 40
10.0
  9
$DIMEXO
 40
20.0
  9
$DIMDLI
 40
200.0
  9
$DIMRND
 40
0.0
  9
$DIMDLE
 40
0.0
  9
$DIMEXE
 40
30.0
  9
$DIMTP
 40
0.0
  9
$DIMTM
 40
0.0
  9
$DIMTXT
 40
64.0
  9
$DIMCEN
 40
0.0
  9
$DIMTSZ
 40
0.0
  9
$DIMTOL
 70
     0
  9
$DIMLIM
 70
     0
  9
$DIMTIH
 70
     0
  9
$DIMTOH
 70
     0
  9
$DIMSE1
 70
     0
  9
$DIMSE2
 70
     0
  9
$DIMTAD
 70
     1
  9
$DIMZIN
 70
     8
  9
$DIMBLK
  1

  9
$DIMASO
 70
     1
  9
$DIMSHO
 70
     0
  9
$DIMPOST
  1

  9
$DIMAPOST
  1

  9
$DIMALT
 70
     0
  9
$DIMALTD
 70
     2
  9
$DIMALTF
 40
25.4
  9
$DIMLFAC
 40
1.0
  9
$DIMTOFL
 70
     1
  9
$DIMTVP
 40
0.0
  9
$DIMTIX
 70
     1
  9
$DIMSOXD
 70
     0
  9
$DIMSAH
 70
     1
  9
$DIMBLK1
  1
_DOTBLANK
  9
$DIMBLK2
  1
_DOTBLANK
  9
$DIMSTYLE
  2
STANDARD
  9
$DIMCLRD
 70
     0
  9
$DIMCLRE
 70
     0
  9
$DIMCLRT
 70
     0
  9
$DIMTFAC
 40
1.0
  9
$DIMGAP
 40
0.09
  9
$LUNITS
 70
     2
  9
$LUPREC
 70
     4
  9
$SKETCHINC
 40
0.1
  9
$FILLETRAD
 40
10.0
  9
$AUNITS
 70
     1
  9
$AUPREC
 70
     3
  9
$MENU
  1
ACAD
  9
$ELEVATION
 40
0.0
  9
$PELEVATION
 40
0.0
  9
$THICKNESS
 40
0.0
  9
$LIMCHECK
 70
     0
  9
$BLIPMODE
 70
     0
  9
$CHAMFERA
 40
0.0
  9
$CHAMFERB
 40
0.0
  9
$SKPOLY
 70
     0
  9
$TDCREATE
 40
2450330.439931
  9
$TDUPDATE
 40
2453075.37212
  9
$TDINDWG
 40
1.34858
  9
$TDUSRTIMER
 40
1.34858
  9
$USRTIMER
 70
     1
  9
$ANGBASE
 50
0.0
  9
$ANGDIR
 70
     0
  9
$PDMODE
 70
     3
  9
$PDSIZE
 40
-2.0
  9
$PLINEWID
 40
0.0
  9
$COORDS
 70
     2
  9
$SPLFRAME
 70
     0
  9
$SPLINETYPE
 70
     6
  9
$SPLINESEGS
 70
     8
  9
$ATTDIA
 70
     0
  9
$ATTREQ
 70
     1
  9
$HANDLING
 70
     1
  9
$HANDSEED
  5
19D
  9
$SURFTAB1
 70
     6
  9
$SURFTAB2
 70
     6
  9
$SURFTYPE
 70
     6
  9
$SURFU
 70
     6
  9
$SURFV
 70
     6
  9
$UCSNAME
  2

  9
$UCSORG
 10
0.0
 20
0.0
 30
0.0
  9
$UCSXDIR
 10
1.0
 20
0.0
 30
0.0
  9
$UCSYDIR
 10
0.0
 20
1.0
 30
0.0
  9
$PUCSNAME
  2

  9
$PUCSORG
 10
0.0
 20
0.0
 30
0.0
  9
$PUCSXDIR
 10
1.0
 20
0.0
 30
0.0
  9
$PUCSYDIR
 10
0.0
 20
1.0
 30
0.0
  9
$USERI1
 70
     0
  9
$USERI2
 70
     0
  9
$USERI3
 70
     0
  9
$USERI4
 70
     0
  9
$USERI5
 70
     0
  9
$USERR1
 40
20.0
  9
$USERR2
 40
0.0
  9
$USERR3
 40
0.0
  9
$USERR4
 40
0.0
  9
$USERR5
 40
0.0
  9
$WORLDVIEW
 70
     1
  9
$SHADEDGE
 70
     3
  9
$SHADEDIF
 70
    70
  9
$TILEMODE
 70
     1
  9
$MAXACTVP
 70
    48
  9
$PLIMCHECK
 70
     0
  9
$PEXTMIN
 10
1.000000E+020
 20
1.000000E+020
 30
1.000000E+020
  9
$PEXTMAX
 10
-1.000000E+020
 20
-1.000000E+020
 30
-1.000000E+020
  9
$PLIMMIN
 10
0.0
 20
0.0
  9
$PLIMMAX
 10
12.0
 20
9.0
  9
$UNITMODE
 70
     0
  9
$VISRETAIN
 70
     1
  9
$PLINEGEN
 70
     0
  9
$PSLTSCALE
 70
     1
  0
ENDSEC
  0
SECTION
  2
TABLES
  0
TABLE
  2
VPORT
 70
     7
  0
VPORT
  2
*ACTIVE
 70
     0
 10
0.0
 20
0.0
 11
1.0
 21
1.0
 12
1889.560171
 22
522.556732
 13
0.0
 23
0.0
 14
50.0
 24
50.0
 15
100.0
 25
100.0
 16
0.0
 26
0.0
 36
1.0
 17
0.0
 27
0.0
 37
0.0
 40
7045.332542
 41
1.625632
 42
50.0
 43
0.0
 44
0.0
 50
0.0
 51
0.0
 71
     0
 72
  1000
 73
     1
 74
     0
 75
     0
 76
     0
 77
     0
 78
     0
  0
ENDTAB
  0
TABLE
  2
LTYPE
 70
     2
  0
LTYPE
  2
CONTINUOUS
 70
     0
  3
実線
 72
    65
 73
     0
 40
0.0
  0
LTYPE
  2
DASHDOT
 70
     0
  3
____ _ ____ _ ____ _ ____ _ ____ _ ____ _ ____
 72
    65
 73
     4
 40
5.5
 49
4.0
 49
-0.6
 49
0.3
 49
-0.6
  0
ENDTAB
  0
TABLE
  2
LAYER
 70
    12
  0
LAYER
  2
0
 70
     0
 62
     7
  6
CONTINUOUS
  0
LAYER
  2
SIZE
 70
     0
 62
    30
  6
CONTINUOUS
  0
LAYER
  2
OUTLINE
 70
     0
 62
     3
  6
CONTINUOUS
  0
LAYER
  2
DETAIL
 70
     0
 62
     5
  6
CONTINUOUS
  0
LAYER
  2
BASIS
 70
     0
 62
     6
  6
DASHDOT
  0
LAYER
  2
NOTE
 70
     0
 62
     4
  6
CONTINUOUS
  0
LAYER
  2
ARRANGE
 70
     0
 62
     1
  6
CONTINUOUS
  0
LAYER
  2
FIX
 70
     0
 62
    11
  6
CONTINUOUS
  0
LAYER
  2
SERVICESPACE
 70
     0
 62
     2
  6
DASHDOT
  0
LAYER
  2
ETC
 70
     0
 62
    61
  6
CONTINUOUS
  0
LAYER
  2
SYMBOLLINE
 70
     0
 62
    15
  6
CONTINUOUS
  0
LAYER
  2
DEFPOINTS
 70
     0
 62
     7
  6
CONTINUOUS
  0
ENDTAB
  0
TABLE
  2
STYLE
 70
     1
  0
STYLE
  2
STANDARD
 70
     0
 40
0.0
 41
0.9
 50
0.0
 71
     0
 42
64.0
  3
SIMPLEX
  4
BIGFONT
  0
ENDTAB
  0
TABLE
  2
VIEW
 70
     1
  0
VIEW
  2
ALL
 70
     0
 40
9000.0
 10
241.506647
 20
0.0
 41
12483.01
 11
0.0
 21
0.0
 31
1.0
 12
0.0
 22
0.0
 32
0.0
 42
50.0
 43
0.0
 44
0.0
 50
0.0
 71
     0
  0
ENDTAB
  0
TABLE
  2
UCS
 70
     0
  0
ENDTAB
  0
TABLE
  2
APPID
 70
     1
  0
APPID
  2
ACAD
 70
     0
  0
ENDTAB
  0
TABLE
  2
DIMSTYLE
 70
     1
  0
DIMSTYLE
  2
STANDARD
 70
     0
  3

  4

  5

  6

  7

 40
1.0
 41
0.18
 42
0.0625
 43
0.38
 44
0.18
 45
0.0
 46
0.0
 47
0.0
 48
0.0
140
0.18
141
0.09
142
0.0
143
25.4
144
1.0
145
0.0
146
1.0
147
0.09
 71
     0
 72
     0
 73
     1
 74
     1
 75
     0
 76
     0
 77
     0
 78
     0
170
     0
171
     2
172
     0
173
     0
174
     0
175
     0
176
     0
177
     0
178
     0
  0
ENDTAB
  0
ENDSEC
  0
SECTION
  2
BLOCKS
  0
BLOCK
  8
0
  2
$MODEL_SPACE
 70
     0
 10
0.0
 20
0.0
 30
0.0
  3
$MODEL_SPACE
  1

  0
ENDBLK
  5
17C
  8
0
  0
BLOCK
 67
     1
  8
0
  2
$PAPER_SPACE
 70
     0
 10
0.0
 20
0.0
 30
0.0
  3
$PAPER_SPACE
  1

  0
ENDBLK
  5
179
 67
     1
  8
0
  0
BLOCK
  8
0
  2
_DOTBLANK
 70
     0
 10
0.0
 20
0.0
 30
0.0
  3
_DOTBLANK
  1

  0
CIRCLE
  5
30
  8
0
  6
CONTINUOUS
 62
     7
 10
0.0
 20
0.0
 30
0.0
 40
0.5
  0
LINE
  5
31
  8
0
  6
CONTINUOUS
 62
     7
 10
-0.5
 20
0.0
 30
0.0
 11
-1.0
 21
0.0
 31
0.0
  0
ENDBLK
  5
32
  8
0
  0
ENDSEC
  0
SECTION
  2
ENTITIES
  0
LINE
  5
33
  8
DETAIL
  6
CONTINUOUS
 62
     5
 10
-324.0
 20
0.0
 30
0.0
 11
324.0
 21
0.0
 31
0.0
  0
LINE
  5
34
  8
DETAIL
  6
CONTINUOUS
 62
     5
 10
524.0
 20
-272.0
 30
0.0
 11
479.0
 21
-272.0
 31
0.0
  0
LINE
  5
35
  8
DETAIL
  6
CONTINUOUS
 62
     5
 10
524.0
 20
-238.0
 30
0.0
 11
479.0
 21
-238.0
 31
0.0
  0
LINE
  5
38
  8
DETAIL
  6
CONTINUOUS
 62
     5
 10
524.0
 20
-272.0
 30
0.0
 11
524.0
 21
-238.0
 31
0.0
  0
LINE
  5
3A
  8
DETAIL
  6
CONTINUOUS
 62
     5
 10
324.0
 20
0.0
 30
0.0
 11
324.0
 21
-284.0
 31
0.0
  0
LINE
  5
3B
  8
DETAIL
  6
CONTINUOUS
 62
     5
 10
359.0
 20
-238.0
 30
0.0
 11
324.0
 21
-238.0
 31
0.0
  0
LINE
  5
3C
  8
DETAIL
  6
CONTINUOUS
 62
     5
 10
359.0
 20
-272.0
 30
0.0
 11
324.0
 21
-272.0
 31
0.0
  0
LINE
  5
3D
  8
DETAIL
  6
CONTINUOUS
 62
     5
 10
364.0
 20
-277.0
 30
0.0
 11
364.0
 21
-233.0
 31
0.0
  0
LINE
  5
3E
  8
DETAIL
  6
CONTINUOUS
 62
     5
 10
364.0
 20
-270.0
 30
0.0
 11
364.0
 21
-240.0
 31
0.0
  0
LINE
  5
3F
  8
DETAIL
  6
CONTINUOUS
 62
     5
 10
479.0
 20
-277.0
 30
0.0
 11
479.0
 21
-233.0
 31
0.0
  0
LINE
  5
40
  8
DETAIL
  6
CONTINUOUS
 62
     5
 10
474.0
 20
-277.0
 30
0.0
 11
474.0
 21
-233.0
 31
0.0
  0
LINE
  5
41
  8
DETAIL
  6
CONTINUOUS
 62
     5
 10
373.946796
 20
-272.72747
 30
0.0
 11
378.946796
 21
-238.72747
 31
0.0
  0
LINE
  5
42
  8
DETAIL
  6
CONTINUOUS
 62
     5
 10
364.053204
 20
-271.27253
 30
0.0
 11
369.053204
 21
-237.27253
 31
0.0
  0
LINE
  5
43
  8
DETAIL
  6
CONTINUOUS
 62
     5
 10
363.946796
 20
-272.72747
 30
0.0
 11
368.946796
 21
-238.72747
 31
0.0
  0
LINE
  5
44
  8
DETAIL
  6
CONTINUOUS
 62
     5
 10
383.946796
 20
-272.72747
 30
0.0
 11
388.946796
 21
-238.72747
 31
0.0
  0
LINE
  5
45
  8
DETAIL
  6
CONTINUOUS
 62
     5
 10
374.053204
 20
-271.27253
 30
0.0
 11
379.053204
 21
-237.27253
 31
0.0
  0
LINE
  5
46
  8
DETAIL
  6
CONTINUOUS
 62
     5
 10
393.946796
 20
-272.72747
 30
0.0
 11
398.946796
 21
-238.72747
 31
0.0
  0
LINE
  5
47
  8
DETAIL
  6
CONTINUOUS
 62
     5
 10
384.053204
 20
-271.27253
 30
0.0
 11
389.053204
 21
-237.27253
 31
0.0
  0
LINE
  5
48
  8
DETAIL
  6
CONTINUOUS
 62
     5
 10
403.946796
 20
-272.72747
 30
0.0
 11
408.946796
 21
-238.72747
 31
0.0
  0
LINE
  5
49
  8
DETAIL
  6
CONTINUOUS
 62
     5
 10
394.053204
 20
-271.27253
 30
0.0
 11
399.053204
 21
-237.27253
 31
0.0
  0
LINE
  5
4A
  8
DETAIL
  6
CONTINUOUS
 62
     5
 10
413.946796
 20
-272.72747
 30
0.0
 11
418.946796
 21
-238.72747
 31
0.0
  0
LINE
  5
4B
  8
DETAIL
  6
CONTINUOUS
 62
     5
 10
404.053204
 20
-271.27253
 30
0.0
 11
409.053204
 21
-237.27253
 31
0.0
  0
LINE
  5
4C
  8
DETAIL
  6
CONTINUOUS
 62
     5
 10
423.946796
 20
-272.72747
 30
0.0
 11
428.946796
 21
-238.72747
 31
0.0
  0
LINE
  5
4D
  8
DETAIL
  6
CONTINUOUS
 62
     5
 10
414.053204
 20
-271.27253
 30
0.0
 11
419.053204
 21
-237.27253
 31
0.0
  0
LINE
  5
4E
  8
DETAIL
  6
CONTINUOUS
 62
     5
 10
433.946796
 20
-272.72747
 30
0.0
 11
438.946796
 21
-238.72747
 31
0.0
  0
LINE
  5
4F
  8
DETAIL
  6
CONTINUOUS
 62
     5
 10
424.053204
 20
-271.27253
 30
0.0
 11
429.053204
 21
-237.27253
 31
0.0
  0
LINE
  5
50
  8
DETAIL
  6
CONTINUOUS
 62
     5
 10
443.946796
 20
-272.72747
 30
0.0
 11
448.946796
 21
-238.72747
 31
0.0
  0
LINE
  5
51
  8
DETAIL
  6
CONTINUOUS
 62
     5
 10
434.053204
 20
-271.27253
 30
0.0
 11
439.053204
 21
-237.27253
 31
0.0
  0
LINE
  5
52
  8
DETAIL
  6
CONTINUOUS
 62
     5
 10
453.946796
 20
-272.72747
 30
0.0
 11
458.946796
 21
-238.72747
 31
0.0
  0
LINE
  5
53
  8
DETAIL
  6
CONTINUOUS
 62
     5
 10
444.053204
 20
-271.27253
 30
0.0
 11
449.053204
 21
-237.27253
 31
0.0
  0
LINE
  5
54
  8
DETAIL
  6
CONTINUOUS
 62
     5
 10
463.946796
 20
-272.72747
 30
0.0
 11
468.946796
 21
-238.72747
 31
0.0
  0
LINE
  5
55
  8
DETAIL
  6
CONTINUOUS
 62
     5
 10
454.053204
 20
-271.27253
 30
0.0
 11
459.053204
 21
-237.27253
 31
0.0
  0
LINE
  5
56
  8
DETAIL
  6
CONTINUOUS
 62
     5
 10
464.053204
 20
-271.27253
 30
0.0
 11
469.053204
 21
-237.27253
 31
0.0
  0
LINE
  5
57
  8
DETAIL
  6
CONTINUOUS
 62
     5
 10
359.0
 20
-277.0
 30
0.0
 11
359.0
 21
-233.0
 31
0.0
  0
ARC
  5
58
  8
DETAIL
  6
CONTINUOUS
 62
     5
 10
419.0
 20
-272.0
 30
0.0
 40
5.0
 50
171.634114
 51
351.634114
  0
ARC
  5
59
  8
DETAIL
  6
CONTINUOUS
 62
     5
 10
449.0
 20
-272.0
 30
0.0
 40
5.0
 50
171.634114
 51
351.634114
  0
LINE
  5
5A
  8
DETAIL
  6
CONTINUOUS
 62
     5
 10
479.0
 20
-277.0
 30
0.0
 11
474.0
 21
-277.0
 31
0.0
  0
ARC
  5
5B
  8
DETAIL
  6
CONTINUOUS
 62
     5
 10
459.0
 20
-272.0
 30
0.0
 40
5.0
 50
171.634114
 51
351.634114
  0
ARC
  5
5C
  8
DETAIL
  6
CONTINUOUS
 62
     5
 10
469.0
 20
-272.0
 30
0.0
 40
5.0
 50
171.634114
 51
351.634114
  0
ARC
  5
5D
  8
DETAIL
  6
CONTINUOUS
 62
     5
 10
429.0
 20
-272.0
 30
0.0
 40
5.0
 50
171.634114
 51
351.634114
  0
ARC
  5
5E
  8
DETAIL
  6
CONTINUOUS
 62
     5
 10
439.0
 20
-272.0
 30
0.0
 40
5.0
 50
171.634114
 51
351.634114
  0
ARC
  5
5F
  8
DETAIL
  6
CONTINUOUS
 62
     5
 10
379.0
 20
-272.0
 30
0.0
 40
5.0
 50
171.634114
 51
351.634114
  0
ARC
  5
60
  8
DETAIL
  6
CONTINUOUS
 62
     5
 10
389.0
 20
-272.0
 30
0.0
 40
5.0
 50
171.634114
 51
351.634114
  0
ARC
  5
61
  8
DETAIL
  6
CONTINUOUS
 62
     5
 10
399.0
 20
-272.0
 30
0.0
 40
5.0
 50
171.634114
 51
351.634114
  0
ARC
  5
62
  8
DETAIL
  6
CONTINUOUS
 62
     5
 10
409.0
 20
-272.0
 30
0.0
 40
5.0
 50
171.634114
 51
351.634114
  0
LINE
  5
63
  8
DETAIL
  6
CONTINUOUS
 62
     5
 10
359.0
 20
-277.0
 30
0.0
 11
364.0
 21
-277.0
 31
0.0
  0
ARC
  5
64
  8
DETAIL
  6
CONTINUOUS
 62
     5
 10
369.0
 20
-272.0
 30
0.0
 40
5.0
 50
171.634114
 51
351.634114
  0
ARC
  5
65
  8
DETAIL
  6
CONTINUOUS
 62
     5
 10
414.0
 20
-238.0
 30
0.0
 40
5.0
 50
351.634114
 51
171.634114
  0
ARC
  5
66
  8
DETAIL
  6
CONTINUOUS
 62
     5
 10
444.0
 20
-238.0
 30
0.0
 40
5.0
 50
351.634114
 51
171.634114
  0
LINE
  5
67
  8
DETAIL
  6
CONTINUOUS
 62
     5
 10
479.0
 20
-233.0
 30
0.0
 11
474.0
 21
-233.0
 31
0.0
  0
ARC
  5
68
  8
DETAIL
  6
CONTINUOUS
 62
     5
 10
454.0
 20
-238.0
 30
0.0
 40
5.0
 50
351.634114
 51
171.634114
  0
ARC
  5
69
  8
DETAIL
  6
CONTINUOUS
 62
     5
 10
464.0
 20
-238.0
 30
0.0
 40
5.0
 50
351.634114
 51
171.634114
  0
ARC
  5
6A
  8
DETAIL
  6
CONTINUOUS
 62
     5
 10
474.0
 20
-238.0
 30
0.0
 40
5.0
 50
90.0
 51
171.634114
  0
ARC
  5
6B
  8
DETAIL
  6
CONTINUOUS
 62
     5
 10
424.0
 20
-238.0
 30
0.0
 40
5.0
 50
351.634114
 51
171.634114
  0
ARC
  5
6C
  8
DETAIL
  6
CONTINUOUS
 62
     5
 10
434.0
 20
-238.0
 30
0.0
 40
5.0
 50
351.634114
 51
171.634114
  0
ARC
  5
6D
  8
DETAIL
  6
CONTINUOUS
 62
     5
 10
384.0
 20
-238.0
 30
0.0
 40
5.0
 50
351.634114
 51
171.634114
  0
ARC
  5
6E
  8
DETAIL
  6
CONTINUOUS
 62
     5
 10
394.0
 20
-238.0
 30
0.0
 40
5.0
 50
351.634114
 51
171.634114
  0
ARC
  5
6F
  8
DETAIL
  6
CONTINUOUS
 62
     5
 10
404.0
 20
-238.0
 30
0.0
 40
5.0
 50
351.634114
 51
171.634114
  0
LINE
  5
70
  8
DETAIL
  6
CONTINUOUS
 62
     5
 10
359.0
 20
-233.0
 30
0.0
 11
364.0
 21
-233.0
 31
0.0
  0
ARC
  5
71
  8
DETAIL
  6
CONTINUOUS
 62
     5
 10
374.0
 20
-238.0
 30
0.0
 40
5.0
 50
351.634114
 51
171.634114
  0
ARC
  5
72
  8
DETAIL
  6
CONTINUOUS
 62
     5
 10
364.0
 20
-238.0
 30
0.0
 40
5.0
 50
351.634114
 51
90.0
  0
LINE
  5
73
  8
DETAIL
  6
CONTINUOUS
 62
     5
 10
374.001839
 20
-27.0
 30
0.0
 11
374.001839
 21
-36.6
 31
0.0
  0
LINE
  5
74
  8
DETAIL
  6
CONTINUOUS
 62
     5
 10
-324.0
 20
-26.9
 30
0.0
 11
-374.001839
 21
-26.9
 31
0.0
  0
LINE
  5
75
  8
DETAIL
  6
CONTINUOUS
 62
     5
 10
-324.0
 20
0.0
 30
0.0
 11
-324.0
 21
-284.0
 31
0.0
  0
LINE
  5
76
  8
DETAIL
  6
CONTINUOUS
 62
     5
 10
-374.001839
 20
-26.9
 30
0.0
 11
-374.001839
 21
-38.9
 31
0.0
  0
LINE
  5
77
  8
SIZE
  6
CONTINUOUS
 62
    30
 10
324.0
 20
19.4
 30
0.0
 11
324.0
 21
161.838086
 31
0.0
  0
LINE
  5
78
  8
SIZE
  6
CONTINUOUS
 62
    30
 10
394.0
 20
-37.8
 30
0.0
 11
394.0
 21
161.838086
 31
0.0
  0
LINE
  5
79
  8
SIZE
  6
CONTINUOUS
 62
    30
 10
334.0
 20
131.838086
 30
0.0
 11
384.0
 21
131.838086
 31
0.0
  0
LINE
  5
7A
  8
SIZE
  6
CONTINUOUS
 62
    30
 10
394.0
 20
131.838086
 30
0.0
 11
537.257143
 21
131.838086
 31
0.0
  0
CIRCLE
  5
7B
  8
SIZE
  6
CONTINUOUS
 62
    30
 10
324.0
 20
131.838086
 30
0.0
 40
5.0
  0
LINE
  5
7C
  8
SIZE
  6
CONTINUOUS
 62
    30
 10
329.0
 20
131.838086
 30
0.0
 11
334.0
 21
131.838086
 31
0.0
  0
CIRCLE
  5
7D
  8
SIZE
  6
CONTINUOUS
 62
    30
 10
394.0
 20
131.838086
 30
0.0
 40
5.0
  0
LINE
  5
7E
  8
SIZE
  6
CONTINUOUS
 62
    30
 10
389.0
 20
131.838086
 30
0.0
 11
384.0
 21
131.838086
 31
0.0
  0
TEXT
  5
7F
  8
SIZE
  6
CONTINUOUS
 62
    30
 10
424.0
 20
151.838086
 30
0.0
 40
64.0
  1
70
 41
0.9
 72
     1
 11
470.628571
 21
151.838086
 31
0.0
  0
POINT
  5
80
  8
DEFPOINTS
  6
CONTINUOUS
 62
     7
 10
324.0
 20
-0.6
 30
0.0
  0
POINT
  5
81
  8
DEFPOINTS
  6
CONTINUOUS
 62
     7
 10
394.0
 20
-57.8
 30
0.0
  0
POINT
  5
82
  8
DEFPOINTS
  6
CONTINUOUS
 62
     7
 10
394.0
 20
131.838086
 30
0.0
  0
LINE
  5
83
  8
DETAIL
  6
CONTINUOUS
 62
     5
 10
374.001839
 20
-27.0
 30
0.0
 11
324.0
 21
-27.0
 31
0.0
  0
LINE
  5
84
  8
DETAIL
  6
CONTINUOUS
 62
     5
 10
-324.0
 20
-284.0
 30
0.0
 11
324.0
 21
-284.0
 31
0.0
  0
LINE
  5
85
  8
SIZE
  6
CONTINUOUS
 62
    30
 10
344.0
 20
0.0
 30
0.0
 11
1025.017621
 21
0.0
 31
0.0
  0
LINE
  5
86
  8
SIZE
  6
CONTINUOUS
 62
    30
 10
344.0
 20
-284.0
 30
0.0
 11
1025.017621
 21
-284.0
 31
0.0
  0
LINE
  5
87
  8
SIZE
  6
CONTINUOUS
 62
    30
 10
995.017621
 20
-10.0
 30
0.0
 11
995.017621
 21
-274.0
 31
0.0
  0
CIRCLE
  5
88
  8
SIZE
  6
CONTINUOUS
 62
    30
 10
995.017621
 20
0.0
 30
0.0
 40
5.0
  0
LINE
  5
89
  8
SIZE
  6
CONTINUOUS
 62
    30
 10
995.017621
 20
-5.0
 30
0.0
 11
995.017621
 21
-10.0
 31
0.0
  0
CIRCLE
  5
8A
  8
SIZE
  6
CONTINUOUS
 62
    30
 10
995.017621
 20
-284.0
 30
0.0
 40
5.0
  0
LINE
  5
8B
  8
SIZE
  6
CONTINUOUS
 62
    30
 10
995.017621
 20
-279.0
 30
0.0
 11
995.017621
 21
-274.0
 31
0.0
  0
TEXT
  5
8C
  8
SIZE
  6
CONTINUOUS
 62
    30
 10
975.017621
 20
-210.987017
 30
0.0
 40
64.0
  1
284
 50
90.0
 41
0.9
 72
     1
 11
975.017621
 21
-135.558446
 31
0.0
  0
POINT
  5
8D
  8
DEFPOINTS
  6
CONTINUOUS
 62
     7
 10
324.0
 20
0.0
 30
0.0
  0
POINT
  5
8E
  8
DEFPOINTS
  6
CONTINUOUS
 62
     7
 10
324.0
 20
-284.0
 30
0.0
  0
POINT
  5
8F
  8
DEFPOINTS
  6
CONTINUOUS
 62
     7
 10
995.017621
 20
-284.0
 30
0.0
  0
LINE
  5
90
  8
NOTE
  6
CONTINUOUS
 62
     4
 10
524.0
 20
-275.0
 30
0.0
 11
524.0
 21
-235.0
 31
0.0
  0
LINE
  5
91
  8
NOTE
  6
CONTINUOUS
 62
     4
 10
504.0
 20
-255.0
 30
0.0
 11
544.0
 21
-255.0
 31
0.0
  0
LINE
  5
92
  8
NOTE
  6
CONTINUOUS
 62
     4
 10
394.0
 20
-148.0
 30
0.0
 11
394.0
 21
-108.0
 31
0.0
  0
LINE
  5
93
  8
NOTE
  6
CONTINUOUS
 62
     4
 10
374.0
 20
-128.0
 30
0.0
 11
414.0
 21
-128.0
 31
0.0
  0
LINE
  5
94
  8
NOTE
  6
CONTINUOUS
 62
     4
 10
394.0
 20
-78.0
 30
0.0
 11
394.0
 21
-38.0
 31
0.0
  0
LINE
  5
95
  8
NOTE
  6
CONTINUOUS
 62
     4
 10
374.0
 20
-58.0
 30
0.0
 11
414.0
 21
-58.0
 31
0.0
  0
LINE
  5
96
  8
NOTE
  6
CONTINUOUS
 62
     4
 10
351.0
 20
-7.564741
 30
0.0
 11
351.0
 21
-47.213835
 31
0.0
  0
LINE
  5
97
  8
NOTE
  6
CONTINUOUS
 62
     4
 10
331.0
 20
-27.0
 30
0.0
 11
371.0
 21
-27.0
 31
0.0
  0
CIRCLE
  5
98
  8
FIX
  6
CONTINUOUS
 62
    11
 10
351.0
 20
-27.0
 30
0.0
 40
20.0
  0
LINE
  5
99
  8
NOTE
  6
CONTINUOUS
 62
     4
 10
-351.0
 20
-7.464741
 30
0.0
 11
-351.0
 21
-47.113835
 31
0.0
  0
CIRCLE
  5
9A
  8
FIX
  6
CONTINUOUS
 62
    11
 10
-351.0
 20
-26.9
 30
0.0
 40
20.0
  0
TEXT
  5
9B
  8
ETC
  6
CONTINUOUS
 62
    61
 10
935.503005
 20
1139.660505
 30
0.0
 40
64.0
  1
R2用分流コントローラ
 41
0.9
 72
     2
 11
1650.840148
 21
1139.660505
 31
0.0
  0
TEXT
  5
9C
  8
ETC
  6
CONTINUOUS
 62
    61
 10
1025.468719
 20
1034.060505
 30
0.0
 40
64.0
  1
CMB-P106G_3
 41
0.9
 72
     2
 11
1650.840148
 21
1034.060505
 31
0.0
  0
LINE
  5
9D
  8
SIZE
  6
CONTINUOUS
 62
    30
 10
351.0
 20
-4.6
 30
0.0
 11
351.0
 21
257.845403
 31
0.0
  0
LINE
  5
9E
  8
SIZE
  6
CONTINUOUS
 62
    30
 10
-351.0
 20
-4.6
 30
0.0
 11
-351.0
 21
257.845403
 31
0.0
  0
LINE
  5
9F
  8
SIZE
  6
CONTINUOUS
 62
    30
 10
341.0
 20
227.845403
 30
0.0
 11
-341.0
 21
227.845403
 31
0.0
  0
CIRCLE
  5
A0
  8
SIZE
  6
CONTINUOUS
 62
    30
 10
351.0
 20
227.845403
 30
0.0
 40
5.0
  0
LINE
  5
A1
  8
SIZE
  6
CONTINUOUS
 62
    30
 10
346.0
 20
227.845403
 30
0.0
 11
341.0
 21
227.845403
 31
0.0
  0
CIRCLE
  5
A2
  8
SIZE
  6
CONTINUOUS
 62
    30
 10
-351.0
 20
227.845403
 30
0.0
 40
5.0
  0
LINE
  5
A3
  8
SIZE
  6
CONTINUOUS
 62
    30
 10
-346.0
 20
227.845403
 30
0.0
 11
-341.0
 21
227.845403
 31
0.0
  0
TEXT
  5
A4
  8
SIZE
  6
CONTINUOUS
 62
    30
 10
-219.044873
 20
247.845403
 30
0.0
 40
64.0
  1
702
 41
0.9
 72
     1
 11
-144.98773
 21
247.845403
 31
0.0
  0
POINT
  5
A5
  8
DEFPOINTS
  6
CONTINUOUS
 62
     7
 10
351.0
 20
-24.6
 30
0.0
  0
POINT
  5
A6
  8
DEFPOINTS
  6
CONTINUOUS
 62
     7
 10
-351.0
 20
-24.6
 30
0.0
  0
POINT
  5
A7
  8
DEFPOINTS
  6
CONTINUOUS
 62
     7
 10
-351.0
 20
227.845403
 30
0.0
  0
LINE
  5
A8
  8
NOTE
  6
CONTINUOUS
 62
     4
 10
-331.0
 20
-26.9
 30
0.0
 11
-371.0
 21
-26.9
 31
0.0
  0
LINE
  5
A9
  8
SIZE
  6
CONTINUOUS
 62
    30
 10
344.0
 20
0.0
 30
0.0
 11
537.968382
 21
0.0
 31
0.0
  0
LINE
  5
AA
  8
SIZE
  6
CONTINUOUS
 62
    30
 10
371.0
 20
-27.0
 30
0.0
 11
537.968382
 21
-27.0
 31
0.0
  0
LINE
  5
AB
  8
SIZE
  6
CONTINUOUS
 62
    30
 10
507.968382
 20
10.0
 30
0.0
 11
507.968382
 21
20.0
 31
0.0
  0
LINE
  5
AC
  8
SIZE
  6
CONTINUOUS
 62
    30
 10
507.968382
 20
-37.0
 30
0.0
 11
507.968382
 21
-47.0
 31
0.0
  0
LINE
  5
AD
  8
SIZE
  6
CONTINUOUS
 62
    30
 10
507.968382
 20
0.0
 30
0.0
 11
507.968382
 21
-27.0
 31
0.0
  0
CIRCLE
  5
AE
  8
SIZE
  6
CONTINUOUS
 62
    30
 10
507.968382
 20
0.0
 30
0.0
 40
5.0
  0
LINE
  5
AF
  8
SIZE
  6
CONTINUOUS
 62
    30
 10
507.968382
 20
5.0
 30
0.0
 11
507.968382
 21
10.0
 31
0.0
  0
CIRCLE
  5
B0
  8
SIZE
  6
CONTINUOUS
 62
    30
 10
507.968382
 20
-27.0
 30
0.0
 40
5.0
  0
LINE
  5
B1
  8
SIZE
  6
CONTINUOUS
 62
    30
 10
507.968382
 20
-32.0
 30
0.0
 11
507.968382
 21
-37.0
 31
0.0
  0
TEXT
  5
B2
  8
SIZE
  6
CONTINUOUS
 62
    30
 10
487.968382
 20
-60.128571
 30
0.0
 40
64.0
  1
27
 50
90.0
 41
0.9
 72
     1
 11
487.968382
 21
-13.5
 31
0.0
  0
POINT
  5
B3
  8
DEFPOINTS
  6
CONTINUOUS
 62
     7
 10
324.0
 20
0.0
 30
0.0
  0
POINT
  5
B4
  8
DEFPOINTS
  6
CONTINUOUS
 62
     7
 10
351.0
 20
-27.0
 30
0.0
  0
POINT
  5
B5
  8
DEFPOINTS
  6
CONTINUOUS
 62
     7
 10
507.968382
 20
-27.0
 30
0.0
  0
LINE
  5
B6
  8
SIZE
  6
CONTINUOUS
 62
    30
 10
324.0
 20
-304.0
 30
0.0
 11
324.0
 21
-488.419713
 31
0.0
  0
LINE
  5
B7
  8
SIZE
  6
CONTINUOUS
 62
    30
 10
-324.0
 20
-304.0
 30
0.0
 11
-324.0
 21
-488.419713
 31
0.0
  0
LINE
  5
B8
  8
SIZE
  6
CONTINUOUS
 62
    30
 10
314.0
 20
-458.419713
 30
0.0
 11
-314.0
 21
-458.419713
 31
0.0
  0
CIRCLE
  5
B9
  8
SIZE
  6
CONTINUOUS
 62
    30
 10
324.0
 20
-458.419713
 30
0.0
 40
5.0
  0
LINE
  5
BA
  8
SIZE
  6
CONTINUOUS
 62
    30
 10
319.0
 20
-458.419713
 30
0.0
 11
314.0
 21
-458.419713
 31
0.0
  0
CIRCLE
  5
BB
  8
SIZE
  6
CONTINUOUS
 62
    30
 10
-324.0
 20
-458.419713
 30
0.0
 40
5.0
  0
LINE
  5
BC
  8
SIZE
  6
CONTINUOUS
 62
    30
 10
-319.0
 20
-458.419713
 30
0.0
 11
-314.0
 21
-458.419713
 31
0.0
  0
TEXT
  5
BD
  8
SIZE
  6
CONTINUOUS
 62
    30
 10
-67.10965
 20
-438.419713
 30
0.0
 40
64.0
  1
648
 41
0.9
 72
     1
 11
6.947493
 21
-438.419713
 31
0.0
  0
POINT
  5
BE
  8
DEFPOINTS
  6
CONTINUOUS
 62
     7
 10
324.0
 20
-284.0
 30
0.0
  0
POINT
  5
BF
  8
DEFPOINTS
  6
CONTINUOUS
 62
     7
 10
-324.0
 20
-284.0
 30
0.0
  0
POINT
  5
C0
  8
DEFPOINTS
  6
CONTINUOUS
 62
     7
 10
-324.0
 20
-458.419713
 30
0.0
  0
TEXT
  5
C1
  8
SIZE
  6
CONTINUOUS
 62
    30
 10
-43.169446
 20
255.122408
 30
0.0
 40
35.0
  1
（吊りボルトピッチ）
 41
0.9
 72
     2
 11
309.630554
 21
255.122408
 31
0.0
  0
LINE
  5
C2
  8
BASIS
  6
DASHDOT
 62
     6
 10
0.0
 20
75.0
 30
0.0
 11
0.0
 21
-344.0
 31
0.0
  0
CIRCLE
  5
C3
  8
ARRANGE
  6
CONTINUOUS
 62
     1
 10
0.0
 20
0.0
 30
0.0
 40
40.0
  0
POINT
  5
C4
  8
ARRANGE
  6
CONTINUOUS
 62
     1
 10
0.0
 20
0.0
 30
0.0
  0
TEXT
  5
C5
  8
NOTE
  6
CONTINUOUS
 62
     4
 10
-1050.442184
 20
-107.219267
 30
0.0
 40
64.0
  1
AH4-12×14長穴
 41
0.9
 72
     2
 11
-414.099327
 21
-107.219267
 31
0.0
  0
POLYLINE
  5
C6
  8
NOTE
  6
CONTINUOUS
 62
     4
 66
     1
 10
0.0
 20
0.0
 30
0.0
  0
VERTEX
  5
C7
  8
NOTE
  6
CONTINUOUS
 62
     4
 10
-351.0
 20
-26.9
 30
0.0
  0
VERTEX
  5
C8
  8
NOTE
  6
CONTINUOUS
 62
     4
 10
-384.099327
 20
-127.219267
 30
0.0
  0
VERTEX
  5
C9
  8
NOTE
  6
CONTINUOUS
 62
     4
 10
-1065.802184
 20
-127.219267
 30
0.0
  0
SEQEND
  5
CA
  8
NOTE
  6
CONTINUOUS
 62
     4
  0
LINE
  5
CB
  8
NOTE
  6
CONTINUOUS
 62
     4
 10
-351.588692
 20
-37.236011
 30
0.0
 11
-351.0
 21
-26.9
 31
0.0
  0
LINE
  5
CC
  8
NOTE
  6
CONTINUOUS
 62
     4
 10
-351.0
 20
-26.9
 30
0.0
 11
-356.677827
 21
-35.556902
 31
0.0
  0
LINE
  5
CD
  8
OUTLINE
  6
CONTINUOUS
 62
     3
 10
324.0
 20
0.0
 30
0.0
 11
-324.0
 21
0.0
 31
0.0
  0
LINE
  5
CE
  8
OUTLINE
  6
CONTINUOUS
 62
     3
 10
-324.0
 20
0.0
 30
0.0
 11
-324.0
 21
-284.0
 31
0.0
  0
LINE
  5
CF
  8
OUTLINE
  6
CONTINUOUS
 62
     3
 10
-324.0
 20
-284.0
 30
0.0
 11
324.0
 21
-284.0
 31
0.0
  0
LINE
  5
D0
  8
OUTLINE
  6
CONTINUOUS
 62
     3
 10
324.0
 20
-284.0
 30
0.0
 11
324.0
 21
0.0
 31
0.0
  0
TEXT
  5
D1
  8
NOTE
  6
CONTINUOUS
 62
     4
 10
595.549214
 20
-377.539833
 30
0.0
 40
64.0
  1
D　VP-25（オス）
 41
0.9
  0
TEXT
  5
D2
  8
NOTE
  6
CONTINUOUS
 62
     4
 10
831.617168
 20
349.802387
 30
0.0
 40
64.0
  1
室外ユニット側配管接続口（高圧）
 41
0.9
  0
TEXT
  5
D3
  8
NOTE
  6
CONTINUOUS
 62
     4
 10
822.12251
 20
802.626451
 30
0.0
 40
64.0
  1
室外ユニット側配管接続口（低圧）
 41
0.9
  0
LINE
  5
D4
  8
DETAIL
  6
CONTINUOUS
 62
     5
 10
394.0
 20
-45.3
 30
0.0
 11
324.0
 21
-45.3
 31
0.0
  0
LINE
  5
D5
  8
DETAIL
  6
CONTINUOUS
 62
     5
 10
394.0
 20
-70.7
 30
0.0
 11
324.0
 21
-70.7
 31
0.0
  0
LINE
  5
D6
  8
DETAIL
  6
CONTINUOUS
 62
     5
 10
394.0
 20
-118.475
 30
0.0
 11
324.0
 21
-118.475
 31
0.0
  0
LINE
  5
D7
  8
DETAIL
  6
CONTINUOUS
 62
     5
 10
394.0
 20
-137.525
 30
0.0
 11
324.0
 21
-137.525
 31
0.0
  0
LINE
  5
D8
  8
DETAIL
  6
CONTINUOUS
 62
     5
 10
394.0
 20
-45.3
 30
0.0
 11
394.0
 21
-70.7
 31
0.0
  0
LINE
  5
D9
  8
DETAIL
  6
CONTINUOUS
 62
     5
 10
394.0
 20
-118.475
 30
0.0
 11
394.0
 21
-137.525
 31
0.0
  0
POLYLINE
  5
DA
  8
NOTE
  6
CONTINUOUS
 62
     4
 66
     1
 10
0.0
 20
0.0
 30
0.0
  0
VERTEX
  5
DB
  8
NOTE
  6
CONTINUOUS
 62
     4
 10
524.0
 20
-255.0
 30
0.0
  0
VERTEX
  5
DC
  8
NOTE
  6
CONTINUOUS
 62
     4
 10
565.549214
 20
-397.539833
 30
0.0
  0
VERTEX
  5
DD
  8
NOTE
  6
CONTINUOUS
 62
     4
 10
1281.2635
 20
-397.539833
 30
0.0
  0
SEQEND
  5
DE
  8
NOTE
  6
CONTINUOUS
 62
     4
  0
POLYLINE
  5
DF
  8
NOTE
  6
CONTINUOUS
 62
     4
 66
     1
 10
0.0
 20
0.0
 30
0.0
  0
VERTEX
  5
E0
  8
NOTE
  6
CONTINUOUS
 62
     4
 10
394.0
 20
-128.0
 30
0.0
  0
VERTEX
  5
E1
  8
NOTE
  6
CONTINUOUS
 62
     4
 10
801.617168
 20
329.802387
 30
0.0
  0
VERTEX
  5
E2
  8
NOTE
  6
CONTINUOUS
 62
     4
 10
1926.565739
 20
329.802387
 30
0.0
  0
SEQEND
  5
E3
  8
NOTE
  6
CONTINUOUS
 62
     4
  0
POLYLINE
  5
E4
  8
NOTE
  6
CONTINUOUS
 62
     4
 66
     1
 10
0.0
 20
0.0
 30
0.0
  0
VERTEX
  5
E5
  8
NOTE
  6
CONTINUOUS
 62
     4
 10
394.0
 20
-58.0
 30
0.0
  0
VERTEX
  5
E6
  8
NOTE
  6
CONTINUOUS
 62
     4
 10
792.12251
 20
782.626451
 30
0.0
  0
VERTEX
  5
E7
  8
NOTE
  6
CONTINUOUS
 62
     4
 10
1917.071082
 20
782.626451
 30
0.0
  0
SEQEND
  5
E8
  8
NOTE
  6
CONTINUOUS
 62
     4
  0
LINE
  5
EA
  8
NOTE
  6
CONTINUOUS
 62
     4
 10
524.0
 20
-255.0
 30
0.0
 11
522.170545
 21
-265.283329
 31
0.0
  0
LINE
  5
EB
  8
NOTE
  6
CONTINUOUS
 62
     4
 10
531.165113
 20
-263.307121
 30
0.0
 11
524.0
 21
-255.0
 31
0.0
  0
LINE
  5
ED
  8
NOTE
  6
CONTINUOUS
 62
     4
 10
398.648652
 20
-118.74961
 30
0.0
 11
394.0
 21
-128.0
 31
0.0
  0
LINE
  5
EE
  8
NOTE
  6
CONTINUOUS
 62
     4
 10
394.0
 20
-128.0
 30
0.0
 11
402.651046
 21
-122.313253
 31
0.0
  0
LINE
  5
EF
  8
NOTE
  6
CONTINUOUS
 62
     4
 10
395.858623
 20
-47.815443
 30
0.0
 11
394.0
 21
-58.0
 31
0.0
  0
LINE
  5
F0
  8
NOTE
  6
CONTINUOUS
 62
     4
 10
394.0
 20
-58.0
 30
0.0
 11
400.701893
 21
-50.109226
 31
0.0
  0
LINE
  5
F1
  8
NOTE
  6
CONTINUOUS
 62
     4
 10
395.858623
 20
-47.815443
 30
0.0
 11
394.0
 21
-58.0
 31
0.0
  0
LINE
  5
F2
  8
NOTE
  6
CONTINUOUS
 62
     4
 10
394.0
 20
-58.0
 30
0.0
 11
400.701893
 21
-50.109226
 31
0.0
  0
LINE
  5
F3
  8
DETAIL
  6
CONTINUOUS
 62
     5
 10
-276.937881
 20
-273.5
 30
0.0
 11
-276.937881
 21
-10.5
 31
0.0
  0
LINE
  5
F4
  8
DETAIL
  6
CONTINUOUS
 62
     5
 10
15.05738
 20
-10.5
 30
0.0
 11
-276.937881
 21
-10.5
 31
0.0
  0
LINE
  5
F5
  8
DETAIL
  6
CONTINUOUS
 62
     5
 10
-276.937881
 20
-273.5
 30
0.0
 11
15.05738
 21
-273.5
 31
0.0
  0
LINE
  5
F6
  8
DETAIL
  6
CONTINUOUS
 62
     5
 10
15.05738
 20
-10.5
 30
0.0
 11
15.05738
 21
-273.5
 31
0.0
  0
TEXT
  5
F7
  8
NOTE
  6
CONTINUOUS
 62
     4
 10
812.494482
 20
256.770411
 30
0.0
 40
50.0
  1
           224形：φ15.88〈ロウ付〉(付属配管を使用)
 41
0.9
  0
TEXT
  5
F8
  8
NOTE
  6
CONTINUOUS
 62
     4
 10
812.494482
 20
174.270411
 30
0.0
 40
50.0
  1
280.335.400形：φ19.05〈ロウ付〉
 41
0.9
  0
TEXT
  5
F9
  8
NOTE
  6
CONTINUOUS
 62
     4
 10
956.963856
 20
709.832771
 30
0.0
 40
50.0
  1
224形：φ19.05〈ロウ付〉（付属配管を使用）
 41
0.9
  0
TEXT
  5
FA
  8
NOTE
  6
CONTINUOUS
 62
     4
 10
808.579451
 20
638.803647
 30
0.0
 40
50.0
  1
280.335形：φ22.2〈ロウ付〉
 41
0.9
  0
TEXT
  5
FB
  8
NOTE
  6
CONTINUOUS
 62
     4
 10
958.255152
 20
566.848629
 30
0.0
 40
50.0
  1
400形：φ25.4〈ロウ付〉（付属配管を使用）
 41
0.9
  0
LINE
  5
FC
  8
SIZE
  6
CONTINUOUS
 62
    30
 10
344.0
 20
0.0
 30
0.0
 11
679.322661
 21
0.0
 31
0.0
  0
LINE
  5
FD
  8
SIZE
  6
CONTINUOUS
 62
    30
 10
414.0
 20
-58.0
 30
0.0
 11
679.322661
 21
-58.0
 31
0.0
  0
LINE
  5
FE
  8
SIZE
  6
CONTINUOUS
 62
    30
 10
649.322661
 20
10.0
 30
0.0
 11
649.322661
 21
20.0
 31
0.0
  0
LINE
  5
FF
  8
SIZE
  6
CONTINUOUS
 62
    30
 10
649.322661
 20
-68.0
 30
0.0
 11
649.322661
 21
-78.0
 31
0.0
  0
LINE
  5
100
  8
SIZE
  6
CONTINUOUS
 62
    30
 10
649.322661
 20
0.0
 30
0.0
 11
649.322661
 21
-58.0
 31
0.0
  0
CIRCLE
  5
101
  8
SIZE
  6
CONTINUOUS
 62
    30
 10
649.322661
 20
0.0
 30
0.0
 40
5.0
  0
LINE
  5
102
  8
SIZE
  6
CONTINUOUS
 62
    30
 10
649.322661
 20
5.0
 30
0.0
 11
649.322661
 21
10.0
 31
0.0
  0
CIRCLE
  5
103
  8
SIZE
  6
CONTINUOUS
 62
    30
 10
649.322661
 20
-58.0
 30
0.0
 40
5.0
  0
LINE
  5
104
  8
SIZE
  6
CONTINUOUS
 62
    30
 10
649.322661
 20
-63.0
 30
0.0
 11
649.322661
 21
-68.0
 31
0.0
  0
TEXT
  5
105
  8
SIZE
  6
CONTINUOUS
 62
    30
 10
629.322661
 20
-75.628571
 30
0.0
 40
64.0
  1
58
 50
90.0
 41
0.9
 72
     1
 11
629.322661
 21
-29.0
 31
0.0
  0
POINT
  5
106
  8
DEFPOINTS
  6
CONTINUOUS
 62
     7
 10
324.0
 20
0.0
 30
0.0
  0
POINT
  5
107
  8
DEFPOINTS
  6
CONTINUOUS
 62
     7
 10
394.0
 20
-58.0
 30
0.0
  0
POINT
  5
108
  8
DEFPOINTS
  6
CONTINUOUS
 62
     7
 10
649.322661
 20
-58.0
 30
0.0
  0
LINE
  5
109
  8
SIZE
  6
CONTINUOUS
 62
    30
 10
344.0
 20
0.0
 30
0.0
 11
801.589063
 21
0.0
 31
0.0
  0
LINE
  5
10A
  8
SIZE
  6
CONTINUOUS
 62
    30
 10
414.0
 20
-128.0
 30
0.0
 11
801.589063
 21
-128.0
 31
0.0
  0
LINE
  5
10B
  8
SIZE
  6
CONTINUOUS
 62
    30
 10
771.589063
 20
10.0
 30
0.0
 11
771.589063
 21
20.0
 31
0.0
  0
LINE
  5
10C
  8
SIZE
  6
CONTINUOUS
 62
    30
 10
771.589063
 20
-138.0
 30
0.0
 11
771.589063
 21
-148.0
 31
0.0
  0
LINE
  5
10D
  8
SIZE
  6
CONTINUOUS
 62
    30
 10
771.589063
 20
0.0
 30
0.0
 11
771.589063
 21
-128.0
 31
0.0
  0
CIRCLE
  5
10E
  8
SIZE
  6
CONTINUOUS
 62
    30
 10
771.589063
 20
0.0
 30
0.0
 40
5.0
  0
LINE
  5
10F
  8
SIZE
  6
CONTINUOUS
 62
    30
 10
771.589063
 20
5.0
 30
0.0
 11
771.589063
 21
10.0
 31
0.0
  0
CIRCLE
  5
110
  8
SIZE
  6
CONTINUOUS
 62
    30
 10
771.589063
 20
-128.0
 30
0.0
 40
5.0
  0
LINE
  5
111
  8
SIZE
  6
CONTINUOUS
 62
    30
 10
771.589063
 20
-133.0
 30
0.0
 11
771.589063
 21
-138.0
 31
0.0
  0
TEXT
  5
112
  8
SIZE
  6
CONTINUOUS
 62
    30
 10
751.589063
 20
-132.571429
 30
0.0
 40
64.0
  1
128
 50
90.0
 41
0.9
 72
     1
 11
751.589063
 21
-64.0
 31
0.0
  0
POINT
  5
113
  8
DEFPOINTS
  6
CONTINUOUS
 62
     7
 10
324.0
 20
0.0
 30
0.0
  0
POINT
  5
114
  8
DEFPOINTS
  6
CONTINUOUS
 62
     7
 10
394.0
 20
-128.0
 30
0.0
  0
POINT
  5
115
  8
DEFPOINTS
  6
CONTINUOUS
 62
     7
 10
771.589063
 20
-128.0
 30
0.0
  0
LINE
  5
116
  8
SIZE
  6
CONTINUOUS
 62
    30
 10
344.0
 20
0.0
 30
0.0
 11
913.868935
 21
0.0
 31
0.0
  0
LINE
  5
117
  8
SIZE
  6
CONTINUOUS
 62
    30
 10
544.0
 20
-255.0
 30
0.0
 11
913.868935
 21
-255.0
 31
0.0
  0
LINE
  5
118
  8
SIZE
  6
CONTINUOUS
 62
    30
 10
883.868935
 20
-10.0
 30
0.0
 11
883.868935
 21
-245.0
 31
0.0
  0
CIRCLE
  5
119
  8
SIZE
  6
CONTINUOUS
 62
    30
 10
883.868935
 20
0.0
 30
0.0
 40
5.0
  0
LINE
  5
11A
  8
SIZE
  6
CONTINUOUS
 62
    30
 10
883.868935
 20
-5.0
 30
0.0
 11
883.868935
 21
-10.0
 31
0.0
  0
CIRCLE
  5
11B
  8
SIZE
  6
CONTINUOUS
 62
    30
 10
883.868935
 20
-255.0
 30
0.0
 40
5.0
  0
LINE
  5
11C
  8
SIZE
  6
CONTINUOUS
 62
    30
 10
883.868935
 20
-250.0
 30
0.0
 11
883.868935
 21
-245.0
 31
0.0
  0
TEXT
  5
11D
  8
SIZE
  6
CONTINUOUS
 62
    30
 10
863.868935
 20
-201.557143
 30
0.0
 40
64.0
  1
255
 50
90.0
 41
0.9
 72
     1
 11
863.868935
 21
-127.5
 31
0.0
  0
POINT
  5
11E
  8
DEFPOINTS
  6
CONTINUOUS
 62
     7
 10
324.0
 20
0.0
 30
0.0
  0
POINT
  5
11F
  8
DEFPOINTS
  6
CONTINUOUS
 62
     7
 10
509.0
 20
-255.0
 30
0.0
  0
POINT
  5
120
  8
DEFPOINTS
  6
CONTINUOUS
 62
     7
 10
883.868935
 20
-255.0
 30
0.0
  0
LINE
  5
121
  8
SIZE
  6
CONTINUOUS
 62
    30
 10
524.0
 20
-275.0
 30
0.0
 11
524.0
 21
-486.707045
 31
0.0
  0
LINE
  5
122
  8
SIZE
  6
CONTINUOUS
 62
    30
 10
324.0
 20
-292.0
 30
0.0
 11
324.0
 21
-486.707045
 31
0.0
  0
LINE
  5
123
  8
SIZE
  6
CONTINUOUS
 62
    30
 10
514.0
 20
-456.707045
 30
0.0
 11
334.0
 21
-456.707045
 31
0.0
  0
CIRCLE
  5
124
  8
SIZE
  6
CONTINUOUS
 62
    30
 10
524.0
 20
-456.707045
 30
0.0
 40
5.0
  0
LINE
  5
125
  8
SIZE
  6
CONTINUOUS
 62
    30
 10
519.0
 20
-456.707045
 30
0.0
 11
514.0
 21
-456.707045
 31
0.0
  0
CIRCLE
  5
126
  8
SIZE
  6
CONTINUOUS
 62
    30
 10
324.0
 20
-456.707045
 30
0.0
 40
5.0
  0
LINE
  5
127
  8
SIZE
  6
CONTINUOUS
 62
    30
 10
329.0
 20
-456.707045
 30
0.0
 11
334.0
 21
-456.707045
 31
0.0
  0
TEXT
  5
128
  8
SIZE
  6
CONTINUOUS
 62
    30
 10
342.442857
 20
-436.707045
 30
0.0
 40
64.0
  1
200
 41
0.9
 72
     1
 11
416.5
 21
-436.707045
 31
0.0
  0
POINT
  5
129
  8
DEFPOINTS
  6
CONTINUOUS
 62
     7
 10
509.0
 20
-255.0
 30
0.0
  0
POINT
  5
12A
  8
DEFPOINTS
  6
CONTINUOUS
 62
     7
 10
324.0
 20
-272.0
 30
0.0
  0
POINT
  5
12B
  8
DEFPOINTS
  6
CONTINUOUS
 62
     7
 10
324.0
 20
-456.707045
 30
0.0
  0
ENDSEC
  0
EOF
