  0
SECTION
  2
HEADER
  9
$ACADVER
  1
AC1009
  9
$INSBASE
 10
0.0
 20
0.0
 30
0.0
  9
$EXTMIN
 10
-2255.894869
 20
-715.88061
 30
-0.001526
  9
$EXTMAX
 10
1683.249842
 20
867.104639
 30
0.0
  9
$LIMMIN
 10
-3837.000175
 20
-3000.109539
  9
$LIMMAX
 10
7319.256881
 20
4045.223003
  9
$ORTHOMODE
 70
     1
  9
$REGENMODE
 70
     1
  9
$FILLMODE
 70
     1
  9
$QTEXTMODE
 70
     0
  9
$MIRRTEXT
 70
     0
  9
$DRAGMODE
 70
     2
  9
$LTSCALE
 40
20.0
  9
$OSMODE
 70
    37
  9
$ATTMODE
 70
     1
  9
$TEXTSIZE
 40
64.0
  9
$TRACEWID
 40
0.05
  9
$TEXTSTYLE
  7
STANDARD
  9
$CLAYER
  8
SIZE
  9
$CELTYPE
  6
CONTINUOUS
  9
$CECOLOR
 62
     7
  9
$DIMSCALE
 40
1.0
  9
$DIMASZ
 40
10.0
  9
$DIMEXO
 40
20.0
  9
$DIMDLI
 40
200.0
  9
$DIMRND
 40
0.0
  9
$DIMDLE
 40
0.0
  9
$DIMEXE
 40
30.0
  9
$DIMTP
 40
0.0
  9
$DIMTM
 40
0.0
  9
$DIMTXT
 40
64.0
  9
$DIMCEN
 40
0.0
  9
$DIMTSZ
 40
0.0
  9
$DIMTOL
 70
     0
  9
$DIMLIM
 70
     0
  9
$DIMTIH
 70
     0
  9
$DIMTOH
 70
     0
  9
$DIMSE1
 70
     0
  9
$DIMSE2
 70
     0
  9
$DIMTAD
 70
     1
  9
$DIMZIN
 70
     8
  9
$DIMBLK
  1

  9
$DIMASO
 70
     1
  9
$DIMSHO
 70
     0
  9
$DIMPOST
  1

  9
$DIMAPOST
  1

  9
$DIMALT
 70
     0
  9
$DIMALTD
 70
     2
  9
$DIMALTF
 40
25.4
  9
$DIMLFAC
 40
1.0
  9
$DIMTOFL
 70
     1
  9
$DIMTVP
 40
0.0
  9
$DIMTIX
 70
     1
  9
$DIMSOXD
 70
     0
  9
$DIMSAH
 70
     1
  9
$DIMBLK1
  1
_DOTBLANK
  9
$DIMBLK2
  1
_DOTBLANK
  9
$DIMSTYLE
  2
STANDARD
  9
$DIMCLRD
 70
     0
  9
$DIMCLRE
 70
     0
  9
$DIMCLRT
 70
     0
  9
$DIMTFAC
 40
1.0
  9
$DIMGAP
 40
0.09
  9
$LUNITS
 70
     2
  9
$LUPREC
 70
     4
  9
$SKETCHINC
 40
0.1
  9
$FILLETRAD
 40
10.0
  9
$AUNITS
 70
     1
  9
$AUPREC
 70
     3
  9
$MENU
  1
ACAD
  9
$ELEVATION
 40
0.0
  9
$PELEVATION
 40
0.0
  9
$THICKNESS
 40
0.0
  9
$LIMCHECK
 70
     0
  9
$BLIPMODE
 70
     0
  9
$CHAMFERA
 40
0.0
  9
$CHAMFERB
 40
0.0
  9
$SKPOLY
 70
     0
  9
$TDCREATE
 40
2450330.439931
  9
$TDUPDATE
 40
2453088.70773
  9
$TDINDWG
 40
1.367667
  9
$TDUSRTIMER
 40
1.367667
  9
$USRTIMER
 70
     1
  9
$ANGBASE
 50
0.0
  9
$ANGDIR
 70
     0
  9
$PDMODE
 70
     3
  9
$PDSIZE
 40
-2.0
  9
$PLINEWID
 40
0.0
  9
$COORDS
 70
     1
  9
$SPLFRAME
 70
     0
  9
$SPLINETYPE
 70
     6
  9
$SPLINESEGS
 70
     8
  9
$ATTDIA
 70
     0
  9
$ATTREQ
 70
     1
  9
$HANDLING
 70
     1
  9
$HANDSEED
  5
2DB
  9
$SURFTAB1
 70
     6
  9
$SURFTAB2
 70
     6
  9
$SURFTYPE
 70
     6
  9
$SURFU
 70
     6
  9
$SURFV
 70
     6
  9
$UCSNAME
  2

  9
$UCSORG
 10
0.0
 20
0.0
 30
0.0
  9
$UCSXDIR
 10
1.0
 20
0.0
 30
0.0
  9
$UCSYDIR
 10
0.0
 20
1.0
 30
0.0
  9
$PUCSNAME
  2

  9
$PUCSORG
 10
0.0
 20
0.0
 30
0.0
  9
$PUCSXDIR
 10
1.0
 20
0.0
 30
0.0
  9
$PUCSYDIR
 10
0.0
 20
1.0
 30
0.0
  9
$USERI1
 70
     0
  9
$USERI2
 70
     0
  9
$USERI3
 70
     0
  9
$USERI4
 70
     0
  9
$USERI5
 70
     0
  9
$USERR1
 40
20.0
  9
$USERR2
 40
0.0
  9
$USERR3
 40
0.0
  9
$USERR4
 40
0.0
  9
$USERR5
 40
0.0
  9
$WORLDVIEW
 70
     1
  9
$SHADEDGE
 70
     3
  9
$SHADEDIF
 70
    70
  9
$TILEMODE
 70
     1
  9
$MAXACTVP
 70
    48
  9
$PLIMCHECK
 70
     0
  9
$PEXTMIN
 10
1.000000E+020
 20
1.000000E+020
 30
1.000000E+020
  9
$PEXTMAX
 10
-1.000000E+020
 20
-1.000000E+020
 30
-1.000000E+020
  9
$PLIMMIN
 10
0.0
 20
0.0
  9
$PLIMMAX
 10
12.0
 20
9.0
  9
$UNITMODE
 70
     0
  9
$VISRETAIN
 70
     1
  9
$PLINEGEN
 70
     0
  9
$PSLTSCALE
 70
     1
  0
ENDSEC
  0
SECTION
  2
TABLES
  0
TABLE
  2
VPORT
 70
     7
  0
VPORT
  2
*ACTIVE
 70
     0
 10
0.0
 20
0.0
 11
1.0
 21
1.0
 12
1889.560171
 22
522.556732
 13
0.0
 23
0.0
 14
50.0
 24
50.0
 15
100.0
 25
100.0
 16
0.0
 26
0.0
 36
1.0
 17
0.0
 27
0.0
 37
0.0
 40
7045.332542
 41
1.625632
 42
50.0
 43
0.0
 44
0.0
 50
0.0
 51
0.0
 71
     0
 72
  1000
 73
     1
 74
     0
 75
     0
 76
     0
 77
     0
 78
     0
  0
ENDTAB
  0
TABLE
  2
LTYPE
 70
     2
  0
LTYPE
  2
CONTINUOUS
 70
     0
  3
実線
 72
    65
 73
     0
 40
0.0
  0
LTYPE
  2
DASHDOT
 70
     0
  3
____ _ ____ _ ____ _ ____ _ ____ _ ____ _ ____
 72
    65
 73
     4
 40
5.5
 49
4.0
 49
-0.6
 49
0.3
 49
-0.6
  0
ENDTAB
  0
TABLE
  2
LAYER
 70
    12
  0
LAYER
  2
0
 70
     0
 62
     7
  6
CONTINUOUS
  0
LAYER
  2
SIZE
 70
     0
 62
    30
  6
CONTINUOUS
  0
LAYER
  2
OUTLINE
 70
     0
 62
     3
  6
CONTINUOUS
  0
LAYER
  2
DETAIL
 70
     0
 62
     5
  6
CONTINUOUS
  0
LAYER
  2
BASIS
 70
     0
 62
     6
  6
DASHDOT
  0
LAYER
  2
NOTE
 70
     0
 62
     4
  6
CONTINUOUS
  0
LAYER
  2
ARRANGE
 70
     0
 62
     1
  6
CONTINUOUS
  0
LAYER
  2
FIX
 70
     0
 62
    11
  6
CONTINUOUS
  0
LAYER
  2
SERVICESPACE
 70
     0
 62
     2
  6
DASHDOT
  0
LAYER
  2
ETC
 70
     0
 62
    61
  6
CONTINUOUS
  0
LAYER
  2
SYMBOLLINE
 70
     0
 62
    15
  6
CONTINUOUS
  0
LAYER
  2
DEFPOINTS
 70
     0
 62
     7
  6
CONTINUOUS
  0
ENDTAB
  0
TABLE
  2
STYLE
 70
     1
  0
STYLE
  2
STANDARD
 70
     0
 40
0.0
 41
0.9
 50
0.0
 71
     0
 42
64.0
  3
SIMPLEX
  4
BIGFONT
  0
ENDTAB
  0
TABLE
  2
VIEW
 70
     1
  0
VIEW
  2
ALL
 70
     0
 40
9000.0
 10
241.506647
 20
0.0
 41
12483.01
 11
0.0
 21
0.0
 31
1.0
 12
0.0
 22
0.0
 32
0.0
 42
50.0
 43
0.0
 44
0.0
 50
0.0
 71
     0
  0
ENDTAB
  0
TABLE
  2
UCS
 70
     0
  0
ENDTAB
  0
TABLE
  2
APPID
 70
     1
  0
APPID
  2
ACAD
 70
     0
  0
ENDTAB
  0
TABLE
  2
DIMSTYLE
 70
     1
  0
DIMSTYLE
  2
STANDARD
 70
     0
  3

  4

  5

  6

  7

 40
1.0
 41
0.18
 42
0.0625
 43
0.38
 44
0.18
 45
0.0
 46
0.0
 47
0.0
 48
0.0
140
0.18
141
0.09
142
0.0
143
25.4
144
1.0
145
0.0
146
1.0
147
0.09
 71
     0
 72
     0
 73
     1
 74
     1
 75
     0
 76
     0
 77
     0
 78
     0
170
     0
171
     2
172
     0
173
     0
174
     0
175
     0
176
     0
177
     0
178
     0
  0
ENDTAB
  0
ENDSEC
  0
SECTION
  2
BLOCKS
  0
BLOCK
  8
0
  2
$MODEL_SPACE
 70
     0
 10
0.0
 20
0.0
 30
0.0
  3
$MODEL_SPACE
  1

  0
ENDBLK
  5
2BA
  8
0
  0
BLOCK
 67
     1
  8
0
  2
$PAPER_SPACE
 70
     0
 10
0.0
 20
0.0
 30
0.0
  3
$PAPER_SPACE
  1

  0
ENDBLK
  5
2B7
 67
     1
  8
0
  0
BLOCK
  8
0
  2
_DOTBLANK
 70
     0
 10
0.0
 20
0.0
 30
0.0
  3
_DOTBLANK
  1

  0
CIRCLE
  5
30
  8
0
  6
CONTINUOUS
 62
     7
 10
0.0
 20
0.0
 30
0.0
 40
0.5
  0
LINE
  5
31
  8
0
  6
CONTINUOUS
 62
     7
 10
-0.5
 20
0.0
 30
0.0
 11
-1.0
 21
0.0
 31
0.0
  0
ENDBLK
  5
32
  8
0
  0
ENDSEC
  0
SECTION
  2
ENTITIES
  0
LINE
  5
33
  8
DETAIL
  6
CONTINUOUS
 62
     5
 10
324.0
 20
-168.2
 30
0.0
 11
-308.5
 21
-168.2
 31
0.0
  0
LINE
  5
34
  8
DETAIL
  6
CONTINUOUS
 62
     5
 10
324.0
 20
0.0
 30
0.0
 11
-324.0
 21
0.0
 31
0.0
  0
LINE
  5
35
  8
DETAIL
  6
CONTINUOUS
 62
     5
 10
-231.0
 20
-45.6
 30
0.0
 11
-205.0
 21
-45.6
 31
0.0
  0
LINE
  5
36
  8
DETAIL
  6
CONTINUOUS
 62
     5
 10
-524.0
 20
-272.0
 30
0.0
 11
-479.0
 21
-272.0
 31
0.0
  0
LINE
  5
37
  8
DETAIL
  6
CONTINUOUS
 62
     5
 10
-524.0
 20
-238.0
 30
0.0
 11
-479.0
 21
-238.0
 31
0.0
  0
LINE
  5
3A
  8
DETAIL
  6
CONTINUOUS
 62
     5
 10
-524.0
 20
-272.0
 30
0.0
 11
-524.0
 21
-238.0
 31
0.0
  0
LINE
  5
3C
  8
DETAIL
  6
CONTINUOUS
 62
     5
 10
-324.0
 20
-163.9
 30
0.0
 11
-320.5
 21
-167.4
 31
0.0
  0
LINE
  5
3D
  8
DETAIL
  6
CONTINUOUS
 62
     5
 10
-265.0
 20
-152.6
 30
0.0
 11
-265.0
 21
-168.2
 31
0.0
  0
LINE
  5
3E
  8
DETAIL
  6
CONTINUOUS
 62
     5
 10
-231.0
 20
-168.2
 30
0.0
 11
-231.0
 21
-152.6
 31
0.0
  0
LINE
  5
3F
  8
DETAIL
  6
CONTINUOUS
 62
     5
 10
-324.0
 20
0.0
 30
0.0
 11
-324.0
 21
-284.0
 31
0.0
  0
LINE
  5
40
  8
NOTE
  6
CONTINUOUS
 62
     4
 10
-248.0
 20
-138.499558
 30
0.0
 11
-248.0
 21
-166.700442
 31
0.0
  0
LINE
  5
41
  8
DETAIL
  6
CONTINUOUS
 62
     5
 10
-232.899619
 20
-152.6
 30
0.0
 11
-240.44981
 21
-165.677314
 31
0.0
  0
LINE
  5
42
  8
DETAIL
  6
CONTINUOUS
 62
     5
 10
-263.100381
 20
-152.6
 30
0.0
 11
-255.55019
 21
-165.677314
 31
0.0
  0
LINE
  5
43
  8
DETAIL
  6
CONTINUOUS
 62
     5
 10
-359.0
 20
-238.0
 30
0.0
 11
-324.0
 21
-238.0
 31
0.0
  0
LINE
  5
44
  8
DETAIL
  6
CONTINUOUS
 62
     5
 10
-359.0
 20
-272.0
 30
0.0
 11
-324.0
 21
-272.0
 31
0.0
  0
LINE
  5
45
  8
DETAIL
  6
CONTINUOUS
 62
     5
 10
-364.0
 20
-277.0
 30
0.0
 11
-364.0
 21
-233.0
 31
0.0
  0
LINE
  5
46
  8
DETAIL
  6
CONTINUOUS
 62
     5
 10
-364.0
 20
-270.0
 30
0.0
 11
-364.0
 21
-240.0
 31
0.0
  0
LINE
  5
47
  8
DETAIL
  6
CONTINUOUS
 62
     5
 10
-479.0
 20
-277.0
 30
0.0
 11
-479.0
 21
-233.0
 31
0.0
  0
LINE
  5
48
  8
DETAIL
  6
CONTINUOUS
 62
     5
 10
-474.0
 20
-277.0
 30
0.0
 11
-474.0
 21
-233.0
 31
0.0
  0
LINE
  5
49
  8
DETAIL
  6
CONTINUOUS
 62
     5
 10
-373.946796
 20
-272.72747
 30
0.0
 11
-378.946796
 21
-238.72747
 31
0.0
  0
LINE
  5
4A
  8
DETAIL
  6
CONTINUOUS
 62
     5
 10
-364.053204
 20
-271.27253
 30
0.0
 11
-369.053204
 21
-237.27253
 31
0.0
  0
LINE
  5
4B
  8
DETAIL
  6
CONTINUOUS
 62
     5
 10
-363.946796
 20
-272.72747
 30
0.0
 11
-368.946796
 21
-238.72747
 31
0.0
  0
LINE
  5
4C
  8
DETAIL
  6
CONTINUOUS
 62
     5
 10
-383.946796
 20
-272.72747
 30
0.0
 11
-388.946796
 21
-238.72747
 31
0.0
  0
LINE
  5
4D
  8
DETAIL
  6
CONTINUOUS
 62
     5
 10
-374.053204
 20
-271.27253
 30
0.0
 11
-379.053204
 21
-237.27253
 31
0.0
  0
LINE
  5
4E
  8
DETAIL
  6
CONTINUOUS
 62
     5
 10
-393.946796
 20
-272.72747
 30
0.0
 11
-398.946796
 21
-238.72747
 31
0.0
  0
LINE
  5
4F
  8
DETAIL
  6
CONTINUOUS
 62
     5
 10
-384.053204
 20
-271.27253
 30
0.0
 11
-389.053204
 21
-237.27253
 31
0.0
  0
LINE
  5
50
  8
DETAIL
  6
CONTINUOUS
 62
     5
 10
-403.946796
 20
-272.72747
 30
0.0
 11
-408.946796
 21
-238.72747
 31
0.0
  0
LINE
  5
51
  8
DETAIL
  6
CONTINUOUS
 62
     5
 10
-394.053204
 20
-271.27253
 30
0.0
 11
-399.053204
 21
-237.27253
 31
0.0
  0
LINE
  5
52
  8
DETAIL
  6
CONTINUOUS
 62
     5
 10
-413.946796
 20
-272.72747
 30
0.0
 11
-418.946796
 21
-238.72747
 31
0.0
  0
LINE
  5
53
  8
DETAIL
  6
CONTINUOUS
 62
     5
 10
-404.053204
 20
-271.27253
 30
0.0
 11
-409.053204
 21
-237.27253
 31
0.0
  0
LINE
  5
54
  8
DETAIL
  6
CONTINUOUS
 62
     5
 10
-423.946796
 20
-272.72747
 30
0.0
 11
-428.946796
 21
-238.72747
 31
0.0
  0
LINE
  5
55
  8
DETAIL
  6
CONTINUOUS
 62
     5
 10
-414.053204
 20
-271.27253
 30
0.0
 11
-419.053204
 21
-237.27253
 31
0.0
  0
LINE
  5
56
  8
DETAIL
  6
CONTINUOUS
 62
     5
 10
-433.946796
 20
-272.72747
 30
0.0
 11
-438.946796
 21
-238.72747
 31
0.0
  0
LINE
  5
57
  8
DETAIL
  6
CONTINUOUS
 62
     5
 10
-424.053204
 20
-271.27253
 30
0.0
 11
-429.053204
 21
-237.27253
 31
0.0
  0
LINE
  5
58
  8
DETAIL
  6
CONTINUOUS
 62
     5
 10
-443.946796
 20
-272.72747
 30
0.0
 11
-448.946796
 21
-238.72747
 31
0.0
  0
LINE
  5
59
  8
DETAIL
  6
CONTINUOUS
 62
     5
 10
-434.053204
 20
-271.27253
 30
0.0
 11
-439.053204
 21
-237.27253
 31
0.0
  0
LINE
  5
5A
  8
DETAIL
  6
CONTINUOUS
 62
     5
 10
-453.946796
 20
-272.72747
 30
0.0
 11
-458.946796
 21
-238.72747
 31
0.0
  0
LINE
  5
5B
  8
DETAIL
  6
CONTINUOUS
 62
     5
 10
-444.053204
 20
-271.27253
 30
0.0
 11
-449.053204
 21
-237.27253
 31
0.0
  0
LINE
  5
5C
  8
DETAIL
  6
CONTINUOUS
 62
     5
 10
-463.946796
 20
-272.72747
 30
0.0
 11
-468.946796
 21
-238.72747
 31
0.0
  0
LINE
  5
5D
  8
DETAIL
  6
CONTINUOUS
 62
     5
 10
-454.053204
 20
-271.27253
 30
0.0
 11
-459.053204
 21
-237.27253
 31
0.0
  0
LINE
  5
5E
  8
DETAIL
  6
CONTINUOUS
 62
     5
 10
-464.053204
 20
-271.27253
 30
0.0
 11
-469.053204
 21
-237.27253
 31
0.0
  0
LINE
  5
5F
  8
DETAIL
  6
CONTINUOUS
 62
     5
 10
-359.0
 20
-277.0
 30
0.0
 11
-359.0
 21
-233.0
 31
0.0
  0
ARC
  5
60
  8
DETAIL
  6
CONTINUOUS
 62
     5
 10
-419.0
 20
-272.0
 30
0.0
 40
5.0
 50
188.365886
 51
8.365886
  0
ARC
  5
61
  8
DETAIL
  6
CONTINUOUS
 62
     5
 10
-449.0
 20
-272.0
 30
0.0
 40
5.0
 50
188.365886
 51
8.365886
  0
LINE
  5
62
  8
DETAIL
  6
CONTINUOUS
 62
     5
 10
-479.0
 20
-277.0
 30
0.0
 11
-474.0
 21
-277.0
 31
0.0
  0
ARC
  5
63
  8
DETAIL
  6
CONTINUOUS
 62
     5
 10
-459.0
 20
-272.0
 30
0.0
 40
5.0
 50
188.365886
 51
8.365886
  0
ARC
  5
64
  8
DETAIL
  6
CONTINUOUS
 62
     5
 10
-469.0
 20
-272.0
 30
0.0
 40
5.0
 50
188.365886
 51
8.365886
  0
ARC
  5
65
  8
DETAIL
  6
CONTINUOUS
 62
     5
 10
-429.0
 20
-272.0
 30
0.0
 40
5.0
 50
188.365886
 51
8.365886
  0
ARC
  5
66
  8
DETAIL
  6
CONTINUOUS
 62
     5
 10
-439.0
 20
-272.0
 30
0.0
 40
5.0
 50
188.365886
 51
8.365886
  0
ARC
  5
67
  8
DETAIL
  6
CONTINUOUS
 62
     5
 10
-379.0
 20
-272.0
 30
0.0
 40
5.0
 50
188.365886
 51
8.365886
  0
ARC
  5
68
  8
DETAIL
  6
CONTINUOUS
 62
     5
 10
-389.0
 20
-272.0
 30
0.0
 40
5.0
 50
188.365886
 51
8.365886
  0
ARC
  5
69
  8
DETAIL
  6
CONTINUOUS
 62
     5
 10
-399.0
 20
-272.0
 30
0.0
 40
5.0
 50
188.365886
 51
8.365886
  0
ARC
  5
6A
  8
DETAIL
  6
CONTINUOUS
 62
     5
 10
-409.0
 20
-272.0
 30
0.0
 40
5.0
 50
188.365886
 51
8.365886
  0
LINE
  5
6B
  8
DETAIL
  6
CONTINUOUS
 62
     5
 10
-359.0
 20
-277.0
 30
0.0
 11
-364.0
 21
-277.0
 31
0.0
  0
ARC
  5
6C
  8
DETAIL
  6
CONTINUOUS
 62
     5
 10
-369.0
 20
-272.0
 30
0.0
 40
5.0
 50
188.365886
 51
8.365886
  0
ARC
  5
6D
  8
DETAIL
  6
CONTINUOUS
 62
     5
 10
-414.0
 20
-238.0
 30
0.0
 40
5.0
 50
8.365886
 51
188.365886
  0
ARC
  5
6E
  8
DETAIL
  6
CONTINUOUS
 62
     5
 10
-444.0
 20
-238.0
 30
0.0
 40
5.0
 50
8.365886
 51
188.365886
  0
LINE
  5
6F
  8
DETAIL
  6
CONTINUOUS
 62
     5
 10
-479.0
 20
-233.0
 30
0.0
 11
-474.0
 21
-233.0
 31
0.0
  0
ARC
  5
70
  8
DETAIL
  6
CONTINUOUS
 62
     5
 10
-454.0
 20
-238.0
 30
0.0
 40
5.0
 50
8.365886
 51
188.365886
  0
ARC
  5
71
  8
DETAIL
  6
CONTINUOUS
 62
     5
 10
-464.0
 20
-238.0
 30
0.0
 40
5.0
 50
8.365886
 51
188.365886
  0
ARC
  5
72
  8
DETAIL
  6
CONTINUOUS
 62
     5
 10
-474.0
 20
-238.0
 30
0.0
 40
5.0
 50
8.365886
 51
90.0
  0
ARC
  5
73
  8
DETAIL
  6
CONTINUOUS
 62
     5
 10
-424.0
 20
-238.0
 30
0.0
 40
5.0
 50
8.365886
 51
188.365886
  0
ARC
  5
74
  8
DETAIL
  6
CONTINUOUS
 62
     5
 10
-434.0
 20
-238.0
 30
0.0
 40
5.0
 50
8.365886
 51
188.365886
  0
ARC
  5
75
  8
DETAIL
  6
CONTINUOUS
 62
     5
 10
-384.0
 20
-238.0
 30
0.0
 40
5.0
 50
8.365886
 51
188.365886
  0
ARC
  5
76
  8
DETAIL
  6
CONTINUOUS
 62
     5
 10
-394.0
 20
-238.0
 30
0.0
 40
5.0
 50
8.365886
 51
188.365886
  0
ARC
  5
77
  8
DETAIL
  6
CONTINUOUS
 62
     5
 10
-404.0
 20
-238.0
 30
0.0
 40
5.0
 50
8.365886
 51
188.365886
  0
LINE
  5
78
  8
DETAIL
  6
CONTINUOUS
 62
     5
 10
-359.0
 20
-233.0
 30
0.0
 11
-364.0
 21
-233.0
 31
0.0
  0
ARC
  5
79
  8
DETAIL
  6
CONTINUOUS
 62
     5
 10
-374.0
 20
-238.0
 30
0.0
 40
5.0
 50
8.365886
 51
188.365886
  0
ARC
  5
7A
  8
DETAIL
  6
CONTINUOUS
 62
     5
 10
-364.0
 20
-238.0
 30
0.0
 40
5.0
 50
90.0
 51
188.365886
  0
LINE
  5
7B
  8
DETAIL
  6
CONTINUOUS
 62
     5
 10
-308.5
 20
-167.4
 30
0.0
 11
-320.5
 21
-167.4
 31
0.0
  0
CIRCLE
  5
7C
  8
DETAIL
  6
CONTINUOUS
 62
     5
 10
-316.0
 20
-197.6
 30
0.0
 40
2.5
  0
LINE
  5
7D
  8
DETAIL
  6
CONTINUOUS
 62
     5
 10
-308.5
 20
-168.8
 30
0.0
 11
-318.0
 21
-168.8
 31
0.0
  0
LINE
  5
7E
  8
DETAIL
  6
CONTINUOUS
 62
     5
 10
-318.0
 20
-168.8
 30
0.0
 11
-324.0
 21
-174.8
 31
0.0
  0
LINE
  5
7F
  8
DETAIL
  6
CONTINUOUS
 62
     5
 10
-308.5
 20
-168.2
 30
0.0
 11
-308.5
 21
-167.4
 31
0.0
  0
LINE
  5
80
  8
DETAIL
  6
CONTINUOUS
 62
     5
 10
-308.5
 20
-168.8
 30
0.0
 11
-308.5
 21
-168.2
 31
0.0
  0
LINE
  5
81
  8
DETAIL
  6
CONTINUOUS
 62
     5
 10
-255.55019
 20
-165.677314
 30
0.0
 11
-240.44981
 21
-165.677314
 31
0.0
  0
LINE
  5
82
  8
DETAIL
  6
CONTINUOUS
 62
     5
 10
-374.001839
 20
-27.0
 30
0.0
 11
-374.001839
 21
-36.6
 31
0.0
  0
ARC
  5
83
  8
DETAIL
  6
CONTINUOUS
 62
     5
 10
-248.0
 20
-152.6
 30
0.0
 40
17.0
 50
0.0
 51
180.0
  0
LINE
  5
84
  8
NOTE
  6
CONTINUOUS
 62
     4
 10
-233.899558
 20
-152.6
 30
0.0
 11
-262.100442
 21
-152.6
 31
0.0
  0
LINE
  5
85
  8
DETAIL
  6
CONTINUOUS
 62
     5
 10
-240.44981
 20
-139.522686
 30
0.0
 11
-255.55019
 21
-139.522686
 31
0.0
  0
CIRCLE
  5
86
  8
DETAIL
  6
CONTINUOUS
 62
     5
 10
-248.0
 20
-152.6
 30
0.0
 40
11.100442
  0
LINE
  5
87
  8
DETAIL
  6
CONTINUOUS
 62
     5
 10
-255.55019
 20
-139.522686
 30
0.0
 11
-263.100381
 21
-152.6
 31
0.0
  0
LINE
  5
88
  8
DETAIL
  6
CONTINUOUS
 62
     5
 10
-232.899619
 20
-152.6
 30
0.0
 11
-240.44981
 21
-139.522686
 31
0.0
  0
LINE
  5
89
  8
DETAIL
  6
CONTINUOUS
 62
     5
 10
-320.0
 20
-45.6
 30
0.0
 11
-265.0
 21
-45.6
 31
0.0
  0
CIRCLE
  5
8A
  8
DETAIL
  6
CONTINUOUS
 62
     5
 10
-316.0
 20
-29.6
 30
0.0
 40
2.5
  0
CIRCLE
  5
8B
  8
DETAIL
  6
CONTINUOUS
 62
     5
 10
-316.0
 20
-29.6
 30
0.0
 40
2.5
  0
LINE
  5
8C
  8
DETAIL
  6
CONTINUOUS
 62
     5
 10
-320.0
 20
-45.6
 30
0.0
 11
-324.0
 21
-41.6
 31
0.0
  0
LINE
  5
8D
  8
DETAIL
  6
CONTINUOUS
 62
     5
 10
-262.0
 20
-22.6
 30
0.0
 11
-262.0
 21
-42.6
 31
0.0
  0
LINE
  5
8E
  8
DETAIL
  6
CONTINUOUS
 62
     5
 10
-234.0
 20
-22.6
 30
0.0
 11
-234.0
 21
-42.6
 31
0.0
  0
LINE
  5
8F
  8
NOTE
  6
CONTINUOUS
 62
     4
 10
-248.0
 20
-33.600316
 30
0.0
 11
-248.0
 21
-11.599684
 31
0.0
  0
LINE
  5
90
  8
DETAIL
  6
CONTINUOUS
 62
     5
 10
-237.029468
 20
-22.6
 30
0.0
 11
-242.514734
 21
-32.100759
 31
0.0
  0
LINE
  5
91
  8
DETAIL
  6
CONTINUOUS
 62
     5
 10
-253.485266
 20
-32.100759
 30
0.0
 11
-258.970532
 21
-22.6
 31
0.0
  0
CIRCLE
  5
92
  8
DETAIL
  6
CONTINUOUS
 62
     5
 10
-248.0
 20
-22.6
 30
0.0
 40
8.000316
  0
LINE
  5
93
  8
DETAIL
  6
CONTINUOUS
 62
     5
 10
-262.0
 20
-36.6
 30
0.0
 11
-234.0
 21
-36.6
 31
0.0
  0
LINE
  5
94
  8
DETAIL
  6
CONTINUOUS
 62
     5
 10
-242.514734
 20
-32.100759
 30
0.0
 11
-253.485266
 21
-32.100759
 31
0.0
  0
LINE
  5
95
  8
DETAIL
  6
CONTINUOUS
 62
     5
 10
-262.0
 20
-42.6
 30
0.0
 11
-265.0
 21
-45.6
 31
0.0
  0
LINE
  5
96
  8
DETAIL
  6
CONTINUOUS
 62
     5
 10
-231.0
 20
-45.6
 30
0.0
 11
-234.0
 21
-42.6
 31
0.0
  0
ARC
  5
97
  8
DETAIL
  6
CONTINUOUS
 62
     5
 10
-248.0
 20
-22.6
 30
0.0
 40
14.0
 50
0.0
 51
180.0
  0
LINE
  5
98
  8
NOTE
  6
CONTINUOUS
 62
     4
 10
-236.999684
 20
-22.6
 30
0.0
 11
-259.000316
 21
-22.6
 31
0.0
  0
LINE
  5
99
  8
DETAIL
  6
CONTINUOUS
 62
     5
 10
-253.485266
 20
-13.099241
 30
0.0
 11
-242.514734
 21
-13.099241
 31
0.0
  0
LINE
  5
9A
  8
DETAIL
  6
CONTINUOUS
 62
     5
 10
-258.970532
 20
-22.6
 30
0.0
 11
-253.485266
 21
-13.099241
 31
0.0
  0
LINE
  5
9B
  8
DETAIL
  6
CONTINUOUS
 62
     5
 10
-237.029468
 20
-22.6
 30
0.0
 11
-242.514734
 21
-13.099241
 31
0.0
  0
LINE
  5
9C
  8
DETAIL
  6
CONTINUOUS
 62
     5
 10
-85.0
 20
-152.6
 30
0.0
 11
-85.0
 21
-168.2
 31
0.0
  0
LINE
  5
9D
  8
DETAIL
  6
CONTINUOUS
 62
     5
 10
-51.0
 20
-168.2
 30
0.0
 11
-51.0
 21
-152.6
 31
0.0
  0
LINE
  5
9E
  8
DETAIL
  6
CONTINUOUS
 62
     5
 10
-145.0
 20
-152.6
 30
0.0
 11
-145.0
 21
-168.2
 31
0.0
  0
LINE
  5
9F
  8
DETAIL
  6
CONTINUOUS
 62
     5
 10
-111.0
 20
-168.2
 30
0.0
 11
-111.0
 21
-152.6
 31
0.0
  0
LINE
  5
A0
  8
DETAIL
  6
CONTINUOUS
 62
     5
 10
-205.0
 20
-152.6
 30
0.0
 11
-205.0
 21
-168.2
 31
0.0
  0
LINE
  5
A1
  8
DETAIL
  6
CONTINUOUS
 62
     5
 10
-171.0
 20
-168.2
 30
0.0
 11
-171.0
 21
-152.6
 31
0.0
  0
LINE
  5
A2
  8
NOTE
  6
CONTINUOUS
 62
     4
 10
-68.0
 20
-138.499558
 30
0.0
 11
-68.0
 21
-166.700442
 31
0.0
  0
LINE
  5
A3
  8
DETAIL
  6
CONTINUOUS
 62
     5
 10
-52.899619
 20
-152.6
 30
0.0
 11
-60.44981
 21
-165.677314
 31
0.0
  0
LINE
  5
A4
  8
DETAIL
  6
CONTINUOUS
 62
     5
 10
-83.100381
 20
-152.6
 30
0.0
 11
-75.55019
 21
-165.677314
 31
0.0
  0
LINE
  5
A5
  8
NOTE
  6
CONTINUOUS
 62
     4
 10
-128.0
 20
-138.499558
 30
0.0
 11
-128.0
 21
-166.700442
 31
0.0
  0
LINE
  5
A6
  8
DETAIL
  6
CONTINUOUS
 62
     5
 10
-112.899619
 20
-152.6
 30
0.0
 11
-120.44981
 21
-165.677314
 31
0.0
  0
LINE
  5
A7
  8
DETAIL
  6
CONTINUOUS
 62
     5
 10
-143.100381
 20
-152.6
 30
0.0
 11
-135.55019
 21
-165.677314
 31
0.0
  0
LINE
  5
A8
  8
NOTE
  6
CONTINUOUS
 62
     4
 10
-188.0
 20
-138.499558
 30
0.0
 11
-188.0
 21
-166.700442
 31
0.0
  0
LINE
  5
A9
  8
DETAIL
  6
CONTINUOUS
 62
     5
 10
-172.899619
 20
-152.6
 30
0.0
 11
-180.44981
 21
-165.677314
 31
0.0
  0
LINE
  5
AA
  8
DETAIL
  6
CONTINUOUS
 62
     5
 10
-203.100381
 20
-152.6
 30
0.0
 11
-195.55019
 21
-165.677314
 31
0.0
  0
LINE
  5
AB
  8
DETAIL
  6
CONTINUOUS
 62
     5
 10
-195.55019
 20
-165.677314
 30
0.0
 11
-180.44981
 21
-165.677314
 31
0.0
  0
LINE
  5
AC
  8
DETAIL
  6
CONTINUOUS
 62
     5
 10
-135.55019
 20
-165.677314
 30
0.0
 11
-120.44981
 21
-165.677314
 31
0.0
  0
LINE
  5
AD
  8
DETAIL
  6
CONTINUOUS
 62
     5
 10
-75.55019
 20
-165.677314
 30
0.0
 11
-60.44981
 21
-165.677314
 31
0.0
  0
LINE
  5
AE
  8
DETAIL
  6
CONTINUOUS
 62
     5
 10
-111.0
 20
-45.6
 30
0.0
 11
-85.0
 21
-45.6
 31
0.0
  0
ARC
  5
AF
  8
DETAIL
  6
CONTINUOUS
 62
     5
 10
-188.0
 20
-152.6
 30
0.0
 40
17.0
 50
0.0
 51
180.0
  0
LINE
  5
B0
  8
NOTE
  6
CONTINUOUS
 62
     4
 10
-173.899558
 20
-152.6
 30
0.0
 11
-202.100442
 21
-152.6
 31
0.0
  0
LINE
  5
B1
  8
DETAIL
  6
CONTINUOUS
 62
     5
 10
-180.44981
 20
-139.522686
 30
0.0
 11
-195.55019
 21
-139.522686
 31
0.0
  0
CIRCLE
  5
B2
  8
DETAIL
  6
CONTINUOUS
 62
     5
 10
-188.0
 20
-152.6
 30
0.0
 40
11.100442
  0
LINE
  5
B3
  8
DETAIL
  6
CONTINUOUS
 62
     5
 10
-195.55019
 20
-139.522686
 30
0.0
 11
-203.100381
 21
-152.6
 31
0.0
  0
LINE
  5
B4
  8
DETAIL
  6
CONTINUOUS
 62
     5
 10
-172.899619
 20
-152.6
 30
0.0
 11
-180.44981
 21
-139.522686
 31
0.0
  0
ARC
  5
B5
  8
DETAIL
  6
CONTINUOUS
 62
     5
 10
-128.0
 20
-152.6
 30
0.0
 40
17.0
 50
0.0
 51
180.0
  0
LINE
  5
B6
  8
NOTE
  6
CONTINUOUS
 62
     4
 10
-113.899558
 20
-152.6
 30
0.0
 11
-142.100442
 21
-152.6
 31
0.0
  0
LINE
  5
B7
  8
DETAIL
  6
CONTINUOUS
 62
     5
 10
-120.44981
 20
-139.522686
 30
0.0
 11
-135.55019
 21
-139.522686
 31
0.0
  0
CIRCLE
  5
B8
  8
DETAIL
  6
CONTINUOUS
 62
     5
 10
-128.0
 20
-152.6
 30
0.0
 40
11.100442
  0
LINE
  5
B9
  8
DETAIL
  6
CONTINUOUS
 62
     5
 10
-135.55019
 20
-139.522686
 30
0.0
 11
-143.100381
 21
-152.6
 31
0.0
  0
LINE
  5
BA
  8
DETAIL
  6
CONTINUOUS
 62
     5
 10
-112.899619
 20
-152.6
 30
0.0
 11
-120.44981
 21
-139.522686
 31
0.0
  0
LINE
  5
BB
  8
DETAIL
  6
CONTINUOUS
 62
     5
 10
-171.0
 20
-45.6
 30
0.0
 11
-145.0
 21
-45.6
 31
0.0
  0
LINE
  5
BC
  8
DETAIL
  6
CONTINUOUS
 62
     5
 10
-174.0
 20
-22.6
 30
0.0
 11
-174.0
 21
-42.6
 31
0.0
  0
LINE
  5
BD
  8
DETAIL
  6
CONTINUOUS
 62
     5
 10
-202.0
 20
-22.6
 30
0.0
 11
-202.0
 21
-42.6
 31
0.0
  0
LINE
  5
BE
  8
NOTE
  6
CONTINUOUS
 62
     4
 10
-188.0
 20
-33.600316
 30
0.0
 11
-188.0
 21
-11.599684
 31
0.0
  0
CIRCLE
  5
BF
  8
DETAIL
  6
CONTINUOUS
 62
     5
 10
-188.0
 20
-22.6
 30
0.0
 40
8.000316
  0
LINE
  5
C0
  8
DETAIL
  6
CONTINUOUS
 62
     5
 10
-193.485266
 20
-32.100759
 30
0.0
 11
-198.970532
 21
-22.6
 31
0.0
  0
LINE
  5
C1
  8
DETAIL
  6
CONTINUOUS
 62
     5
 10
-177.029468
 20
-22.6
 30
0.0
 11
-182.514734
 21
-32.100759
 31
0.0
  0
LINE
  5
C2
  8
DETAIL
  6
CONTINUOUS
 62
     5
 10
-202.0
 20
-36.6
 30
0.0
 11
-174.0
 21
-36.6
 31
0.0
  0
LINE
  5
C3
  8
DETAIL
  6
CONTINUOUS
 62
     5
 10
-182.514734
 20
-32.100759
 30
0.0
 11
-193.485266
 21
-32.100759
 31
0.0
  0
LINE
  5
C4
  8
DETAIL
  6
CONTINUOUS
 62
     5
 10
-202.0
 20
-42.6
 30
0.0
 11
-205.0
 21
-45.6
 31
0.0
  0
LINE
  5
C5
  8
DETAIL
  6
CONTINUOUS
 62
     5
 10
-171.0
 20
-45.6
 30
0.0
 11
-174.0
 21
-42.6
 31
0.0
  0
ARC
  5
C6
  8
DETAIL
  6
CONTINUOUS
 62
     5
 10
-188.0
 20
-22.6
 30
0.0
 40
14.0
 50
0.0
 51
180.0
  0
LINE
  5
C7
  8
NOTE
  6
CONTINUOUS
 62
     4
 10
-176.999684
 20
-22.6
 30
0.0
 11
-199.000316
 21
-22.6
 31
0.0
  0
LINE
  5
C8
  8
DETAIL
  6
CONTINUOUS
 62
     5
 10
-193.485266
 20
-13.099241
 30
0.0
 11
-182.514734
 21
-13.099241
 31
0.0
  0
LINE
  5
C9
  8
DETAIL
  6
CONTINUOUS
 62
     5
 10
-198.970532
 20
-22.6
 30
0.0
 11
-193.485266
 21
-13.099241
 31
0.0
  0
LINE
  5
CA
  8
DETAIL
  6
CONTINUOUS
 62
     5
 10
-177.029468
 20
-22.6
 30
0.0
 11
-182.514734
 21
-13.099241
 31
0.0
  0
LINE
  5
CB
  8
DETAIL
  6
CONTINUOUS
 62
     5
 10
-142.0
 20
-22.6
 30
0.0
 11
-142.0
 21
-42.6
 31
0.0
  0
LINE
  5
CC
  8
DETAIL
  6
CONTINUOUS
 62
     5
 10
-114.0
 20
-22.6
 30
0.0
 11
-114.0
 21
-42.6
 31
0.0
  0
LINE
  5
CD
  8
DETAIL
  6
CONTINUOUS
 62
     5
 10
-117.029468
 20
-22.6
 30
0.0
 11
-122.514734
 21
-32.100759
 31
0.0
  0
LINE
  5
CE
  8
DETAIL
  6
CONTINUOUS
 62
     5
 10
-133.485266
 20
-32.100759
 30
0.0
 11
-138.970532
 21
-22.6
 31
0.0
  0
CIRCLE
  5
CF
  8
DETAIL
  6
CONTINUOUS
 62
     5
 10
-128.0
 20
-22.6
 30
0.0
 40
8.000316
  0
LINE
  5
D0
  8
NOTE
  6
CONTINUOUS
 62
     4
 10
-128.0
 20
-33.600316
 30
0.0
 11
-128.0
 21
-11.599684
 31
0.0
  0
LINE
  5
D1
  8
DETAIL
  6
CONTINUOUS
 62
     5
 10
-142.0
 20
-36.6
 30
0.0
 11
-114.0
 21
-36.6
 31
0.0
  0
LINE
  5
D2
  8
DETAIL
  6
CONTINUOUS
 62
     5
 10
-142.0
 20
-42.6
 30
0.0
 11
-145.0
 21
-45.6
 31
0.0
  0
LINE
  5
D3
  8
DETAIL
  6
CONTINUOUS
 62
     5
 10
-122.514734
 20
-32.100759
 30
0.0
 11
-133.485266
 21
-32.100759
 31
0.0
  0
LINE
  5
D4
  8
DETAIL
  6
CONTINUOUS
 62
     5
 10
-111.0
 20
-45.6
 30
0.0
 11
-114.0
 21
-42.6
 31
0.0
  0
ARC
  5
D5
  8
DETAIL
  6
CONTINUOUS
 62
     5
 10
-128.0
 20
-22.6
 30
0.0
 40
14.0
 50
0.0
 51
180.0
  0
LINE
  5
D6
  8
DETAIL
  6
CONTINUOUS
 62
     5
 10
-117.029468
 20
-22.6
 30
0.0
 11
-122.514734
 21
-13.099241
 31
0.0
  0
LINE
  5
D7
  8
NOTE
  6
CONTINUOUS
 62
     4
 10
-116.999684
 20
-22.6
 30
0.0
 11
-139.000316
 21
-22.6
 31
0.0
  0
LINE
  5
D8
  8
DETAIL
  6
CONTINUOUS
 62
     5
 10
-138.970532
 20
-22.6
 30
0.0
 11
-133.485266
 21
-13.099241
 31
0.0
  0
LINE
  5
D9
  8
DETAIL
  6
CONTINUOUS
 62
     5
 10
-133.485266
 20
-13.099241
 30
0.0
 11
-122.514734
 21
-13.099241
 31
0.0
  0
ARC
  5
DA
  8
DETAIL
  6
CONTINUOUS
 62
     5
 10
-68.0
 20
-152.6
 30
0.0
 40
17.0
 50
0.0
 51
180.0
  0
LINE
  5
DB
  8
NOTE
  6
CONTINUOUS
 62
     4
 10
-53.899558
 20
-152.6
 30
0.0
 11
-82.100442
 21
-152.6
 31
0.0
  0
LINE
  5
DC
  8
DETAIL
  6
CONTINUOUS
 62
     5
 10
-52.899619
 20
-152.6
 30
0.0
 11
-60.44981
 21
-139.522686
 31
0.0
  0
LINE
  5
DD
  8
DETAIL
  6
CONTINUOUS
 62
     5
 10
-60.44981
 20
-139.522686
 30
0.0
 11
-75.55019
 21
-139.522686
 31
0.0
  0
LINE
  5
DE
  8
DETAIL
  6
CONTINUOUS
 62
     5
 10
-75.55019
 20
-139.522686
 30
0.0
 11
-83.100381
 21
-152.6
 31
0.0
  0
CIRCLE
  5
DF
  8
DETAIL
  6
CONTINUOUS
 62
     5
 10
-68.0
 20
-152.6
 30
0.0
 40
11.100442
  0
LINE
  5
E0
  8
DETAIL
  6
CONTINUOUS
 62
     5
 10
-82.0
 20
-22.6
 30
0.0
 11
-82.0
 21
-42.6
 31
0.0
  0
LINE
  5
E1
  8
DETAIL
  6
CONTINUOUS
 62
     5
 10
-54.0
 20
-22.6
 30
0.0
 11
-54.0
 21
-42.6
 31
0.0
  0
LINE
  5
E2
  8
DETAIL
  6
CONTINUOUS
 62
     5
 10
-57.029468
 20
-22.6
 30
0.0
 11
-62.514734
 21
-32.100759
 31
0.0
  0
LINE
  5
E3
  8
DETAIL
  6
CONTINUOUS
 62
     5
 10
-73.485266
 20
-32.100759
 30
0.0
 11
-78.970532
 21
-22.6
 31
0.0
  0
CIRCLE
  5
E4
  8
DETAIL
  6
CONTINUOUS
 62
     5
 10
-68.0
 20
-22.6
 30
0.0
 40
8.000316
  0
LINE
  5
E5
  8
NOTE
  6
CONTINUOUS
 62
     4
 10
-68.0
 20
-33.600316
 30
0.0
 11
-68.0
 21
-11.599684
 31
0.0
  0
LINE
  5
E6
  8
DETAIL
  6
CONTINUOUS
 62
     5
 10
-82.0
 20
-36.6
 30
0.0
 11
-54.0
 21
-36.6
 31
0.0
  0
LINE
  5
E7
  8
DETAIL
  6
CONTINUOUS
 62
     5
 10
-82.0
 20
-42.6
 30
0.0
 11
-85.0
 21
-45.6
 31
0.0
  0
LINE
  5
E8
  8
DETAIL
  6
CONTINUOUS
 62
     5
 10
-62.514734
 20
-32.100759
 30
0.0
 11
-73.485266
 21
-32.100759
 31
0.0
  0
LINE
  5
E9
  8
DETAIL
  6
CONTINUOUS
 62
     5
 10
-51.0
 20
-45.6
 30
0.0
 11
-54.0
 21
-42.6
 31
0.0
  0
ARC
  5
EA
  8
DETAIL
  6
CONTINUOUS
 62
     5
 10
-68.0
 20
-22.6
 30
0.0
 40
14.0
 50
0.0
 51
180.0
  0
LINE
  5
EB
  8
DETAIL
  6
CONTINUOUS
 62
     5
 10
-78.970532
 20
-22.6
 30
0.0
 11
-73.485266
 21
-13.099241
 31
0.0
  0
LINE
  5
EC
  8
DETAIL
  6
CONTINUOUS
 62
     5
 10
-73.485266
 20
-13.099241
 30
0.0
 11
-62.514734
 21
-13.099241
 31
0.0
  0
LINE
  5
ED
  8
NOTE
  6
CONTINUOUS
 62
     4
 10
-56.999684
 20
-22.6
 30
0.0
 11
-79.000316
 21
-22.6
 31
0.0
  0
LINE
  5
EE
  8
DETAIL
  6
CONTINUOUS
 62
     5
 10
324.0
 20
-26.9
 30
0.0
 11
374.001839
 21
-26.9
 31
0.0
  0
LINE
  5
EF
  8
DETAIL
  6
CONTINUOUS
 62
     5
 10
324.0
 20
-163.9
 30
0.0
 11
320.5
 21
-167.4
 31
0.0
  0
LINE
  5
F0
  8
DETAIL
  6
CONTINUOUS
 62
     5
 10
324.0
 20
0.0
 30
0.0
 11
324.0
 21
-284.0
 31
0.0
  0
LINE
  5
F1
  8
DETAIL
  6
CONTINUOUS
 62
     5
 10
320.5
 20
-167.4
 30
0.0
 11
308.5
 21
-167.4
 31
0.0
  0
LINE
  5
F2
  8
DETAIL
  6
CONTINUOUS
 62
     5
 10
308.5
 20
-168.2
 30
0.0
 11
308.5
 21
-167.4
 31
0.0
  0
CIRCLE
  5
F3
  8
DETAIL
  6
CONTINUOUS
 62
     5
 10
316.0
 20
-197.6
 30
0.0
 40
2.5
  0
LINE
  5
F4
  8
DETAIL
  6
CONTINUOUS
 62
     5
 10
318.0
 20
-168.8
 30
0.0
 11
324.0
 21
-174.8
 31
0.0
  0
LINE
  5
F5
  8
DETAIL
  6
CONTINUOUS
 62
     5
 10
318.0
 20
-168.8
 30
0.0
 11
308.5
 21
-168.8
 31
0.0
  0
LINE
  5
F6
  8
DETAIL
  6
CONTINUOUS
 62
     5
 10
308.5
 20
-168.8
 30
0.0
 11
308.5
 21
-168.2
 31
0.0
  0
CIRCLE
  5
F7
  8
DETAIL
  6
CONTINUOUS
 62
     5
 10
316.0
 20
-121.6
 30
0.0
 40
2.5
  0
CIRCLE
  5
F8
  8
DETAIL
  6
CONTINUOUS
 62
     5
 10
316.0
 20
-29.6
 30
0.0
 40
2.5
  0
LINE
  5
F9
  8
DETAIL
  6
CONTINUOUS
 62
     5
 10
324.0
 20
-41.6
 30
0.0
 11
320.0
 21
-45.6
 31
0.0
  0
CIRCLE
  5
FA
  8
DETAIL
  6
CONTINUOUS
 62
     5
 10
316.0
 20
-29.6
 30
0.0
 40
2.5
  0
LINE
  5
FB
  8
DETAIL
  6
CONTINUOUS
 62
     5
 10
374.001839
 20
-26.9
 30
0.0
 11
374.001839
 21
-38.9
 31
0.0
  0
LINE
  5
FC
  8
DETAIL
  6
CONTINUOUS
 62
     5
 10
-62.514734
 20
-13.099241
 30
0.0
 11
-57.029468
 21
-22.6
 31
0.0
  0
LINE
  5
FD
  8
SIZE
  6
CONTINUOUS
 62
    30
 10
-324.0
 20
19.4
 30
0.0
 11
-324.0
 21
163.222918
 31
0.0
  0
LINE
  5
FE
  8
SIZE
  6
CONTINUOUS
 62
    30
 10
-248.0
 20
-2.6
 30
0.0
 11
-248.0
 21
163.222918
 31
0.0
  0
LINE
  5
FF
  8
SIZE
  6
CONTINUOUS
 62
    30
 10
-314.0
 20
133.222918
 30
0.0
 11
-258.0
 21
133.222918
 31
0.0
  0
CIRCLE
  5
100
  8
SIZE
  6
CONTINUOUS
 62
    30
 10
-324.0
 20
133.222918
 30
0.0
 40
5.0
  0
LINE
  5
101
  8
SIZE
  6
CONTINUOUS
 62
    30
 10
-319.0
 20
133.222918
 30
0.0
 11
-314.0
 21
133.222918
 31
0.0
  0
CIRCLE
  5
102
  8
SIZE
  6
CONTINUOUS
 62
    30
 10
-248.0
 20
133.222918
 30
0.0
 40
5.0
  0
LINE
  5
103
  8
SIZE
  6
CONTINUOUS
 62
    30
 10
-253.0
 20
133.222918
 30
0.0
 11
-258.0
 21
133.222918
 31
0.0
  0
TEXT
  5
104
  8
SIZE
  6
CONTINUOUS
 62
    30
 10
-331.257143
 20
153.222918
 30
0.0
 40
64.0
  1
76
 41
0.9
 72
     1
 11
-286.0
 21
153.222918
 31
0.0
  0
POINT
  5
105
  8
DEFPOINTS
  6
CONTINUOUS
 62
     7
 10
-324.0
 20
-0.6
 30
0.0
  0
POINT
  5
106
  8
DEFPOINTS
  6
CONTINUOUS
 62
     7
 10
-248.0
 20
-22.6
 30
0.0
  0
POINT
  5
107
  8
DEFPOINTS
  6
CONTINUOUS
 62
     7
 10
-248.0
 20
133.222918
 30
0.0
  0
LINE
  5
108
  8
SIZE
  6
CONTINUOUS
 62
    30
 10
-248.0
 20
-2.6
 30
0.0
 11
-248.0
 21
62.013707
 31
0.0
  0
LINE
  5
109
  8
SIZE
  6
CONTINUOUS
 62
    30
 10
-188.0
 20
-2.6
 30
0.0
 11
-188.0
 21
62.013707
 31
0.0
  0
LINE
  5
10A
  8
SIZE
  6
CONTINUOUS
 62
    30
 10
-258.0
 20
32.013707
 30
0.0
 11
-268.0
 21
32.013707
 31
0.0
  0
LINE
  5
10B
  8
SIZE
  6
CONTINUOUS
 62
    30
 10
-178.0
 20
32.013707
 30
0.0
 11
-168.0
 21
32.013707
 31
0.0
  0
LINE
  5
10C
  8
SIZE
  6
CONTINUOUS
 62
    30
 10
-248.0
 20
32.013707
 30
0.0
 11
-188.0
 21
32.013707
 31
0.0
  0
CIRCLE
  5
10D
  8
SIZE
  6
CONTINUOUS
 62
    30
 10
-248.0
 20
32.013707
 30
0.0
 40
5.0
  0
LINE
  5
10E
  8
SIZE
  6
CONTINUOUS
 62
    30
 10
-253.0
 20
32.013707
 30
0.0
 11
-258.0
 21
32.013707
 31
0.0
  0
CIRCLE
  5
10F
  8
SIZE
  6
CONTINUOUS
 62
    30
 10
-188.0
 20
32.013707
 30
0.0
 40
5.0
  0
LINE
  5
110
  8
SIZE
  6
CONTINUOUS
 62
    30
 10
-183.0
 20
32.013707
 30
0.0
 11
-178.0
 21
32.013707
 31
0.0
  0
TEXT
  5
111
  8
SIZE
  6
CONTINUOUS
 62
    30
 10
-264.628571
 20
52.013707
 30
0.0
 40
64.0
  1
60
 41
0.9
 72
     1
 11
-218.0
 21
52.013707
 31
0.0
  0
POINT
  5
112
  8
DEFPOINTS
  6
CONTINUOUS
 62
     7
 10
-248.0
 20
-22.6
 30
0.0
  0
POINT
  5
113
  8
DEFPOINTS
  6
CONTINUOUS
 62
     7
 10
-188.0
 20
-22.6
 30
0.0
  0
POINT
  5
114
  8
DEFPOINTS
  6
CONTINUOUS
 62
     7
 10
-188.0
 20
32.013707
 30
0.0
  0
LINE
  5
115
  8
SIZE
  6
CONTINUOUS
 62
    30
 10
-248.0
 20
-2.6
 30
0.0
 11
-248.0
 21
163.290248
 31
0.0
  0
CIRCLE
  5
116
  8
SIZE
  6
CONTINUOUS
 62
    30
 10
-248.0
 20
133.290248
 30
0.0
 40
5.0
  0
LINE
  5
117
  8
SIZE
  6
CONTINUOUS
 62
    30
 10
-243.0
 20
133.290248
 30
0.0
 11
-238.0
 21
133.290248
 31
0.0
  0
LINE
  5
118
  8
SIZE
  6
CONTINUOUS
 62
    30
 10
-324.0
 20
19.4
 30
0.0
 11
-324.0
 21
161.838086
 31
0.0
  0
LINE
  5
119
  8
SIZE
  6
CONTINUOUS
 62
    30
 10
-394.0
 20
-37.8
 30
0.0
 11
-394.0
 21
161.838086
 31
0.0
  0
LINE
  5
11A
  8
SIZE
  6
CONTINUOUS
 62
    30
 10
-334.0
 20
131.838086
 30
0.0
 11
-384.0
 21
131.838086
 31
0.0
  0
LINE
  5
11B
  8
SIZE
  6
CONTINUOUS
 62
    30
 10
-394.0
 20
131.838086
 30
0.0
 11
-537.257143
 21
131.838086
 31
0.0
  0
CIRCLE
  5
11C
  8
SIZE
  6
CONTINUOUS
 62
    30
 10
-324.0
 20
131.838086
 30
0.0
 40
5.0
  0
LINE
  5
11D
  8
SIZE
  6
CONTINUOUS
 62
    30
 10
-329.0
 20
131.838086
 30
0.0
 11
-334.0
 21
131.838086
 31
0.0
  0
CIRCLE
  5
11E
  8
SIZE
  6
CONTINUOUS
 62
    30
 10
-394.0
 20
131.838086
 30
0.0
 40
5.0
  0
LINE
  5
11F
  8
SIZE
  6
CONTINUOUS
 62
    30
 10
-389.0
 20
131.838086
 30
0.0
 11
-384.0
 21
131.838086
 31
0.0
  0
TEXT
  5
120
  8
SIZE
  6
CONTINUOUS
 62
    30
 10
-517.257142
 20
151.838086
 30
0.0
 40
64.0
  1
70
 41
0.9
 72
     1
 11
-470.628571
 21
151.838086
 31
0.0
  0
POINT
  5
121
  8
DEFPOINTS
  6
CONTINUOUS
 62
     7
 10
-324.0
 20
-0.6
 30
0.0
  0
POINT
  5
122
  8
DEFPOINTS
  6
CONTINUOUS
 62
     7
 10
-394.0
 20
-57.8
 30
0.0
  0
POINT
  5
123
  8
DEFPOINTS
  6
CONTINUOUS
 62
     7
 10
-394.0
 20
131.838086
 30
0.0
  0
LINE
  5
124
  8
DETAIL
  6
CONTINUOUS
 62
     5
 10
-374.001839
 20
-27.0
 30
0.0
 11
-324.0
 21
-27.0
 31
0.0
  0
LINE
  5
125
  8
DETAIL
  6
CONTINUOUS
 62
     5
 10
324.0
 20
-284.0
 30
0.0
 11
-324.0
 21
-284.0
 31
0.0
  0
LINE
  5
126
  8
SIZE
  6
CONTINUOUS
 62
    30
 10
-344.0
 20
0.0
 30
0.0
 11
-939.202963
 21
0.0
 31
0.0
  0
LINE
  5
127
  8
SIZE
  6
CONTINUOUS
 62
    30
 10
-344.0
 20
-284.0
 30
0.0
 11
-939.202963
 21
-284.0
 31
0.0
  0
LINE
  5
128
  8
SIZE
  6
CONTINUOUS
 62
    30
 10
-909.202963
 20
-10.0
 30
0.0
 11
-909.202963
 21
-274.0
 31
0.0
  0
CIRCLE
  5
129
  8
SIZE
  6
CONTINUOUS
 62
    30
 10
-909.202963
 20
0.0
 30
0.0
 40
5.0
  0
LINE
  5
12A
  8
SIZE
  6
CONTINUOUS
 62
    30
 10
-909.202963
 20
-5.0
 30
0.0
 11
-909.202963
 21
-10.0
 31
0.0
  0
CIRCLE
  5
12B
  8
SIZE
  6
CONTINUOUS
 62
    30
 10
-909.202963
 20
-284.0
 30
0.0
 40
5.0
  0
LINE
  5
12C
  8
SIZE
  6
CONTINUOUS
 62
    30
 10
-909.202963
 20
-279.0
 30
0.0
 11
-909.202963
 21
-274.0
 31
0.0
  0
TEXT
  5
12D
  8
SIZE
  6
CONTINUOUS
 62
    30
 10
-929.202963
 20
-217.428571
 30
0.0
 40
64.0
  1
284
 50
90.0
 41
0.9
 72
     1
 11
-929.202963
 21
-142.0
 31
0.0
  0
POINT
  5
12E
  8
DEFPOINTS
  6
CONTINUOUS
 62
     7
 10
-324.0
 20
0.0
 30
0.0
  0
POINT
  5
12F
  8
DEFPOINTS
  6
CONTINUOUS
 62
     7
 10
-324.0
 20
-284.0
 30
0.0
  0
POINT
  5
130
  8
DEFPOINTS
  6
CONTINUOUS
 62
     7
 10
-909.202963
 20
-284.0
 30
0.0
  0
LINE
  5
131
  8
NOTE
  6
CONTINUOUS
 62
     4
 10
-524.0
 20
-275.0
 30
0.0
 11
-524.0
 21
-235.0
 31
0.0
  0
LINE
  5
132
  8
NOTE
  6
CONTINUOUS
 62
     4
 10
-504.0
 20
-255.0
 30
0.0
 11
-544.0
 21
-255.0
 31
0.0
  0
LINE
  5
133
  8
NOTE
  6
CONTINUOUS
 62
     4
 10
-394.0
 20
-148.0
 30
0.0
 11
-394.0
 21
-108.0
 31
0.0
  0
LINE
  5
134
  8
NOTE
  6
CONTINUOUS
 62
     4
 10
-374.0
 20
-128.0
 30
0.0
 11
-414.0
 21
-128.0
 31
0.0
  0
LINE
  5
135
  8
NOTE
  6
CONTINUOUS
 62
     4
 10
-394.0
 20
-78.0
 30
0.0
 11
-394.0
 21
-38.0
 31
0.0
  0
LINE
  5
136
  8
NOTE
  6
CONTINUOUS
 62
     4
 10
-374.0
 20
-58.0
 30
0.0
 11
-414.0
 21
-58.0
 31
0.0
  0
LINE
  5
137
  8
NOTE
  6
CONTINUOUS
 62
     4
 10
-351.0
 20
-7.564741
 30
0.0
 11
-351.0
 21
-47.213835
 31
0.0
  0
LINE
  5
138
  8
NOTE
  6
CONTINUOUS
 62
     4
 10
-331.0
 20
-27.0
 30
0.0
 11
-371.0
 21
-27.0
 31
0.0
  0
CIRCLE
  5
139
  8
FIX
  6
CONTINUOUS
 62
    11
 10
-351.0
 20
-27.0
 30
0.0
 40
20.0
  0
LINE
  5
13A
  8
NOTE
  6
CONTINUOUS
 62
     4
 10
351.0
 20
-7.464741
 30
0.0
 11
351.0
 21
-47.113835
 31
0.0
  0
CIRCLE
  5
13B
  8
FIX
  6
CONTINUOUS
 62
    11
 10
351.0
 20
-26.9
 30
0.0
 40
20.0
  0
TEXT
  5
13C
  8
ETC
  6
CONTINUOUS
 62
    61
 10
340.658823
 20
528.607599
 30
0.0
 40
64.0
  1
R2用分流コントローラ
 41
0.9
  0
TEXT
  5
13D
  8
ETC
  6
CONTINUOUS
 62
    61
 10
340.658823
 20
423.007599
 30
0.0
 40
64.0
  1
CMB-P108G_2
 41
0.9
  0
LINE
  5
13E
  8
SIZE
  6
CONTINUOUS
 62
    30
 10
-351.0
 20
-4.6
 30
0.0
 11
-351.0
 21
290.065711
 31
0.0
  0
LINE
  5
13F
  8
SIZE
  6
CONTINUOUS
 62
    30
 10
351.0
 20
-4.6
 30
0.0
 11
351.0
 21
290.065711
 31
0.0
  0
LINE
  5
140
  8
SIZE
  6
CONTINUOUS
 62
    30
 10
-341.0
 20
260.065711
 30
0.0
 11
341.0
 21
260.065711
 31
0.0
  0
CIRCLE
  5
141
  8
SIZE
  6
CONTINUOUS
 62
    30
 10
-351.0
 20
260.065711
 30
0.0
 40
5.0
  0
LINE
  5
142
  8
SIZE
  6
CONTINUOUS
 62
    30
 10
-346.0
 20
260.065711
 30
0.0
 11
-341.0
 21
260.065711
 31
0.0
  0
CIRCLE
  5
143
  8
SIZE
  6
CONTINUOUS
 62
    30
 10
351.0
 20
260.065711
 30
0.0
 40
5.0
  0
LINE
  5
144
  8
SIZE
  6
CONTINUOUS
 62
    30
 10
346.0
 20
260.065711
 30
0.0
 11
341.0
 21
260.065711
 31
0.0
  0
TEXT
  5
145
  8
SIZE
  6
CONTINUOUS
 62
    30
 10
-156.053535
 20
280.065711
 30
0.0
 40
64.0
  1
702
 41
0.9
 72
     1
 11
-81.996392
 21
280.065711
 31
0.0
  0
POINT
  5
146
  8
DEFPOINTS
  6
CONTINUOUS
 62
     7
 10
-351.0
 20
-24.6
 30
0.0
  0
POINT
  5
147
  8
DEFPOINTS
  6
CONTINUOUS
 62
     7
 10
351.0
 20
-24.6
 30
0.0
  0
POINT
  5
148
  8
DEFPOINTS
  6
CONTINUOUS
 62
     7
 10
351.0
 20
260.065711
 30
0.0
  0
LINE
  5
149
  8
NOTE
  6
CONTINUOUS
 62
     4
 10
331.0
 20
-26.9
 30
0.0
 11
371.0
 21
-26.9
 31
0.0
  0
LINE
  5
14A
  8
SIZE
  6
CONTINUOUS
 62
    30
 10
-344.0
 20
0.0
 30
0.0
 11
-468.671515
 21
0.0
 31
0.0
  0
LINE
  5
14B
  8
SIZE
  6
CONTINUOUS
 62
    30
 10
-371.0
 20
-27.0
 30
0.0
 11
-468.671515
 21
-27.0
 31
0.0
  0
LINE
  5
14C
  8
SIZE
  6
CONTINUOUS
 62
    30
 10
-438.671515
 20
10.0
 30
0.0
 11
-438.671515
 21
20.0
 31
0.0
  0
LINE
  5
14D
  8
SIZE
  6
CONTINUOUS
 62
    30
 10
-438.671515
 20
-37.0
 30
0.0
 11
-438.671515
 21
-47.0
 31
0.0
  0
LINE
  5
14E
  8
SIZE
  6
CONTINUOUS
 62
    30
 10
-438.671515
 20
0.0
 30
0.0
 11
-438.671515
 21
-27.0
 31
0.0
  0
CIRCLE
  5
14F
  8
SIZE
  6
CONTINUOUS
 62
    30
 10
-438.671515
 20
0.0
 30
0.0
 40
5.0
  0
LINE
  5
150
  8
SIZE
  6
CONTINUOUS
 62
    30
 10
-438.671515
 20
5.0
 30
0.0
 11
-438.671515
 21
10.0
 31
0.0
  0
CIRCLE
  5
151
  8
SIZE
  6
CONTINUOUS
 62
    30
 10
-438.671515
 20
-27.0
 30
0.0
 40
5.0
  0
LINE
  5
152
  8
SIZE
  6
CONTINUOUS
 62
    30
 10
-438.671515
 20
-32.0
 30
0.0
 11
-438.671515
 21
-37.0
 31
0.0
  0
TEXT
  5
153
  8
SIZE
  6
CONTINUOUS
 62
    30
 10
-458.671515
 20
-60.128571
 30
0.0
 40
64.0
  1
27
 50
90.0
 41
0.9
 72
     1
 11
-458.671515
 21
-13.5
 31
0.0
  0
POINT
  5
154
  8
DEFPOINTS
  6
CONTINUOUS
 62
     7
 10
-324.0
 20
0.0
 30
0.0
  0
POINT
  5
155
  8
DEFPOINTS
  6
CONTINUOUS
 62
     7
 10
-351.0
 20
-27.0
 30
0.0
  0
POINT
  5
156
  8
DEFPOINTS
  6
CONTINUOUS
 62
     7
 10
-438.671515
 20
-27.0
 30
0.0
  0
LINE
  5
157
  8
SIZE
  6
CONTINUOUS
 62
    30
 10
-324.0
 20
-304.0
 30
0.0
 11
-324.0
 21
-468.66389
 31
0.0
  0
LINE
  5
158
  8
SIZE
  6
CONTINUOUS
 62
    30
 10
324.0
 20
-304.0
 30
0.0
 11
324.0
 21
-468.66389
 31
0.0
  0
LINE
  5
159
  8
SIZE
  6
CONTINUOUS
 62
    30
 10
-314.0
 20
-438.66389
 30
0.0
 11
314.0
 21
-438.66389
 31
0.0
  0
CIRCLE
  5
15A
  8
SIZE
  6
CONTINUOUS
 62
    30
 10
-324.0
 20
-438.66389
 30
0.0
 40
5.0
  0
LINE
  5
15B
  8
SIZE
  6
CONTINUOUS
 62
    30
 10
-319.0
 20
-438.66389
 30
0.0
 11
-314.0
 21
-438.66389
 31
0.0
  0
CIRCLE
  5
15C
  8
SIZE
  6
CONTINUOUS
 62
    30
 10
324.0
 20
-438.66389
 30
0.0
 40
5.0
  0
LINE
  5
15D
  8
SIZE
  6
CONTINUOUS
 62
    30
 10
319.0
 20
-438.66389
 30
0.0
 11
314.0
 21
-438.66389
 31
0.0
  0
TEXT
  5
15E
  8
SIZE
  6
CONTINUOUS
 62
    30
 10
-81.091041
 20
-418.66389
 30
0.0
 40
64.0
  1
648
 41
0.9
 72
     1
 11
-7.033898
 21
-418.66389
 31
0.0
  0
POINT
  5
15F
  8
DEFPOINTS
  6
CONTINUOUS
 62
     7
 10
-324.0
 20
-284.0
 30
0.0
  0
POINT
  5
160
  8
DEFPOINTS
  6
CONTINUOUS
 62
     7
 10
324.0
 20
-284.0
 30
0.0
  0
POINT
  5
161
  8
DEFPOINTS
  6
CONTINUOUS
 62
     7
 10
324.0
 20
-438.66389
 30
0.0
  0
TEXT
  5
162
  8
SIZE
  6
CONTINUOUS
 62
    30
 10
6.780415
 20
299.878433
 30
0.0
 40
35.0
  1
（吊りボルトピッチ）
 41
0.9
  0
LINE
  5
163
  8
BASIS
  6
DASHDOT
 62
     6
 10
0.0
 20
75.0
 30
0.0
 11
0.0
 21
-344.0
 31
0.0
  0
CIRCLE
  5
164
  8
ARRANGE
  6
CONTINUOUS
 62
     1
 10
0.0
 20
0.0
 30
0.0
 40
40.0
  0
POINT
  5
165
  8
ARRANGE
  6
CONTINUOUS
 62
     1
 10
0.0
 20
0.0
 30
0.0
  0
TEXT
  5
166
  8
NOTE
  6
CONTINUOUS
 62
     4
 10
414.099327
 20
-107.219267
 30
0.0
 40
64.0
  1
AH4-12×14長穴
 41
0.9
  0
POLYLINE
  5
167
  8
NOTE
  6
CONTINUOUS
 62
     4
 66
     1
 10
0.0
 20
0.0
 30
0.0
  0
VERTEX
  5
168
  8
NOTE
  6
CONTINUOUS
 62
     4
 10
351.0
 20
-26.9
 30
0.0
  0
VERTEX
  5
169
  8
NOTE
  6
CONTINUOUS
 62
     4
 10
384.099327
 20
-127.219267
 30
0.0
  0
VERTEX
  5
16A
  8
NOTE
  6
CONTINUOUS
 62
     4
 10
1065.802184
 20
-127.219267
 30
0.0
  0
SEQEND
  5
16B
  8
NOTE
  6
CONTINUOUS
 62
     4
  0
LINE
  5
16C
  8
NOTE
  6
CONTINUOUS
 62
     4
 10
351.588692
 20
-37.236011
 30
0.0
 11
351.0
 21
-26.9
 31
0.0
  0
LINE
  5
16D
  8
NOTE
  6
CONTINUOUS
 62
     4
 10
351.0
 20
-26.9
 30
0.0
 11
356.677827
 21
-35.556902
 31
0.0
  0
LINE
  5
16E
  8
OUTLINE
  6
CONTINUOUS
 62
     3
 10
-324.0
 20
0.0
 30
0.0
 11
324.0
 21
0.0
 31
0.0
  0
LINE
  5
16F
  8
OUTLINE
  6
CONTINUOUS
 62
     3
 10
324.0
 20
0.0
 30
0.0
 11
324.0
 21
-284.0
 31
0.0
  0
LINE
  5
170
  8
OUTLINE
  6
CONTINUOUS
 62
     3
 10
324.0
 20
-284.0
 30
0.0
 11
-324.0
 21
-284.0
 31
0.0
  0
LINE
  5
171
  8
OUTLINE
  6
CONTINUOUS
 62
     3
 10
-324.0
 20
-284.0
 30
0.0
 11
-324.0
 21
0.0
 31
0.0
  0
CIRCLE
  5
172
  8
DETAIL
  6
CONTINUOUS
 62
     5
 10
-248.0
 20
-22.6
 30
0.0
 40
4.76
  0
CIRCLE
  5
173
  8
DETAIL
  6
CONTINUOUS
 62
     5
 10
-248.0
 20
-152.6
 30
0.0
 40
7.94
  0
CIRCLE
  5
174
  8
DETAIL
  6
CONTINUOUS
 62
     5
 10
-188.0
 20
-22.6
 30
0.0
 40
4.76
  0
CIRCLE
  5
175
  8
DETAIL
  6
CONTINUOUS
 62
     5
 10
-128.0
 20
-22.6
 30
0.0
 40
4.76
  0
CIRCLE
  5
176
  8
DETAIL
  6
CONTINUOUS
 62
     5
 10
-68.0
 20
-22.6
 30
0.0
 40
4.76
  0
CIRCLE
  5
177
  8
DETAIL
  6
CONTINUOUS
 62
     5
 10
-188.0
 20
-152.6
 30
0.0
 40
7.94
  0
CIRCLE
  5
178
  8
DETAIL
  6
CONTINUOUS
 62
     5
 10
-128.0
 20
-152.6
 30
0.0
 40
7.94
  0
CIRCLE
  5
179
  8
DETAIL
  6
CONTINUOUS
 62
     5
 10
-68.0
 20
-152.6
 30
0.0
 40
7.94
  0
TEXT
  5
17A
  8
NOTE
  6
CONTINUOUS
 62
     4
 10
-1246.154928
 20
-377.539833
 30
0.0
 40
64.0
  1
D　VP-25（オス）
 41
0.9
 72
     2
 11
-595.549214
 21
-377.539833
 31
0.0
  0
TEXT
  5
17B
  8
NOTE
  6
CONTINUOUS
 62
     4
 10
-1891.457168
 20
349.802387
 30
0.0
 40
64.0
  1
室外ユニット側配管接続口（高圧）
 41
0.9
 72
     2
 11
-831.617168
 21
349.802387
 31
0.0
  0
TEXT
  5
17C
  8
NOTE
  6
CONTINUOUS
 62
     4
 10
-2255.890068
 20
246.571835
 30
0.0
 40
50.0
  1
           224形：φ15.88〈ロウ付〉(付属配管を使用)
 41
0.9
  0
TEXT
  5
17D
  8
NOTE
  6
CONTINUOUS
 62
     4
 10
-2255.890068
 20
164.071835
 30
0.0
 40
50.0
  1
280.335.400形：φ19.05〈ロウ付〉
 41
0.9
  0
TEXT
  5
17E
  8
NOTE
  6
CONTINUOUS
 62
     4
 10
-1881.96251
 20
802.626451
 30
0.0
 40
64.0
  1
室外ユニット側配管接続口（低圧）
 41
0.9
 72
     2
 11
-822.12251
 21
802.626451
 31
0.0
  0
TEXT
  5
17F
  8
NOTE
  6
CONTINUOUS
 62
     4
 10
-1994.503032
 20
703.134865
 30
0.0
 40
50.0
  1
224形：φ19.05〈ロウ付〉（付属配管を使用）
 41
0.9
  0
TEXT
  5
180
  8
NOTE
  6
CONTINUOUS
 62
     4
 10
-2142.887437
 20
632.105741
 30
0.0
 40
50.0
  1
280.335形：φ22.2〈ロウ付〉
 41
0.9
  0
TEXT
  5
181
  8
NOTE
  6
CONTINUOUS
 62
     4
 10
-1993.211735
 20
560.150723
 30
0.0
 40
50.0
  1
400形：φ25.4〈ロウ付〉（付属配管を使用）
 41
0.9
  0
TEXT
  5
182
  8
NOTE
  6
CONTINUOUS
 62
     4
 10
-1623.031343
 20
-615.874237
 30
0.0
 40
64.0
  1
室内ユニット側配管接続口（ガス）
 41
0.9
 72
     2
 11
-563.191343
 21
-615.874237
 31
0.0
  0
TEXT
  5
183
  8
NOTE
  6
CONTINUOUS
 62
     4
 10
-1533.826421
 20
-715.731837
 30
0.0
 40
50.0
  1
φ15.88〈フレア〉
 41
0.9
  0
LINE
  5
184
  8
DETAIL
  6
CONTINUOUS
 62
     5
 10
-394.0
 20
-45.3
 30
0.0
 11
-324.0
 21
-45.3
 31
0.0
  0
LINE
  5
185
  8
DETAIL
  6
CONTINUOUS
 62
     5
 10
-394.0
 20
-70.7
 30
0.0
 11
-324.0
 21
-70.7
 31
0.0
  0
LINE
  5
186
  8
DETAIL
  6
CONTINUOUS
 62
     5
 10
-394.0
 20
-118.475
 30
0.0
 11
-324.0
 21
-118.475
 31
0.0
  0
LINE
  5
187
  8
DETAIL
  6
CONTINUOUS
 62
     5
 10
-394.0
 20
-137.525
 30
0.0
 11
-324.0
 21
-137.525
 31
0.0
  0
LINE
  5
188
  8
DETAIL
  6
CONTINUOUS
 62
     5
 10
-394.0
 20
-45.3
 30
0.0
 11
-394.0
 21
-70.7
 31
0.0
  0
LINE
  5
189
  8
DETAIL
  6
CONTINUOUS
 62
     5
 10
-394.0
 20
-118.475
 30
0.0
 11
-394.0
 21
-137.525
 31
0.0
  0
POLYLINE
  5
18A
  8
NOTE
  6
CONTINUOUS
 62
     4
 66
     1
 10
0.0
 20
0.0
 30
0.0
  0
VERTEX
  5
18B
  8
NOTE
  6
CONTINUOUS
 62
     4
 10
-248.0
 20
-152.6
 30
0.0
  0
VERTEX
  5
18C
  8
NOTE
  6
CONTINUOUS
 62
     4
 10
-533.191343
 20
-635.874237
 30
0.0
  0
VERTEX
  5
18D
  8
NOTE
  6
CONTINUOUS
 62
     4
 10
-1658.139914
 20
-635.874237
 30
0.0
  0
SEQEND
  5
18E
  8
NOTE
  6
CONTINUOUS
 62
     4
  0
POLYLINE
  5
18F
  8
NOTE
  6
CONTINUOUS
 62
     4
 66
     1
 10
0.0
 20
0.0
 30
0.0
  0
VERTEX
  5
190
  8
NOTE
  6
CONTINUOUS
 62
     4
 10
-524.0
 20
-255.0
 30
0.0
  0
VERTEX
  5
191
  8
NOTE
  6
CONTINUOUS
 62
     4
 10
-565.549214
 20
-397.539833
 30
0.0
  0
VERTEX
  5
192
  8
NOTE
  6
CONTINUOUS
 62
     4
 10
-1281.2635
 20
-397.539833
 30
0.0
  0
SEQEND
  5
193
  8
NOTE
  6
CONTINUOUS
 62
     4
  0
POLYLINE
  5
194
  8
NOTE
  6
CONTINUOUS
 62
     4
 66
     1
 10
0.0
 20
0.0
 30
0.0
  0
VERTEX
  5
195
  8
NOTE
  6
CONTINUOUS
 62
     4
 10
-394.0
 20
-128.0
 30
0.0
  0
VERTEX
  5
196
  8
NOTE
  6
CONTINUOUS
 62
     4
 10
-801.617168
 20
329.802387
 30
0.0
  0
VERTEX
  5
197
  8
NOTE
  6
CONTINUOUS
 62
     4
 10
-1926.565739
 20
329.802387
 30
0.0
  0
SEQEND
  5
198
  8
NOTE
  6
CONTINUOUS
 62
     4
  0
POLYLINE
  5
199
  8
NOTE
  6
CONTINUOUS
 62
     4
 66
     1
 10
0.0
 20
0.0
 30
0.0
  0
VERTEX
  5
19A
  8
NOTE
  6
CONTINUOUS
 62
     4
 10
-394.0
 20
-58.0
 30
0.0
  0
VERTEX
  5
19B
  8
NOTE
  6
CONTINUOUS
 62
     4
 10
-792.12251
 20
782.626451
 30
0.0
  0
VERTEX
  5
19C
  8
NOTE
  6
CONTINUOUS
 62
     4
 10
-1917.071082
 20
782.626451
 30
0.0
  0
SEQEND
  5
19D
  8
NOTE
  6
CONTINUOUS
 62
     4
  0
LINE
  5
19F
  8
NOTE
  6
CONTINUOUS
 62
     4
 10
-524.0
 20
-255.0
 30
0.0
 11
-520.804807
 21
-265.283329
 31
0.0
  0
LINE
  5
1A0
  8
NOTE
  6
CONTINUOUS
 62
     4
 10
-532.184949
 20
-260.812189
 30
0.0
 11
-524.0
 21
-255.0
 31
0.0
  0
LINE
  5
1A2
  8
NOTE
  6
CONTINUOUS
 62
     4
 10
-398.648652
 20
-118.74961
 30
0.0
 11
-394.0
 21
-128.0
 31
0.0
  0
LINE
  5
1A3
  8
NOTE
  6
CONTINUOUS
 62
     4
 10
-394.0
 20
-128.0
 30
0.0
 11
-402.651046
 21
-122.313253
 31
0.0
  0
LINE
  5
1A4
  8
NOTE
  6
CONTINUOUS
 62
     4
 10
-395.858623
 20
-47.815443
 30
0.0
 11
-394.0
 21
-58.0
 31
0.0
  0
LINE
  5
1A5
  8
NOTE
  6
CONTINUOUS
 62
     4
 10
-394.0
 20
-58.0
 30
0.0
 11
-400.701893
 21
-50.109226
 31
0.0
  0
LINE
  5
1A6
  8
NOTE
  6
CONTINUOUS
 62
     4
 10
-395.858623
 20
-47.815443
 30
0.0
 11
-394.0
 21
-58.0
 31
0.0
  0
LINE
  5
1A7
  8
NOTE
  6
CONTINUOUS
 62
     4
 10
-394.0
 20
-58.0
 30
0.0
 11
-400.701893
 21
-50.109226
 31
0.0
  0
LINE
  5
1A8
  8
NOTE
  6
CONTINUOUS
 62
     4
 10
-255.389915
 20
-159.850436
 30
0.0
 11
-248.0
 21
-152.6
 31
0.0
  0
LINE
  5
1A9
  8
NOTE
  6
CONTINUOUS
 62
     4
 10
-248.0
 20
-152.6
 30
0.0
 11
-250.774636
 21
-162.57402
 31
0.0
  0
LINE
  5
1AA
  8
SIZE
  6
CONTINUOUS
 62
    30
 10
-248.0
 20
-2.6
 30
0.0
 11
-248.0
 21
163.550359
 31
0.0
  0
CIRCLE
  5
1AB
  8
SIZE
  6
CONTINUOUS
 62
    30
 10
-248.0
 20
133.550359
 30
0.0
 40
5.0
  0
LINE
  5
1AC
  8
SIZE
  6
CONTINUOUS
 62
    30
 10
-243.0
 20
133.550359
 30
0.0
 11
-238.0
 21
133.550359
 31
0.0
  0
LINE
  5
1AD
  8
SIZE
  6
CONTINUOUS
 62
    30
 10
-344.0
 20
0.0
 30
0.0
 11
-600.117119
 21
0.0
 31
0.0
  0
LINE
  5
1AE
  8
SIZE
  6
CONTINUOUS
 62
    30
 10
-414.0
 20
-58.0
 30
0.0
 11
-600.117119
 21
-58.0
 31
0.0
  0
LINE
  5
1AF
  8
SIZE
  6
CONTINUOUS
 62
    30
 10
-570.117119
 20
10.0
 30
0.0
 11
-570.117119
 21
20.0
 31
0.0
  0
LINE
  5
1B0
  8
SIZE
  6
CONTINUOUS
 62
    30
 10
-570.117119
 20
-68.0
 30
0.0
 11
-570.117119
 21
-78.0
 31
0.0
  0
LINE
  5
1B1
  8
SIZE
  6
CONTINUOUS
 62
    30
 10
-570.117119
 20
0.0
 30
0.0
 11
-570.117119
 21
-58.0
 31
0.0
  0
CIRCLE
  5
1B2
  8
SIZE
  6
CONTINUOUS
 62
    30
 10
-570.117119
 20
0.0
 30
0.0
 40
5.0
  0
LINE
  5
1B3
  8
SIZE
  6
CONTINUOUS
 62
    30
 10
-570.117119
 20
5.0
 30
0.0
 11
-570.117119
 21
10.0
 31
0.0
  0
CIRCLE
  5
1B4
  8
SIZE
  6
CONTINUOUS
 62
    30
 10
-570.117119
 20
-58.0
 30
0.0
 40
5.0
  0
LINE
  5
1B5
  8
SIZE
  6
CONTINUOUS
 62
    30
 10
-570.117119
 20
-63.0
 30
0.0
 11
-570.117119
 21
-68.0
 31
0.0
  0
TEXT
  5
1B6
  8
SIZE
  6
CONTINUOUS
 62
    30
 10
-590.117119
 20
-75.628571
 30
0.0
 40
64.0
  1
58
 50
90.0
 41
0.9
 72
     1
 11
-590.117119
 21
-29.0
 31
0.0
  0
POINT
  5
1B7
  8
DEFPOINTS
  6
CONTINUOUS
 62
     7
 10
-324.0
 20
0.0
 30
0.0
  0
POINT
  5
1B8
  8
DEFPOINTS
  6
CONTINUOUS
 62
     7
 10
-394.0
 20
-58.0
 30
0.0
  0
POINT
  5
1B9
  8
DEFPOINTS
  6
CONTINUOUS
 62
     7
 10
-570.117119
 20
-58.0
 30
0.0
  0
LINE
  5
1BA
  8
SIZE
  6
CONTINUOUS
 62
    30
 10
-344.0
 20
0.0
 30
0.0
 11
-705.230393
 21
0.0
 31
0.0
  0
LINE
  5
1BB
  8
SIZE
  6
CONTINUOUS
 62
    30
 10
-414.0
 20
-128.0
 30
0.0
 11
-705.230393
 21
-128.0
 31
0.0
  0
LINE
  5
1BC
  8
SIZE
  6
CONTINUOUS
 62
    30
 10
-675.230393
 20
10.0
 30
0.0
 11
-675.230393
 21
20.0
 31
0.0
  0
LINE
  5
1BD
  8
SIZE
  6
CONTINUOUS
 62
    30
 10
-675.230393
 20
-138.0
 30
0.0
 11
-675.230393
 21
-148.0
 31
0.0
  0
LINE
  5
1BE
  8
SIZE
  6
CONTINUOUS
 62
    30
 10
-675.230393
 20
0.0
 30
0.0
 11
-675.230393
 21
-128.0
 31
0.0
  0
CIRCLE
  5
1BF
  8
SIZE
  6
CONTINUOUS
 62
    30
 10
-675.230393
 20
0.0
 30
0.0
 40
5.0
  0
LINE
  5
1C0
  8
SIZE
  6
CONTINUOUS
 62
    30
 10
-675.230393
 20
5.0
 30
0.0
 11
-675.230393
 21
10.0
 31
0.0
  0
CIRCLE
  5
1C1
  8
SIZE
  6
CONTINUOUS
 62
    30
 10
-675.230393
 20
-128.0
 30
0.0
 40
5.0
  0
LINE
  5
1C2
  8
SIZE
  6
CONTINUOUS
 62
    30
 10
-675.230393
 20
-133.0
 30
0.0
 11
-675.230393
 21
-138.0
 31
0.0
  0
TEXT
  5
1C3
  8
SIZE
  6
CONTINUOUS
 62
    30
 10
-695.230393
 20
-132.571429
 30
0.0
 40
64.0
  1
128
 50
90.0
 41
0.9
 72
     1
 11
-695.230393
 21
-64.0
 31
0.0
  0
POINT
  5
1C4
  8
DEFPOINTS
  6
CONTINUOUS
 62
     7
 10
-324.0
 20
0.0
 30
0.0
  0
POINT
  5
1C5
  8
DEFPOINTS
  6
CONTINUOUS
 62
     7
 10
-394.0
 20
-128.0
 30
0.0
  0
POINT
  5
1C6
  8
DEFPOINTS
  6
CONTINUOUS
 62
     7
 10
-675.230393
 20
-128.0
 30
0.0
  0
LINE
  5
1C7
  8
SIZE
  6
CONTINUOUS
 62
    30
 10
-344.0
 20
0.0
 30
0.0
 11
-818.429279
 21
0.0
 31
0.0
  0
LINE
  5
1C8
  8
SIZE
  6
CONTINUOUS
 62
    30
 10
-544.0
 20
-255.0
 30
0.0
 11
-818.429279
 21
-255.0
 31
0.0
  0
LINE
  5
1C9
  8
SIZE
  6
CONTINUOUS
 62
    30
 10
-788.429279
 20
-10.0
 30
0.0
 11
-788.429279
 21
-245.0
 31
0.0
  0
CIRCLE
  5
1CA
  8
SIZE
  6
CONTINUOUS
 62
    30
 10
-788.429279
 20
0.0
 30
0.0
 40
5.0
  0
LINE
  5
1CB
  8
SIZE
  6
CONTINUOUS
 62
    30
 10
-788.429279
 20
-5.0
 30
0.0
 11
-788.429279
 21
-10.0
 31
0.0
  0
CIRCLE
  5
1CC
  8
SIZE
  6
CONTINUOUS
 62
    30
 10
-788.429279
 20
-255.0
 30
0.0
 40
5.0
  0
LINE
  5
1CD
  8
SIZE
  6
CONTINUOUS
 62
    30
 10
-788.429279
 20
-250.0
 30
0.0
 11
-788.429279
 21
-245.0
 31
0.0
  0
TEXT
  5
1CE
  8
SIZE
  6
CONTINUOUS
 62
    30
 10
-808.429279
 20
-201.557143
 30
0.0
 40
64.0
  1
255
 50
90.0
 41
0.9
 72
     1
 11
-808.429279
 21
-127.5
 31
0.0
  0
POINT
  5
1CF
  8
DEFPOINTS
  6
CONTINUOUS
 62
     7
 10
-324.0
 20
0.0
 30
0.0
  0
POINT
  5
1D0
  8
DEFPOINTS
  6
CONTINUOUS
 62
     7
 10
-509.0
 20
-255.0
 30
0.0
  0
POINT
  5
1D1
  8
DEFPOINTS
  6
CONTINUOUS
 62
     7
 10
-788.429279
 20
-255.0
 30
0.0
  0
LINE
  5
1D2
  8
DETAIL
  6
CONTINUOUS
 62
     5
 10
-25.0
 20
-152.6
 30
0.0
 11
-25.0
 21
-168.2
 31
0.0
  0
LINE
  5
1D3
  8
DETAIL
  6
CONTINUOUS
 62
     5
 10
9.0
 20
-168.2
 30
0.0
 11
9.0
 21
-152.6
 31
0.0
  0
LINE
  5
1D4
  8
NOTE
  6
CONTINUOUS
 62
     4
 10
-8.0
 20
-138.499558
 30
0.0
 11
-8.0
 21
-166.700442
 31
0.0
  0
LINE
  5
1D5
  8
DETAIL
  6
CONTINUOUS
 62
     5
 10
7.100381
 20
-152.6
 30
0.0
 11
-0.44981
 21
-165.677314
 31
0.0
  0
LINE
  5
1D6
  8
DETAIL
  6
CONTINUOUS
 62
     5
 10
-23.100381
 20
-152.6
 30
0.0
 11
-15.55019
 21
-165.677314
 31
0.0
  0
LINE
  5
1D7
  8
DETAIL
  6
CONTINUOUS
 62
     5
 10
-15.55019
 20
-165.677314
 30
0.0
 11
-0.44981
 21
-165.677314
 31
0.0
  0
LINE
  5
1D8
  8
DETAIL
  6
CONTINUOUS
 62
     5
 10
-51.0
 20
-45.6
 30
0.0
 11
-25.0
 21
-45.6
 31
0.0
  0
ARC
  5
1D9
  8
DETAIL
  6
CONTINUOUS
 62
     5
 10
-8.0
 20
-152.6
 30
0.0
 40
17.0
 50
0.0
 51
180.0
  0
LINE
  5
1DA
  8
NOTE
  6
CONTINUOUS
 62
     4
 10
6.100442
 20
-152.6
 30
0.0
 11
-22.100442
 21
-152.6
 31
0.0
  0
LINE
  5
1DB
  8
DETAIL
  6
CONTINUOUS
 62
     5
 10
7.100381
 20
-152.6
 30
0.0
 11
-0.44981
 21
-139.522686
 31
0.0
  0
LINE
  5
1DC
  8
DETAIL
  6
CONTINUOUS
 62
     5
 10
-0.44981
 20
-139.522686
 30
0.0
 11
-15.55019
 21
-139.522686
 31
0.0
  0
LINE
  5
1DD
  8
DETAIL
  6
CONTINUOUS
 62
     5
 10
-15.55019
 20
-139.522686
 30
0.0
 11
-23.100381
 21
-152.6
 31
0.0
  0
CIRCLE
  5
1DE
  8
DETAIL
  6
CONTINUOUS
 62
     5
 10
-8.0
 20
-152.6
 30
0.0
 40
11.100442
  0
LINE
  5
1DF
  8
DETAIL
  6
CONTINUOUS
 62
     5
 10
-22.0
 20
-22.6
 30
0.0
 11
-22.0
 21
-42.6
 31
0.0
  0
LINE
  5
1E0
  8
DETAIL
  6
CONTINUOUS
 62
     5
 10
6.0
 20
-22.6
 30
0.0
 11
6.0
 21
-42.6
 31
0.0
  0
LINE
  5
1E1
  8
DETAIL
  6
CONTINUOUS
 62
     5
 10
2.970532
 20
-22.6
 30
0.0
 11
-2.514734
 21
-32.100759
 31
0.0
  0
LINE
  5
1E2
  8
DETAIL
  6
CONTINUOUS
 62
     5
 10
-13.485266
 20
-32.100759
 30
0.0
 11
-18.970532
 21
-22.6
 31
0.0
  0
CIRCLE
  5
1E3
  8
DETAIL
  6
CONTINUOUS
 62
     5
 10
-8.0
 20
-22.6
 30
0.0
 40
8.000316
  0
LINE
  5
1E4
  8
NOTE
  6
CONTINUOUS
 62
     4
 10
-8.0
 20
-33.600316
 30
0.0
 11
-8.0
 21
-11.599684
 31
0.0
  0
LINE
  5
1E5
  8
DETAIL
  6
CONTINUOUS
 62
     5
 10
-22.0
 20
-36.6
 30
0.0
 11
6.0
 21
-36.6
 31
0.0
  0
LINE
  5
1E6
  8
DETAIL
  6
CONTINUOUS
 62
     5
 10
-22.0
 20
-42.6
 30
0.0
 11
-25.0
 21
-45.6
 31
0.0
  0
LINE
  5
1E7
  8
DETAIL
  6
CONTINUOUS
 62
     5
 10
-2.514734
 20
-32.100759
 30
0.0
 11
-13.485266
 21
-32.100759
 31
0.0
  0
LINE
  5
1E8
  8
DETAIL
  6
CONTINUOUS
 62
     5
 10
9.0
 20
-45.6
 30
0.0
 11
6.0
 21
-42.6
 31
0.0
  0
ARC
  5
1E9
  8
DETAIL
  6
CONTINUOUS
 62
     5
 10
-8.0
 20
-22.6
 30
0.0
 40
14.0
 50
0.0
 51
180.0
  0
LINE
  5
1EA
  8
DETAIL
  6
CONTINUOUS
 62
     5
 10
-18.970532
 20
-22.6
 30
0.0
 11
-13.485266
 21
-13.099241
 31
0.0
  0
LINE
  5
1EB
  8
DETAIL
  6
CONTINUOUS
 62
     5
 10
-13.485266
 20
-13.099241
 30
0.0
 11
-2.514734
 21
-13.099241
 31
0.0
  0
LINE
  5
1EC
  8
NOTE
  6
CONTINUOUS
 62
     4
 10
3.000316
 20
-22.6
 30
0.0
 11
-19.000316
 21
-22.6
 31
0.0
  0
LINE
  5
1ED
  8
DETAIL
  6
CONTINUOUS
 62
     5
 10
-2.514734
 20
-13.099241
 30
0.0
 11
2.970532
 21
-22.6
 31
0.0
  0
CIRCLE
  5
1EE
  8
DETAIL
  6
CONTINUOUS
 62
     5
 10
-8.0
 20
-22.6
 30
0.0
 40
4.76
  0
CIRCLE
  5
1EF
  8
DETAIL
  6
CONTINUOUS
 62
     5
 10
-8.0
 20
-152.6
 30
0.0
 40
7.94
  0
LINE
  5
1F0
  8
DETAIL
  6
CONTINUOUS
 62
     5
 10
9.0
 20
-45.6
 30
0.0
 11
35.0
 21
-45.6
 31
0.0
  0
LINE
  5
1F1
  8
DETAIL
  6
CONTINUOUS
 62
     5
 10
38.0
 20
-22.6
 30
0.0
 11
38.0
 21
-42.6
 31
0.0
  0
LINE
  5
1F2
  8
DETAIL
  6
CONTINUOUS
 62
     5
 10
66.0
 20
-22.6
 30
0.0
 11
66.0
 21
-42.6
 31
0.0
  0
LINE
  5
1F3
  8
DETAIL
  6
CONTINUOUS
 62
     5
 10
62.970532
 20
-22.6
 30
0.0
 11
57.485266
 21
-32.100759
 31
0.0
  0
LINE
  5
1F4
  8
DETAIL
  6
CONTINUOUS
 62
     5
 10
46.514734
 20
-32.100759
 30
0.0
 11
41.029468
 21
-22.6
 31
0.0
  0
CIRCLE
  5
1F5
  8
DETAIL
  6
CONTINUOUS
 62
     5
 10
52.0
 20
-22.6
 30
0.0
 40
8.000316
  0
LINE
  5
1F6
  8
NOTE
  6
CONTINUOUS
 62
     4
 10
52.0
 20
-33.600316
 30
0.0
 11
52.0
 21
-11.599684
 31
0.0
  0
LINE
  5
1F7
  8
DETAIL
  6
CONTINUOUS
 62
     5
 10
38.0
 20
-36.6
 30
0.0
 11
66.0
 21
-36.6
 31
0.0
  0
LINE
  5
1F8
  8
DETAIL
  6
CONTINUOUS
 62
     5
 10
38.0
 20
-42.6
 30
0.0
 11
35.0
 21
-45.6
 31
0.0
  0
LINE
  5
1F9
  8
DETAIL
  6
CONTINUOUS
 62
     5
 10
57.485266
 20
-32.100759
 30
0.0
 11
46.514734
 21
-32.100759
 31
0.0
  0
LINE
  5
1FA
  8
DETAIL
  6
CONTINUOUS
 62
     5
 10
69.0
 20
-45.6
 30
0.0
 11
66.0
 21
-42.6
 31
0.0
  0
ARC
  5
1FB
  8
DETAIL
  6
CONTINUOUS
 62
     5
 10
52.0
 20
-22.6
 30
0.0
 40
14.0
 50
0.0
 51
180.0
  0
LINE
  5
1FC
  8
DETAIL
  6
CONTINUOUS
 62
     5
 10
41.029468
 20
-22.6
 30
0.0
 11
46.514734
 21
-13.099241
 31
0.0
  0
LINE
  5
1FD
  8
DETAIL
  6
CONTINUOUS
 62
     5
 10
46.514734
 20
-13.099241
 30
0.0
 11
57.485266
 21
-13.099241
 31
0.0
  0
LINE
  5
1FE
  8
NOTE
  6
CONTINUOUS
 62
     4
 10
63.000316
 20
-22.6
 30
0.0
 11
40.999684
 21
-22.6
 31
0.0
  0
LINE
  5
1FF
  8
DETAIL
  6
CONTINUOUS
 62
     5
 10
57.485266
 20
-13.099241
 30
0.0
 11
62.970532
 21
-22.6
 31
0.0
  0
CIRCLE
  5
200
  8
DETAIL
  6
CONTINUOUS
 62
     5
 10
52.0
 20
-22.6
 30
0.0
 40
4.76
  0
TEXT
  5
201
  8
NOTE
  6
CONTINUOUS
 62
     4
 10
656.889792
 20
167.316439
 30
0.0
 40
64.0
  1
室内ユニット側配管接続口（液）
 41
0.9
  0
TEXT
  5
202
  8
NOTE
  6
CONTINUOUS
 62
     4
 10
739.772582
 20
71.303142
 30
0.0
 40
50.0
  1
φ9.52〈フレア〉
 41
0.9
  0
POLYLINE
  5
203
  8
NOTE
  6
CONTINUOUS
 62
     4
 66
     1
 10
0.0
 20
0.0
 30
0.0
  0
VERTEX
  5
204
  8
NOTE
  6
CONTINUOUS
 62
     4
 10
172.0
 20
-22.6
 30
0.0
  0
VERTEX
  5
205
  8
NOTE
  6
CONTINUOUS
 62
     4
 10
626.889792
 20
147.316439
 30
0.0
  0
VERTEX
  5
206
  8
NOTE
  6
CONTINUOUS
 62
     4
 10
1682.718364
 20
147.316439
 30
0.0
  0
SEQEND
  5
207
  8
NOTE
  6
CONTINUOUS
 62
     4
  0
LINE
  5
208
  8
DETAIL
  6
CONTINUOUS
 62
     5
 10
69.0
 20
-45.6
 30
0.0
 11
95.0
 21
-45.6
 31
0.0
  0
LINE
  5
209
  8
DETAIL
  6
CONTINUOUS
 62
     5
 10
98.0
 20
-22.6
 30
0.0
 11
98.0
 21
-42.6
 31
0.0
  0
LINE
  5
20A
  8
DETAIL
  6
CONTINUOUS
 62
     5
 10
126.0
 20
-22.6
 30
0.0
 11
126.0
 21
-42.6
 31
0.0
  0
LINE
  5
20B
  8
DETAIL
  6
CONTINUOUS
 62
     5
 10
122.970532
 20
-22.6
 30
0.0
 11
117.485266
 21
-32.100759
 31
0.0
  0
LINE
  5
20C
  8
DETAIL
  6
CONTINUOUS
 62
     5
 10
106.514734
 20
-32.100759
 30
0.0
 11
101.029468
 21
-22.6
 31
0.0
  0
CIRCLE
  5
20D
  8
DETAIL
  6
CONTINUOUS
 62
     5
 10
112.0
 20
-22.6
 30
0.0
 40
8.000316
  0
LINE
  5
20E
  8
NOTE
  6
CONTINUOUS
 62
     4
 10
112.0
 20
-33.600316
 30
0.0
 11
112.0
 21
-11.599684
 31
0.0
  0
LINE
  5
20F
  8
DETAIL
  6
CONTINUOUS
 62
     5
 10
98.0
 20
-36.6
 30
0.0
 11
126.0
 21
-36.6
 31
0.0
  0
LINE
  5
210
  8
DETAIL
  6
CONTINUOUS
 62
     5
 10
98.0
 20
-42.6
 30
0.0
 11
95.0
 21
-45.6
 31
0.0
  0
LINE
  5
211
  8
DETAIL
  6
CONTINUOUS
 62
     5
 10
117.485266
 20
-32.100759
 30
0.0
 11
106.514734
 21
-32.100759
 31
0.0
  0
LINE
  5
212
  8
DETAIL
  6
CONTINUOUS
 62
     5
 10
129.0
 20
-45.6
 30
0.0
 11
126.0
 21
-42.6
 31
0.0
  0
ARC
  5
213
  8
DETAIL
  6
CONTINUOUS
 62
     5
 10
112.0
 20
-22.6
 30
0.0
 40
14.0
 50
0.0
 51
180.0
  0
LINE
  5
214
  8
DETAIL
  6
CONTINUOUS
 62
     5
 10
101.029468
 20
-22.6
 30
0.0
 11
106.514734
 21
-13.099241
 31
0.0
  0
LINE
  5
215
  8
DETAIL
  6
CONTINUOUS
 62
     5
 10
106.514734
 20
-13.099241
 30
0.0
 11
117.485266
 21
-13.099241
 31
0.0
  0
LINE
  5
216
  8
NOTE
  6
CONTINUOUS
 62
     4
 10
123.000316
 20
-22.6
 30
0.0
 11
100.999684
 21
-22.6
 31
0.0
  0
LINE
  5
217
  8
DETAIL
  6
CONTINUOUS
 62
     5
 10
117.485266
 20
-13.099241
 30
0.0
 11
122.970532
 21
-22.6
 31
0.0
  0
CIRCLE
  5
218
  8
DETAIL
  6
CONTINUOUS
 62
     5
 10
112.0
 20
-22.6
 30
0.0
 40
4.76
  0
LINE
  5
219
  8
DETAIL
  6
CONTINUOUS
 62
     5
 10
35.0
 20
-152.6
 30
0.0
 11
35.0
 21
-168.2
 31
0.0
  0
LINE
  5
21A
  8
DETAIL
  6
CONTINUOUS
 62
     5
 10
69.0
 20
-168.2
 30
0.0
 11
69.0
 21
-152.6
 31
0.0
  0
LINE
  5
21B
  8
NOTE
  6
CONTINUOUS
 62
     4
 10
52.0
 20
-138.499558
 30
0.0
 11
52.0
 21
-166.700442
 31
0.0
  0
LINE
  5
21C
  8
DETAIL
  6
CONTINUOUS
 62
     5
 10
67.100381
 20
-152.6
 30
0.0
 11
59.55019
 21
-165.677314
 31
0.0
  0
LINE
  5
21D
  8
DETAIL
  6
CONTINUOUS
 62
     5
 10
36.899619
 20
-152.6
 30
0.0
 11
44.44981
 21
-165.677314
 31
0.0
  0
LINE
  5
21E
  8
DETAIL
  6
CONTINUOUS
 62
     5
 10
44.44981
 20
-165.677314
 30
0.0
 11
59.55019
 21
-165.677314
 31
0.0
  0
ARC
  5
21F
  8
DETAIL
  6
CONTINUOUS
 62
     5
 10
52.0
 20
-152.6
 30
0.0
 40
17.0
 50
0.0
 51
180.0
  0
LINE
  5
220
  8
NOTE
  6
CONTINUOUS
 62
     4
 10
66.100442
 20
-152.6
 30
0.0
 11
37.899558
 21
-152.6
 31
0.0
  0
LINE
  5
221
  8
DETAIL
  6
CONTINUOUS
 62
     5
 10
67.100381
 20
-152.6
 30
0.0
 11
59.55019
 21
-139.522686
 31
0.0
  0
LINE
  5
222
  8
DETAIL
  6
CONTINUOUS
 62
     5
 10
59.55019
 20
-139.522686
 30
0.0
 11
44.44981
 21
-139.522686
 31
0.0
  0
LINE
  5
223
  8
DETAIL
  6
CONTINUOUS
 62
     5
 10
44.44981
 20
-139.522686
 30
0.0
 11
36.899619
 21
-152.6
 31
0.0
  0
CIRCLE
  5
224
  8
DETAIL
  6
CONTINUOUS
 62
     5
 10
52.0
 20
-152.6
 30
0.0
 40
11.100442
  0
CIRCLE
  5
225
  8
DETAIL
  6
CONTINUOUS
 62
     5
 10
52.0
 20
-152.6
 30
0.0
 40
7.94
  0
LINE
  5
226
  8
DETAIL
  6
CONTINUOUS
 62
     5
 10
95.0
 20
-152.6
 30
0.0
 11
95.0
 21
-168.2
 31
0.0
  0
LINE
  5
227
  8
DETAIL
  6
CONTINUOUS
 62
     5
 10
129.0
 20
-168.2
 30
0.0
 11
129.0
 21
-152.6
 31
0.0
  0
LINE
  5
228
  8
NOTE
  6
CONTINUOUS
 62
     4
 10
112.0
 20
-138.499558
 30
0.0
 11
112.0
 21
-166.700442
 31
0.0
  0
LINE
  5
229
  8
DETAIL
  6
CONTINUOUS
 62
     5
 10
127.100381
 20
-152.6
 30
0.0
 11
119.55019
 21
-165.677314
 31
0.0
  0
LINE
  5
22A
  8
DETAIL
  6
CONTINUOUS
 62
     5
 10
96.899619
 20
-152.6
 30
0.0
 11
104.44981
 21
-165.677314
 31
0.0
  0
LINE
  5
22B
  8
DETAIL
  6
CONTINUOUS
 62
     5
 10
104.44981
 20
-165.677314
 30
0.0
 11
119.55019
 21
-165.677314
 31
0.0
  0
ARC
  5
22C
  8
DETAIL
  6
CONTINUOUS
 62
     5
 10
112.0
 20
-152.6
 30
0.0
 40
17.0
 50
0.0
 51
180.0
  0
LINE
  5
22D
  8
NOTE
  6
CONTINUOUS
 62
     4
 10
126.100442
 20
-152.6
 30
0.0
 11
97.899558
 21
-152.6
 31
0.0
  0
LINE
  5
22E
  8
DETAIL
  6
CONTINUOUS
 62
     5
 10
127.100381
 20
-152.6
 30
0.0
 11
119.55019
 21
-139.522686
 31
0.0
  0
LINE
  5
22F
  8
DETAIL
  6
CONTINUOUS
 62
     5
 10
119.55019
 20
-139.522686
 30
0.0
 11
104.44981
 21
-139.522686
 31
0.0
  0
LINE
  5
230
  8
DETAIL
  6
CONTINUOUS
 62
     5
 10
104.44981
 20
-139.522686
 30
0.0
 11
96.899619
 21
-152.6
 31
0.0
  0
CIRCLE
  5
231
  8
DETAIL
  6
CONTINUOUS
 62
     5
 10
112.0
 20
-152.6
 30
0.0
 40
11.100442
  0
CIRCLE
  5
232
  8
DETAIL
  6
CONTINUOUS
 62
     5
 10
112.0
 20
-152.6
 30
0.0
 40
7.94
  0
LINE
  5
233
  8
DETAIL
  6
CONTINUOUS
 62
     5
 10
129.0
 20
-45.6
 30
0.0
 11
155.0
 21
-45.6
 31
0.0
  0
LINE
  5
234
  8
DETAIL
  6
CONTINUOUS
 62
     5
 10
158.0
 20
-22.6
 30
0.0
 11
158.0
 21
-42.6
 31
0.0
  0
LINE
  5
235
  8
DETAIL
  6
CONTINUOUS
 62
     5
 10
186.0
 20
-22.6
 30
0.0
 11
186.0
 21
-42.6
 31
0.0
  0
LINE
  5
236
  8
DETAIL
  6
CONTINUOUS
 62
     5
 10
182.970532
 20
-22.6
 30
0.0
 11
177.485266
 21
-32.100759
 31
0.0
  0
LINE
  5
237
  8
DETAIL
  6
CONTINUOUS
 62
     5
 10
166.514734
 20
-32.100759
 30
0.0
 11
161.029468
 21
-22.6
 31
0.0
  0
CIRCLE
  5
238
  8
DETAIL
  6
CONTINUOUS
 62
     5
 10
172.0
 20
-22.6
 30
0.0
 40
8.000316
  0
LINE
  5
239
  8
NOTE
  6
CONTINUOUS
 62
     4
 10
172.0
 20
-33.600316
 30
0.0
 11
172.0
 21
-11.599684
 31
0.0
  0
LINE
  5
23A
  8
DETAIL
  6
CONTINUOUS
 62
     5
 10
158.0
 20
-36.6
 30
0.0
 11
186.0
 21
-36.6
 31
0.0
  0
LINE
  5
23B
  8
DETAIL
  6
CONTINUOUS
 62
     5
 10
158.0
 20
-42.6
 30
0.0
 11
155.0
 21
-45.6
 31
0.0
  0
LINE
  5
23C
  8
DETAIL
  6
CONTINUOUS
 62
     5
 10
177.485266
 20
-32.100759
 30
0.0
 11
166.514734
 21
-32.100759
 31
0.0
  0
LINE
  5
23D
  8
DETAIL
  6
CONTINUOUS
 62
     5
 10
189.0
 20
-45.6
 30
0.0
 11
186.0
 21
-42.6
 31
0.0
  0
ARC
  5
23E
  8
DETAIL
  6
CONTINUOUS
 62
     5
 10
172.0
 20
-22.6
 30
0.0
 40
14.0
 50
0.0
 51
180.0
  0
LINE
  5
23F
  8
DETAIL
  6
CONTINUOUS
 62
     5
 10
161.029468
 20
-22.6
 30
0.0
 11
166.514734
 21
-13.099241
 31
0.0
  0
LINE
  5
240
  8
DETAIL
  6
CONTINUOUS
 62
     5
 10
166.514734
 20
-13.099241
 30
0.0
 11
177.485266
 21
-13.099241
 31
0.0
  0
LINE
  5
241
  8
NOTE
  6
CONTINUOUS
 62
     4
 10
183.000316
 20
-22.6
 30
0.0
 11
160.999684
 21
-22.6
 31
0.0
  0
LINE
  5
242
  8
DETAIL
  6
CONTINUOUS
 62
     5
 10
177.485266
 20
-13.099241
 30
0.0
 11
182.970532
 21
-22.6
 31
0.0
  0
CIRCLE
  5
243
  8
DETAIL
  6
CONTINUOUS
 62
     5
 10
172.0
 20
-22.6
 30
0.0
 40
4.76
  0
LINE
  5
244
  8
NOTE
  6
CONTINUOUS
 62
     4
 10
180.430198
 20
-16.59072
 30
0.0
 11
172.0
 21
-22.6
 31
0.0
  0
LINE
  5
245
  8
NOTE
  6
CONTINUOUS
 62
     4
 10
172.0
 20
-22.6
 30
0.0
 11
182.305405
 21
-21.61091
 31
0.0
  0
LINE
  5
246
  8
DETAIL
  6
CONTINUOUS
 62
     5
 10
155.0
 20
-152.6
 30
0.0
 11
155.0
 21
-168.2
 31
0.0
  0
LINE
  5
247
  8
DETAIL
  6
CONTINUOUS
 62
     5
 10
189.0
 20
-168.2
 30
0.0
 11
189.0
 21
-152.6
 31
0.0
  0
LINE
  5
248
  8
NOTE
  6
CONTINUOUS
 62
     4
 10
172.0
 20
-138.499558
 30
0.0
 11
172.0
 21
-166.700442
 31
0.0
  0
LINE
  5
249
  8
DETAIL
  6
CONTINUOUS
 62
     5
 10
187.100381
 20
-152.6
 30
0.0
 11
179.55019
 21
-165.677314
 31
0.0
  0
LINE
  5
24A
  8
DETAIL
  6
CONTINUOUS
 62
     5
 10
156.899619
 20
-152.6
 30
0.0
 11
164.44981
 21
-165.677314
 31
0.0
  0
LINE
  5
24B
  8
DETAIL
  6
CONTINUOUS
 62
     5
 10
164.44981
 20
-165.677314
 30
0.0
 11
179.55019
 21
-165.677314
 31
0.0
  0
ARC
  5
24C
  8
DETAIL
  6
CONTINUOUS
 62
     5
 10
172.0
 20
-152.6
 30
0.0
 40
17.0
 50
0.0
 51
180.0
  0
LINE
  5
24D
  8
NOTE
  6
CONTINUOUS
 62
     4
 10
186.100442
 20
-152.6
 30
0.0
 11
157.899558
 21
-152.6
 31
0.0
  0
LINE
  5
24E
  8
DETAIL
  6
CONTINUOUS
 62
     5
 10
187.100381
 20
-152.6
 30
0.0
 11
179.55019
 21
-139.522686
 31
0.0
  0
LINE
  5
24F
  8
DETAIL
  6
CONTINUOUS
 62
     5
 10
179.55019
 20
-139.522686
 30
0.0
 11
164.44981
 21
-139.522686
 31
0.0
  0
LINE
  5
250
  8
DETAIL
  6
CONTINUOUS
 62
     5
 10
164.44981
 20
-139.522686
 30
0.0
 11
156.899619
 21
-152.6
 31
0.0
  0
CIRCLE
  5
251
  8
DETAIL
  6
CONTINUOUS
 62
     5
 10
172.0
 20
-152.6
 30
0.0
 40
11.100442
  0
CIRCLE
  5
252
  8
DETAIL
  6
CONTINUOUS
 62
     5
 10
172.0
 20
-152.6
 30
0.0
 40
7.94
  0
LINE
  5
253
  8
DETAIL
  6
CONTINUOUS
 62
     5
 10
189.0
 20
-45.6
 30
0.0
 11
320.0
 21
-45.6
 31
0.0
  0
LINE
  5
254
  8
SIZE
  6
CONTINUOUS
 62
    30
 10
-248.0
 20
-2.6
 30
0.0
 11
-248.0
 21
163.647903
 31
0.0
  0
LINE
  5
255
  8
SIZE
  6
CONTINUOUS
 62
    30
 10
172.0
 20
-2.6
 30
0.0
 11
172.0
 21
163.647903
 31
0.0
  0
LINE
  5
256
  8
SIZE
  6
CONTINUOUS
 62
    30
 10
-238.0
 20
133.647903
 30
0.0
 11
162.0
 21
133.647903
 31
0.0
  0
CIRCLE
  5
257
  8
SIZE
  6
CONTINUOUS
 62
    30
 10
-248.0
 20
133.647903
 30
0.0
 40
5.0
  0
LINE
  5
258
  8
SIZE
  6
CONTINUOUS
 62
    30
 10
-243.0
 20
133.647903
 30
0.0
 11
-238.0
 21
133.647903
 31
0.0
  0
CIRCLE
  5
259
  8
SIZE
  6
CONTINUOUS
 62
    30
 10
172.0
 20
133.647903
 30
0.0
 40
5.0
  0
LINE
  5
25A
  8
SIZE
  6
CONTINUOUS
 62
    30
 10
167.0
 20
133.647903
 30
0.0
 11
162.0
 21
133.647903
 31
0.0
  0
TEXT
  5
25B
  8
SIZE
  6
CONTINUOUS
 62
    30
 10
-145.13162
 20
153.647903
 30
0.0
 40
64.0
  1
60×7＝420
 41
0.9
 72
     1
 11
80.331237
 21
153.647903
 31
0.0
  0
POINT
  5
25C
  8
DEFPOINTS
  6
CONTINUOUS
 62
     7
 10
-248.0
 20
-22.6
 30
0.0
  0
POINT
  5
25D
  8
DEFPOINTS
  6
CONTINUOUS
 62
     7
 10
172.0
 20
-22.6
 30
0.0
  0
POINT
  5
25E
  8
DEFPOINTS
  6
CONTINUOUS
 62
     7
 10
172.0
 20
133.647903
 30
0.0
  0
LINE
  5
25F
  8
SIZE
  6
CONTINUOUS
 62
    30
 10
-324.0
 20
-275.0
 30
0.0
 11
-324.0
 21
-469.773956
 31
0.0
  0
LINE
  5
260
  8
SIZE
  6
CONTINUOUS
 62
    30
 10
-524.0
 20
-275.0
 30
0.0
 11
-524.0
 21
-469.773956
 31
0.0
  0
LINE
  5
261
  8
SIZE
  6
CONTINUOUS
 62
    30
 10
-334.0
 20
-439.773956
 30
0.0
 11
-514.0
 21
-439.773956
 31
0.0
  0
CIRCLE
  5
262
  8
SIZE
  6
CONTINUOUS
 62
    30
 10
-324.0
 20
-439.773956
 30
0.0
 40
5.0
  0
LINE
  5
263
  8
SIZE
  6
CONTINUOUS
 62
    30
 10
-329.0
 20
-439.773956
 30
0.0
 11
-334.0
 21
-439.773956
 31
0.0
  0
CIRCLE
  5
264
  8
SIZE
  6
CONTINUOUS
 62
    30
 10
-524.0
 20
-439.773956
 30
0.0
 40
5.0
  0
LINE
  5
265
  8
SIZE
  6
CONTINUOUS
 62
    30
 10
-519.0
 20
-439.773956
 30
0.0
 11
-514.0
 21
-439.773956
 31
0.0
  0
TEXT
  5
266
  8
SIZE
  6
CONTINUOUS
 62
    30
 10
-490.557143
 20
-419.773956
 30
0.0
 40
64.0
  1
200
 41
0.9
 72
     1
 11
-416.5
 21
-419.773956
 31
0.0
  0
POINT
  5
267
  8
DEFPOINTS
  6
CONTINUOUS
 62
     7
 10
-324.0
 20
-255.0
 30
0.0
  0
POINT
  5
268
  8
DEFPOINTS
  6
CONTINUOUS
 62
     7
 10
-509.0
 20
-255.0
 30
0.0
  0
POINT
  5
269
  8
DEFPOINTS
  6
CONTINUOUS
 62
     7
 10
-524.0
 20
-439.773956
 30
0.0
  0
ENDSEC
  0
EOF
