  0
SECTION
  2
HEADER
  9
$ACADVER
  1
AC1009
  9
$INSBASE
 10
0.0
 20
0.0
 30
0.0
  9
$EXTMIN
 10
-1583.568963
 20
-418.438345
 30
0.0
  9
$EXTMAX
 10
1043.428106
 20
861.580859
 30
0.0
  9
$LIMMIN
 10
-3837.000175
 20
-3000.109539
  9
$LIMMAX
 10
7319.256881
 20
4045.223003
  9
$ORTHOMODE
 70
     1
  9
$REGENMODE
 70
     1
  9
$FILLMODE
 70
     1
  9
$QTEXTMODE
 70
     0
  9
$MIRRTEXT
 70
     0
  9
$DRAGMODE
 70
     2
  9
$LTSCALE
 40
20.0
  9
$OSMODE
 70
    37
  9
$ATTMODE
 70
     1
  9
$TEXTSIZE
 40
64.0
  9
$TRACEWID
 40
0.05
  9
$TEXTSTYLE
  7
STANDARD
  9
$CLAYER
  8
SIZE
  9
$CELTYPE
  6
CONTINUOUS
  9
$CECOLOR
 62
     7
  9
$DIMSCALE
 40
1.0
  9
$DIMASZ
 40
10.0
  9
$DIMEXO
 40
20.0
  9
$DIMDLI
 40
200.0
  9
$DIMRND
 40
0.0
  9
$DIMDLE
 40
0.0
  9
$DIMEXE
 40
30.0
  9
$DIMTP
 40
0.0
  9
$DIMTM
 40
0.0
  9
$DIMTXT
 40
64.0
  9
$DIMCEN
 40
0.0
  9
$DIMTSZ
 40
0.0
  9
$DIMTOL
 70
     0
  9
$DIMLIM
 70
     0
  9
$DIMTIH
 70
     0
  9
$DIMTOH
 70
     0
  9
$DIMSE1
 70
     0
  9
$DIMSE2
 70
     0
  9
$DIMTAD
 70
     1
  9
$DIMZIN
 70
     8
  9
$DIMBLK
  1

  9
$DIMASO
 70
     1
  9
$DIMSHO
 70
     0
  9
$DIMPOST
  1

  9
$DIMAPOST
  1

  9
$DIMALT
 70
     0
  9
$DIMALTD
 70
     2
  9
$DIMALTF
 40
25.4
  9
$DIMLFAC
 40
1.0
  9
$DIMTOFL
 70
     1
  9
$DIMTVP
 40
0.0
  9
$DIMTIX
 70
     1
  9
$DIMSOXD
 70
     0
  9
$DIMSAH
 70
     1
  9
$DIMBLK1
  1
_DOTBLANK
  9
$DIMBLK2
  1
_DOTBLANK
  9
$DIMSTYLE
  2
STANDARD
  9
$DIMCLRD
 70
     0
  9
$DIMCLRE
 70
     0
  9
$DIMCLRT
 70
     0
  9
$DIMTFAC
 40
1.0
  9
$DIMGAP
 40
0.09
  9
$LUNITS
 70
     2
  9
$LUPREC
 70
     4
  9
$SKETCHINC
 40
0.1
  9
$FILLETRAD
 40
10.0
  9
$AUNITS
 70
     1
  9
$AUPREC
 70
     3
  9
$MENU
  1
ACAD
  9
$ELEVATION
 40
0.0
  9
$PELEVATION
 40
0.0
  9
$THICKNESS
 40
0.0
  9
$LIMCHECK
 70
     0
  9
$BLIPMODE
 70
     0
  9
$CHAMFERA
 40
0.0
  9
$CHAMFERB
 40
0.0
  9
$SKPOLY
 70
     0
  9
$TDCREATE
 40
2450330.439931
  9
$TDUPDATE
 40
2453088.708607
  9
$TDINDWG
 40
1.368544
  9
$TDUSRTIMER
 40
1.368544
  9
$USRTIMER
 70
     1
  9
$ANGBASE
 50
0.0
  9
$ANGDIR
 70
     0
  9
$PDMODE
 70
     3
  9
$PDSIZE
 40
-2.0
  9
$PLINEWID
 40
0.0
  9
$COORDS
 70
     1
  9
$SPLFRAME
 70
     0
  9
$SPLINETYPE
 70
     6
  9
$SPLINESEGS
 70
     8
  9
$ATTDIA
 70
     0
  9
$ATTREQ
 70
     1
  9
$HANDLING
 70
     1
  9
$HANDSEED
  5
145
  9
$SURFTAB1
 70
     6
  9
$SURFTAB2
 70
     6
  9
$SURFTYPE
 70
     6
  9
$SURFU
 70
     6
  9
$SURFV
 70
     6
  9
$UCSNAME
  2

  9
$UCSORG
 10
0.0
 20
0.0
 30
0.0
  9
$UCSXDIR
 10
1.0
 20
0.0
 30
0.0
  9
$UCSYDIR
 10
0.0
 20
1.0
 30
0.0
  9
$PUCSNAME
  2

  9
$PUCSORG
 10
0.0
 20
0.0
 30
0.0
  9
$PUCSXDIR
 10
1.0
 20
0.0
 30
0.0
  9
$PUCSYDIR
 10
0.0
 20
1.0
 30
0.0
  9
$USERI1
 70
     0
  9
$USERI2
 70
     0
  9
$USERI3
 70
     0
  9
$USERI4
 70
     0
  9
$USERI5
 70
     0
  9
$USERR1
 40
20.0
  9
$USERR2
 40
0.0
  9
$USERR3
 40
0.0
  9
$USERR4
 40
0.0
  9
$USERR5
 40
0.0
  9
$WORLDVIEW
 70
     1
  9
$SHADEDGE
 70
     3
  9
$SHADEDIF
 70
    70
  9
$TILEMODE
 70
     1
  9
$MAXACTVP
 70
    48
  9
$PLIMCHECK
 70
     0
  9
$PEXTMIN
 10
1.000000E+020
 20
1.000000E+020
 30
1.000000E+020
  9
$PEXTMAX
 10
-1.000000E+020
 20
-1.000000E+020
 30
-1.000000E+020
  9
$PLIMMIN
 10
0.0
 20
0.0
  9
$PLIMMAX
 10
12.0
 20
9.0
  9
$UNITMODE
 70
     0
  9
$VISRETAIN
 70
     1
  9
$PLINEGEN
 70
     0
  9
$PSLTSCALE
 70
     1
  0
ENDSEC
  0
SECTION
  2
TABLES
  0
TABLE
  2
VPORT
 70
     2
  0
VPORT
  2
*ACTIVE
 70
     0
 10
0.0
 20
0.0
 11
1.0
 21
1.0
 12
2631.286083
 22
522.556732
 13
0.0
 23
0.0
 14
50.0
 24
50.0
 15
100.0
 25
100.0
 16
0.0
 26
0.0
 36
1.0
 17
0.0
 27
0.0
 37
0.0
 40
7045.332542
 41
1.83619
 42
50.0
 43
0.0
 44
0.0
 50
0.0
 51
0.0
 71
     0
 72
  1000
 73
     1
 74
     0
 75
     0
 76
     0
 77
     0
 78
     0
  0
ENDTAB
  0
TABLE
  2
LTYPE
 70
     3
  0
LTYPE
  2
CONTINUOUS
 70
     0
  3
実線
 72
    65
 73
     0
 40
0.0
  0
LTYPE
  2
DASHDOT
 70
     0
  3
____ _ ____ _ ____ _ ____ _ ____ _ ____ _ ____
 72
    65
 73
     4
 40
5.5
 49
4.0
 49
-0.6
 49
0.3
 49
-0.6
  0
LTYPE
  2
DASHDOT1
 70
     0
  3
____ _ ____ _ ____ _ ____ _ ____ _ ____ _ ____
 72
    65
 73
     4
 40
2.0
 49
1.5
 49
-0.2
 49
0.1
 49
-0.2
  0
ENDTAB
  0
TABLE
  2
LAYER
 70
    12
  0
LAYER
  2
0
 70
     0
 62
     7
  6
CONTINUOUS
  0
LAYER
  2
SIZE
 70
     0
 62
    30
  6
CONTINUOUS
  0
LAYER
  2
OUTLINE
 70
     0
 62
     3
  6
CONTINUOUS
  0
LAYER
  2
DETAIL
 70
     0
 62
     5
  6
CONTINUOUS
  0
LAYER
  2
BASIS
 70
     0
 62
     6
  6
DASHDOT
  0
LAYER
  2
NOTE
 70
     0
 62
     4
  6
CONTINUOUS
  0
LAYER
  2
ARRANGE
 70
     0
 62
     1
  6
CONTINUOUS
  0
LAYER
  2
FIX
 70
     0
 62
    11
  6
CONTINUOUS
  0
LAYER
  2
SERVICESPACE
 70
     0
 62
     2
  6
DASHDOT
  0
LAYER
  2
ETC
 70
     0
 62
    61
  6
CONTINUOUS
  0
LAYER
  2
SYMBOLLINE
 70
     0
 62
    15
  6
CONTINUOUS
  0
LAYER
  2
DEFPOINTS
 70
     0
 62
     7
  6
CONTINUOUS
  0
ENDTAB
  0
TABLE
  2
STYLE
 70
     1
  0
STYLE
  2
STANDARD
 70
     0
 40
0.0
 41
0.9
 50
0.0
 71
     0
 42
64.0
  3
SIMPLEX
  4
BIGFONT
  0
ENDTAB
  0
TABLE
  2
VIEW
 70
     1
  0
VIEW
  2
ALL
 70
     0
 40
9000.0
 10
241.506647
 20
0.0
 41
12483.01
 11
0.0
 21
0.0
 31
1.0
 12
0.0
 22
0.0
 32
0.0
 42
50.0
 43
0.0
 44
0.0
 50
0.0
 71
     0
  0
ENDTAB
  0
TABLE
  2
UCS
 70
     0
  0
ENDTAB
  0
TABLE
  2
APPID
 70
     1
  0
APPID
  2
ACAD
 70
     0
  0
ENDTAB
  0
TABLE
  2
DIMSTYLE
 70
     1
  0
DIMSTYLE
  2
STANDARD
 70
     0
  3

  4

  5

  6

  7

 40
1.0
 41
0.18
 42
0.0625
 43
0.38
 44
0.18
 45
0.0
 46
0.0
 47
0.0
 48
0.0
140
0.18
141
0.09
142
0.0
143
25.4
144
1.0
145
0.0
146
1.0
147
0.09
 71
     0
 72
     0
 73
     1
 74
     1
 75
     0
 76
     0
 77
     0
 78
     0
170
     0
171
     2
172
     0
173
     0
174
     0
175
     0
176
     0
177
     0
178
     0
  0
ENDTAB
  0
ENDSEC
  0
SECTION
  2
BLOCKS
  0
BLOCK
  8
0
  2
$MODEL_SPACE
 70
     0
 10
0.0
 20
0.0
 30
0.0
  3
$MODEL_SPACE
  1

  0
ENDBLK
  5
128
  8
0
  0
BLOCK
 67
     1
  8
0
  2
$PAPER_SPACE
 70
     0
 10
0.0
 20
0.0
 30
0.0
  3
$PAPER_SPACE
  1

  0
ENDBLK
  5
125
 67
     1
  8
0
  0
BLOCK
  8
0
  2
_DOTBLANK
 70
     0
 10
0.0
 20
0.0
 30
0.0
  3
_DOTBLANK
  1

  0
CIRCLE
  5
31
  8
0
  6
CONTINUOUS
 62
     7
 10
0.0
 20
0.0
 30
0.0
 40
0.5
  0
LINE
  5
32
  8
0
  6
CONTINUOUS
 62
     7
 10
-0.5
 20
0.0
 30
0.0
 11
-1.0
 21
0.0
 31
0.0
  0
ENDBLK
  5
33
  8
0
  0
ENDSEC
  0
SECTION
  2
ENTITIES
  0
LINE
  5
34
  8
DETAIL
  6
CONTINUOUS
 62
     5
 10
-181.0
 20
-284.0
 30
0.0
 11
181.0
 21
-284.0
 31
0.0
  0
LINE
  5
35
  8
DETAIL
  6
CONTINUOUS
 62
     5
 10
178.19
 20
-275.692182
 30
0.0
 11
-178.186814
 21
-275.692182
 31
0.0
  0
LINE
  5
36
  8
DETAIL
  6
CONTINUOUS
 62
     5
 10
-181.0
 20
0.0
 30
0.0
 11
180.494341
 21
0.0
 31
0.0
  0
LINE
  5
37
  8
DETAIL
  6
CONTINUOUS
 62
     5
 10
-178.186814
 20
-275.692182
 30
0.0
 11
-178.186814
 21
-284.0
 31
0.0
  0
LINE
  5
38
  8
DETAIL
  6
CONTINUOUS
 62
     5
 10
-181.0
 20
0.0
 30
0.0
 11
-181.0
 21
-284.0
 31
0.0
  0
LINE
  5
39
  8
DETAIL
  6
CONTINUOUS
 62
     5
 10
-158.915559
 20
-70.202492
 30
0.0
 11
-138.821376
 21
-70.202492
 31
0.0
  0
LINE
  5
3A
  8
DETAIL
  6
CONTINUOUS
 62
     5
 10
-173.986195
 20
-27.0
 30
0.0
 11
-123.750739
 21
-27.0
 31
0.0
  0
LINE
  5
3B
  8
DETAIL
  6
CONTINUOUS
 62
     5
 10
-154.866722
 20
-29.310831
 30
0.0
 11
-142.870213
 21
-29.310831
 31
0.0
  0
CIRCLE
  5
3C
  8
DETAIL
  6
CONTINUOUS
 62
     5
 10
-149.0
 20
-47.094182
 30
0.0
 40
3.516482
  0
LINE
  5
3D
  8
DETAIL
  6
CONTINUOUS
 62
     5
 10
-159.417913
 20
-70.202492
 30
0.0
 11
-138.319022
 21
-70.202492
 31
0.0
  0
LINE
  5
3E
  8
DETAIL
  6
CONTINUOUS
 62
     5
 10
-173.986195
 20
-65.178947
 30
0.0
 11
-173.986195
 21
-27.0
 31
0.0
  0
LINE
  5
3F
  8
DETAIL
  6
CONTINUOUS
 62
     5
 10
-158.915559
 20
-65.178947
 30
0.0
 11
-158.915559
 21
-70.202492
 31
0.0
  0
LINE
  5
40
  8
DETAIL
  6
CONTINUOUS
 62
     5
 10
-158.915559
 20
-65.178947
 30
0.0
 11
-173.986195
 21
-65.178947
 31
0.0
  0
LINE
  5
41
  8
DETAIL
  6
CONTINUOUS
 62
     5
 10
-159.417913
 20
-66.183656
 30
0.0
 11
-159.417913
 21
-70.202492
 31
0.0
  0
LINE
  5
42
  8
DETAIL
  6
CONTINUOUS
 62
     5
 10
-159.417913
 20
-66.183656
 30
0.0
 11
-158.915559
 21
-66.183656
 31
0.0
  0
LINE
  5
43
  8
DETAIL
  6
CONTINUOUS
 62
     5
 10
-170.972068
 20
-39.056509
 30
0.0
 11
-157.91085
 21
-39.056509
 31
0.0
  0
ARC
  5
44
  8
DETAIL
  6
CONTINUOUS
 62
     5
 10
-157.91085
 20
-36.042382
 30
0.0
 40
3.014127
 50
270.0
 51
0.0
  0
ARC
  5
45
  8
DETAIL
  6
CONTINUOUS
 62
     5
 10
-170.972068
 20
-36.042382
 30
0.0
 40
3.014127
 50
180.0
 51
270.0
  0
LINE
  5
46
  8
DETAIL
  6
CONTINUOUS
 62
     5
 10
-123.750739
 20
-65.178947
 30
0.0
 11
-123.750739
 21
-27.0
 31
0.0
  0
LINE
  5
47
  8
DETAIL
  6
CONTINUOUS
 62
     5
 10
-123.750739
 20
-65.178947
 30
0.0
 11
-138.821376
 21
-65.178947
 31
0.0
  0
LINE
  5
48
  8
DETAIL
  6
CONTINUOUS
 62
     5
 10
-138.821376
 20
-65.178947
 30
0.0
 11
-138.821376
 21
-70.202492
 31
0.0
  0
LINE
  5
49
  8
DETAIL
  6
CONTINUOUS
 62
     5
 10
-138.319022
 20
-66.183656
 30
0.0
 11
-138.319022
 21
-70.202492
 31
0.0
  0
LINE
  5
4A
  8
DETAIL
  6
CONTINUOUS
 62
     5
 10
-138.821376
 20
-66.183656
 30
0.0
 11
-138.319022
 21
-66.183656
 31
0.0
  0
LINE
  5
4B
  8
DETAIL
  6
CONTINUOUS
 62
     5
 10
-126.764867
 20
-39.056509
 30
0.0
 11
-139.826085
 21
-39.056509
 31
0.0
  0
ARC
  5
4C
  8
DETAIL
  6
CONTINUOUS
 62
     5
 10
-139.826085
 20
-36.042382
 30
0.0
 40
3.014127
 50
180.0
 51
270.0
  0
ARC
  5
4D
  8
DETAIL
  6
CONTINUOUS
 62
     5
 10
-126.764867
 20
-36.042382
 30
0.0
 40
3.014127
 50
270.0
 51
0.0
  0
LINE
  5
4E
  8
DETAIL
  6
CONTINUOUS
 62
     5
 10
126.764867
 20
-39.056509
 30
0.0
 11
139.826085
 21
-39.056509
 31
0.0
  0
LINE
  5
4F
  8
DETAIL
  6
CONTINUOUS
 62
     5
 10
123.750739
 20
-65.178947
 30
0.0
 11
138.821376
 21
-65.178947
 31
0.0
  0
LINE
  5
50
  8
DETAIL
  6
CONTINUOUS
 62
     5
 10
173.986195
 20
-27.0
 30
0.0
 11
123.750739
 21
-27.0
 31
0.0
  0
LINE
  5
51
  8
DETAIL
  6
CONTINUOUS
 62
     5
 10
123.750739
 20
-65.178947
 30
0.0
 11
123.750739
 21
-27.0
 31
0.0
  0
ARC
  5
52
  8
DETAIL
  6
CONTINUOUS
 62
     5
 10
126.764867
 20
-36.042382
 30
0.0
 40
3.014127
 50
180.0
 51
270.0
  0
LINE
  5
53
  8
DETAIL
  6
CONTINUOUS
 62
     5
 10
173.986195
 20
-65.178947
 30
0.0
 11
173.986195
 21
-27.0
 31
0.0
  0
LINE
  5
54
  8
DETAIL
  6
CONTINUOUS
 62
     5
 10
158.915559
 20
-65.178947
 30
0.0
 11
173.986195
 21
-65.178947
 31
0.0
  0
LINE
  5
55
  8
DETAIL
  6
CONTINUOUS
 62
     5
 10
158.915559
 20
-65.178947
 30
0.0
 11
158.915559
 21
-70.202492
 31
0.0
  0
LINE
  5
56
  8
DETAIL
  6
CONTINUOUS
 62
     5
 10
138.821376
 20
-65.178947
 30
0.0
 11
138.821376
 21
-70.202492
 31
0.0
  0
LINE
  5
57
  8
DETAIL
  6
CONTINUOUS
 62
     5
 10
158.915559
 20
-70.202492
 30
0.0
 11
138.821376
 21
-70.202492
 31
0.0
  0
LINE
  5
58
  8
DETAIL
  6
CONTINUOUS
 62
     5
 10
159.417913
 20
-66.183656
 30
0.0
 11
159.417913
 21
-70.202492
 31
0.0
  0
LINE
  5
59
  8
DETAIL
  6
CONTINUOUS
 62
     5
 10
138.319022
 20
-66.183656
 30
0.0
 11
138.319022
 21
-70.202492
 31
0.0
  0
LINE
  5
5A
  8
DETAIL
  6
CONTINUOUS
 62
     5
 10
159.417913
 20
-70.202492
 30
0.0
 11
138.319022
 21
-70.202492
 31
0.0
  0
LINE
  5
5B
  8
DETAIL
  6
CONTINUOUS
 62
     5
 10
159.417913
 20
-66.183656
 30
0.0
 11
158.915559
 21
-66.183656
 31
0.0
  0
LINE
  5
5C
  8
DETAIL
  6
CONTINUOUS
 62
     5
 10
138.821376
 20
-66.183656
 30
0.0
 11
138.319022
 21
-66.183656
 31
0.0
  0
CIRCLE
  5
5D
  8
DETAIL
  6
CONTINUOUS
 62
     5
 10
149.0
 20
-47.094182
 30
0.0
 40
3.516482
  0
ARC
  5
5E
  8
DETAIL
  6
CONTINUOUS
 62
     5
 10
170.972068
 20
-36.042382
 30
0.0
 40
3.014127
 50
270.0
 51
0.0
  0
LINE
  5
5F
  8
DETAIL
  6
CONTINUOUS
 62
     5
 10
170.972068
 20
-39.056509
 30
0.0
 11
157.91085
 21
-39.056509
 31
0.0
  0
ARC
  5
60
  8
DETAIL
  6
CONTINUOUS
 62
     5
 10
139.826085
 20
-36.042382
 30
0.0
 40
3.014127
 50
270.0
 51
0.0
  0
ARC
  5
61
  8
DETAIL
  6
CONTINUOUS
 62
     5
 10
157.91085
 20
-36.042382
 30
0.0
 40
3.014127
 50
180.0
 51
270.0
  0
LINE
  5
62
  8
DETAIL
  6
CONTINUOUS
 62
     5
 10
154.866722
 20
-29.310831
 30
0.0
 11
142.840213
 21
-29.310831
 31
0.0
  0
LINE
  5
63
  8
DETAIL
  6
CONTINUOUS
 62
     5
 10
181.0
 20
0.0
 30
0.0
 11
181.0
 21
-284.0
 31
0.0
  0
LINE
  5
64
  8
SIZE
  6
CONTINUOUS
 62
    30
 10
-181.0
 20
20.0
 30
0.0
 11
-181.0
 21
423.64886
 31
0.0
  0
LINE
  5
65
  8
SIZE
  6
CONTINUOUS
 62
    30
 10
181.0
 20
20.0
 30
0.0
 11
181.0
 21
423.64886
 31
0.0
  0
LINE
  5
66
  8
SIZE
  6
CONTINUOUS
 62
    30
 10
-171.0
 20
393.64886
 30
0.0
 11
171.0
 21
393.64886
 31
0.0
  0
CIRCLE
  5
67
  8
SIZE
  6
CONTINUOUS
 62
    30
 10
-181.0
 20
393.64886
 30
0.0
 40
5.0
  0
LINE
  5
68
  8
SIZE
  6
CONTINUOUS
 62
    30
 10
-176.0
 20
393.64886
 30
0.0
 11
-171.0
 21
393.64886
 31
0.0
  0
CIRCLE
  5
69
  8
SIZE
  6
CONTINUOUS
 62
    30
 10
181.0
 20
393.64886
 30
0.0
 40
5.0
  0
LINE
  5
6A
  8
SIZE
  6
CONTINUOUS
 62
    30
 10
176.0
 20
393.64886
 30
0.0
 11
171.0
 21
393.64886
 31
0.0
  0
TEXT
  5
6B
  8
SIZE
  6
CONTINUOUS
 62
    30
 10
-76.90587
 20
413.64886
 30
0.0
 40
64.0
  1
362
 41
0.9
 72
     1
 11
-2.848727
 21
413.64886
 31
0.0
  0
POINT
  5
6C
  8
DEFPOINTS
  6
CONTINUOUS
 62
     7
 10
-181.0
 20
0.0
 30
0.0
  0
POINT
  5
6D
  8
DEFPOINTS
  6
CONTINUOUS
 62
     7
 10
181.0
 20
0.0
 30
0.0
  0
POINT
  5
6E
  8
DEFPOINTS
  6
CONTINUOUS
 62
     7
 10
181.0
 20
393.64886
 30
0.0
  0
LINE
  5
6F
  8
DETAIL
  6
CONTINUOUS
 62
     5
 10
178.19
 20
-275.692182
 30
0.0
 11
178.19
 21
-284.0
 31
0.0
  0
LINE
  5
70
  8
SIZE
  6
CONTINUOUS
 62
    30
 10
-181.0
 20
-2.907368
 30
0.0
 11
-181.0
 21
132.085867
 31
0.0
  0
LINE
  5
71
  8
SIZE
  6
CONTINUOUS
 62
    30
 10
-245.0
 20
-2.907019
 30
0.0
 11
-245.0
 21
132.085867
 31
0.0
  0
LINE
  5
72
  8
SIZE
  6
CONTINUOUS
 62
    30
 10
-171.0
 20
102.085867
 30
0.0
 11
-161.0
 21
102.085867
 31
0.0
  0
LINE
  5
73
  8
SIZE
  6
CONTINUOUS
 62
    30
 10
-255.0
 20
102.085867
 30
0.0
 11
-265.0
 21
102.085867
 31
0.0
  0
LINE
  5
74
  8
SIZE
  6
CONTINUOUS
 62
    30
 10
-181.0
 20
102.085867
 30
0.0
 11
-245.0
 21
102.085867
 31
0.0
  0
CIRCLE
  5
75
  8
SIZE
  6
CONTINUOUS
 62
    30
 10
-181.0
 20
102.085867
 30
0.0
 40
5.0
  0
LINE
  5
76
  8
SIZE
  6
CONTINUOUS
 62
    30
 10
-176.0
 20
102.085867
 30
0.0
 11
-171.0
 21
102.085867
 31
0.0
  0
CIRCLE
  5
77
  8
SIZE
  6
CONTINUOUS
 62
    30
 10
-245.0
 20
102.085867
 30
0.0
 40
5.0
  0
LINE
  5
78
  8
SIZE
  6
CONTINUOUS
 62
    30
 10
-250.0
 20
102.085867
 30
0.0
 11
-255.0
 21
102.085867
 31
0.0
  0
TEXT
  5
79
  8
SIZE
  6
CONTINUOUS
 62
    30
 10
-261.0
 20
122.085867
 30
0.0
 40
64.0
  1
64
 41
0.9
 72
     1
 11
-213.0
 21
122.085867
 31
0.0
  0
POINT
  5
7A
  8
DEFPOINTS
  6
CONTINUOUS
 62
     7
 10
-181.0
 20
-22.907368
 30
0.0
  0
POINT
  5
7B
  8
DEFPOINTS
  6
CONTINUOUS
 62
     7
 10
-245.0
 20
-22.907019
 30
0.0
  0
POINT
  5
7C
  8
DEFPOINTS
  6
CONTINUOUS
 62
     7
 10
-245.0
 20
102.085867
 30
0.0
  0
LINE
  5
7D
  8
SIZE
  6
CONTINUOUS
 62
    30
 10
-201.0
 20
0.0
 30
0.0
 11
-399.447305
 21
0.0
 31
0.0
  0
LINE
  5
7E
  8
SIZE
  6
CONTINUOUS
 62
    30
 10
-265.0
 20
-23.0
 30
0.0
 11
-399.447305
 21
-23.0
 31
0.0
  0
LINE
  5
7F
  8
SIZE
  6
CONTINUOUS
 62
    30
 10
-369.447305
 20
10.0
 30
0.0
 11
-369.447305
 21
20.0
 31
0.0
  0
LINE
  5
80
  8
SIZE
  6
CONTINUOUS
 62
    30
 10
-369.447305
 20
-33.0
 30
0.0
 11
-369.447305
 21
-43.0
 31
0.0
  0
LINE
  5
81
  8
SIZE
  6
CONTINUOUS
 62
    30
 10
-369.447305
 20
0.0
 30
0.0
 11
-369.447305
 21
-23.0
 31
0.0
  0
CIRCLE
  5
82
  8
SIZE
  6
CONTINUOUS
 62
    30
 10
-369.447305
 20
0.0
 30
0.0
 40
5.0
  0
LINE
  5
83
  8
SIZE
  6
CONTINUOUS
 62
    30
 10
-369.447305
 20
5.0
 30
0.0
 11
-369.447305
 21
10.0
 31
0.0
  0
CIRCLE
  5
84
  8
SIZE
  6
CONTINUOUS
 62
    30
 10
-369.447305
 20
-23.0
 30
0.0
 40
5.0
  0
LINE
  5
85
  8
SIZE
  6
CONTINUOUS
 62
    30
 10
-369.447305
 20
-28.0
 30
0.0
 11
-369.447305
 21
-33.0
 31
0.0
  0
TEXT
  5
86
  8
SIZE
  6
CONTINUOUS
 62
    30
 10
-389.447305
 20
-58.128571
 30
0.0
 40
64.0
  1
23
 50
90.0
 41
0.9
 72
     1
 11
-389.447305
 21
-11.5
 31
0.0
  0
POINT
  5
87
  8
DEFPOINTS
  6
CONTINUOUS
 62
     7
 10
-181.0
 20
0.0
 30
0.0
  0
POINT
  5
88
  8
DEFPOINTS
  6
CONTINUOUS
 62
     7
 10
-245.0
 20
-23.0
 30
0.0
  0
POINT
  5
89
  8
DEFPOINTS
  6
CONTINUOUS
 62
     7
 10
-369.447305
 20
-23.0
 30
0.0
  0
LINE
  5
8A
  8
SIZE
  6
CONTINUOUS
 62
    30
 10
-263.405061
 20
-22.999667
 30
0.0
 11
-398.804497
 21
-22.999667
 31
0.0
  0
LINE
  5
8B
  8
SIZE
  6
CONTINUOUS
 62
    30
 10
-265.0
 20
-153.0
 30
0.0
 11
-398.804497
 21
-153.0
 31
0.0
  0
LINE
  5
8C
  8
SIZE
  6
CONTINUOUS
 62
    30
 10
-368.804497
 20
-32.999667
 30
0.0
 11
-368.804497
 21
-143.0
 31
0.0
  0
LINE
  5
8D
  8
SIZE
  6
CONTINUOUS
 62
    30
 10
-368.804497
 20
-153.0
 30
0.0
 11
-368.804497
 21
-340.142857
 31
0.0
  0
CIRCLE
  5
8E
  8
SIZE
  6
CONTINUOUS
 62
    30
 10
-368.804497
 20
-22.999667
 30
0.0
 40
5.0
  0
LINE
  5
8F
  8
SIZE
  6
CONTINUOUS
 62
    30
 10
-368.804497
 20
-27.999667
 30
0.0
 11
-368.804497
 21
-32.999667
 31
0.0
  0
CIRCLE
  5
90
  8
SIZE
  6
CONTINUOUS
 62
    30
 10
-368.804497
 20
-153.0
 30
0.0
 40
5.0
  0
LINE
  5
91
  8
SIZE
  6
CONTINUOUS
 62
    30
 10
-368.804497
 20
-148.0
 30
0.0
 11
-368.804497
 21
-143.0
 31
0.0
  0
TEXT
  5
92
  8
SIZE
  6
CONTINUOUS
 62
    30
 10
-388.804497
 20
-320.142858
 30
0.0
 40
64.0
  1
130
 50
90.0
 41
0.9
 72
     1
 11
-388.804497
 21
-251.571429
 31
0.0
  0
POINT
  5
93
  8
DEFPOINTS
  6
CONTINUOUS
 62
     7
 10
-243.405061
 20
-22.999667
 30
0.0
  0
POINT
  5
94
  8
DEFPOINTS
  6
CONTINUOUS
 62
     7
 10
-245.0
 20
-153.0
 30
0.0
  0
POINT
  5
95
  8
DEFPOINTS
  6
CONTINUOUS
 62
     7
 10
-368.804497
 20
-153.0
 30
0.0
  0
LINE
  5
96
  8
SIZE
  6
CONTINUOUS
 62
    30
 10
-181.0
 20
-173.0
 30
0.0
 11
-181.0
 21
-304.940595
 31
0.0
  0
LINE
  5
97
  8
SIZE
  6
CONTINUOUS
 62
    30
 10
-245.0
 20
-173.0
 30
0.0
 11
-245.0
 21
-304.940595
 31
0.0
  0
LINE
  5
98
  8
SIZE
  6
CONTINUOUS
 62
    30
 10
-191.0
 20
-274.940595
 30
0.0
 11
-235.0
 21
-274.940595
 31
0.0
  0
CIRCLE
  5
99
  8
SIZE
  6
CONTINUOUS
 62
    30
 10
-181.0
 20
-274.940595
 30
0.0
 40
5.0
  0
LINE
  5
9A
  8
SIZE
  6
CONTINUOUS
 62
    30
 10
-186.0
 20
-274.940595
 30
0.0
 11
-191.0
 21
-274.940595
 31
0.0
  0
CIRCLE
  5
9B
  8
SIZE
  6
CONTINUOUS
 62
    30
 10
-245.0
 20
-274.940595
 30
0.0
 40
5.0
  0
LINE
  5
9C
  8
SIZE
  6
CONTINUOUS
 62
    30
 10
-240.0
 20
-274.940595
 30
0.0
 11
-235.0
 21
-274.940595
 31
0.0
  0
TEXT
  5
9D
  8
SIZE
  6
CONTINUOUS
 62
    30
 10
-261.0
 20
-254.940595
 30
0.0
 40
64.0
  1
64
 41
0.9
 72
     1
 11
-213.0
 21
-254.940595
 31
0.0
  0
POINT
  5
9E
  8
DEFPOINTS
  6
CONTINUOUS
 62
     7
 10
-181.0
 20
-153.0
 30
0.0
  0
POINT
  5
9F
  8
DEFPOINTS
  6
CONTINUOUS
 62
     7
 10
-245.0
 20
-153.0
 30
0.0
  0
POINT
  5
A0
  8
DEFPOINTS
  6
CONTINUOUS
 62
     7
 10
-245.0
 20
-274.940595
 30
0.0
  0
LINE
  5
A1
  8
DETAIL
  6
CONTINUOUS
 62
     5
 10
251.0
 20
-10.5
 30
0.0
 11
251.0
 21
-273.5
 31
0.0
  0
LINE
  5
A2
  8
SIZE
  6
CONTINUOUS
 62
    30
 10
181.0
 20
20.0
 30
0.0
 11
181.0
 21
424.182533
 31
0.0
  0
LINE
  5
A3
  8
SIZE
  6
CONTINUOUS
 62
    30
 10
251.0
 20
11.560443
 30
0.0
 11
251.0
 21
424.182533
 31
0.0
  0
LINE
  5
A4
  8
SIZE
  6
CONTINUOUS
 62
    30
 10
191.0
 20
394.182533
 30
0.0
 11
241.0
 21
394.182533
 31
0.0
  0
LINE
  5
A5
  8
SIZE
  6
CONTINUOUS
 62
    30
 10
251.0
 20
394.182533
 30
0.0
 11
394.257143
 21
394.182533
 31
0.0
  0
CIRCLE
  5
A6
  8
SIZE
  6
CONTINUOUS
 62
    30
 10
181.0
 20
394.182533
 30
0.0
 40
5.0
  0
LINE
  5
A7
  8
SIZE
  6
CONTINUOUS
 62
    30
 10
186.0
 20
394.182533
 30
0.0
 11
191.0
 21
394.182533
 31
0.0
  0
CIRCLE
  5
A8
  8
SIZE
  6
CONTINUOUS
 62
    30
 10
251.0
 20
394.182533
 30
0.0
 40
5.0
  0
LINE
  5
A9
  8
SIZE
  6
CONTINUOUS
 62
    30
 10
246.0
 20
394.182533
 30
0.0
 11
241.0
 21
394.182533
 31
0.0
  0
TEXT
  5
AA
  8
SIZE
  6
CONTINUOUS
 62
    30
 10
281.0
 20
414.182533
 30
0.0
 40
64.0
  1
70
 41
0.9
 72
     1
 11
327.628571
 21
414.182533
 31
0.0
  0
POINT
  5
AB
  8
DEFPOINTS
  6
CONTINUOUS
 62
     7
 10
181.0
 20
0.0
 30
0.0
  0
POINT
  5
AC
  8
DEFPOINTS
  6
CONTINUOUS
 62
     7
 10
251.0
 20
-8.439557
 30
0.0
  0
POINT
  5
AD
  8
DEFPOINTS
  6
CONTINUOUS
 62
     7
 10
251.0
 20
394.182533
 30
0.0
  0
LINE
  5
AE
  8
SIZE
  6
CONTINUOUS
 62
    30
 10
201.0
 20
0.0
 30
0.0
 11
322.212362
 21
0.0
 31
0.0
  0
LINE
  5
AF
  8
SIZE
  6
CONTINUOUS
 62
    30
 10
193.986195
 20
-27.0
 30
0.0
 11
322.212362
 21
-27.0
 31
0.0
  0
LINE
  5
B0
  8
SIZE
  6
CONTINUOUS
 62
    30
 10
292.212362
 20
10.0
 30
0.0
 11
292.212362
 21
20.0
 31
0.0
  0
LINE
  5
B1
  8
SIZE
  6
CONTINUOUS
 62
    30
 10
292.212362
 20
-37.0
 30
0.0
 11
292.212362
 21
-47.0
 31
0.0
  0
LINE
  5
B2
  8
SIZE
  6
CONTINUOUS
 62
    30
 10
292.212362
 20
0.0
 30
0.0
 11
292.212362
 21
-27.0
 31
0.0
  0
CIRCLE
  5
B3
  8
SIZE
  6
CONTINUOUS
 62
    30
 10
292.212362
 20
0.0
 30
0.0
 40
5.0
  0
LINE
  5
B4
  8
SIZE
  6
CONTINUOUS
 62
    30
 10
292.212362
 20
5.0
 30
0.0
 11
292.212362
 21
10.0
 31
0.0
  0
CIRCLE
  5
B5
  8
SIZE
  6
CONTINUOUS
 62
    30
 10
292.212362
 20
-27.0
 30
0.0
 40
5.0
  0
LINE
  5
B6
  8
SIZE
  6
CONTINUOUS
 62
    30
 10
292.212362
 20
-32.0
 30
0.0
 11
292.212362
 21
-37.0
 31
0.0
  0
TEXT
  5
B7
  8
SIZE
  6
CONTINUOUS
 62
    30
 10
272.212362
 20
-60.128571
 30
0.0
 40
64.0
  1
27
 50
90.0
 41
0.9
 72
     1
 11
272.212362
 21
-13.5
 31
0.0
  0
POINT
  5
B8
  8
DEFPOINTS
  6
CONTINUOUS
 62
     7
 10
181.0
 20
0.0
 30
0.0
  0
POINT
  5
B9
  8
DEFPOINTS
  6
CONTINUOUS
 62
     7
 10
173.986195
 20
-27.0
 30
0.0
  0
POINT
  5
BA
  8
DEFPOINTS
  6
CONTINUOUS
 62
     7
 10
292.212362
 20
-27.0
 30
0.0
  0
LINE
  5
BB
  8
NOTE
  6
CONTINUOUS
 62
     4
 10
-265.0
 20
-22.999651
 30
0.0
 11
-225.0
 21
-22.999651
 31
0.0
  0
LINE
  5
BC
  8
NOTE
  6
CONTINUOUS
 62
     4
 10
-245.0
 20
-2.999651
 30
0.0
 11
-245.0
 21
-42.999651
 31
0.0
  0
LINE
  5
BD
  8
NOTE
  6
CONTINUOUS
 62
     4
 10
-265.0
 20
-152.999457
 30
0.0
 11
-225.0
 21
-152.999457
 31
0.0
  0
LINE
  5
BE
  8
NOTE
  6
CONTINUOUS
 62
     4
 10
-245.0
 20
-132.999457
 30
0.0
 11
-245.0
 21
-172.999457
 31
0.0
  0
TEXT
  5
BF
  8
ETC
  6
CONTINUOUS
 62
    61
 10
-143.445389
 20
797.580859
 30
0.0
 40
64.0
  1
R2用分流コントローラ
 41
0.9
 72
     2
 11
571.891754
 21
797.580859
 31
0.0
  0
TEXT
  5
C0
  8
ETC
  6
CONTINUOUS
 62
    61
 10
-56.222532
 20
691.980859
 30
0.0
 40
64.0
  1
CMB-P108G_4
 41
0.9
 72
     2
 11
571.891754
 21
691.980859
 31
0.0
  0
LINE
  5
C1
  8
BASIS
  6
DASHDOT1
 62
     6
 10
0.0
 20
60.0
 30
0.0
 11
0.0
 21
-374.0
 31
0.0
  0
CIRCLE
  5
C2
  8
ARRANGE
  6
CONTINUOUS
 62
     1
 10
0.0
 20
0.0
 30
0.0
 40
40.0
  0
POINT
  5
C3
  8
ARRANGE
  6
CONTINUOUS
 62
     1
 10
0.0
 20
0.0
 30
0.0
  0
LINE
  5
C4
  8
OUTLINE
  6
CONTINUOUS
 62
     3
 10
-181.0
 20
0.0
 30
0.0
 11
181.0
 21
0.0
 31
0.0
  0
LINE
  5
C5
  8
DETAIL
  6
CONTINUOUS
 62
     5
 10
181.0
 20
-10.5
 30
0.0
 11
251.0
 21
-10.5
 31
0.0
  0
LINE
  5
C6
  8
DETAIL
  6
CONTINUOUS
 62
     5
 10
181.0
 20
-273.5
 30
0.0
 11
251.0
 21
-273.5
 31
0.0
  0
LINE
  5
C7
  8
OUTLINE
  6
CONTINUOUS
 62
     3
 10
181.0
 20
-284.0
 30
0.0
 11
-181.0
 21
-284.0
 31
0.0
  0
LINE
  5
C8
  8
OUTLINE
  6
CONTINUOUS
 62
     3
 10
-181.0
 20
-284.0
 30
0.0
 11
-181.0
 21
0.0
 31
0.0
  0
LINE
  5
C9
  8
DETAIL
  6
CONTINUOUS
 62
     5
 10
-245.0
 20
-160.939457
 30
0.0
 11
-181.0
 21
-160.939457
 31
0.0
  0
LINE
  5
CA
  8
DETAIL
  6
CONTINUOUS
 62
     5
 10
-245.0
 20
-145.059457
 30
0.0
 11
-181.0
 21
-145.059457
 31
0.0
  0
LINE
  5
CB
  8
DETAIL
  6
CONTINUOUS
 62
     5
 10
-245.0
 20
-160.939457
 30
0.0
 11
-245.0
 21
-145.059457
 31
0.0
  0
LINE
  5
CC
  8
DETAIL
  6
CONTINUOUS
 62
     5
 10
-245.0
 20
-27.759651
 30
0.0
 11
-181.0
 21
-27.759651
 31
0.0
  0
LINE
  5
CD
  8
DETAIL
  6
CONTINUOUS
 62
     5
 10
-245.0
 20
-18.239651
 30
0.0
 11
-181.0
 21
-18.239651
 31
0.0
  0
LINE
  5
CE
  8
DETAIL
  6
CONTINUOUS
 62
     5
 10
-245.0
 20
-27.759651
 30
0.0
 11
-245.0
 21
-18.239651
 31
0.0
  0
LINE
  5
CF
  8
DETAIL
  6
CONTINUOUS
 62
     5
 10
154.866722
 20
-27.0
 30
0.0
 11
154.866722
 21
-36.042382
 31
0.0
  0
LINE
  5
D0
  8
DETAIL
  6
CONTINUOUS
 62
     5
 10
142.870213
 20
-27.0
 30
0.0
 11
142.870213
 21
-36.042382
 31
0.0
  0
LINE
  5
D1
  8
DETAIL
  6
CONTINUOUS
 62
     5
 10
-142.870213
 20
-27.0
 30
0.0
 11
-142.870213
 21
-36.042382
 31
0.0
  0
LINE
  5
D2
  8
DETAIL
  6
CONTINUOUS
 62
     5
 10
-154.866722
 20
-27.0
 30
0.0
 11
-154.866722
 21
-36.042382
 31
0.0
  0
LINE
  5
D3
  8
NOTE
  6
CONTINUOUS
 62
     4
 10
-251.749314
 20
-160.849708
 30
0.0
 11
-245.0
 21
-152.999457
 31
0.0
  0
LINE
  5
D4
  8
NOTE
  6
CONTINUOUS
 62
     4
 10
-245.0
 20
-152.999457
 30
0.0
 11
-254.770203
 21
-156.423317
 31
0.0
  0
LINE
  5
D5
  8
SIZE
  6
CONTINUOUS
 62
    30
 10
149.0
 20
-27.094182
 30
0.0
 11
149.0
 21
338.959044
 31
0.0
  0
LINE
  5
D6
  8
SIZE
  6
CONTINUOUS
 62
    30
 10
-149.0
 20
-27.094182
 30
0.0
 11
-149.0
 21
338.959044
 31
0.0
  0
LINE
  5
D7
  8
SIZE
  6
CONTINUOUS
 62
    30
 10
139.0
 20
308.959044
 30
0.0
 11
-139.0
 21
308.959044
 31
0.0
  0
LINE
  5
D8
  8
SIZE
  6
CONTINUOUS
 62
    30
 10
-149.0
 20
308.959044
 30
0.0
 11
-389.073469
 21
308.959044
 31
0.0
  0
CIRCLE
  5
D9
  8
SIZE
  6
CONTINUOUS
 62
    30
 10
149.0
 20
308.959044
 30
0.0
 40
5.0
  0
LINE
  5
DA
  8
SIZE
  6
CONTINUOUS
 62
    30
 10
144.0
 20
308.959044
 30
0.0
 11
139.0
 21
308.959044
 31
0.0
  0
CIRCLE
  5
DB
  8
SIZE
  6
CONTINUOUS
 62
    30
 10
-149.0
 20
308.959044
 30
0.0
 40
5.0
  0
LINE
  5
DC
  8
SIZE
  6
CONTINUOUS
 62
    30
 10
-144.0
 20
308.959044
 30
0.0
 11
-139.0
 21
308.959044
 31
0.0
  0
TEXT
  5
DD
  8
SIZE
  6
CONTINUOUS
 62
    30
 10
-369.073469
 20
328.959044
 30
0.0
 40
64.0
  1
298
 41
0.9
 72
     1
 11
-295.016326
 21
328.959044
 31
0.0
  0
POINT
  5
DE
  8
DEFPOINTS
  6
CONTINUOUS
 62
     7
 10
149.0
 20
-47.094182
 30
0.0
  0
POINT
  5
DF
  8
DEFPOINTS
  6
CONTINUOUS
 62
     7
 10
-149.0
 20
-47.094182
 30
0.0
  0
POINT
  5
E0
  8
DEFPOINTS
  6
CONTINUOUS
 62
     7
 10
-149.0
 20
308.959044
 30
0.0
  0
LINE
  5
E1
  8
NOTE
  6
CONTINUOUS
 62
     4
 10
129.0
 20
-47.094182
 30
0.0
 11
169.0
 21
-47.094182
 31
0.0
  0
LINE
  5
E2
  8
NOTE
  6
CONTINUOUS
 62
     4
 10
149.0
 20
-27.094182
 30
0.0
 11
149.0
 21
-67.094182
 31
0.0
  0
LINE
  5
E3
  8
NOTE
  6
CONTINUOUS
 62
     4
 10
-169.0
 20
-47.094182
 30
0.0
 11
-129.0
 21
-47.094182
 31
0.0
  0
LINE
  5
E4
  8
NOTE
  6
CONTINUOUS
 62
     4
 10
-149.0
 20
-27.094182
 30
0.0
 11
-149.0
 21
-67.094182
 31
0.0
  0
TEXT
  5
E5
  8
SIZE
  6
CONTINUOUS
 62
    30
 10
-222.7781
 20
319.940241
 30
0.0
 40
35.0
  1
（吊りボルトピッチ）
 41
0.9
  0
LINE
  5
E6
  8
SIZE
  6
CONTINUOUS
 62
    30
 10
201.0
 20
0.0
 30
0.0
 11
465.559753
 21
0.0
 31
0.0
  0
LINE
  5
E7
  8
SIZE
  6
CONTINUOUS
 62
    30
 10
198.19
 20
-284.0
 30
0.0
 11
465.559753
 21
-284.0
 31
0.0
  0
LINE
  5
E8
  8
SIZE
  6
CONTINUOUS
 62
    30
 10
435.559753
 20
-10.0
 30
0.0
 11
435.559753
 21
-274.0
 31
0.0
  0
CIRCLE
  5
E9
  8
SIZE
  6
CONTINUOUS
 62
    30
 10
435.559753
 20
0.0
 30
0.0
 40
5.0
  0
LINE
  5
EA
  8
SIZE
  6
CONTINUOUS
 62
    30
 10
435.559753
 20
-5.0
 30
0.0
 11
435.559753
 21
-10.0
 31
0.0
  0
CIRCLE
  5
EB
  8
SIZE
  6
CONTINUOUS
 62
    30
 10
435.559753
 20
-284.0
 30
0.0
 40
5.0
  0
LINE
  5
EC
  8
SIZE
  6
CONTINUOUS
 62
    30
 10
435.559753
 20
-279.0
 30
0.0
 11
435.559753
 21
-274.0
 31
0.0
  0
TEXT
  5
ED
  8
SIZE
  6
CONTINUOUS
 62
    30
 10
415.559753
 20
-217.428571
 30
0.0
 40
64.0
  1
284
 50
90.0
 41
0.9
 72
     1
 11
415.559753
 21
-142.0
 31
0.0
  0
POINT
  5
EE
  8
DEFPOINTS
  6
CONTINUOUS
 62
     7
 10
181.0
 20
0.0
 30
0.0
  0
POINT
  5
EF
  8
DEFPOINTS
  6
CONTINUOUS
 62
     7
 10
178.19
 20
-284.0
 30
0.0
  0
POINT
  5
F0
  8
DEFPOINTS
  6
CONTINUOUS
 62
     7
 10
435.559753
 20
-284.0
 30
0.0
  0
LINE
  5
F1
  8
OUTLINE
  6
CONTINUOUS
 62
     3
 10
181.0
 20
0.0
 30
0.0
 11
181.0
 21
-10.5
 31
0.0
  0
LINE
  5
F2
  8
OUTLINE
  6
CONTINUOUS
 62
     3
 10
181.0
 20
-10.5
 30
0.0
 11
251.0
 21
-10.5
 31
0.0
  0
LINE
  5
F3
  8
OUTLINE
  6
CONTINUOUS
 62
     3
 10
251.0
 20
-10.5
 30
0.0
 11
251.0
 21
-273.5
 31
0.0
  0
LINE
  5
F4
  8
OUTLINE
  6
CONTINUOUS
 62
     3
 10
251.0
 20
-273.5
 30
0.0
 11
181.0
 21
-273.5
 31
0.0
  0
LINE
  5
F5
  8
OUTLINE
  6
CONTINUOUS
 62
     3
 10
181.0
 20
-273.5
 30
0.0
 11
181.0
 21
-284.0
 31
0.0
  0
LINE
  5
F6
  8
NOTE
  6
CONTINUOUS
 62
     4
 10
-245.0
 20
-152.999457
 30
0.0
 11
-506.168634
 21
-343.285931
 31
0.0
  0
LINE
  5
F7
  8
NOTE
  6
CONTINUOUS
 62
     4
 10
-506.168634
 20
-343.285931
 30
0.0
 11
-1547.95587
 21
-343.285931
 31
0.0
  0
TEXT
  5
F8
  8
NOTE
  6
CONTINUOUS
 62
     4
 10
-1583.568963
 20
-319.058286
 30
0.0
 40
64.0
  1
室内ユニット側配管接続口（ガス）
 41
0.9
  0
TEXT
  5
F9
  8
NOTE
  6
CONTINUOUS
 62
     4
 10
-1106.03025
 20
-418.438345
 30
0.0
 40
50.0
  1
φ15.88〈フレア〉
 41
0.9
 72
     2
 11
-630.744536
 21
-418.438345
 31
0.0
  0
TEXT
  5
FA
  8
NOTE
  6
CONTINUOUS
 62
     4
 10
-1540.562271
 20
-117.373885
 30
0.0
 40
64.0
  1
室内ユニット側配管接続口（液）
 41
0.9
  0
TEXT
  5
FB
  8
NOTE
  6
CONTINUOUS
 62
     4
 10
-1125.71873
 20
-197.292676
 30
0.0
 40
50.0
  1
φ9.52〈フレア〉
 41
0.9
 72
     2
 11
-684.71873
 21
-197.292676
 31
0.0
  0
TEXT
  5
FC
  8
NOTE
  6
CONTINUOUS
 62
     4
 10
390.168831
 20
239.953441
 30
0.0
 40
64.0
  1
AH4-12×14長穴
 41
0.9
 72
     2
 11
1026.511688
 21
239.953441
 31
0.0
  0
POLYLINE
  5
FD
  8
NOTE
  6
CONTINUOUS
 62
     4
 66
     1
 10
0.0
 20
0.0
 30
0.0
  0
VERTEX
  5
FE
  8
NOTE
  6
CONTINUOUS
 62
     4
 10
-245.0
 20
-22.999651
 30
0.0
  0
VERTEX
  5
FF
  8
NOTE
  6
CONTINUOUS
 62
     4
 10
-506.600597
 20
-131.204249
 30
0.0
  0
VERTEX
  5
100
  8
NOTE
  6
CONTINUOUS
 62
     4
 10
-1528.74291
 20
-131.204249
 30
0.0
  0
SEQEND
  5
101
  8
NOTE
  6
CONTINUOUS
 62
     4
  0
POLYLINE
  5
102
  8
NOTE
  6
CONTINUOUS
 62
     4
 66
     1
 10
0.0
 20
0.0
 30
0.0
  0
VERTEX
  5
103
  8
NOTE
  6
CONTINUOUS
 62
     4
 10
149.0
 20
-47.094182
 30
0.0
  0
VERTEX
  5
104
  8
NOTE
  6
CONTINUOUS
 62
     4
 10
325.483626
 20
210.137654
 30
0.0
  0
VERTEX
  5
105
  8
NOTE
  6
CONTINUOUS
 62
     4
 10
1043.428106
 20
210.137654
 30
0.0
  0
SEQEND
  5
106
  8
NOTE
  6
CONTINUOUS
 62
     4
  0
LINE
  5
107
  8
NOTE
  6
CONTINUOUS
 62
     4
 10
-255.26487
 20
-24.345802
 30
0.0
 11
-245.0
 21
-22.999651
 31
0.0
  0
LINE
  5
108
  8
NOTE
  6
CONTINUOUS
 62
     4
 10
-245.0
 20
-22.999651
 30
0.0
 11
-253.216563
 21
-29.297887
 31
0.0
  0
LINE
  5
109
  8
NOTE
  6
CONTINUOUS
 62
     4
 10
-254.770203
 20
-156.423317
 30
0.0
 11
-245.0
 21
-152.999457
 31
0.0
  0
LINE
  5
10A
  8
NOTE
  6
CONTINUOUS
 62
     4
 10
-245.0
 20
-152.999457
 30
0.0
 11
-251.749314
 21
-160.849708
 31
0.0
  0
LINE
  5
10B
  8
NOTE
  6
CONTINUOUS
 62
     4
 10
152.447909
 20
-37.332441
 30
0.0
 11
149.0
 21
-47.094182
 31
0.0
  0
LINE
  5
10C
  8
NOTE
  6
CONTINUOUS
 62
     4
 10
149.0
 20
-47.094182
 30
0.0
 11
156.866848
 21
-40.364221
 31
0.0
  0
ENDSEC
  0
EOF
