  0
SECTION
  2
HEADER
  9
$ACADVER
  1
AC1009
  9
$INSBASE
 10
0.0
 20
0.0
 30
0.0
  9
$EXTMIN
 10
-2189.504789
 20
-848.647115
 30
-0.001526
  9
$EXTMAX
 10
1314.699784
 20
1001.483693
 30
0.0
  9
$LIMMIN
 10
-3837.000175
 20
-3000.109539
  9
$LIMMAX
 10
7319.256881
 20
4045.223003
  9
$ORTHOMODE
 70
     1
  9
$REGENMODE
 70
     1
  9
$FILLMODE
 70
     1
  9
$QTEXTMODE
 70
     0
  9
$MIRRTEXT
 70
     0
  9
$DRAGMODE
 70
     2
  9
$LTSCALE
 40
20.0
  9
$OSMODE
 70
    37
  9
$ATTMODE
 70
     1
  9
$TEXTSIZE
 40
64.0
  9
$TRACEWID
 40
0.05
  9
$TEXTSTYLE
  7
STANDARD
  9
$CLAYER
  8
SIZE
  9
$CELTYPE
  6
CONTINUOUS
  9
$CECOLOR
 62
     7
  9
$DIMSCALE
 40
1.0
  9
$DIMASZ
 40
10.0
  9
$DIMEXO
 40
20.0
  9
$DIMDLI
 40
200.0
  9
$DIMRND
 40
0.0
  9
$DIMDLE
 40
0.0
  9
$DIMEXE
 40
30.0
  9
$DIMTP
 40
0.0
  9
$DIMTM
 40
0.0
  9
$DIMTXT
 40
64.0
  9
$DIMCEN
 40
0.0
  9
$DIMTSZ
 40
0.0
  9
$DIMTOL
 70
     0
  9
$DIMLIM
 70
     0
  9
$DIMTIH
 70
     0
  9
$DIMTOH
 70
     0
  9
$DIMSE1
 70
     0
  9
$DIMSE2
 70
     0
  9
$DIMTAD
 70
     1
  9
$DIMZIN
 70
     8
  9
$DIMBLK
  1

  9
$DIMASO
 70
     1
  9
$DIMSHO
 70
     0
  9
$DIMPOST
  1

  9
$DIMAPOST
  1

  9
$DIMALT
 70
     0
  9
$DIMALTD
 70
     2
  9
$DIMALTF
 40
25.4
  9
$DIMLFAC
 40
1.0
  9
$DIMTOFL
 70
     1
  9
$DIMTVP
 40
0.0
  9
$DIMTIX
 70
     1
  9
$DIMSOXD
 70
     0
  9
$DIMSAH
 70
     1
  9
$DIMBLK1
  1
_DOTBLANK
  9
$DIMBLK2
  1
_DOTBLANK
  9
$DIMSTYLE
  2
STANDARD
  9
$DIMCLRD
 70
     0
  9
$DIMCLRE
 70
     0
  9
$DIMCLRT
 70
     0
  9
$DIMTFAC
 40
1.0
  9
$DIMGAP
 40
0.09
  9
$LUNITS
 70
     2
  9
$LUPREC
 70
     4
  9
$SKETCHINC
 40
0.1
  9
$FILLETRAD
 40
10.0
  9
$AUNITS
 70
     1
  9
$AUPREC
 70
     3
  9
$MENU
  1
ACAD
  9
$ELEVATION
 40
0.0
  9
$PELEVATION
 40
0.0
  9
$THICKNESS
 40
0.0
  9
$LIMCHECK
 70
     0
  9
$BLIPMODE
 70
     0
  9
$CHAMFERA
 40
0.0
  9
$CHAMFERB
 40
0.0
  9
$SKPOLY
 70
     0
  9
$TDCREATE
 40
2450330.439931
  9
$TDUPDATE
 40
2453088.70955
  9
$TDINDWG
 40
1.369488
  9
$TDUSRTIMER
 40
1.369488
  9
$USRTIMER
 70
     1
  9
$ANGBASE
 50
0.0
  9
$ANGDIR
 70
     0
  9
$PDMODE
 70
     3
  9
$PDSIZE
 40
-2.0
  9
$PLINEWID
 40
0.0
  9
$COORDS
 70
     1
  9
$SPLFRAME
 70
     0
  9
$SPLINETYPE
 70
     6
  9
$SPLINESEGS
 70
     8
  9
$ATTDIA
 70
     0
  9
$ATTREQ
 70
     1
  9
$HANDLING
 70
     1
  9
$HANDSEED
  5
25E
  9
$SURFTAB1
 70
     6
  9
$SURFTAB2
 70
     6
  9
$SURFTYPE
 70
     6
  9
$SURFU
 70
     6
  9
$SURFV
 70
     6
  9
$UCSNAME
  2

  9
$UCSORG
 10
0.0
 20
0.0
 30
0.0
  9
$UCSXDIR
 10
1.0
 20
0.0
 30
0.0
  9
$UCSYDIR
 10
0.0
 20
1.0
 30
0.0
  9
$PUCSNAME
  2

  9
$PUCSORG
 10
0.0
 20
0.0
 30
0.0
  9
$PUCSXDIR
 10
1.0
 20
0.0
 30
0.0
  9
$PUCSYDIR
 10
0.0
 20
1.0
 30
0.0
  9
$USERI1
 70
     0
  9
$USERI2
 70
     0
  9
$USERI3
 70
     0
  9
$USERI4
 70
     0
  9
$USERI5
 70
     0
  9
$USERR1
 40
20.0
  9
$USERR2
 40
0.0
  9
$USERR3
 40
0.0
  9
$USERR4
 40
0.0
  9
$USERR5
 40
0.0
  9
$WORLDVIEW
 70
     1
  9
$SHADEDGE
 70
     3
  9
$SHADEDIF
 70
    70
  9
$TILEMODE
 70
     1
  9
$MAXACTVP
 70
    48
  9
$PLIMCHECK
 70
     0
  9
$PEXTMIN
 10
1.000000E+020
 20
1.000000E+020
 30
1.000000E+020
  9
$PEXTMAX
 10
-1.000000E+020
 20
-1.000000E+020
 30
-1.000000E+020
  9
$PLIMMIN
 10
0.0
 20
0.0
  9
$PLIMMAX
 10
12.0
 20
9.0
  9
$UNITMODE
 70
     0
  9
$VISRETAIN
 70
     1
  9
$PLINEGEN
 70
     0
  9
$PSLTSCALE
 70
     1
  0
ENDSEC
  0
SECTION
  2
TABLES
  0
TABLE
  2
VPORT
 70
     5
  0
VPORT
  2
*ACTIVE
 70
     0
 10
0.0
 20
0.0
 11
1.0
 21
1.0
 12
1889.560171
 22
522.556732
 13
0.0
 23
0.0
 14
50.0
 24
50.0
 15
100.0
 25
100.0
 16
0.0
 26
0.0
 36
1.0
 17
0.0
 27
0.0
 37
0.0
 40
7045.332542
 41
1.625632
 42
50.0
 43
0.0
 44
0.0
 50
0.0
 51
0.0
 71
     0
 72
  1000
 73
     1
 74
     0
 75
     0
 76
     0
 77
     0
 78
     0
  0
ENDTAB
  0
TABLE
  2
LTYPE
 70
     2
  0
LTYPE
  2
CONTINUOUS
 70
     0
  3
実線
 72
    65
 73
     0
 40
0.0
  0
LTYPE
  2
DASHDOT
 70
     0
  3
____ _ ____ _ ____ _ ____ _ ____ _ ____ _ ____
 72
    65
 73
     4
 40
5.5
 49
4.0
 49
-0.6
 49
0.3
 49
-0.6
  0
ENDTAB
  0
TABLE
  2
LAYER
 70
    12
  0
LAYER
  2
0
 70
     0
 62
     7
  6
CONTINUOUS
  0
LAYER
  2
SIZE
 70
     0
 62
    30
  6
CONTINUOUS
  0
LAYER
  2
OUTLINE
 70
     0
 62
     3
  6
CONTINUOUS
  0
LAYER
  2
DETAIL
 70
     0
 62
     5
  6
CONTINUOUS
  0
LAYER
  2
BASIS
 70
     0
 62
     6
  6
DASHDOT
  0
LAYER
  2
NOTE
 70
     0
 62
     4
  6
CONTINUOUS
  0
LAYER
  2
ARRANGE
 70
     0
 62
     1
  6
CONTINUOUS
  0
LAYER
  2
FIX
 70
     0
 62
    11
  6
CONTINUOUS
  0
LAYER
  2
SERVICESPACE
 70
     0
 62
     2
  6
DASHDOT
  0
LAYER
  2
ETC
 70
     0
 62
    61
  6
CONTINUOUS
  0
LAYER
  2
SYMBOLLINE
 70
     0
 62
    15
  6
CONTINUOUS
  0
LAYER
  2
DEFPOINTS
 70
     0
 62
     7
  6
CONTINUOUS
  0
ENDTAB
  0
TABLE
  2
STYLE
 70
     1
  0
STYLE
  2
STANDARD
 70
     0
 40
0.0
 41
0.9
 50
0.0
 71
     0
 42
64.0
  3
SIMPLEX
  4
BIGFONT
  0
ENDTAB
  0
TABLE
  2
VIEW
 70
     1
  0
VIEW
  2
ALL
 70
     0
 40
9000.0
 10
241.506647
 20
0.0
 41
12483.01
 11
0.0
 21
0.0
 31
1.0
 12
0.0
 22
0.0
 32
0.0
 42
50.0
 43
0.0
 44
0.0
 50
0.0
 71
     0
  0
ENDTAB
  0
TABLE
  2
UCS
 70
     0
  0
ENDTAB
  0
TABLE
  2
APPID
 70
     1
  0
APPID
  2
ACAD
 70
     0
  0
ENDTAB
  0
TABLE
  2
DIMSTYLE
 70
     1
  0
DIMSTYLE
  2
STANDARD
 70
     0
  3

  4

  5

  6

  7

 40
1.0
 41
0.18
 42
0.0625
 43
0.38
 44
0.18
 45
0.0
 46
0.0
 47
0.0
 48
0.0
140
0.18
141
0.09
142
0.0
143
25.4
144
1.0
145
0.0
146
1.0
147
0.09
 71
     0
 72
     0
 73
     1
 74
     1
 75
     0
 76
     0
 77
     0
 78
     0
170
     0
171
     2
172
     0
173
     0
174
     0
175
     0
176
     0
177
     0
178
     0
  0
ENDTAB
  0
ENDSEC
  0
SECTION
  2
BLOCKS
  0
BLOCK
  8
0
  2
$MODEL_SPACE
 70
     0
 10
0.0
 20
0.0
 30
0.0
  3
$MODEL_SPACE
  1

  0
ENDBLK
  5
23E
  8
0
  0
BLOCK
 67
     1
  8
0
  2
$PAPER_SPACE
 70
     0
 10
0.0
 20
0.0
 30
0.0
  3
$PAPER_SPACE
  1

  0
ENDBLK
  5
23B
 67
     1
  8
0
  0
BLOCK
  8
0
  2
_DOTBLANK
 70
     0
 10
0.0
 20
0.0
 30
0.0
  3
_DOTBLANK
  1

  0
CIRCLE
  5
30
  8
0
  6
CONTINUOUS
 62
     7
 10
0.0
 20
0.0
 30
0.0
 40
0.5
  0
LINE
  5
31
  8
0
  6
CONTINUOUS
 62
     7
 10
-0.5
 20
0.0
 30
0.0
 11
-1.0
 21
0.0
 31
0.0
  0
ENDBLK
  5
32
  8
0
  0
ENDSEC
  0
SECTION
  2
ENTITIES
  0
TEXT
  5
33
  8
ETC
  6
CONTINUOUS
 62
    61
 10
540.138373
 20
937.270457
 30
0.0
 40
64.0
  1
R2用分流コントローラ
 41
0.9
  0
TEXT
  5
34
  8
ETC
  6
CONTINUOUS
 62
    61
 10
540.138373
 20
831.670457
 30
0.0
 40
64.0
  1
CMB-P108G_6
 41
0.9
  0
LINE
  5
35
  8
DETAIL
  6
CONTINUOUS
 62
     5
 10
-324.0
 20
-181.0
 30
0.0
 11
324.0
 21
-181.0
 31
0.0
  0
LINE
  5
36
  8
DETAIL
  6
CONTINUOUS
 62
     5
 10
-324.0
 20
181.0
 30
0.0
 11
-324.0
 21
-181.0
 31
0.0
  0
LINE
  5
37
  8
DETAIL
  6
CONTINUOUS
 62
     5
 10
324.0
 20
181.0
 30
0.0
 11
324.0
 21
-181.0
 31
0.0
  0
LINE
  5
38
  8
DETAIL
  6
CONTINUOUS
 62
     5
 10
-324.0
 20
181.0
 30
0.0
 11
324.0
 21
181.0
 31
0.0
  0
LINE
  5
39
  8
BASIS
  6
DASHDOT
 62
     6
 10
0.0
 20
305.975204
 30
0.0
 11
0.0
 21
-305.975204
 31
0.0
  0
LINE
  5
3A
  8
BASIS
  6
DASHDOT
 62
     6
 10
-642.281876
 20
0.0
 30
0.0
 11
642.281876
 21
0.0
 31
0.0
  0
LINE
  5
3B
  8
DETAIL
  6
CONTINUOUS
 62
     5
 10
276.937881
 20
181.0
 30
0.0
 11
276.937881
 21
251.0
 31
0.0
  0
LINE
  5
3C
  8
DETAIL
  6
CONTINUOUS
 62
     5
 10
324.0
 20
180.600221
 30
0.0
 11
324.0
 21
-181.0
 31
0.0
  0
LINE
  5
3D
  8
DETAIL
  6
CONTINUOUS
 62
     5
 10
324.0
 20
-173.986195
 30
0.0
 11
374.001839
 21
-173.986195
 31
0.0
  0
LINE
  5
3E
  8
DETAIL
  6
CONTINUOUS
 62
     5
 10
324.0
 20
-124.013805
 30
0.0
 11
374.001839
 21
-124.013805
 31
0.0
  0
LINE
  5
3F
  8
DETAIL
  6
CONTINUOUS
 62
     5
 10
374.001839
 20
143.003313
 30
0.0
 11
374.001839
 21
124.013805
 31
0.0
  0
LINE
  5
40
  8
DETAIL
  6
CONTINUOUS
 62
     5
 10
324.0
 20
124.013805
 30
0.0
 11
374.001839
 21
124.013805
 31
0.0
  0
LINE
  5
41
  8
DETAIL
  6
CONTINUOUS
 62
     5
 10
324.0
 20
173.986195
 30
0.0
 11
374.001839
 21
173.986195
 31
0.0
  0
LINE
  5
42
  8
DETAIL
  6
CONTINUOUS
 62
     5
 10
374.001839
 20
173.986195
 30
0.0
 11
374.001839
 21
155.0
 31
0.0
  0
ARC
  5
43
  8
DETAIL
  6
CONTINUOUS
 62
     5
 10
350.999539
 20
157.0
 30
0.0
 40
7.0
 50
0.0
 51
180.0
  0
LINE
  5
44
  8
DETAIL
  6
CONTINUOUS
 62
     5
 10
343.999539
 20
157.0
 30
0.0
 11
343.999539
 21
149.0
 31
0.0
  0
LINE
  5
45
  8
DETAIL
  6
CONTINUOUS
 62
     5
 10
357.999539
 20
157.0
 30
0.0
 11
357.999539
 21
155.0
 31
0.0
  0
ARC
  5
46
  8
DETAIL
  6
CONTINUOUS
 62
     5
 10
350.999539
 20
141.0
 30
0.0
 40
7.0
 50
180.0
 51
0.0
  0
LINE
  5
47
  8
DETAIL
  6
CONTINUOUS
 62
     5
 10
343.999539
 20
141.0
 30
0.0
 11
343.999539
 21
149.0
 31
0.0
  0
LINE
  5
48
  8
DETAIL
  6
CONTINUOUS
 62
     5
 10
357.999539
 20
141.0
 30
0.0
 11
357.999539
 21
143.0
 31
0.0
  0
LINE
  5
49
  8
DETAIL
  6
CONTINUOUS
 62
     5
 10
357.999539
 20
143.0
 30
0.0
 11
373.986839
 21
143.003313
 31
0.0
  0
LINE
  5
4A
  8
DETAIL
  6
CONTINUOUS
 62
     5
 10
374.001839
 20
-154.996687
 30
0.0
 11
374.001839
 21
-173.986195
 31
0.0
  0
ARC
  5
4B
  8
DETAIL
  6
CONTINUOUS
 62
     5
 10
350.999539
 20
-141.0
 30
0.0
 40
7.0
 50
0.0
 51
180.0
  0
LINE
  5
4C
  8
DETAIL
  6
CONTINUOUS
 62
     5
 10
343.999539
 20
-141.0
 30
0.0
 11
343.999539
 21
-149.0
 31
0.0
  0
LINE
  5
4D
  8
DETAIL
  6
CONTINUOUS
 62
     5
 10
357.999539
 20
-141.0
 30
0.0
 11
357.999539
 21
-143.0
 31
0.0
  0
ARC
  5
4E
  8
DETAIL
  6
CONTINUOUS
 62
     5
 10
350.999539
 20
-157.0
 30
0.0
 40
7.0
 50
180.0
 51
0.0
  0
LINE
  5
4F
  8
DETAIL
  6
CONTINUOUS
 62
     5
 10
343.999539
 20
-157.0
 30
0.0
 11
343.999539
 21
-149.0
 31
0.0
  0
LINE
  5
50
  8
DETAIL
  6
CONTINUOUS
 62
     5
 10
357.999539
 20
-157.0
 30
0.0
 11
357.999539
 21
-155.0
 31
0.0
  0
LINE
  5
51
  8
DETAIL
  6
CONTINUOUS
 62
     5
 10
357.999539
 20
-155.0
 30
0.0
 11
373.986839
 21
-154.996687
 31
0.0
  0
LINE
  5
52
  8
DETAIL
  6
CONTINUOUS
 62
     5
 10
-15.05738
 20
251.0
 30
0.0
 11
276.937881
 21
251.0
 31
0.0
  0
LINE
  5
53
  8
SIZE
  6
CONTINUOUS
 62
    30
 10
344.0
 20
-181.0
 30
0.0
 11
911.530886
 21
-181.0
 31
0.0
  0
LINE
  5
54
  8
SIZE
  6
CONTINUOUS
 62
    30
 10
344.0
 20
181.0
 30
0.0
 11
911.530886
 21
181.0
 31
0.0
  0
LINE
  5
55
  8
SIZE
  6
CONTINUOUS
 62
    30
 10
881.530886
 20
-171.0
 30
0.0
 11
881.530886
 21
171.0
 31
0.0
  0
CIRCLE
  5
56
  8
SIZE
  6
CONTINUOUS
 62
    30
 10
881.530886
 20
-181.0
 30
0.0
 40
5.0
  0
LINE
  5
57
  8
SIZE
  6
CONTINUOUS
 62
    30
 10
881.530886
 20
-176.0
 30
0.0
 11
881.530886
 21
-171.0
 31
0.0
  0
CIRCLE
  5
58
  8
SIZE
  6
CONTINUOUS
 62
    30
 10
881.530886
 20
181.0
 30
0.0
 40
5.0
  0
LINE
  5
59
  8
SIZE
  6
CONTINUOUS
 62
    30
 10
881.530886
 20
176.0
 30
0.0
 11
881.530886
 21
171.0
 31
0.0
  0
TEXT
  5
5A
  8
SIZE
  6
CONTINUOUS
 62
    30
 10
861.530886
 20
-74.057143
 30
0.0
 40
64.0
  1
362
 50
90.0
 41
0.9
 72
     1
 11
861.530886
 21
0.0
 31
0.0
  0
POINT
  5
5B
  8
DEFPOINTS
  6
CONTINUOUS
 62
     7
 10
324.0
 20
-181.0
 30
0.0
  0
POINT
  5
5C
  8
DEFPOINTS
  6
CONTINUOUS
 62
     7
 10
324.0
 20
181.0
 30
0.0
  0
POINT
  5
5D
  8
DEFPOINTS
  6
CONTINUOUS
 62
     7
 10
881.530886
 20
181.0
 30
0.0
  0
LINE
  5
5E
  8
SIZE
  6
CONTINUOUS
 62
    30
 10
344.0
 20
181.0
 30
0.0
 11
911.530886
 21
181.0
 31
0.0
  0
LINE
  5
5F
  8
SIZE
  6
CONTINUOUS
 62
    30
 10
296.937881
 20
251.0
 30
0.0
 11
911.530886
 21
251.0
 31
0.0
  0
LINE
  5
60
  8
SIZE
  6
CONTINUOUS
 62
    30
 10
881.530886
 20
191.0
 30
0.0
 11
881.530886
 21
241.0
 31
0.0
  0
LINE
  5
61
  8
SIZE
  6
CONTINUOUS
 62
    30
 10
881.530886
 20
415.951881
 30
0.0
 11
881.530886
 21
251.0
 31
0.0
  0
TEXT
  5
62
  8
SIZE
  6
CONTINUOUS
 62
    30
 10
861.530886
 20
302.694739
 30
0.0
 40
64.0
  1
70
 50
90.0
 41
0.9
 72
     1
 11
861.530886
 21
349.32331
 31
0.0
  0
CIRCLE
  5
63
  8
SIZE
  6
CONTINUOUS
 62
    30
 10
881.530886
 20
181.0
 30
0.0
 40
5.0
  0
LINE
  5
64
  8
SIZE
  6
CONTINUOUS
 62
    30
 10
881.530886
 20
186.0
 30
0.0
 11
881.530886
 21
191.0
 31
0.0
  0
CIRCLE
  5
65
  8
SIZE
  6
CONTINUOUS
 62
    30
 10
881.530886
 20
251.0
 30
0.0
 40
5.0
  0
LINE
  5
66
  8
SIZE
  6
CONTINUOUS
 62
    30
 10
881.530886
 20
246.0
 30
0.0
 11
881.530886
 21
241.0
 31
0.0
  0
POINT
  5
67
  8
DEFPOINTS
  6
CONTINUOUS
 62
     7
 10
324.0
 20
181.0
 30
0.0
  0
POINT
  5
68
  8
DEFPOINTS
  6
CONTINUOUS
 62
     7
 10
276.937881
 20
251.0
 30
0.0
  0
POINT
  5
69
  8
DEFPOINTS
  6
CONTINUOUS
 62
     7
 10
881.530886
 20
251.0
 30
0.0
  0
LINE
  5
6A
  8
SIZE
  6
CONTINUOUS
 62
    30
 10
370.999539
 20
164.0
 30
0.0
 11
555.270484
 21
164.0
 31
0.0
  0
LINE
  5
6B
  8
SIZE
  6
CONTINUOUS
 62
    30
 10
370.999539
 20
134.0
 30
0.0
 11
555.270484
 21
134.0
 31
0.0
  0
LINE
  5
6C
  8
SIZE
  6
CONTINUOUS
 62
    30
 10
525.270484
 20
174.0
 30
0.0
 11
525.270484
 21
184.0
 31
0.0
  0
LINE
  5
6D
  8
SIZE
  6
CONTINUOUS
 62
    30
 10
525.270484
 20
124.0
 30
0.0
 11
525.270484
 21
-19.257143
 31
0.0
  0
LINE
  5
6E
  8
SIZE
  6
CONTINUOUS
 62
    30
 10
525.270484
 20
164.0
 30
0.0
 11
525.270484
 21
134.0
 31
0.0
  0
CIRCLE
  5
6F
  8
SIZE
  6
CONTINUOUS
 62
    30
 10
525.270484
 20
164.0
 30
0.0
 40
5.0
  0
LINE
  5
70
  8
SIZE
  6
CONTINUOUS
 62
    30
 10
525.270484
 20
169.0
 30
0.0
 11
525.270484
 21
174.0
 31
0.0
  0
CIRCLE
  5
71
  8
SIZE
  6
CONTINUOUS
 62
    30
 10
525.270484
 20
134.0
 30
0.0
 40
5.0
  0
LINE
  5
72
  8
SIZE
  6
CONTINUOUS
 62
    30
 10
525.270484
 20
129.0
 30
0.0
 11
525.270484
 21
124.0
 31
0.0
  0
TEXT
  5
73
  8
SIZE
  6
CONTINUOUS
 62
    30
 10
505.270484
 20
0.742858
 30
0.0
 40
64.0
  1
30
 50
90.0
 41
0.9
 72
     1
 11
505.270484
 21
47.371429
 31
0.0
  0
POINT
  5
74
  8
DEFPOINTS
  6
CONTINUOUS
 62
     7
 10
350.999539
 20
164.0
 30
0.0
  0
POINT
  5
75
  8
DEFPOINTS
  6
CONTINUOUS
 62
     7
 10
350.999539
 20
134.0
 30
0.0
  0
POINT
  5
76
  8
DEFPOINTS
  6
CONTINUOUS
 62
     7
 10
525.270484
 20
134.0
 30
0.0
  0
LINE
  5
77
  8
SIZE
  6
CONTINUOUS
 62
    30
 10
343.999539
 20
177.0
 30
0.0
 11
343.999539
 21
311.946885
 31
0.0
  0
LINE
  5
78
  8
SIZE
  6
CONTINUOUS
 62
    30
 10
357.999539
 20
177.0
 30
0.0
 11
357.999539
 21
311.946885
 31
0.0
  0
LINE
  5
79
  8
SIZE
  6
CONTINUOUS
 62
    30
 10
333.999539
 20
281.946885
 30
0.0
 11
323.999539
 21
281.946885
 31
0.0
  0
LINE
  5
7A
  8
SIZE
  6
CONTINUOUS
 62
    30
 10
367.999539
 20
281.946885
 30
0.0
 11
503.02811
 21
281.946885
 31
0.0
  0
LINE
  5
7B
  8
SIZE
  6
CONTINUOUS
 62
    30
 10
343.999539
 20
281.946885
 30
0.0
 11
357.999539
 21
281.946885
 31
0.0
  0
CIRCLE
  5
7C
  8
SIZE
  6
CONTINUOUS
 62
    30
 10
343.999539
 20
281.946885
 30
0.0
 40
5.0
  0
LINE
  5
7D
  8
SIZE
  6
CONTINUOUS
 62
    30
 10
338.999539
 20
281.946885
 30
0.0
 11
333.999539
 21
281.946885
 31
0.0
  0
CIRCLE
  5
7E
  8
SIZE
  6
CONTINUOUS
 62
    30
 10
357.999539
 20
281.946885
 30
0.0
 40
5.0
  0
LINE
  5
7F
  8
SIZE
  6
CONTINUOUS
 62
    30
 10
362.999539
 20
281.946885
 30
0.0
 11
367.999539
 21
281.946885
 31
0.0
  0
TEXT
  5
80
  8
SIZE
  6
CONTINUOUS
 62
    30
 10
397.999539
 20
301.946885
 30
0.0
 40
64.0
  1
14
 41
0.9
 72
     1
 11
440.513825
 21
301.946885
 31
0.0
  0
POINT
  5
81
  8
DEFPOINTS
  6
CONTINUOUS
 62
     7
 10
343.999539
 20
157.0
 30
0.0
  0
POINT
  5
82
  8
DEFPOINTS
  6
CONTINUOUS
 62
     7
 10
357.999539
 20
157.0
 30
0.0
  0
POINT
  5
83
  8
DEFPOINTS
  6
CONTINUOUS
 62
     7
 10
357.999539
 20
281.946885
 30
0.0
  0
LINE
  5
84
  8
DETAIL
  6
CONTINUOUS
 62
     5
 10
357.999539
 20
155.0
 30
0.0
 11
373.986839
 21
155.0
 31
0.0
  0
LINE
  5
85
  8
SIZE
  6
CONTINUOUS
 62
    30
 10
394.001839
 20
155.0
 30
0.0
 11
455.371188
 21
155.0
 31
0.0
  0
LINE
  5
86
  8
SIZE
  6
CONTINUOUS
 62
    30
 10
394.001839
 20
143.003313
 30
0.0
 11
455.371188
 21
143.003313
 31
0.0
  0
LINE
  5
87
  8
SIZE
  6
CONTINUOUS
 62
    30
 10
425.371188
 20
165.0
 30
0.0
 11
425.371188
 21
175.0
 31
0.0
  0
LINE
  5
88
  8
SIZE
  6
CONTINUOUS
 62
    30
 10
425.371188
 20
133.003313
 30
0.0
 11
425.371188
 21
0.717599
 31
0.0
  0
LINE
  5
89
  8
SIZE
  6
CONTINUOUS
 62
    30
 10
425.371188
 20
155.0
 30
0.0
 11
425.371188
 21
143.003313
 31
0.0
  0
CIRCLE
  5
8A
  8
SIZE
  6
CONTINUOUS
 62
    30
 10
425.371188
 20
155.0
 30
0.0
 40
5.0
  0
LINE
  5
8B
  8
SIZE
  6
CONTINUOUS
 62
    30
 10
425.371188
 20
160.0
 30
0.0
 11
425.371188
 21
165.0
 31
0.0
  0
CIRCLE
  5
8C
  8
SIZE
  6
CONTINUOUS
 62
    30
 10
425.371188
 20
143.003313
 30
0.0
 40
5.0
  0
LINE
  5
8D
  8
SIZE
  6
CONTINUOUS
 62
    30
 10
425.371188
 20
138.003313
 30
0.0
 11
425.371188
 21
133.003313
 31
0.0
  0
TEXT
  5
8E
  8
SIZE
  6
CONTINUOUS
 62
    30
 10
405.371188
 20
20.717599
 30
0.0
 40
64.0
  1
12
 50
90.0
 41
0.9
 72
     1
 11
405.371188
 21
61.860456
 31
0.0
  0
POINT
  5
8F
  8
DEFPOINTS
  6
CONTINUOUS
 62
     7
 10
374.001839
 20
155.0
 30
0.0
  0
POINT
  5
90
  8
DEFPOINTS
  6
CONTINUOUS
 62
     7
 10
374.001839
 20
143.003313
 30
0.0
  0
POINT
  5
91
  8
DEFPOINTS
  6
CONTINUOUS
 62
     7
 10
425.371188
 20
143.003313
 30
0.0
  0
LINE
  5
92
  8
DETAIL
  6
CONTINUOUS
 62
     5
 10
374.001839
 20
-124.013805
 30
0.0
 11
374.001839
 21
-143.0
 31
0.0
  0
LINE
  5
93
  8
DETAIL
  6
CONTINUOUS
 62
     5
 10
357.999539
 20
-143.0
 30
0.0
 11
373.986839
 21
-143.0
 31
0.0
  0
LINE
  5
94
  8
DETAIL
  6
CONTINUOUS
 62
     5
 10
-324.0
 20
181.0
 30
0.0
 11
-324.0
 21
-181.0
 31
0.0
  0
LINE
  5
95
  8
DETAIL
  6
CONTINUOUS
 62
     5
 10
-324.0
 20
180.600221
 30
0.0
 11
-324.0
 21
-181.0
 31
0.0
  0
LINE
  5
96
  8
DETAIL
  6
CONTINUOUS
 62
     5
 10
-324.0
 20
-173.986195
 30
0.0
 11
-374.001839
 21
-173.986195
 31
0.0
  0
LINE
  5
97
  8
DETAIL
  6
CONTINUOUS
 62
     5
 10
-324.0
 20
-124.013805
 30
0.0
 11
-374.001839
 21
-124.013805
 31
0.0
  0
LINE
  5
98
  8
DETAIL
  6
CONTINUOUS
 62
     5
 10
-374.001839
 20
143.003313
 30
0.0
 11
-374.001839
 21
124.013805
 31
0.0
  0
LINE
  5
99
  8
DETAIL
  6
CONTINUOUS
 62
     5
 10
-324.0
 20
124.013805
 30
0.0
 11
-374.001839
 21
124.013805
 31
0.0
  0
LINE
  5
9A
  8
DETAIL
  6
CONTINUOUS
 62
     5
 10
-324.0
 20
173.986195
 30
0.0
 11
-374.001839
 21
173.986195
 31
0.0
  0
LINE
  5
9B
  8
DETAIL
  6
CONTINUOUS
 62
     5
 10
-374.001839
 20
173.986195
 30
0.0
 11
-374.001839
 21
155.0
 31
0.0
  0
ARC
  5
9C
  8
DETAIL
  6
CONTINUOUS
 62
     5
 10
-350.999539
 20
157.0
 30
0.0
 40
7.0
 50
0.0
 51
180.0
  0
LINE
  5
9D
  8
DETAIL
  6
CONTINUOUS
 62
     5
 10
-343.999539
 20
157.0
 30
0.0
 11
-343.999539
 21
149.0
 31
0.0
  0
LINE
  5
9E
  8
DETAIL
  6
CONTINUOUS
 62
     5
 10
-357.999539
 20
157.0
 30
0.0
 11
-357.999539
 21
155.0
 31
0.0
  0
ARC
  5
9F
  8
DETAIL
  6
CONTINUOUS
 62
     5
 10
-350.999539
 20
141.0
 30
0.0
 40
7.0
 50
180.0
 51
0.0
  0
LINE
  5
A0
  8
DETAIL
  6
CONTINUOUS
 62
     5
 10
-343.999539
 20
141.0
 30
0.0
 11
-343.999539
 21
149.0
 31
0.0
  0
LINE
  5
A1
  8
DETAIL
  6
CONTINUOUS
 62
     5
 10
-357.999539
 20
141.0
 30
0.0
 11
-357.999539
 21
143.0
 31
0.0
  0
LINE
  5
A2
  8
DETAIL
  6
CONTINUOUS
 62
     5
 10
-357.999539
 20
143.0
 30
0.0
 11
-373.986839
 21
143.003313
 31
0.0
  0
LINE
  5
A3
  8
DETAIL
  6
CONTINUOUS
 62
     5
 10
-374.001839
 20
-154.996687
 30
0.0
 11
-374.001839
 21
-173.986195
 31
0.0
  0
ARC
  5
A4
  8
DETAIL
  6
CONTINUOUS
 62
     5
 10
-350.999539
 20
-141.0
 30
0.0
 40
7.0
 50
0.0
 51
180.0
  0
LINE
  5
A5
  8
DETAIL
  6
CONTINUOUS
 62
     5
 10
-343.999539
 20
-141.0
 30
0.0
 11
-343.999539
 21
-149.0
 31
0.0
  0
LINE
  5
A6
  8
DETAIL
  6
CONTINUOUS
 62
     5
 10
-357.999539
 20
-141.0
 30
0.0
 11
-357.999539
 21
-143.0
 31
0.0
  0
ARC
  5
A7
  8
DETAIL
  6
CONTINUOUS
 62
     5
 10
-350.999539
 20
-157.0
 30
0.0
 40
7.0
 50
180.0
 51
0.0
  0
LINE
  5
A8
  8
DETAIL
  6
CONTINUOUS
 62
     5
 10
-343.999539
 20
-157.0
 30
0.0
 11
-343.999539
 21
-149.0
 31
0.0
  0
LINE
  5
A9
  8
DETAIL
  6
CONTINUOUS
 62
     5
 10
-357.999539
 20
-157.0
 30
0.0
 11
-357.999539
 21
-155.0
 31
0.0
  0
LINE
  5
AA
  8
DETAIL
  6
CONTINUOUS
 62
     5
 10
-357.999539
 20
-155.0
 30
0.0
 11
-373.986839
 21
-154.996687
 31
0.0
  0
LINE
  5
AB
  8
DETAIL
  6
CONTINUOUS
 62
     5
 10
-357.999539
 20
155.0
 30
0.0
 11
-373.986839
 21
155.0
 31
0.0
  0
LINE
  5
AC
  8
DETAIL
  6
CONTINUOUS
 62
     5
 10
-374.001839
 20
-124.013805
 30
0.0
 11
-374.001839
 21
-143.0
 31
0.0
  0
LINE
  5
AD
  8
DETAIL
  6
CONTINUOUS
 62
     5
 10
-357.999539
 20
-143.0
 30
0.0
 11
-373.986839
 21
-143.0
 31
0.0
  0
LINE
  5
AE
  8
SIZE
  6
CONTINUOUS
 62
    30
 10
-350.999539
 20
-189.213835
 30
0.0
 11
-350.999539
 21
-799.13132
 31
0.0
  0
LINE
  5
AF
  8
SIZE
  6
CONTINUOUS
 62
    30
 10
350.999539
 20
-184.0
 30
0.0
 11
350.999539
 21
-799.13132
 31
0.0
  0
LINE
  5
B0
  8
SIZE
  6
CONTINUOUS
 62
    30
 10
-340.999539
 20
-769.13132
 30
0.0
 11
340.999539
 21
-769.13132
 31
0.0
  0
CIRCLE
  5
B1
  8
SIZE
  6
CONTINUOUS
 62
    30
 10
-350.999539
 20
-769.13132
 30
0.0
 40
5.0
  0
LINE
  5
B2
  8
SIZE
  6
CONTINUOUS
 62
    30
 10
-345.999539
 20
-769.13132
 30
0.0
 11
-340.999539
 21
-769.13132
 31
0.0
  0
CIRCLE
  5
B3
  8
SIZE
  6
CONTINUOUS
 62
    30
 10
350.999539
 20
-769.13132
 30
0.0
 40
5.0
  0
LINE
  5
B4
  8
SIZE
  6
CONTINUOUS
 62
    30
 10
345.999539
 20
-769.13132
 30
0.0
 11
340.999539
 21
-769.13132
 31
0.0
  0
TEXT
  5
B5
  8
SIZE
  6
CONTINUOUS
 62
    30
 10
-230.794042
 20
-749.13132
 30
0.0
 40
64.0
  1
702
 41
0.9
 72
     1
 11
-156.736899
 21
-749.13132
 31
0.0
  0
POINT
  5
B6
  8
DEFPOINTS
  6
CONTINUOUS
 62
     7
 10
-350.999539
 20
-169.213835
 30
0.0
  0
POINT
  5
B7
  8
DEFPOINTS
  6
CONTINUOUS
 62
     7
 10
350.999539
 20
-164.0
 30
0.0
  0
POINT
  5
B8
  8
DEFPOINTS
  6
CONTINUOUS
 62
     7
 10
350.999539
 20
-769.13132
 30
0.0
  0
LINE
  5
B9
  8
SIZE
  6
CONTINUOUS
 62
    30
 10
-324.0
 20
-201.0
 30
0.0
 11
-324.0
 21
-686.312208
 31
0.0
  0
LINE
  5
BA
  8
SIZE
  6
CONTINUOUS
 62
    30
 10
324.0
 20
-201.0
 30
0.0
 11
324.0
 21
-686.312208
 31
0.0
  0
LINE
  5
BB
  8
SIZE
  6
CONTINUOUS
 62
    30
 10
-314.0
 20
-656.312208
 30
0.0
 11
314.0
 21
-656.312208
 31
0.0
  0
CIRCLE
  5
BC
  8
SIZE
  6
CONTINUOUS
 62
    30
 10
-324.0
 20
-656.312208
 30
0.0
 40
5.0
  0
LINE
  5
BD
  8
SIZE
  6
CONTINUOUS
 62
    30
 10
-319.0
 20
-656.312208
 30
0.0
 11
-314.0
 21
-656.312208
 31
0.0
  0
CIRCLE
  5
BE
  8
SIZE
  6
CONTINUOUS
 62
    30
 10
324.0
 20
-656.312208
 30
0.0
 40
5.0
  0
LINE
  5
BF
  8
SIZE
  6
CONTINUOUS
 62
    30
 10
319.0
 20
-656.312208
 30
0.0
 11
314.0
 21
-656.312208
 31
0.0
  0
TEXT
  5
C0
  8
SIZE
  6
CONTINUOUS
 62
    30
 10
-68.13302
 20
-636.312208
 30
0.0
 40
64.0
  1
648
 41
0.9
 72
     1
 11
5.924123
 21
-636.312208
 31
0.0
  0
POINT
  5
C1
  8
DEFPOINTS
  6
CONTINUOUS
 62
     7
 10
-324.0
 20
-181.0
 30
0.0
  0
POINT
  5
C2
  8
DEFPOINTS
  6
CONTINUOUS
 62
     7
 10
324.0
 20
-181.0
 30
0.0
  0
POINT
  5
C3
  8
DEFPOINTS
  6
CONTINUOUS
 62
     7
 10
324.0
 20
-656.312208
 30
0.0
  0
LINE
  5
C4
  8
DETAIL
  6
CONTINUOUS
 62
     5
 10
-394.0
 20
76.525
 30
0.0
 11
-394.0
 21
57.475
 31
0.0
  0
LINE
  5
C5
  8
DETAIL
  6
CONTINUOUS
 62
     5
 10
-394.0
 20
57.475
 30
0.0
 11
-324.0
 21
57.475
 31
0.0
  0
LINE
  5
C6
  8
DETAIL
  6
CONTINUOUS
 62
     5
 10
-394.0
 20
76.525
 30
0.0
 11
-324.0
 21
76.525
 31
0.0
  0
LINE
  5
C7
  8
DETAIL
  6
CONTINUOUS
 62
     5
 10
-394.0
 20
-65.3
 30
0.0
 11
-324.0
 21
-65.3
 31
0.0
  0
LINE
  5
C8
  8
DETAIL
  6
CONTINUOUS
 62
     5
 10
-394.0
 20
-90.7
 30
0.0
 11
-324.0
 21
-90.7
 31
0.0
  0
LINE
  5
C9
  8
DETAIL
  6
CONTINUOUS
 62
     5
 10
-394.0
 20
-65.3
 30
0.0
 11
-394.0
 21
-90.7
 31
0.0
  0
LINE
  5
CA
  8
DETAIL
  6
CONTINUOUS
 62
     5
 10
-524.0
 20
-15.5
 30
0.0
 11
-481.647059
 21
-15.5
 31
0.0
  0
LINE
  5
CB
  8
DETAIL
  6
CONTINUOUS
 62
     5
 10
-524.0
 20
15.5
 30
0.0
 11
-481.647059
 21
15.5
 31
0.0
  0
LINE
  5
CE
  8
DETAIL
  6
CONTINUOUS
 62
     5
 10
-524.0
 20
-15.5
 30
0.0
 11
-524.0
 21
15.5
 31
0.0
  0
LINE
  5
D0
  8
DETAIL
  6
CONTINUOUS
 62
     5
 10
-468.019098
 20
-14.836719
 30
0.0
 11
-472.577922
 21
16.163281
 31
0.0
  0
LINE
  5
D1
  8
DETAIL
  6
CONTINUOUS
 62
     5
 10
-467.922078
 20
-16.163281
 30
0.0
 11
-472.480902
 21
14.836719
 31
0.0
  0
LINE
  5
D2
  8
DETAIL
  6
CONTINUOUS
 62
     5
 10
-458.901451
 20
-14.836719
 30
0.0
 11
-463.460275
 21
16.163281
 31
0.0
  0
LINE
  5
D3
  8
DETAIL
  6
CONTINUOUS
 62
     5
 10
-458.804431
 20
-16.163281
 30
0.0
 11
-463.363255
 21
14.836719
 31
0.0
  0
LINE
  5
D4
  8
DETAIL
  6
CONTINUOUS
 62
     5
 10
-449.783804
 20
-14.836719
 30
0.0
 11
-454.342627
 21
16.163281
 31
0.0
  0
LINE
  5
D5
  8
DETAIL
  6
CONTINUOUS
 62
     5
 10
-449.686784
 20
-16.163281
 30
0.0
 11
-454.245608
 21
14.836719
 31
0.0
  0
LINE
  5
D6
  8
DETAIL
  6
CONTINUOUS
 62
     5
 10
-440.666157
 20
-14.836719
 30
0.0
 11
-445.22498
 21
16.163281
 31
0.0
  0
LINE
  5
D7
  8
DETAIL
  6
CONTINUOUS
 62
     5
 10
-440.569137
 20
-16.163281
 30
0.0
 11
-445.127961
 21
14.836719
 31
0.0
  0
LINE
  5
D8
  8
DETAIL
  6
CONTINUOUS
 62
     5
 10
-431.54851
 20
-14.836719
 30
0.0
 11
-436.107333
 21
16.163281
 31
0.0
  0
LINE
  5
D9
  8
DETAIL
  6
CONTINUOUS
 62
     5
 10
-431.45149
 20
-16.163281
 30
0.0
 11
-436.010314
 21
14.836719
 31
0.0
  0
LINE
  5
DA
  8
DETAIL
  6
CONTINUOUS
 62
     5
 10
-422.430863
 20
-14.836719
 30
0.0
 11
-426.989686
 21
16.163281
 31
0.0
  0
LINE
  5
DB
  8
DETAIL
  6
CONTINUOUS
 62
     5
 10
-422.333843
 20
-16.163281
 30
0.0
 11
-426.892667
 21
14.836719
 31
0.0
  0
LINE
  5
DC
  8
DETAIL
  6
CONTINUOUS
 62
     5
 10
-413.313216
 20
-14.836719
 30
0.0
 11
-417.872039
 21
16.163281
 31
0.0
  0
LINE
  5
DD
  8
DETAIL
  6
CONTINUOUS
 62
     5
 10
-413.216196
 20
-16.163281
 30
0.0
 11
-417.77502
 21
14.836719
 31
0.0
  0
LINE
  5
DE
  8
DETAIL
  6
CONTINUOUS
 62
     5
 10
-404.195569
 20
-14.836719
 30
0.0
 11
-408.754392
 21
16.163281
 31
0.0
  0
LINE
  5
DF
  8
DETAIL
  6
CONTINUOUS
 62
     5
 10
-404.098549
 20
-16.163281
 30
0.0
 11
-408.657373
 21
14.836719
 31
0.0
  0
LINE
  5
E0
  8
DETAIL
  6
CONTINUOUS
 62
     5
 10
-395.077922
 20
-14.836719
 30
0.0
 11
-399.636745
 21
16.163281
 31
0.0
  0
LINE
  5
E1
  8
DETAIL
  6
CONTINUOUS
 62
     5
 10
-394.980902
 20
-16.163281
 30
0.0
 11
-399.539725
 21
14.836719
 31
0.0
  0
LINE
  5
E2
  8
DETAIL
  6
CONTINUOUS
 62
     5
 10
-385.960275
 20
-14.836719
 30
0.0
 11
-390.519098
 21
16.163281
 31
0.0
  0
LINE
  5
E3
  8
DETAIL
  6
CONTINUOUS
 62
     5
 10
-376.745608
 20
-16.163281
 30
0.0
 11
-381.304431
 21
14.836719
 31
0.0
  0
LINE
  5
E4
  8
DETAIL
  6
CONTINUOUS
 62
     5
 10
-376.842627
 20
-14.836719
 30
0.0
 11
-381.401451
 21
16.163281
 31
0.0
  0
LINE
  5
E5
  8
DETAIL
  6
CONTINUOUS
 62
     5
 10
-385.863255
 20
-16.163281
 30
0.0
 11
-390.422078
 21
14.836719
 31
0.0
  0
LINE
  5
E6
  8
DETAIL
  6
CONTINUOUS
 62
     5
 10
-481.647059
 20
-20.058824
 30
0.0
 11
-481.647059
 21
20.058824
 31
0.0
  0
LINE
  5
E7
  8
DETAIL
  6
CONTINUOUS
 62
     5
 10
-477.088235
 20
-20.058824
 30
0.0
 11
-477.088235
 21
20.058824
 31
0.0
  0
LINE
  5
E8
  8
DETAIL
  6
CONTINUOUS
 62
     5
 10
-376.794118
 20
-20.058824
 30
0.0
 11
-376.794118
 21
20.058824
 31
0.0
  0
LINE
  5
E9
  8
DETAIL
  6
CONTINUOUS
 62
     5
 10
-376.794118
 20
-13.676471
 30
0.0
 11
-376.794118
 21
13.676471
 31
0.0
  0
LINE
  5
EA
  8
DETAIL
  6
CONTINUOUS
 62
     5
 10
-372.235294
 20
-20.058824
 30
0.0
 11
-372.235294
 21
20.058824
 31
0.0
  0
LINE
  5
EB
  8
DETAIL
  6
CONTINUOUS
 62
     5
 10
-372.235294
 20
-15.5
 30
0.0
 11
-324.0
 21
-15.5
 31
0.0
  0
ARC
  5
EC
  8
DETAIL
  6
CONTINUOUS
 62
     5
 10
-426.941176
 20
-15.5
 30
0.0
 40
4.558824
 50
188.365886
 51
8.365886
  0
ARC
  5
ED
  8
DETAIL
  6
CONTINUOUS
 62
     5
 10
-454.294118
 20
-15.5
 30
0.0
 40
4.558824
 50
188.365886
 51
8.365886
  0
ARC
  5
EE
  8
DETAIL
  6
CONTINUOUS
 62
     5
 10
-472.529412
 20
-15.5
 30
0.0
 40
4.558824
 50
188.365886
 51
8.365886
  0
ARC
  5
EF
  8
DETAIL
  6
CONTINUOUS
 62
     5
 10
-463.411765
 20
-15.5
 30
0.0
 40
4.558824
 50
188.365886
 51
8.365886
  0
LINE
  5
F0
  8
DETAIL
  6
CONTINUOUS
 62
     5
 10
-481.647059
 20
-20.058824
 30
0.0
 11
-477.088235
 21
-20.058824
 31
0.0
  0
ARC
  5
F1
  8
DETAIL
  6
CONTINUOUS
 62
     5
 10
-445.176471
 20
-15.5
 30
0.0
 40
4.558824
 50
188.365886
 51
8.365886
  0
ARC
  5
F2
  8
DETAIL
  6
CONTINUOUS
 62
     5
 10
-436.058824
 20
-15.5
 30
0.0
 40
4.558824
 50
188.365886
 51
8.365886
  0
ARC
  5
F3
  8
DETAIL
  6
CONTINUOUS
 62
     5
 10
-390.470588
 20
-15.5
 30
0.0
 40
4.558824
 50
188.365886
 51
8.365886
  0
ARC
  5
F4
  8
DETAIL
  6
CONTINUOUS
 62
     5
 10
-417.823529
 20
-15.5
 30
0.0
 40
4.558824
 50
188.365886
 51
8.365886
  0
ARC
  5
F5
  8
DETAIL
  6
CONTINUOUS
 62
     5
 10
-408.705882
 20
-15.5
 30
0.0
 40
4.558824
 50
188.365886
 51
8.365886
  0
ARC
  5
F6
  8
DETAIL
  6
CONTINUOUS
 62
     5
 10
-399.588235
 20
-15.5
 30
0.0
 40
4.558824
 50
188.365886
 51
8.365886
  0
ARC
  5
F7
  8
DETAIL
  6
CONTINUOUS
 62
     5
 10
-381.352941
 20
-15.5
 30
0.0
 40
4.558824
 50
188.365886
 51
8.365886
  0
LINE
  5
F8
  8
DETAIL
  6
CONTINUOUS
 62
     5
 10
-372.235294
 20
-20.058824
 30
0.0
 11
-376.794118
 21
-20.058824
 31
0.0
  0
LINE
  5
F9
  8
DETAIL
  6
CONTINUOUS
 62
     5
 10
-372.235294
 20
15.5
 30
0.0
 11
-324.0
 21
15.5
 31
0.0
  0
ARC
  5
FA
  8
DETAIL
  6
CONTINUOUS
 62
     5
 10
-422.382353
 20
15.5
 30
0.0
 40
4.558824
 50
8.365886
 51
188.365886
  0
ARC
  5
FB
  8
DETAIL
  6
CONTINUOUS
 62
     5
 10
-449.735294
 20
15.5
 30
0.0
 40
4.558824
 50
8.365886
 51
188.365886
  0
ARC
  5
FC
  8
DETAIL
  6
CONTINUOUS
 62
     5
 10
-477.088235
 20
15.5
 30
0.0
 40
4.558824
 50
8.365886
 51
90.0
  0
ARC
  5
FD
  8
DETAIL
  6
CONTINUOUS
 62
     5
 10
-467.970588
 20
15.5
 30
0.0
 40
4.558824
 50
8.365886
 51
188.365886
  0
ARC
  5
FE
  8
DETAIL
  6
CONTINUOUS
 62
     5
 10
-458.852941
 20
15.5
 30
0.0
 40
4.558824
 50
8.365886
 51
188.365886
  0
LINE
  5
FF
  8
DETAIL
  6
CONTINUOUS
 62
     5
 10
-481.647059
 20
20.058824
 30
0.0
 11
-477.088235
 21
20.058824
 31
0.0
  0
ARC
  5
100
  8
DETAIL
  6
CONTINUOUS
 62
     5
 10
-440.617647
 20
15.5
 30
0.0
 40
4.558824
 50
8.365886
 51
188.365886
  0
ARC
  5
101
  8
DETAIL
  6
CONTINUOUS
 62
     5
 10
-431.5
 20
15.5
 30
0.0
 40
4.558824
 50
8.365886
 51
188.365886
  0
ARC
  5
102
  8
DETAIL
  6
CONTINUOUS
 62
     5
 10
-395.029412
 20
15.5
 30
0.0
 40
4.558824
 50
8.365886
 51
188.365886
  0
ARC
  5
103
  8
DETAIL
  6
CONTINUOUS
 62
     5
 10
-413.264706
 20
15.5
 30
0.0
 40
4.558824
 50
8.365886
 51
188.365886
  0
ARC
  5
104
  8
DETAIL
  6
CONTINUOUS
 62
     5
 10
-404.147059
 20
15.5
 30
0.0
 40
4.558824
 50
8.365886
 51
188.365886
  0
ARC
  5
105
  8
DETAIL
  6
CONTINUOUS
 62
     5
 10
-376.794118
 20
15.5
 30
0.0
 40
4.558824
 50
90.0
 51
188.365886
  0
ARC
  5
106
  8
DETAIL
  6
CONTINUOUS
 62
     5
 10
-385.911765
 20
15.5
 30
0.0
 40
4.558824
 50
8.365886
 51
188.365886
  0
LINE
  5
107
  8
DETAIL
  6
CONTINUOUS
 62
     5
 10
-372.235294
 20
20.058824
 30
0.0
 11
-376.794118
 21
20.058824
 31
0.0
  0
CIRCLE
  5
108
  8
ARRANGE
  6
CONTINUOUS
 62
     1
 10
0.0
 20
0.0
 30
0.0
 40
40.0
  0
POINT
  5
109
  8
ARRANGE
  6
CONTINUOUS
 62
     1
 10
0.0
 20
0.0
 30
0.0
  0
LINE
  5
10A
  8
NOTE
  6
CONTINUOUS
 62
     4
 10
-350.999539
 20
129.0
 30
0.0
 11
-350.999539
 21
169.0
 31
0.0
  0
LINE
  5
10B
  8
NOTE
  6
CONTINUOUS
 62
     4
 10
-330.999539
 20
149.0
 30
0.0
 11
-370.999539
 21
149.0
 31
0.0
  0
CIRCLE
  5
10C
  8
FIX
  6
CONTINUOUS
 62
    11
 10
-350.999539
 20
149.0
 30
0.0
 40
20.0
  0
LINE
  5
10D
  8
NOTE
  6
CONTINUOUS
 62
     4
 10
-350.999539
 20
-169.0
 30
0.0
 11
-350.999539
 21
-129.0
 31
0.0
  0
LINE
  5
10E
  8
NOTE
  6
CONTINUOUS
 62
     4
 10
-330.999539
 20
-149.0
 30
0.0
 11
-370.999539
 21
-149.0
 31
0.0
  0
CIRCLE
  5
10F
  8
FIX
  6
CONTINUOUS
 62
    11
 10
-350.999539
 20
-149.0
 30
0.0
 40
20.0
  0
LINE
  5
110
  8
NOTE
  6
CONTINUOUS
 62
     4
 10
350.999539
 20
129.0
 30
0.0
 11
350.999539
 21
169.0
 31
0.0
  0
LINE
  5
111
  8
NOTE
  6
CONTINUOUS
 62
     4
 10
370.999539
 20
149.0
 30
0.0
 11
330.999539
 21
149.0
 31
0.0
  0
CIRCLE
  5
112
  8
FIX
  6
CONTINUOUS
 62
    11
 10
350.999539
 20
149.0
 30
0.0
 40
20.0
  0
LINE
  5
113
  8
NOTE
  6
CONTINUOUS
 62
     4
 10
350.999539
 20
-169.0
 30
0.0
 11
350.999539
 21
-129.0
 31
0.0
  0
LINE
  5
114
  8
NOTE
  6
CONTINUOUS
 62
     4
 10
370.999539
 20
-149.0
 30
0.0
 11
330.999539
 21
-149.0
 31
0.0
  0
CIRCLE
  5
115
  8
FIX
  6
CONTINUOUS
 62
    11
 10
350.999539
 20
-149.0
 30
0.0
 40
20.0
  0
LINE
  5
116
  8
NOTE
  6
CONTINUOUS
 62
     4
 10
-248.0
 20
-265.0
 30
0.0
 11
-248.0
 21
-225.0
 31
0.0
  0
LINE
  5
117
  8
NOTE
  6
CONTINUOUS
 62
     4
 10
-228.0
 20
-245.0
 30
0.0
 11
-268.0
 21
-245.0
 31
0.0
  0
LINE
  5
118
  8
NOTE
  6
CONTINUOUS
 62
     4
 10
-188.0
 20
-265.0
 30
0.0
 11
-188.0
 21
-225.0
 31
0.0
  0
LINE
  5
119
  8
NOTE
  6
CONTINUOUS
 62
     4
 10
-168.0
 20
-245.0
 30
0.0
 11
-208.0
 21
-245.0
 31
0.0
  0
LINE
  5
11A
  8
NOTE
  6
CONTINUOUS
 62
     4
 10
-128.0
 20
-265.0
 30
0.0
 11
-128.0
 21
-225.0
 31
0.0
  0
LINE
  5
11B
  8
NOTE
  6
CONTINUOUS
 62
     4
 10
-108.0
 20
-245.0
 30
0.0
 11
-148.0
 21
-245.0
 31
0.0
  0
LINE
  5
11C
  8
NOTE
  6
CONTINUOUS
 62
     4
 10
-68.0
 20
-265.0
 30
0.0
 11
-68.0
 21
-225.0
 31
0.0
  0
LINE
  5
11D
  8
NOTE
  6
CONTINUOUS
 62
     4
 10
-48.0
 20
-245.0
 30
0.0
 11
-88.0
 21
-245.0
 31
0.0
  0
LINE
  5
11E
  8
SIZE
  6
CONTINUOUS
 62
    30
 10
-394.0
 20
-110.7
 30
0.0
 11
-394.0
 21
-418.388197
 31
0.0
  0
LINE
  5
11F
  8
SIZE
  6
CONTINUOUS
 62
    30
 10
-324.0
 20
-201.0
 30
0.0
 11
-324.0
 21
-418.388197
 31
0.0
  0
LINE
  5
120
  8
SIZE
  6
CONTINUOUS
 62
    30
 10
-334.0
 20
-388.388197
 30
0.0
 11
-384.0
 21
-388.388197
 31
0.0
  0
LINE
  5
121
  8
SIZE
  6
CONTINUOUS
 62
    30
 10
-394.0
 20
-388.388197
 30
0.0
 11
-537.257143
 21
-388.388197
 31
0.0
  0
CIRCLE
  5
122
  8
SIZE
  6
CONTINUOUS
 62
    30
 10
-324.0
 20
-388.388197
 30
0.0
 40
5.0
  0
LINE
  5
123
  8
SIZE
  6
CONTINUOUS
 62
    30
 10
-329.0
 20
-388.388197
 30
0.0
 11
-334.0
 21
-388.388197
 31
0.0
  0
CIRCLE
  5
124
  8
SIZE
  6
CONTINUOUS
 62
    30
 10
-394.0
 20
-388.388197
 30
0.0
 40
5.0
  0
LINE
  5
125
  8
SIZE
  6
CONTINUOUS
 62
    30
 10
-389.0
 20
-388.388197
 30
0.0
 11
-384.0
 21
-388.388197
 31
0.0
  0
TEXT
  5
126
  8
SIZE
  6
CONTINUOUS
 62
    30
 10
-517.257142
 20
-368.388197
 30
0.0
 40
64.0
  1
70
 41
0.9
 72
     1
 11
-470.628571
 21
-368.388197
 31
0.0
  0
POINT
  5
127
  8
DEFPOINTS
  6
CONTINUOUS
 62
     7
 10
-394.0
 20
-90.7
 30
0.0
  0
POINT
  5
128
  8
DEFPOINTS
  6
CONTINUOUS
 62
     7
 10
-324.0
 20
-181.0
 30
0.0
  0
POINT
  5
129
  8
DEFPOINTS
  6
CONTINUOUS
 62
     7
 10
-324.0
 20
-388.388197
 30
0.0
  0
LINE
  5
12A
  8
SIZE
  6
CONTINUOUS
 62
    30
 10
-324.0
 20
-201.0
 30
0.0
 11
-324.0
 21
-418.489926
 31
0.0
  0
LINE
  5
12B
  8
SIZE
  6
CONTINUOUS
 62
    30
 10
-248.0
 20
-284.207969
 30
0.0
 11
-248.0
 21
-418.489926
 31
0.0
  0
LINE
  5
12C
  8
SIZE
  6
CONTINUOUS
 62
    30
 10
-314.0
 20
-388.489926
 30
0.0
 11
-258.0
 21
-388.489926
 31
0.0
  0
LINE
  5
12D
  8
SIZE
  6
CONTINUOUS
 62
    30
 10
-286.0
 20
-388.489926
 30
0.0
 11
-406.993785
 21
-503.508293
 31
0.0
  0
LINE
  5
12E
  8
SIZE
  6
CONTINUOUS
 62
    30
 10
-406.993785
 20
-503.508293
 30
0.0
 11
-537.508071
 21
-503.508293
 31
0.0
  0
TEXT
  5
12F
  8
SIZE
  6
CONTINUOUS
 62
    30
 10
-517.508071
 20
-483.508293
 30
0.0
 40
64.0
  1
76
 41
0.9
 72
     1
 11
-472.250928
 21
-483.508293
 31
0.0
  0
CIRCLE
  5
130
  8
SIZE
  6
CONTINUOUS
 62
    30
 10
-324.0
 20
-388.489926
 30
0.0
 40
5.0
  0
LINE
  5
131
  8
SIZE
  6
CONTINUOUS
 62
    30
 10
-319.0
 20
-388.489926
 30
0.0
 11
-314.0
 21
-388.489926
 31
0.0
  0
CIRCLE
  5
132
  8
SIZE
  6
CONTINUOUS
 62
    30
 10
-248.0
 20
-388.489926
 30
0.0
 40
5.0
  0
LINE
  5
133
  8
SIZE
  6
CONTINUOUS
 62
    30
 10
-253.0
 20
-388.489926
 30
0.0
 11
-258.0
 21
-388.489926
 31
0.0
  0
POINT
  5
134
  8
DEFPOINTS
  6
CONTINUOUS
 62
     7
 10
-324.0
 20
-181.0
 30
0.0
  0
POINT
  5
135
  8
DEFPOINTS
  6
CONTINUOUS
 62
     7
 10
-248.0
 20
-264.207969
 30
0.0
  0
POINT
  5
136
  8
DEFPOINTS
  6
CONTINUOUS
 62
     7
 10
-248.0
 20
-388.489926
 30
0.0
  0
LINE
  5
137
  8
SIZE
  6
CONTINUOUS
 62
    30
 10
-324.0
 20
-201.0
 30
0.0
 11
-324.0
 21
-297.955934
 31
0.0
  0
LINE
  5
138
  8
SIZE
  6
CONTINUOUS
 62
    30
 10
-524.0
 20
-35.5
 30
0.0
 11
-524.0
 21
-297.955934
 31
0.0
  0
LINE
  5
139
  8
SIZE
  6
CONTINUOUS
 62
    30
 10
-334.0
 20
-267.955934
 30
0.0
 11
-514.0
 21
-267.955934
 31
0.0
  0
CIRCLE
  5
13A
  8
SIZE
  6
CONTINUOUS
 62
    30
 10
-324.0
 20
-267.955934
 30
0.0
 40
5.0
  0
LINE
  5
13B
  8
SIZE
  6
CONTINUOUS
 62
    30
 10
-329.0
 20
-267.955934
 30
0.0
 11
-334.0
 21
-267.955934
 31
0.0
  0
CIRCLE
  5
13C
  8
SIZE
  6
CONTINUOUS
 62
    30
 10
-524.0
 20
-267.955934
 30
0.0
 40
5.0
  0
LINE
  5
13D
  8
SIZE
  6
CONTINUOUS
 62
    30
 10
-519.0
 20
-267.955934
 30
0.0
 11
-514.0
 21
-267.955934
 31
0.0
  0
TEXT
  5
13E
  8
SIZE
  6
CONTINUOUS
 62
    30
 10
-490.557143
 20
-247.955934
 30
0.0
 40
64.0
  1
200
 41
0.9
 72
     1
 11
-416.5
 21
-247.955934
 31
0.0
  0
POINT
  5
13F
  8
DEFPOINTS
  6
CONTINUOUS
 62
     7
 10
-324.0
 20
-181.0
 30
0.0
  0
POINT
  5
140
  8
DEFPOINTS
  6
CONTINUOUS
 62
     7
 10
-524.0
 20
-15.5
 30
0.0
  0
POINT
  5
141
  8
DEFPOINTS
  6
CONTINUOUS
 62
     7
 10
-524.0
 20
-267.955934
 30
0.0
  0
TEXT
  5
142
  8
SIZE
  6
CONTINUOUS
 62
    30
 10
-60.021195
 20
-740.663845
 30
0.0
 40
35.0
  1
（吊りボルトピッチ）
 41
0.9
  0
TEXT
  5
143
  8
SIZE
  6
CONTINUOUS
 62
    30
 10
641.384293
 20
-548.69297
 30
0.0
 40
35.0
  1
（吊りボルトピッチ）
 50
90.0
 41
0.9
  0
LINE
  5
144
  8
SIZE
  6
CONTINUOUS
 62
    30
 10
370.999539
 20
149.0
 30
0.0
 11
704.766856
 21
149.0
 31
0.0
  0
LINE
  5
145
  8
SIZE
  6
CONTINUOUS
 62
    30
 10
370.999539
 20
-149.0
 30
0.0
 11
704.766856
 21
-149.0
 31
0.0
  0
LINE
  5
146
  8
SIZE
  6
CONTINUOUS
 62
    30
 10
674.766856
 20
139.0
 30
0.0
 11
674.766856
 21
-139.0
 31
0.0
  0
LINE
  5
147
  8
SIZE
  6
CONTINUOUS
 62
    30
 10
674.766856
 20
-149.0
 30
0.0
 11
674.766856
 21
-725.403458
 31
0.0
  0
CIRCLE
  5
148
  8
SIZE
  6
CONTINUOUS
 62
    30
 10
674.766856
 20
149.0
 30
0.0
 40
5.0
  0
LINE
  5
149
  8
SIZE
  6
CONTINUOUS
 62
    30
 10
674.766856
 20
144.0
 30
0.0
 11
674.766856
 21
139.0
 31
0.0
  0
CIRCLE
  5
14A
  8
SIZE
  6
CONTINUOUS
 62
    30
 10
674.766856
 20
-149.0
 30
0.0
 40
5.0
  0
LINE
  5
14B
  8
SIZE
  6
CONTINUOUS
 62
    30
 10
674.766856
 20
-144.0
 30
0.0
 11
674.766856
 21
-139.0
 31
0.0
  0
TEXT
  5
14C
  8
SIZE
  6
CONTINUOUS
 62
    30
 10
654.766856
 20
-705.403458
 30
0.0
 40
64.0
  1
298
 50
90.0
 41
0.9
 72
     1
 11
654.766856
 21
-631.346315
 31
0.0
  0
POINT
  5
14D
  8
DEFPOINTS
  6
CONTINUOUS
 62
     7
 10
350.999539
 20
149.0
 30
0.0
  0
POINT
  5
14E
  8
DEFPOINTS
  6
CONTINUOUS
 62
     7
 10
350.999539
 20
-149.0
 30
0.0
  0
POINT
  5
14F
  8
DEFPOINTS
  6
CONTINUOUS
 62
     7
 10
674.766856
 20
-149.0
 30
0.0
  0
LINE
  5
150
  8
NOTE
  6
CONTINUOUS
 62
     4
 10
-394.0
 20
-98.0
 30
0.0
 11
-394.0
 21
-58.0
 31
0.0
  0
LINE
  5
151
  8
NOTE
  6
CONTINUOUS
 62
     4
 10
-374.0
 20
-78.0
 30
0.0
 11
-414.0
 21
-78.0
 31
0.0
  0
LINE
  5
152
  8
NOTE
  6
CONTINUOUS
 62
     4
 10
-524.0
 20
-20.0
 30
0.0
 11
-524.0
 21
20.0
 31
0.0
  0
LINE
  5
153
  8
NOTE
  6
CONTINUOUS
 62
     4
 10
-504.0
 20
0.0
 30
0.0
 11
-544.0
 21
0.0
 31
0.0
  0
LINE
  5
154
  8
NOTE
  6
CONTINUOUS
 62
     4
 10
-394.0
 20
47.0
 30
0.0
 11
-394.0
 21
87.0
 31
0.0
  0
LINE
  5
155
  8
NOTE
  6
CONTINUOUS
 62
     4
 10
-374.0
 20
67.0
 30
0.0
 11
-414.0
 21
67.0
 31
0.0
  0
LINE
  5
156
  8
OUTLINE
  6
CONTINUOUS
 62
     3
 10
324.0
 20
180.600221
 30
0.0
 11
324.0
 21
-181.0
 31
0.0
  0
LINE
  5
157
  8
OUTLINE
  6
CONTINUOUS
 62
     3
 10
324.0
 20
-181.0
 30
0.0
 11
-324.0
 21
-181.0
 31
0.0
  0
LINE
  5
158
  8
OUTLINE
  6
CONTINUOUS
 62
     3
 10
-324.0
 20
-181.0
 30
0.0
 11
-324.0
 21
181.0
 31
0.0
  0
LINE
  5
159
  8
DETAIL
  6
CONTINUOUS
 62
     5
 10
-252.76
 20
-181.0
 30
0.0
 11
-252.76
 21
-245.0
 31
0.0
  0
LINE
  5
15A
  8
DETAIL
  6
CONTINUOUS
 62
     5
 10
-243.24
 20
-181.0
 30
0.0
 11
-243.24
 21
-245.0
 31
0.0
  0
LINE
  5
15B
  8
DETAIL
  6
CONTINUOUS
 62
     5
 10
-255.94
 20
-181.0
 30
0.0
 11
-255.94
 21
-245.0
 31
0.0
  0
LINE
  5
15C
  8
DETAIL
  6
CONTINUOUS
 62
     5
 10
-240.06
 20
-181.0
 30
0.0
 11
-240.06
 21
-245.0
 31
0.0
  0
LINE
  5
15D
  8
DETAIL
  6
CONTINUOUS
 62
     5
 10
-252.76
 20
-245.0
 30
0.0
 11
-243.24
 21
-245.0
 31
0.0
  0
LINE
  5
15E
  8
DETAIL
  6
CONTINUOUS
 62
     5
 10
-255.94
 20
-245.0
 30
0.0
 11
-240.06
 21
-245.0
 31
0.0
  0
LINE
  5
15F
  8
DETAIL
  6
CONTINUOUS
 62
     5
 10
-248.0
 20
-181.0
 30
0.0
 11
-248.0
 21
-245.0
 31
0.0
  0
LINE
  5
160
  8
DETAIL
  6
CONTINUOUS
 62
     5
 10
-192.76
 20
-181.0
 30
0.0
 11
-192.76
 21
-245.0
 31
0.0
  0
LINE
  5
161
  8
DETAIL
  6
CONTINUOUS
 62
     5
 10
-183.24
 20
-181.0
 30
0.0
 11
-183.24
 21
-245.0
 31
0.0
  0
LINE
  5
162
  8
DETAIL
  6
CONTINUOUS
 62
     5
 10
-195.94
 20
-181.0
 30
0.0
 11
-195.94
 21
-245.0
 31
0.0
  0
LINE
  5
163
  8
DETAIL
  6
CONTINUOUS
 62
     5
 10
-180.06
 20
-181.0
 30
0.0
 11
-180.06
 21
-245.0
 31
0.0
  0
LINE
  5
164
  8
DETAIL
  6
CONTINUOUS
 62
     5
 10
-192.76
 20
-245.0
 30
0.0
 11
-183.24
 21
-245.0
 31
0.0
  0
LINE
  5
165
  8
DETAIL
  6
CONTINUOUS
 62
     5
 10
-195.94
 20
-245.0
 30
0.0
 11
-180.06
 21
-245.0
 31
0.0
  0
LINE
  5
166
  8
DETAIL
  6
CONTINUOUS
 62
     5
 10
-188.0
 20
-181.0
 30
0.0
 11
-188.0
 21
-245.0
 31
0.0
  0
LINE
  5
167
  8
DETAIL
  6
CONTINUOUS
 62
     5
 10
-132.76
 20
-181.0
 30
0.0
 11
-132.76
 21
-245.0
 31
0.0
  0
LINE
  5
168
  8
DETAIL
  6
CONTINUOUS
 62
     5
 10
-123.24
 20
-181.0
 30
0.0
 11
-123.24
 21
-245.0
 31
0.0
  0
LINE
  5
169
  8
DETAIL
  6
CONTINUOUS
 62
     5
 10
-135.94
 20
-181.0
 30
0.0
 11
-135.94
 21
-245.0
 31
0.0
  0
LINE
  5
16A
  8
DETAIL
  6
CONTINUOUS
 62
     5
 10
-120.06
 20
-181.0
 30
0.0
 11
-120.06
 21
-245.0
 31
0.0
  0
LINE
  5
16B
  8
DETAIL
  6
CONTINUOUS
 62
     5
 10
-132.76
 20
-245.0
 30
0.0
 11
-123.24
 21
-245.0
 31
0.0
  0
LINE
  5
16C
  8
DETAIL
  6
CONTINUOUS
 62
     5
 10
-135.94
 20
-245.0
 30
0.0
 11
-120.06
 21
-245.0
 31
0.0
  0
LINE
  5
16D
  8
DETAIL
  6
CONTINUOUS
 62
     5
 10
-128.0
 20
-181.0
 30
0.0
 11
-128.0
 21
-245.0
 31
0.0
  0
LINE
  5
16E
  8
DETAIL
  6
CONTINUOUS
 62
     5
 10
-72.76
 20
-181.0
 30
0.0
 11
-72.76
 21
-245.0
 31
0.0
  0
LINE
  5
16F
  8
DETAIL
  6
CONTINUOUS
 62
     5
 10
-63.24
 20
-181.0
 30
0.0
 11
-63.24
 21
-245.0
 31
0.0
  0
LINE
  5
170
  8
DETAIL
  6
CONTINUOUS
 62
     5
 10
-75.94
 20
-181.0
 30
0.0
 11
-75.94
 21
-245.0
 31
0.0
  0
LINE
  5
171
  8
DETAIL
  6
CONTINUOUS
 62
     5
 10
-60.06
 20
-181.0
 30
0.0
 11
-60.06
 21
-245.0
 31
0.0
  0
LINE
  5
172
  8
DETAIL
  6
CONTINUOUS
 62
     5
 10
-72.76
 20
-245.0
 30
0.0
 11
-63.24
 21
-245.0
 31
0.0
  0
LINE
  5
173
  8
DETAIL
  6
CONTINUOUS
 62
     5
 10
-75.94
 20
-245.0
 30
0.0
 11
-60.06
 21
-245.0
 31
0.0
  0
LINE
  5
174
  8
DETAIL
  6
CONTINUOUS
 62
     5
 10
-68.0
 20
-181.0
 30
0.0
 11
-68.0
 21
-245.0
 31
0.0
  0
TEXT
  5
175
  8
NOTE
  6
CONTINUOUS
 62
     4
 10
-1563.237516
 20
-752.033293
 30
0.0
 40
64.0
  1
室内ユニット側配管接続口（液）
 41
0.9
 72
     2
 11
-572.517516
 21
-752.033293
 31
0.0
  0
TEXT
  5
176
  8
NOTE
  6
CONTINUOUS
 62
     4
 10
-1428.361058
 20
-848.510172
 30
0.0
 40
50.0
  1
φ9.52〈フレア〉
 41
0.9
  0
TEXT
  5
177
  8
NOTE
  6
CONTINUOUS
 62
     4
 10
-1603.200382
 20
-478.863013
 30
0.0
 40
64.0
  1
室内ユニット側配管接続口（ガス）
 41
0.9
 72
     2
 11
-543.360382
 21
-478.863013
 31
0.0
  0
TEXT
  5
178
  8
NOTE
  6
CONTINUOUS
 62
     4
 10
-1404.078872
 20
-578.243072
 30
0.0
 40
50.0
  1
φ15.88〈フレア〉
 41
0.9
  0
POLYLINE
  5
179
  8
NOTE
  6
CONTINUOUS
 62
     4
 66
     1
 10
0.0
 20
0.0
 30
0.0
  0
VERTEX
  5
17A
  8
NOTE
  6
CONTINUOUS
 62
     4
 10
-248.0
 20
-245.0
 30
0.0
  0
VERTEX
  5
17B
  8
NOTE
  6
CONTINUOUS
 62
     4
 10
-421.254445
 20
-498.863013
 30
0.0
  0
VERTEX
  5
17C
  8
NOTE
  6
CONTINUOUS
 62
     4
 10
-1546.203017
 20
-498.863013
 30
0.0
  0
SEQEND
  5
17D
  8
NOTE
  6
CONTINUOUS
 62
     4
  0
POLYLINE
  5
17E
  8
NOTE
  6
CONTINUOUS
 62
     4
 66
     1
 10
0.0
 20
0.0
 30
0.0
  0
VERTEX
  5
17F
  8
NOTE
  6
CONTINUOUS
 62
     4
 10
-248.0
 20
-245.0
 30
0.0
  0
VERTEX
  5
180
  8
NOTE
  6
CONTINUOUS
 62
     4
 10
-542.517516
 20
-772.033293
 30
0.0
  0
VERTEX
  5
181
  8
NOTE
  6
CONTINUOUS
 62
     4
 10
-1598.346088
 20
-772.033293
 30
0.0
  0
SEQEND
  5
182
  8
NOTE
  6
CONTINUOUS
 62
     4
  0
LINE
  5
183
  8
NOTE
  6
CONTINUOUS
 62
     4
 10
-255.850251
 20
-251.749314
 30
0.0
 11
-248.0
 21
-245.0
 31
0.0
  0
LINE
  5
184
  8
NOTE
  6
CONTINUOUS
 62
     4
 10
-248.0
 20
-245.0
 30
0.0
 11
-251.42386
 21
-254.770203
 31
0.0
  0
LINE
  5
185
  8
NOTE
  6
CONTINUOUS
 62
     4
 10
-255.217247
 20
-252.422333
 30
0.0
 11
-248.0
 21
-245.0
 31
0.0
  0
LINE
  5
186
  8
NOTE
  6
CONTINUOUS
 62
     4
 10
-248.0
 20
-245.0
 30
0.0
 11
-250.539153
 21
-255.036552
 31
0.0
  0
TEXT
  5
187
  8
NOTE
  6
CONTINUOUS
 62
     4
 10
662.18121
 20
490.632209
 30
0.0
 40
64.0
  1
AH4-12×14長穴
 41
0.9
  0
TEXT
  5
188
  8
NOTE
  6
CONTINUOUS
 62
     4
 10
-1698.509695
 20
-93.845598
 30
0.0
 40
64.0
  1
室外ユニット側配管接続口（低圧）
 41
0.9
 72
     2
 11
-638.669695
 21
-93.845598
 31
0.0
  0
TEXT
  5
189
  8
NOTE
  6
CONTINUOUS
 62
     4
 10
-1729.169218
 20
-189.053386
 30
0.0
 40
50.0
  1
224形：φ19.05〈ロウ付〉（付属配管を使用）
 41
0.9
  0
TEXT
  5
18A
  8
NOTE
  6
CONTINUOUS
 62
     4
 10
-1877.553623
 20
-260.08251
 30
0.0
 40
50.0
  1
280.335形：φ22.2〈ロウ付〉
 41
0.9
  0
TEXT
  5
18B
  8
NOTE
  6
CONTINUOUS
 62
     4
 10
-1727.877922
 20
-332.037528
 30
0.0
 40
50.0
  1
400形：φ25.4〈ロウ付〉（付属配管を使用）
 41
0.9
  0
TEXT
  5
18C
  8
NOTE
  6
CONTINUOUS
 62
     4
 10
-1375.161437
 20
155.036245
 30
0.0
 40
64.0
  1
D　VP-25（オス）
 41
0.9
 72
     2
 11
-724.555723
 21
155.036245
 31
0.0
  0
TEXT
  5
18D
  8
NOTE
  6
CONTINUOUS
 62
     4
 10
-1808.251328
 20
659.651225
 30
0.0
 40
64.0
  1
室外ユニット側配管接続口（高圧）
 41
0.9
 72
     2
 11
-748.411328
 21
659.651225
 31
0.0
  0
TEXT
  5
18E
  8
NOTE
  6
CONTINUOUS
 62
     4
 10
-2189.21141
 20
572.498171
 30
0.0
 40
50.0
  1
           224形：φ15.88〈ロウ付〉(付属配管を使用)
 41
0.9
  0
TEXT
  5
18F
  8
NOTE
  6
CONTINUOUS
 62
     4
 10
-2189.21141
 20
489.998171
 30
0.0
 40
50.0
  1
280.335.400形：φ19.05〈ロウ付〉
 41
0.9
  0
POLYLINE
  5
190
  8
NOTE
  6
CONTINUOUS
 62
     4
 66
     1
 10
0.0
 20
0.0
 30
0.0
  0
VERTEX
  5
191
  8
NOTE
  6
CONTINUOUS
 62
     4
 10
-394.0
 20
-78.0
 30
0.0
  0
VERTEX
  5
192
  8
NOTE
  6
CONTINUOUS
 62
     4
 10
-618.669695
 20
-113.845598
 30
0.0
  0
VERTEX
  5
193
  8
NOTE
  6
CONTINUOUS
 62
     4
 10
-1733.618267
 20
-113.845598
 30
0.0
  0
SEQEND
  5
194
  8
NOTE
  6
CONTINUOUS
 62
     4
  0
POLYLINE
  5
195
  8
NOTE
  6
CONTINUOUS
 62
     4
 66
     1
 10
0.0
 20
0.0
 30
0.0
  0
VERTEX
  5
196
  8
NOTE
  6
CONTINUOUS
 62
     4
 10
-524.0
 20
0.0
 30
0.0
  0
VERTEX
  5
197
  8
NOTE
  6
CONTINUOUS
 62
     4
 10
-694.555723
 20
135.036245
 30
0.0
  0
VERTEX
  5
198
  8
NOTE
  6
CONTINUOUS
 62
     4
 10
-1544.670009
 20
135.036245
 30
0.0
  0
SEQEND
  5
199
  8
NOTE
  6
CONTINUOUS
 62
     4
  0
POLYLINE
  5
19A
  8
NOTE
  6
CONTINUOUS
 62
     4
 66
     1
 10
0.0
 20
0.0
 30
0.0
  0
VERTEX
  5
19B
  8
NOTE
  6
CONTINUOUS
 62
     4
 10
-394.0
 20
67.0
 30
0.0
  0
VERTEX
  5
19C
  8
NOTE
  6
CONTINUOUS
 62
     4
 10
-718.411328
 20
639.651225
 30
0.0
  0
VERTEX
  5
19D
  8
NOTE
  6
CONTINUOUS
 62
     4
 10
-1843.359899
 20
639.651225
 30
0.0
  0
SEQEND
  5
19E
  8
NOTE
  6
CONTINUOUS
 62
     4
  0
LINE
  5
19F
  8
NOTE
  6
CONTINUOUS
 62
     4
 10
-404.29727
 20
-76.929527
 30
0.0
 11
-394.0
 21
-78.0
 31
0.0
  0
LINE
  5
1A0
  8
NOTE
  6
CONTINUOUS
 62
     4
 10
-394.0
 20
-78.0
 30
0.0
 11
-403.452934
 21
-82.221578
 31
0.0
  0
LINE
  5
1A1
  8
NOTE
  6
CONTINUOUS
 62
     4
 10
-531.017015
 20
12.286205
 30
0.0
 11
-524.0
 21
0.0
 31
0.0
  0
LINE
  5
1A2
  8
NOTE
  6
CONTINUOUS
 62
     4
 10
-524.0
 20
0.0
 30
0.0
 11
-537.918086
 21
6.079277
 31
0.0
  0
LINE
  5
1A3
  8
NOTE
  6
CONTINUOUS
 62
     4
 10
-396.597702
 20
77.021558
 30
0.0
 11
-394.0
 21
67.0
 31
0.0
  0
LINE
  5
1A4
  8
NOTE
  6
CONTINUOUS
 62
     4
 10
-394.0
 20
67.0
 30
0.0
 11
-401.260455
 21
74.380072
 31
0.0
  0
POLYLINE
  5
1A5
  8
NOTE
  6
CONTINUOUS
 62
     4
 66
     1
 10
0.0
 20
0.0
 30
0.0
  0
VERTEX
  5
1A6
  8
NOTE
  6
CONTINUOUS
 62
     4
 10
350.999539
 20
149.0
 30
0.0
  0
VERTEX
  5
1A7
  8
NOTE
  6
CONTINUOUS
 62
     4
 10
632.18121
 20
470.632209
 30
0.0
  0
VERTEX
  5
1A8
  8
NOTE
  6
CONTINUOUS
 62
     4
 10
1313.884067
 20
470.632209
 30
0.0
  0
SEQEND
  5
1A9
  8
NOTE
  6
CONTINUOUS
 62
     4
  0
LINE
  5
1AA
  8
NOTE
  6
CONTINUOUS
 62
     4
 10
355.564027
 20
158.292208
 30
0.0
 11
350.999539
 21
149.0
 31
0.0
  0
LINE
  5
1AB
  8
NOTE
  6
CONTINUOUS
 62
     4
 10
350.999539
 20
149.0
 30
0.0
 11
359.598605
 21
154.765044
 31
0.0
  0
LINE
  5
1AC
  8
DETAIL
  6
CONTINUOUS
 62
     5
 10
-15.05738
 20
181.0
 30
0.0
 11
-15.05738
 21
251.0
 31
0.0
  0
LINE
  5
1AD
  8
OUTLINE
  6
CONTINUOUS
 62
     3
 10
-324.0
 20
181.0
 30
0.0
 11
-15.05738
 21
181.0
 31
0.0
  0
LINE
  5
1AE
  8
OUTLINE
  6
CONTINUOUS
 62
     3
 10
-15.05738
 20
181.0
 30
0.0
 11
-15.05738
 21
251.0
 31
0.0
  0
LINE
  5
1AF
  8
OUTLINE
  6
CONTINUOUS
 62
     3
 10
-15.05738
 20
251.0
 30
0.0
 11
276.937881
 21
251.0
 31
0.0
  0
LINE
  5
1B0
  8
OUTLINE
  6
CONTINUOUS
 62
     3
 10
276.937881
 20
251.0
 30
0.0
 11
276.937881
 21
181.0
 31
0.0
  0
LINE
  5
1B1
  8
OUTLINE
  6
CONTINUOUS
 62
     3
 10
276.937881
 20
181.0
 30
0.0
 11
324.0
 21
181.0
 31
0.0
  0
LINE
  5
1B2
  8
SIZE
  6
CONTINUOUS
 62
    30
 10
-248.0
 20
-265.0
 30
0.0
 11
-248.0
 21
-379.631597
 31
0.0
  0
LINE
  5
1B3
  8
SIZE
  6
CONTINUOUS
 62
    30
 10
-188.0
 20
-265.0
 30
0.0
 11
-188.0
 21
-379.631597
 31
0.0
  0
LINE
  5
1B4
  8
SIZE
  6
CONTINUOUS
 62
    30
 10
-258.0
 20
-349.631597
 30
0.0
 11
-268.0
 21
-349.631597
 31
0.0
  0
LINE
  5
1B5
  8
SIZE
  6
CONTINUOUS
 62
    30
 10
-178.0
 20
-349.631597
 30
0.0
 11
-168.0
 21
-349.631597
 31
0.0
  0
LINE
  5
1B6
  8
SIZE
  6
CONTINUOUS
 62
    30
 10
-248.0
 20
-349.631597
 30
0.0
 11
-188.0
 21
-349.631597
 31
0.0
  0
CIRCLE
  5
1B7
  8
SIZE
  6
CONTINUOUS
 62
    30
 10
-248.0
 20
-349.631597
 30
0.0
 40
5.0
  0
LINE
  5
1B8
  8
SIZE
  6
CONTINUOUS
 62
    30
 10
-253.0
 20
-349.631597
 30
0.0
 11
-258.0
 21
-349.631597
 31
0.0
  0
CIRCLE
  5
1B9
  8
SIZE
  6
CONTINUOUS
 62
    30
 10
-188.0
 20
-349.631597
 30
0.0
 40
5.0
  0
LINE
  5
1BA
  8
SIZE
  6
CONTINUOUS
 62
    30
 10
-183.0
 20
-349.631597
 30
0.0
 11
-178.0
 21
-349.631597
 31
0.0
  0
TEXT
  5
1BB
  8
SIZE
  6
CONTINUOUS
 62
    30
 10
-264.628571
 20
-329.631597
 30
0.0
 40
64.0
  1
60
 41
0.9
 72
     1
 11
-218.0
 21
-329.631597
 31
0.0
  0
POINT
  5
1BC
  8
DEFPOINTS
  6
CONTINUOUS
 62
     7
 10
-248.0
 20
-245.0
 30
0.0
  0
POINT
  5
1BD
  8
DEFPOINTS
  6
CONTINUOUS
 62
     7
 10
-188.0
 20
-245.0
 30
0.0
  0
POINT
  5
1BE
  8
DEFPOINTS
  6
CONTINUOUS
 62
     7
 10
-188.0
 20
-349.631597
 30
0.0
  0
LINE
  5
1BF
  8
NOTE
  6
CONTINUOUS
 62
     4
 10
-8.0
 20
-265.0
 30
0.0
 11
-8.0
 21
-225.0
 31
0.0
  0
LINE
  5
1C0
  8
NOTE
  6
CONTINUOUS
 62
     4
 10
12.0
 20
-245.0
 30
0.0
 11
-28.0
 21
-245.0
 31
0.0
  0
LINE
  5
1C1
  8
DETAIL
  6
CONTINUOUS
 62
     5
 10
-12.76
 20
-181.0
 30
0.0
 11
-12.76
 21
-245.0
 31
0.0
  0
LINE
  5
1C2
  8
DETAIL
  6
CONTINUOUS
 62
     5
 10
-3.24
 20
-181.0
 30
0.0
 11
-3.24
 21
-245.0
 31
0.0
  0
LINE
  5
1C3
  8
DETAIL
  6
CONTINUOUS
 62
     5
 10
-15.94
 20
-181.0
 30
0.0
 11
-15.94
 21
-245.0
 31
0.0
  0
LINE
  5
1C4
  8
DETAIL
  6
CONTINUOUS
 62
     5
 10
-0.06
 20
-181.0
 30
0.0
 11
-0.06
 21
-245.0
 31
0.0
  0
LINE
  5
1C5
  8
DETAIL
  6
CONTINUOUS
 62
     5
 10
-12.76
 20
-245.0
 30
0.0
 11
-3.24
 21
-245.0
 31
0.0
  0
LINE
  5
1C6
  8
DETAIL
  6
CONTINUOUS
 62
     5
 10
-15.94
 20
-245.0
 30
0.0
 11
-0.06
 21
-245.0
 31
0.0
  0
LINE
  5
1C7
  8
DETAIL
  6
CONTINUOUS
 62
     5
 10
-8.0
 20
-181.0
 30
0.0
 11
-8.0
 21
-245.0
 31
0.0
  0
LINE
  5
1C8
  8
NOTE
  6
CONTINUOUS
 62
     4
 10
52.0
 20
-265.0
 30
0.0
 11
52.0
 21
-225.0
 31
0.0
  0
LINE
  5
1C9
  8
NOTE
  6
CONTINUOUS
 62
     4
 10
72.0
 20
-245.0
 30
0.0
 11
32.0
 21
-245.0
 31
0.0
  0
LINE
  5
1CA
  8
DETAIL
  6
CONTINUOUS
 62
     5
 10
47.24
 20
-181.0
 30
0.0
 11
47.24
 21
-245.0
 31
0.0
  0
LINE
  5
1CB
  8
DETAIL
  6
CONTINUOUS
 62
     5
 10
56.76
 20
-181.0
 30
0.0
 11
56.76
 21
-245.0
 31
0.0
  0
LINE
  5
1CC
  8
DETAIL
  6
CONTINUOUS
 62
     5
 10
44.06
 20
-181.0
 30
0.0
 11
44.06
 21
-245.0
 31
0.0
  0
LINE
  5
1CD
  8
DETAIL
  6
CONTINUOUS
 62
     5
 10
59.94
 20
-181.0
 30
0.0
 11
59.94
 21
-245.0
 31
0.0
  0
LINE
  5
1CE
  8
DETAIL
  6
CONTINUOUS
 62
     5
 10
47.24
 20
-245.0
 30
0.0
 11
56.76
 21
-245.0
 31
0.0
  0
LINE
  5
1CF
  8
DETAIL
  6
CONTINUOUS
 62
     5
 10
44.06
 20
-245.0
 30
0.0
 11
59.94
 21
-245.0
 31
0.0
  0
LINE
  5
1D0
  8
DETAIL
  6
CONTINUOUS
 62
     5
 10
52.0
 20
-181.0
 30
0.0
 11
52.0
 21
-245.0
 31
0.0
  0
LINE
  5
1D1
  8
NOTE
  6
CONTINUOUS
 62
     4
 10
112.0
 20
-265.0
 30
0.0
 11
112.0
 21
-225.0
 31
0.0
  0
LINE
  5
1D2
  8
NOTE
  6
CONTINUOUS
 62
     4
 10
132.0
 20
-245.0
 30
0.0
 11
92.0
 21
-245.0
 31
0.0
  0
LINE
  5
1D3
  8
DETAIL
  6
CONTINUOUS
 62
     5
 10
107.24
 20
-181.0
 30
0.0
 11
107.24
 21
-245.0
 31
0.0
  0
LINE
  5
1D4
  8
DETAIL
  6
CONTINUOUS
 62
     5
 10
116.76
 20
-181.0
 30
0.0
 11
116.76
 21
-245.0
 31
0.0
  0
LINE
  5
1D5
  8
DETAIL
  6
CONTINUOUS
 62
     5
 10
104.06
 20
-181.0
 30
0.0
 11
104.06
 21
-245.0
 31
0.0
  0
LINE
  5
1D6
  8
DETAIL
  6
CONTINUOUS
 62
     5
 10
119.94
 20
-181.0
 30
0.0
 11
119.94
 21
-245.0
 31
0.0
  0
LINE
  5
1D7
  8
DETAIL
  6
CONTINUOUS
 62
     5
 10
107.24
 20
-245.0
 30
0.0
 11
116.76
 21
-245.0
 31
0.0
  0
LINE
  5
1D8
  8
DETAIL
  6
CONTINUOUS
 62
     5
 10
104.06
 20
-245.0
 30
0.0
 11
119.94
 21
-245.0
 31
0.0
  0
LINE
  5
1D9
  8
DETAIL
  6
CONTINUOUS
 62
     5
 10
112.0
 20
-181.0
 30
0.0
 11
112.0
 21
-245.0
 31
0.0
  0
LINE
  5
1DA
  8
NOTE
  6
CONTINUOUS
 62
     4
 10
172.0
 20
-265.0
 30
0.0
 11
172.0
 21
-225.0
 31
0.0
  0
LINE
  5
1DB
  8
NOTE
  6
CONTINUOUS
 62
     4
 10
192.0
 20
-245.0
 30
0.0
 11
152.0
 21
-245.0
 31
0.0
  0
LINE
  5
1DC
  8
DETAIL
  6
CONTINUOUS
 62
     5
 10
167.24
 20
-181.0
 30
0.0
 11
167.24
 21
-245.0
 31
0.0
  0
LINE
  5
1DD
  8
DETAIL
  6
CONTINUOUS
 62
     5
 10
176.76
 20
-181.0
 30
0.0
 11
176.76
 21
-245.0
 31
0.0
  0
LINE
  5
1DE
  8
DETAIL
  6
CONTINUOUS
 62
     5
 10
164.06
 20
-181.0
 30
0.0
 11
164.06
 21
-245.0
 31
0.0
  0
LINE
  5
1DF
  8
DETAIL
  6
CONTINUOUS
 62
     5
 10
179.94
 20
-181.0
 30
0.0
 11
179.94
 21
-245.0
 31
0.0
  0
LINE
  5
1E0
  8
DETAIL
  6
CONTINUOUS
 62
     5
 10
167.24
 20
-245.0
 30
0.0
 11
176.76
 21
-245.0
 31
0.0
  0
LINE
  5
1E1
  8
DETAIL
  6
CONTINUOUS
 62
     5
 10
164.06
 20
-245.0
 30
0.0
 11
179.94
 21
-245.0
 31
0.0
  0
LINE
  5
1E2
  8
DETAIL
  6
CONTINUOUS
 62
     5
 10
172.0
 20
-181.0
 30
0.0
 11
172.0
 21
-245.0
 31
0.0
  0
LINE
  5
1E3
  8
SIZE
  6
CONTINUOUS
 62
    30
 10
-248.0
 20
-265.0
 30
0.0
 11
-248.0
 21
-419.214261
 31
0.0
  0
LINE
  5
1E4
  8
SIZE
  6
CONTINUOUS
 62
    30
 10
172.0
 20
-265.0
 30
0.0
 11
172.0
 21
-419.214261
 31
0.0
  0
LINE
  5
1E5
  8
SIZE
  6
CONTINUOUS
 62
    30
 10
-238.0
 20
-389.214261
 30
0.0
 11
162.0
 21
-389.214261
 31
0.0
  0
CIRCLE
  5
1E6
  8
SIZE
  6
CONTINUOUS
 62
    30
 10
-248.0
 20
-389.214261
 30
0.0
 40
5.0
  0
LINE
  5
1E7
  8
SIZE
  6
CONTINUOUS
 62
    30
 10
-243.0
 20
-389.214261
 30
0.0
 11
-238.0
 21
-389.214261
 31
0.0
  0
CIRCLE
  5
1E8
  8
SIZE
  6
CONTINUOUS
 62
    30
 10
172.0
 20
-389.214261
 30
0.0
 40
5.0
  0
LINE
  5
1E9
  8
SIZE
  6
CONTINUOUS
 62
    30
 10
167.0
 20
-389.214261
 30
0.0
 11
162.0
 21
-389.214261
 31
0.0
  0
TEXT
  5
1EA
  8
SIZE
  6
CONTINUOUS
 62
    30
 10
-98.274145
 20
-369.214261
 30
0.0
 40
64.0
  1
60×7＝420
 41
0.9
 72
     1
 11
127.188712
 21
-369.214261
 31
0.0
  0
POINT
  5
1EB
  8
DEFPOINTS
  6
CONTINUOUS
 62
     7
 10
-248.0
 20
-245.0
 30
0.0
  0
POINT
  5
1EC
  8
DEFPOINTS
  6
CONTINUOUS
 62
     7
 10
172.0
 20
-245.0
 30
0.0
  0
POINT
  5
1ED
  8
DEFPOINTS
  6
CONTINUOUS
 62
     7
 10
172.0
 20
-389.214261
 30
0.0
  0
ENDSEC
  0
EOF
