  0
SECTION
  2
HEADER
  9
$ACADVER
  1
AC1009
  9
$INSBASE
 10
0.0
 20
0.0
 30
0.0
  9
$EXTMIN
 10
-1861.810165
 20
-751.894196
 30
0.0
  9
$EXTMAX
 10
941.893953
 20
705.312258
 30
0.0
  9
$LIMMIN
 10
-3837.000175
 20
-3000.109539
  9
$LIMMAX
 10
7319.256881
 20
4045.223003
  9
$ORTHOMODE
 70
     0
  9
$REGENMODE
 70
     1
  9
$FILLMODE
 70
     1
  9
$QTEXTMODE
 70
     0
  9
$MIRRTEXT
 70
     0
  9
$DRAGMODE
 70
     2
  9
$LTSCALE
 40
20.0
  9
$OSMODE
 70
    37
  9
$ATTMODE
 70
     1
  9
$TEXTSIZE
 40
64.0
  9
$TRACEWID
 40
0.05
  9
$TEXTSTYLE
  7
STANDARD
  9
$CLAYER
  8
SIZE
  9
$CELTYPE
  6
CONTINUOUS
  9
$CECOLOR
 62
     7
  9
$DIMSCALE
 40
1.0
  9
$DIMASZ
 40
30.0
  9
$DIMEXO
 40
15.0
  9
$DIMDLI
 40
80.0
  9
$DIMRND
 40
0.0
  9
$DIMDLE
 40
0.0
  9
$DIMEXE
 40
15.0
  9
$DIMTP
 40
0.0
  9
$DIMTM
 40
0.0
  9
$DIMTXT
 40
50.0
  9
$DIMCEN
 40
0.09
  9
$DIMTSZ
 40
0.0
  9
$DIMTOL
 70
     0
  9
$DIMLIM
 70
     0
  9
$DIMTIH
 70
     0
  9
$DIMTOH
 70
     0
  9
$DIMSE1
 70
     0
  9
$DIMSE2
 70
     0
  9
$DIMTAD
 70
     1
  9
$DIMZIN
 70
     8
  9
$DIMBLK
  1
_SMALL
  9
$DIMASO
 70
     1
  9
$DIMSHO
 70
     0
  9
$DIMPOST
  1

  9
$DIMAPOST
  1

  9
$DIMALT
 70
     0
  9
$DIMALTD
 70
     2
  9
$DIMALTF
 40
25.4
  9
$DIMLFAC
 40
1.0
  9
$DIMTOFL
 70
     1
  9
$DIMTVP
 40
0.0
  9
$DIMTIX
 70
     0
  9
$DIMSOXD
 70
     0
  9
$DIMSAH
 70
     0
  9
$DIMBLK1
  1

  9
$DIMBLK2
  1

  9
$DIMSTYLE
  2
STANDARD
  9
$DIMCLRD
 70
     0
  9
$DIMCLRE
 70
     0
  9
$DIMCLRT
 70
     0
  9
$DIMTFAC
 40
1.0
  9
$DIMGAP
 40
0.09
  9
$LUNITS
 70
     2
  9
$LUPREC
 70
     4
  9
$SKETCHINC
 40
0.1
  9
$FILLETRAD
 40
10.0
  9
$AUNITS
 70
     1
  9
$AUPREC
 70
     3
  9
$MENU
  1
ACAD
  9
$ELEVATION
 40
0.0
  9
$PELEVATION
 40
0.0
  9
$THICKNESS
 40
0.0
  9
$LIMCHECK
 70
     0
  9
$BLIPMODE
 70
     0
  9
$CHAMFERA
 40
0.0
  9
$CHAMFERB
 40
0.0
  9
$SKPOLY
 70
     0
  9
$TDCREATE
 40
2450330.439931
  9
$TDUPDATE
 40
2454645.659643
  9
$TDINDWG
 40
1.600882
  9
$TDUSRTIMER
 40
1.600882
  9
$USRTIMER
 70
     1
  9
$ANGBASE
 50
0.0
  9
$ANGDIR
 70
     0
  9
$PDMODE
 70
     3
  9
$PDSIZE
 40
-2.0
  9
$PLINEWID
 40
0.0
  9
$COORDS
 70
     0
  9
$SPLFRAME
 70
     0
  9
$SPLINETYPE
 70
     6
  9
$SPLINESEGS
 70
     8
  9
$ATTDIA
 70
     0
  9
$ATTREQ
 70
     1
  9
$HANDLING
 70
     1
  9
$HANDSEED
  5
3A5
  9
$SURFTAB1
 70
     6
  9
$SURFTAB2
 70
     6
  9
$SURFTYPE
 70
     6
  9
$SURFU
 70
     6
  9
$SURFV
 70
     6
  9
$UCSNAME
  2

  9
$UCSORG
 10
0.0
 20
0.0
 30
0.0
  9
$UCSXDIR
 10
1.0
 20
0.0
 30
0.0
  9
$UCSYDIR
 10
0.0
 20
1.0
 30
0.0
  9
$PUCSNAME
  2

  9
$PUCSORG
 10
0.0
 20
0.0
 30
0.0
  9
$PUCSXDIR
 10
1.0
 20
0.0
 30
0.0
  9
$PUCSYDIR
 10
0.0
 20
1.0
 30
0.0
  9
$USERI1
 70
     0
  9
$USERI2
 70
     0
  9
$USERI3
 70
     0
  9
$USERI4
 70
     0
  9
$USERI5
 70
     0
  9
$USERR1
 40
20.0
  9
$USERR2
 40
0.0
  9
$USERR3
 40
0.0
  9
$USERR4
 40
0.0
  9
$USERR5
 40
0.0
  9
$WORLDVIEW
 70
     1
  9
$SHADEDGE
 70
     3
  9
$SHADEDIF
 70
    70
  9
$TILEMODE
 70
     1
  9
$MAXACTVP
 70
    48
  9
$PLIMCHECK
 70
     0
  9
$PEXTMIN
 10
1.000000E+020
 20
1.000000E+020
 30
1.000000E+020
  9
$PEXTMAX
 10
-1.000000E+020
 20
-1.000000E+020
 30
-1.000000E+020
  9
$PLIMMIN
 10
0.0
 20
0.0
  9
$PLIMMAX
 10
12.0
 20
9.0
  9
$UNITMODE
 70
     0
  9
$VISRETAIN
 70
     1
  9
$PLINEGEN
 70
     0
  9
$PSLTSCALE
 70
     1
  0
ENDSEC
  0
SECTION
  2
TABLES
  0
TABLE
  2
VPORT
 70
     2
  0
VPORT
  2
*ACTIVE
 70
     0
 10
0.0
 20
0.0
 11
1.0
 21
1.0
 12
2690.131069
 22
522.556732
 13
0.0
 23
0.0
 14
50.0
 24
50.0
 15
100.0
 25
100.0
 16
0.0
 26
0.0
 36
1.0
 17
0.0
 27
0.0
 37
0.0
 40
7045.332542
 41
1.852895
 42
50.0
 43
0.0
 44
0.0
 50
0.0
 51
0.0
 71
     0
 72
  1000
 73
     1
 74
     0
 75
     0
 76
     0
 77
     0
 78
     0
  0
ENDTAB
  0
TABLE
  2
LTYPE
 70
     2
  0
LTYPE
  2
CONTINUOUS
 70
     0
  3
実線
 72
    65
 73
     0
 40
0.0
  0
LTYPE
  2
DASHDOT
 70
     0
  3
____ _ ____ _ ____ _ ____ _ ____ _ ____ _ ____
 72
    65
 73
     4
 40
5.5
 49
4.0
 49
-0.6
 49
0.3
 49
-0.6
  0
ENDTAB
  0
TABLE
  2
LAYER
 70
    12
  0
LAYER
  2
0
 70
     0
 62
     7
  6
CONTINUOUS
  0
LAYER
  2
SIZE
 70
     0
 62
    30
  6
CONTINUOUS
  0
LAYER
  2
OUTLINE
 70
     0
 62
     3
  6
CONTINUOUS
  0
LAYER
  2
DETAIL
 70
     0
 62
     5
  6
CONTINUOUS
  0
LAYER
  2
BASIS
 70
     0
 62
     6
  6
DASHDOT
  0
LAYER
  2
NOTE
 70
     0
 62
     4
  6
CONTINUOUS
  0
LAYER
  2
ARRANGE
 70
     0
 62
     1
  6
CONTINUOUS
  0
LAYER
  2
FIX
 70
     0
 62
    11
  6
CONTINUOUS
  0
LAYER
  2
SERVICESPACE
 70
     0
 62
     2
  6
DASHDOT
  0
LAYER
  2
ETC
 70
     0
 62
    61
  6
CONTINUOUS
  0
LAYER
  2
SYMBOLLINE
 70
     0
 62
    15
  6
CONTINUOUS
  0
LAYER
  2
DEFPOINTS
 70
     0
 62
     7
  6
CONTINUOUS
  0
ENDTAB
  0
TABLE
  2
STYLE
 70
     1
  0
STYLE
  2
STANDARD
 70
     0
 40
0.0
 41
0.9
 50
0.0
 71
     0
 42
64.0
  3
SIMPLEX
  4
BIGFONT
  0
ENDTAB
  0
TABLE
  2
VIEW
 70
     1
  0
VIEW
  2
ALL
 70
     0
 40
9000.0
 10
241.506647
 20
0.0
 41
12483.01
 11
0.0
 21
0.0
 31
1.0
 12
0.0
 22
0.0
 32
0.0
 42
50.0
 43
0.0
 44
0.0
 50
0.0
 71
     0
  0
ENDTAB
  0
TABLE
  2
UCS
 70
     0
  0
ENDTAB
  0
TABLE
  2
APPID
 70
     1
  0
APPID
  2
ACAD
 70
     0
  0
ENDTAB
  0
TABLE
  2
DIMSTYLE
 70
     1
  0
DIMSTYLE
  2
STANDARD
 70
     0
  3

  4

  5

  6

  7

 40
1.0
 41
0.18
 42
0.0625
 43
0.38
 44
0.18
 45
0.0
 46
0.0
 47
0.0
 48
0.0
140
0.18
141
0.09
142
0.0
143
25.4
144
1.0
145
0.0
146
1.0
147
0.09
 71
     0
 72
     0
 73
     1
 74
     1
 75
     0
 76
     0
 77
     0
 78
     0
170
     0
171
     2
172
     0
173
     0
174
     0
175
     0
176
     0
177
     0
178
     0
  0
ENDTAB
  0
ENDSEC
  0
SECTION
  2
BLOCKS
  0
BLOCK
  8
0
  2
$MODEL_SPACE
 70
     0
 10
0.0
 20
0.0
 30
0.0
  3
$MODEL_SPACE
  1

  0
ENDBLK
  5
389
  8
0
  0
BLOCK
 67
     1
  8
0
  2
$PAPER_SPACE
 70
     0
 10
0.0
 20
0.0
 30
0.0
  3
$PAPER_SPACE
  1

  0
ENDBLK
  5
386
 67
     1
  8
0
  0
BLOCK
  8
0
  2
_SMALL
 70
     0
 10
0.0
 20
0.0
 30
0.0
  3
_SMALL
  1

  0
CIRCLE
  5
30
  8
0
  6
CONTINUOUS
 62
     7
 10
0.0
 20
0.0
 30
0.0
 40
0.25
  0
ENDBLK
  5
31
  8
0
  0
ENDSEC
  0
SECTION
  2
ENTITIES
  0
TEXT
  5
32
  8
NOTE
  6
CONTINUOUS
 62
     4
 10
469.648008
 20
273.430736
 30
0.0
 40
50.0
  1
AH4-12×30長穴
 41
0.8
  0
LINE
  5
33
  8
DETAIL
  6
CONTINUOUS
 62
     5
 10
324.0
 20
-168.6
 30
0.0
 11
-324.0
 21
-168.6
 31
0.0
  0
LINE
  5
34
  8
DETAIL
  6
CONTINUOUS
 62
     5
 10
324.0
 20
0.0
 30
0.0
 11
-324.0
 21
0.0
 31
0.0
  0
LINE
  5
35
  8
DETAIL
  6
CONTINUOUS
 62
     5
 10
324.0
 20
-284.0
 30
0.0
 11
-324.0
 21
-284.0
 31
0.0
  0
LINE
  5
36
  8
OUTLINE
  6
CONTINUOUS
 62
     3
 10
-324.0
 20
0.0
 30
0.0
 11
324.0
 21
0.0
 31
0.0
  0
LINE
  5
37
  8
OUTLINE
  6
CONTINUOUS
 62
     3
 10
324.0
 20
-284.0
 30
0.0
 11
-324.0
 21
-284.0
 31
0.0
  0
LINE
  5
38
  8
DETAIL
  6
CONTINUOUS
 62
     5
 10
-231.0
 20
-45.6
 30
0.0
 11
-205.0
 21
-45.6
 31
0.0
  0
LINE
  5
39
  8
DETAIL
  6
CONTINUOUS
 62
     5
 10
-324.0
 20
0.0
 30
0.0
 11
-324.0
 21
-284.0
 31
0.0
  0
LINE
  5
3A
  8
OUTLINE
  6
CONTINUOUS
 62
     3
 10
-324.0
 20
-284.0
 30
0.0
 11
-324.0
 21
0.0
 31
0.0
  0
CIRCLE
  5
3B
  8
DETAIL
  6
CONTINUOUS
 62
     5
 10
-248.0
 20
-23.0
 30
0.0
 40
4.76
  0
LINE
  5
3C
  8
DETAIL
  6
CONTINUOUS
 62
     5
 10
-262.0
 20
-22.6
 30
0.0
 11
-262.0
 21
-42.6
 31
0.0
  0
LINE
  5
3D
  8
DETAIL
  6
CONTINUOUS
 62
     5
 10
-234.0
 20
-22.6
 30
0.0
 11
-234.0
 21
-42.6
 31
0.0
  0
LINE
  5
3E
  8
NOTE
  6
CONTINUOUS
 62
     4
 10
-248.0
 20
-34.000316
 30
0.0
 11
-248.0
 21
-11.999684
 31
0.0
  0
LINE
  5
3F
  8
DETAIL
  6
CONTINUOUS
 62
     5
 10
-237.029468
 20
-23.0
 30
0.0
 11
-242.514734
 21
-32.500759
 31
0.0
  0
LINE
  5
40
  8
DETAIL
  6
CONTINUOUS
 62
     5
 10
-253.485266
 20
-32.500759
 30
0.0
 11
-258.970532
 21
-23.0
 31
0.0
  0
CIRCLE
  5
41
  8
DETAIL
  6
CONTINUOUS
 62
     5
 10
-248.0
 20
-23.0
 30
0.0
 40
8.000316
  0
ARC
  5
42
  8
DETAIL
  6
CONTINUOUS
 62
     5
 10
-248.0
 20
-153.0
 30
0.0
 40
17.0
 50
0.0
 51
180.0
  0
LINE
  5
43
  8
NOTE
  6
CONTINUOUS
 62
     4
 10
-233.899558
 20
-153.0
 30
0.0
 11
-262.100442
 21
-153.0
 31
0.0
  0
LINE
  5
44
  8
DETAIL
  6
CONTINUOUS
 62
     5
 10
-240.44981
 20
-139.922686
 30
0.0
 11
-255.55019
 21
-139.922686
 31
0.0
  0
CIRCLE
  5
45
  8
DETAIL
  6
CONTINUOUS
 62
     5
 10
-248.0
 20
-153.0
 30
0.0
 40
11.100442
  0
LINE
  5
46
  8
DETAIL
  6
CONTINUOUS
 62
     5
 10
-255.55019
 20
-139.922686
 30
0.0
 11
-263.100381
 21
-153.0
 31
0.0
  0
LINE
  5
47
  8
DETAIL
  6
CONTINUOUS
 62
     5
 10
-232.899619
 20
-153.0
 30
0.0
 11
-240.44981
 21
-139.922686
 31
0.0
  0
LINE
  5
48
  8
DETAIL
  6
CONTINUOUS
 62
     5
 10
-262.0
 20
-37.0
 30
0.0
 11
-234.0
 21
-37.0
 31
0.0
  0
LINE
  5
49
  8
DETAIL
  6
CONTINUOUS
 62
     5
 10
-242.514734
 20
-32.500759
 30
0.0
 11
-253.485266
 21
-32.500759
 31
0.0
  0
LINE
  5
4A
  8
DETAIL
  6
CONTINUOUS
 62
     5
 10
-262.0
 20
-42.6
 30
0.0
 11
-265.0
 21
-45.6
 31
0.0
  0
LINE
  5
4B
  8
DETAIL
  6
CONTINUOUS
 62
     5
 10
-231.0
 20
-45.6
 30
0.0
 11
-234.0
 21
-42.6
 31
0.0
  0
CIRCLE
  5
4C
  8
DETAIL
  6
CONTINUOUS
 62
     5
 10
-248.0
 20
-153.0
 30
0.0
 40
7.94
  0
LINE
  5
4D
  8
DETAIL
  6
CONTINUOUS
 62
     5
 10
-320.0
 20
-45.6
 30
0.0
 11
-324.0
 21
-41.6
 31
0.0
  0
LINE
  5
4E
  8
DETAIL
  6
CONTINUOUS
 62
     5
 10
-320.0
 20
-45.6
 30
0.0
 11
-265.0
 21
-45.6
 31
0.0
  0
LINE
  5
4F
  8
DETAIL
  6
CONTINUOUS
 62
     5
 10
-255.55019
 20
-166.077314
 30
0.0
 11
-240.44981
 21
-166.077314
 31
0.0
  0
LINE
  5
50
  8
DETAIL
  6
CONTINUOUS
 62
     5
 10
-265.0
 20
-153.0
 30
0.0
 11
-265.0
 21
-168.6
 31
0.0
  0
LINE
  5
51
  8
DETAIL
  6
CONTINUOUS
 62
     5
 10
-231.0
 20
-168.6
 30
0.0
 11
-231.0
 21
-153.0
 31
0.0
  0
LINE
  5
52
  8
NOTE
  6
CONTINUOUS
 62
     4
 10
-248.0
 20
-138.899558
 30
0.0
 11
-248.0
 21
-167.100442
 31
0.0
  0
LINE
  5
53
  8
DETAIL
  6
CONTINUOUS
 62
     5
 10
-232.899619
 20
-153.0
 30
0.0
 11
-240.44981
 21
-166.077314
 31
0.0
  0
LINE
  5
54
  8
DETAIL
  6
CONTINUOUS
 62
     5
 10
-263.100381
 20
-153.0
 30
0.0
 11
-255.55019
 21
-166.077314
 31
0.0
  0
ARC
  5
55
  8
DETAIL
  6
CONTINUOUS
 62
     5
 10
-248.0
 20
-23.0
 30
0.0
 40
14.0
 50
0.0
 51
180.0
  0
LINE
  5
56
  8
NOTE
  6
CONTINUOUS
 62
     4
 10
-236.999684
 20
-23.0
 30
0.0
 11
-259.000316
 21
-23.0
 31
0.0
  0
LINE
  5
57
  8
DETAIL
  6
CONTINUOUS
 62
     5
 10
-253.485266
 20
-13.499241
 30
0.0
 11
-242.514734
 21
-13.499241
 31
0.0
  0
LINE
  5
58
  8
DETAIL
  6
CONTINUOUS
 62
     5
 10
-258.970532
 20
-23.0
 30
0.0
 11
-253.485266
 21
-13.499241
 31
0.0
  0
LINE
  5
59
  8
DETAIL
  6
CONTINUOUS
 62
     5
 10
-237.029468
 20
-23.0
 30
0.0
 11
-242.514734
 21
-13.499241
 31
0.0
  0
LINE
  5
5A
  8
BASIS
  6
DASHDOT
 62
     6
 10
0.0
 20
75.0
 30
0.0
 11
0.0
 21
-344.0
 31
0.0
  0
LINE
  5
5B
  8
DETAIL
  6
CONTINUOUS
 62
     5
 10
69.0
 20
-45.6
 30
0.0
 11
95.0
 21
-45.6
 31
0.0
  0
CIRCLE
  5
5C
  8
DETAIL
  6
CONTINUOUS
 62
     5
 10
52.0
 20
-23.0
 30
0.0
 40
4.76
  0
CIRCLE
  5
5D
  8
DETAIL
  6
CONTINUOUS
 62
     5
 10
-68.0
 20
-23.0
 30
0.0
 40
4.76
  0
CIRCLE
  5
5E
  8
DETAIL
  6
CONTINUOUS
 62
     5
 10
-8.0
 20
-23.0
 30
0.0
 40
4.76
  0
CIRCLE
  5
5F
  8
DETAIL
  6
CONTINUOUS
 62
     5
 10
-128.0
 20
-23.0
 30
0.0
 40
4.76
  0
CIRCLE
  5
60
  8
DETAIL
  6
CONTINUOUS
 62
     5
 10
-188.0
 20
-23.0
 30
0.0
 40
4.76
  0
LINE
  5
61
  8
DETAIL
  6
CONTINUOUS
 62
     5
 10
-174.0
 20
-22.6
 30
0.0
 11
-174.0
 21
-42.6
 31
0.0
  0
LINE
  5
62
  8
DETAIL
  6
CONTINUOUS
 62
     5
 10
-202.0
 20
-22.6
 30
0.0
 11
-202.0
 21
-42.6
 31
0.0
  0
LINE
  5
63
  8
NOTE
  6
CONTINUOUS
 62
     4
 10
-188.0
 20
-34.000316
 30
0.0
 11
-188.0
 21
-11.999684
 31
0.0
  0
CIRCLE
  5
64
  8
DETAIL
  6
CONTINUOUS
 62
     5
 10
-188.0
 20
-23.0
 30
0.0
 40
8.000316
  0
LINE
  5
65
  8
DETAIL
  6
CONTINUOUS
 62
     5
 10
-193.485266
 20
-32.500759
 30
0.0
 11
-198.970532
 21
-23.0
 31
0.0
  0
LINE
  5
66
  8
DETAIL
  6
CONTINUOUS
 62
     5
 10
-177.029468
 20
-23.0
 30
0.0
 11
-182.514734
 21
-32.500759
 31
0.0
  0
LINE
  5
67
  8
DETAIL
  6
CONTINUOUS
 62
     5
 10
-142.0
 20
-22.6
 30
0.0
 11
-142.0
 21
-42.6
 31
0.0
  0
LINE
  5
68
  8
DETAIL
  6
CONTINUOUS
 62
     5
 10
-114.0
 20
-22.6
 30
0.0
 11
-114.0
 21
-42.6
 31
0.0
  0
LINE
  5
69
  8
DETAIL
  6
CONTINUOUS
 62
     5
 10
-117.029468
 20
-23.0
 30
0.0
 11
-122.514734
 21
-32.500759
 31
0.0
  0
LINE
  5
6A
  8
DETAIL
  6
CONTINUOUS
 62
     5
 10
-133.485266
 20
-32.500759
 30
0.0
 11
-138.970532
 21
-23.0
 31
0.0
  0
CIRCLE
  5
6B
  8
DETAIL
  6
CONTINUOUS
 62
     5
 10
-128.0
 20
-23.0
 30
0.0
 40
8.000316
  0
LINE
  5
6C
  8
NOTE
  6
CONTINUOUS
 62
     4
 10
-128.0
 20
-34.000316
 30
0.0
 11
-128.0
 21
-11.999684
 31
0.0
  0
LINE
  5
6D
  8
DETAIL
  6
CONTINUOUS
 62
     5
 10
-82.0
 20
-22.6
 30
0.0
 11
-82.0
 21
-42.6
 31
0.0
  0
LINE
  5
6E
  8
DETAIL
  6
CONTINUOUS
 62
     5
 10
-54.0
 20
-22.6
 30
0.0
 11
-54.0
 21
-42.6
 31
0.0
  0
LINE
  5
6F
  8
DETAIL
  6
CONTINUOUS
 62
     5
 10
-57.029468
 20
-23.0
 30
0.0
 11
-62.514734
 21
-32.500759
 31
0.0
  0
LINE
  5
70
  8
DETAIL
  6
CONTINUOUS
 62
     5
 10
-73.485266
 20
-32.500759
 30
0.0
 11
-78.970532
 21
-23.0
 31
0.0
  0
CIRCLE
  5
71
  8
DETAIL
  6
CONTINUOUS
 62
     5
 10
-68.0
 20
-23.0
 30
0.0
 40
8.000316
  0
LINE
  5
72
  8
NOTE
  6
CONTINUOUS
 62
     4
 10
-68.0
 20
-34.000316
 30
0.0
 11
-68.0
 21
-11.999684
 31
0.0
  0
LINE
  5
73
  8
DETAIL
  6
CONTINUOUS
 62
     5
 10
-22.0
 20
-22.6
 30
0.0
 11
-22.0
 21
-42.6
 31
0.0
  0
LINE
  5
74
  8
DETAIL
  6
CONTINUOUS
 62
     5
 10
6.0
 20
-22.6
 30
0.0
 11
6.0
 21
-42.6
 31
0.0
  0
LINE
  5
75
  8
DETAIL
  6
CONTINUOUS
 62
     5
 10
2.970532
 20
-23.0
 30
0.0
 11
-2.514734
 21
-32.500759
 31
0.0
  0
LINE
  5
76
  8
DETAIL
  6
CONTINUOUS
 62
     5
 10
-13.485266
 20
-32.500759
 30
0.0
 11
-18.970532
 21
-23.0
 31
0.0
  0
CIRCLE
  5
77
  8
DETAIL
  6
CONTINUOUS
 62
     5
 10
-8.0
 20
-23.0
 30
0.0
 40
8.000316
  0
LINE
  5
78
  8
NOTE
  6
CONTINUOUS
 62
     4
 10
-8.0
 20
-34.000316
 30
0.0
 11
-8.0
 21
-11.999684
 31
0.0
  0
LINE
  5
79
  8
DETAIL
  6
CONTINUOUS
 62
     5
 10
38.0
 20
-22.6
 30
0.0
 11
38.0
 21
-42.6
 31
0.0
  0
LINE
  5
7A
  8
DETAIL
  6
CONTINUOUS
 62
     5
 10
66.0
 20
-22.6
 30
0.0
 11
66.0
 21
-42.6
 31
0.0
  0
LINE
  5
7B
  8
DETAIL
  6
CONTINUOUS
 62
     5
 10
62.970532
 20
-23.0
 30
0.0
 11
57.485266
 21
-32.500759
 31
0.0
  0
LINE
  5
7C
  8
DETAIL
  6
CONTINUOUS
 62
     5
 10
46.514734
 20
-32.500759
 30
0.0
 11
41.029468
 21
-23.0
 31
0.0
  0
CIRCLE
  5
7D
  8
DETAIL
  6
CONTINUOUS
 62
     5
 10
52.0
 20
-23.0
 30
0.0
 40
8.000316
  0
LINE
  5
7E
  8
NOTE
  6
CONTINUOUS
 62
     4
 10
52.0
 20
-34.000316
 30
0.0
 11
52.0
 21
-11.999684
 31
0.0
  0
LINE
  5
7F
  8
DETAIL
  6
CONTINUOUS
 62
     5
 10
-60.44981
 20
-139.922686
 30
0.0
 11
-75.55019
 21
-139.922686
 31
0.0
  0
CIRCLE
  5
80
  8
DETAIL
  6
CONTINUOUS
 62
     5
 10
-68.0
 20
-153.0
 30
0.0
 40
7.94
  0
ARC
  5
81
  8
DETAIL
  6
CONTINUOUS
 62
     5
 10
-68.0
 20
-153.0
 30
0.0
 40
17.0
 50
0.0
 51
180.0
  0
LINE
  5
82
  8
NOTE
  6
CONTINUOUS
 62
     4
 10
-53.899558
 20
-153.0
 30
0.0
 11
-82.100442
 21
-153.0
 31
0.0
  0
CIRCLE
  5
83
  8
DETAIL
  6
CONTINUOUS
 62
     5
 10
-68.0
 20
-153.0
 30
0.0
 40
11.100442
  0
LINE
  5
84
  8
DETAIL
  6
CONTINUOUS
 62
     5
 10
-82.0
 20
-37.0
 30
0.0
 11
-54.0
 21
-37.0
 31
0.0
  0
LINE
  5
85
  8
DETAIL
  6
CONTINUOUS
 62
     5
 10
-75.55019
 20
-166.077314
 30
0.0
 11
-60.44981
 21
-166.077314
 31
0.0
  0
LINE
  5
86
  8
DETAIL
  6
CONTINUOUS
 62
     5
 10
-62.514734
 20
-32.500759
 30
0.0
 11
-73.485266
 21
-32.500759
 31
0.0
  0
LINE
  5
87
  8
DETAIL
  6
CONTINUOUS
 62
     5
 10
-111.0
 20
-45.6
 30
0.0
 11
-85.0
 21
-45.6
 31
0.0
  0
LINE
  5
88
  8
DETAIL
  6
CONTINUOUS
 62
     5
 10
-172.899619
 20
-153.0
 30
0.0
 11
-180.44981
 21
-139.922686
 31
0.0
  0
ARC
  5
89
  8
DETAIL
  6
CONTINUOUS
 62
     5
 10
-128.0
 20
-153.0
 30
0.0
 40
17.0
 50
0.0
 51
180.0
  0
LINE
  5
8A
  8
NOTE
  6
CONTINUOUS
 62
     4
 10
-113.899558
 20
-153.0
 30
0.0
 11
-142.100442
 21
-153.0
 31
0.0
  0
LINE
  5
8B
  8
DETAIL
  6
CONTINUOUS
 62
     5
 10
-120.44981
 20
-139.922686
 30
0.0
 11
-135.55019
 21
-139.922686
 31
0.0
  0
CIRCLE
  5
8C
  8
DETAIL
  6
CONTINUOUS
 62
     5
 10
-128.0
 20
-153.0
 30
0.0
 40
11.100442
  0
LINE
  5
8D
  8
DETAIL
  6
CONTINUOUS
 62
     5
 10
-135.55019
 20
-139.922686
 30
0.0
 11
-143.100381
 21
-153.0
 31
0.0
  0
LINE
  5
8E
  8
DETAIL
  6
CONTINUOUS
 62
     5
 10
-112.899619
 20
-153.0
 30
0.0
 11
-120.44981
 21
-139.922686
 31
0.0
  0
LINE
  5
8F
  8
DETAIL
  6
CONTINUOUS
 62
     5
 10
-171.0
 20
-45.6
 30
0.0
 11
-145.0
 21
-45.6
 31
0.0
  0
LINE
  5
90
  8
DETAIL
  6
CONTINUOUS
 62
     5
 10
-171.0
 20
-45.6
 30
0.0
 11
-174.0
 21
-42.6
 31
0.0
  0
LINE
  5
91
  8
DETAIL
  6
CONTINUOUS
 62
     5
 10
-142.0
 20
-37.0
 30
0.0
 11
-114.0
 21
-37.0
 31
0.0
  0
LINE
  5
92
  8
DETAIL
  6
CONTINUOUS
 62
     5
 10
-142.0
 20
-42.6
 30
0.0
 11
-145.0
 21
-45.6
 31
0.0
  0
LINE
  5
93
  8
DETAIL
  6
CONTINUOUS
 62
     5
 10
-122.514734
 20
-32.500759
 30
0.0
 11
-133.485266
 21
-32.500759
 31
0.0
  0
LINE
  5
94
  8
DETAIL
  6
CONTINUOUS
 62
     5
 10
-111.0
 20
-45.6
 30
0.0
 11
-114.0
 21
-42.6
 31
0.0
  0
LINE
  5
95
  8
DETAIL
  6
CONTINUOUS
 62
     5
 10
-82.0
 20
-42.6
 30
0.0
 11
-85.0
 21
-45.6
 31
0.0
  0
CIRCLE
  5
96
  8
DETAIL
  6
CONTINUOUS
 62
     5
 10
-128.0
 20
-153.0
 30
0.0
 40
7.94
  0
LINE
  5
97
  8
DETAIL
  6
CONTINUOUS
 62
     5
 10
-75.55019
 20
-139.922686
 30
0.0
 11
-83.100381
 21
-153.0
 31
0.0
  0
LINE
  5
98
  8
DETAIL
  6
CONTINUOUS
 62
     5
 10
-135.55019
 20
-166.077314
 30
0.0
 11
-120.44981
 21
-166.077314
 31
0.0
  0
LINE
  5
99
  8
DETAIL
  6
CONTINUOUS
 62
     5
 10
-85.0
 20
-153.0
 30
0.0
 11
-85.0
 21
-168.6
 31
0.0
  0
LINE
  5
9A
  8
DETAIL
  6
CONTINUOUS
 62
     5
 10
-145.0
 20
-153.0
 30
0.0
 11
-145.0
 21
-168.6
 31
0.0
  0
LINE
  5
9B
  8
DETAIL
  6
CONTINUOUS
 62
     5
 10
-111.0
 20
-168.6
 30
0.0
 11
-111.0
 21
-153.0
 31
0.0
  0
LINE
  5
9C
  8
DETAIL
  6
CONTINUOUS
 62
     5
 10
-171.0
 20
-168.6
 30
0.0
 11
-171.0
 21
-153.0
 31
0.0
  0
LINE
  5
9D
  8
NOTE
  6
CONTINUOUS
 62
     4
 10
-68.0
 20
-138.899558
 30
0.0
 11
-68.0
 21
-167.100442
 31
0.0
  0
LINE
  5
9E
  8
DETAIL
  6
CONTINUOUS
 62
     5
 10
-83.100381
 20
-153.0
 30
0.0
 11
-75.55019
 21
-166.077314
 31
0.0
  0
LINE
  5
9F
  8
NOTE
  6
CONTINUOUS
 62
     4
 10
-128.0
 20
-138.899558
 30
0.0
 11
-128.0
 21
-167.100442
 31
0.0
  0
LINE
  5
A0
  8
DETAIL
  6
CONTINUOUS
 62
     5
 10
-112.899619
 20
-153.0
 30
0.0
 11
-120.44981
 21
-166.077314
 31
0.0
  0
LINE
  5
A1
  8
DETAIL
  6
CONTINUOUS
 62
     5
 10
-143.100381
 20
-153.0
 30
0.0
 11
-135.55019
 21
-166.077314
 31
0.0
  0
LINE
  5
A2
  8
DETAIL
  6
CONTINUOUS
 62
     5
 10
-172.899619
 20
-153.0
 30
0.0
 11
-180.44981
 21
-166.077314
 31
0.0
  0
LINE
  5
A3
  8
DETAIL
  6
CONTINUOUS
 62
     5
 10
-195.55019
 20
-139.922686
 30
0.0
 11
-203.100381
 21
-153.0
 31
0.0
  0
LINE
  5
A4
  8
DETAIL
  6
CONTINUOUS
 62
     5
 10
-202.0
 20
-42.6
 30
0.0
 11
-205.0
 21
-45.6
 31
0.0
  0
LINE
  5
A5
  8
DETAIL
  6
CONTINUOUS
 62
     5
 10
-205.0
 20
-153.0
 30
0.0
 11
-205.0
 21
-168.6
 31
0.0
  0
LINE
  5
A6
  8
NOTE
  6
CONTINUOUS
 62
     4
 10
-188.0
 20
-138.899558
 30
0.0
 11
-188.0
 21
-167.100442
 31
0.0
  0
LINE
  5
A7
  8
DETAIL
  6
CONTINUOUS
 62
     5
 10
-203.100381
 20
-153.0
 30
0.0
 11
-195.55019
 21
-166.077314
 31
0.0
  0
LINE
  5
A8
  8
DETAIL
  6
CONTINUOUS
 62
     5
 10
-195.55019
 20
-166.077314
 30
0.0
 11
-180.44981
 21
-166.077314
 31
0.0
  0
ARC
  5
A9
  8
DETAIL
  6
CONTINUOUS
 62
     5
 10
-188.0
 20
-153.0
 30
0.0
 40
17.0
 50
0.0
 51
180.0
  0
LINE
  5
AA
  8
NOTE
  6
CONTINUOUS
 62
     4
 10
-173.899558
 20
-153.0
 30
0.0
 11
-202.100442
 21
-153.0
 31
0.0
  0
LINE
  5
AB
  8
DETAIL
  6
CONTINUOUS
 62
     5
 10
-180.44981
 20
-139.922686
 30
0.0
 11
-195.55019
 21
-139.922686
 31
0.0
  0
CIRCLE
  5
AC
  8
DETAIL
  6
CONTINUOUS
 62
     5
 10
-188.0
 20
-153.0
 30
0.0
 40
11.100442
  0
LINE
  5
AD
  8
DETAIL
  6
CONTINUOUS
 62
     5
 10
-202.0
 20
-37.0
 30
0.0
 11
-174.0
 21
-37.0
 31
0.0
  0
LINE
  5
AE
  8
DETAIL
  6
CONTINUOUS
 62
     5
 10
-182.514734
 20
-32.500759
 30
0.0
 11
-193.485266
 21
-32.500759
 31
0.0
  0
CIRCLE
  5
AF
  8
DETAIL
  6
CONTINUOUS
 62
     5
 10
-188.0
 20
-153.0
 30
0.0
 40
7.94
  0
LINE
  5
B0
  8
DETAIL
  6
CONTINUOUS
 62
     5
 10
38.0
 20
-37.0
 30
0.0
 11
66.0
 21
-37.0
 31
0.0
  0
LINE
  5
B1
  8
DETAIL
  6
CONTINUOUS
 62
     5
 10
38.0
 20
-42.6
 30
0.0
 11
35.0
 21
-45.6
 31
0.0
  0
LINE
  5
B2
  8
DETAIL
  6
CONTINUOUS
 62
     5
 10
57.485266
 20
-32.500759
 30
0.0
 11
46.514734
 21
-32.500759
 31
0.0
  0
LINE
  5
B3
  8
DETAIL
  6
CONTINUOUS
 62
     5
 10
69.0
 20
-45.6
 30
0.0
 11
66.0
 21
-42.6
 31
0.0
  0
ARC
  5
B4
  8
DETAIL
  6
CONTINUOUS
 62
     5
 10
52.0
 20
-153.0
 30
0.0
 40
17.0
 50
0.0
 51
180.0
  0
LINE
  5
B5
  8
NOTE
  6
CONTINUOUS
 62
     4
 10
66.100442
 20
-153.0
 30
0.0
 11
37.899558
 21
-153.0
 31
0.0
  0
LINE
  5
B6
  8
DETAIL
  6
CONTINUOUS
 62
     5
 10
67.100381
 20
-153.0
 30
0.0
 11
59.55019
 21
-139.922686
 31
0.0
  0
LINE
  5
B7
  8
DETAIL
  6
CONTINUOUS
 62
     5
 10
59.55019
 20
-139.922686
 30
0.0
 11
44.44981
 21
-139.922686
 31
0.0
  0
LINE
  5
B8
  8
DETAIL
  6
CONTINUOUS
 62
     5
 10
44.44981
 20
-139.922686
 30
0.0
 11
36.899619
 21
-153.0
 31
0.0
  0
CIRCLE
  5
B9
  8
DETAIL
  6
CONTINUOUS
 62
     5
 10
52.0
 20
-153.0
 30
0.0
 40
11.100442
  0
CIRCLE
  5
BA
  8
DETAIL
  6
CONTINUOUS
 62
     5
 10
52.0
 20
-153.0
 30
0.0
 40
7.94
  0
LINE
  5
BB
  8
DETAIL
  6
CONTINUOUS
 62
     5
 10
44.44981
 20
-166.077314
 30
0.0
 11
59.55019
 21
-166.077314
 31
0.0
  0
LINE
  5
BC
  8
DETAIL
  6
CONTINUOUS
 62
     5
 10
35.0
 20
-153.0
 30
0.0
 11
35.0
 21
-168.6
 31
0.0
  0
LINE
  5
BD
  8
DETAIL
  6
CONTINUOUS
 62
     5
 10
69.0
 20
-168.6
 30
0.0
 11
69.0
 21
-153.0
 31
0.0
  0
LINE
  5
BE
  8
NOTE
  6
CONTINUOUS
 62
     4
 10
52.0
 20
-138.899558
 30
0.0
 11
52.0
 21
-167.100442
 31
0.0
  0
LINE
  5
BF
  8
DETAIL
  6
CONTINUOUS
 62
     5
 10
67.100381
 20
-153.0
 30
0.0
 11
59.55019
 21
-166.077314
 31
0.0
  0
LINE
  5
C0
  8
DETAIL
  6
CONTINUOUS
 62
     5
 10
36.899619
 20
-153.0
 30
0.0
 11
44.44981
 21
-166.077314
 31
0.0
  0
LINE
  5
C1
  8
DETAIL
  6
CONTINUOUS
 62
     5
 10
-52.899619
 20
-153.0
 30
0.0
 11
-60.44981
 21
-139.922686
 31
0.0
  0
LINE
  5
C2
  8
DETAIL
  6
CONTINUOUS
 62
     5
 10
-51.0
 20
-45.6
 30
0.0
 11
-54.0
 21
-42.6
 31
0.0
  0
LINE
  5
C3
  8
DETAIL
  6
CONTINUOUS
 62
     5
 10
-51.0
 20
-45.6
 30
0.0
 11
-25.0
 21
-45.6
 31
0.0
  0
ARC
  5
C4
  8
DETAIL
  6
CONTINUOUS
 62
     5
 10
-8.0
 20
-153.0
 30
0.0
 40
17.0
 50
0.0
 51
180.0
  0
LINE
  5
C5
  8
NOTE
  6
CONTINUOUS
 62
     4
 10
6.100442
 20
-153.0
 30
0.0
 11
-22.100442
 21
-153.0
 31
0.0
  0
LINE
  5
C6
  8
DETAIL
  6
CONTINUOUS
 62
     5
 10
7.100381
 20
-153.0
 30
0.0
 11
-0.44981
 21
-139.922686
 31
0.0
  0
LINE
  5
C7
  8
DETAIL
  6
CONTINUOUS
 62
     5
 10
-0.44981
 20
-139.922686
 30
0.0
 11
-15.55019
 21
-139.922686
 31
0.0
  0
LINE
  5
C8
  8
DETAIL
  6
CONTINUOUS
 62
     5
 10
-15.55019
 20
-139.922686
 30
0.0
 11
-23.100381
 21
-153.0
 31
0.0
  0
CIRCLE
  5
C9
  8
DETAIL
  6
CONTINUOUS
 62
     5
 10
-8.0
 20
-153.0
 30
0.0
 40
11.100442
  0
LINE
  5
CA
  8
DETAIL
  6
CONTINUOUS
 62
     5
 10
-22.0
 20
-37.0
 30
0.0
 11
6.0
 21
-37.0
 31
0.0
  0
LINE
  5
CB
  8
DETAIL
  6
CONTINUOUS
 62
     5
 10
-22.0
 20
-42.6
 30
0.0
 11
-25.0
 21
-45.6
 31
0.0
  0
LINE
  5
CC
  8
DETAIL
  6
CONTINUOUS
 62
     5
 10
-2.514734
 20
-32.500759
 30
0.0
 11
-13.485266
 21
-32.500759
 31
0.0
  0
LINE
  5
CD
  8
DETAIL
  6
CONTINUOUS
 62
     5
 10
9.0
 20
-45.6
 30
0.0
 11
6.0
 21
-42.6
 31
0.0
  0
CIRCLE
  5
CE
  8
DETAIL
  6
CONTINUOUS
 62
     5
 10
-8.0
 20
-153.0
 30
0.0
 40
7.94
  0
LINE
  5
CF
  8
DETAIL
  6
CONTINUOUS
 62
     5
 10
-15.55019
 20
-166.077314
 30
0.0
 11
-0.44981
 21
-166.077314
 31
0.0
  0
LINE
  5
D0
  8
DETAIL
  6
CONTINUOUS
 62
     5
 10
-51.0
 20
-168.6
 30
0.0
 11
-51.0
 21
-153.0
 31
0.0
  0
LINE
  5
D1
  8
DETAIL
  6
CONTINUOUS
 62
     5
 10
-52.899619
 20
-153.0
 30
0.0
 11
-60.44981
 21
-166.077314
 31
0.0
  0
LINE
  5
D2
  8
DETAIL
  6
CONTINUOUS
 62
     5
 10
-25.0
 20
-153.0
 30
0.0
 11
-25.0
 21
-168.6
 31
0.0
  0
LINE
  5
D3
  8
DETAIL
  6
CONTINUOUS
 62
     5
 10
9.0
 20
-168.6
 30
0.0
 11
9.0
 21
-153.0
 31
0.0
  0
LINE
  5
D4
  8
NOTE
  6
CONTINUOUS
 62
     4
 10
-8.0
 20
-138.899558
 30
0.0
 11
-8.0
 21
-167.100442
 31
0.0
  0
LINE
  5
D5
  8
DETAIL
  6
CONTINUOUS
 62
     5
 10
7.100381
 20
-153.0
 30
0.0
 11
-0.44981
 21
-166.077314
 31
0.0
  0
LINE
  5
D6
  8
DETAIL
  6
CONTINUOUS
 62
     5
 10
-23.100381
 20
-153.0
 30
0.0
 11
-15.55019
 21
-166.077314
 31
0.0
  0
LINE
  5
D7
  8
DETAIL
  6
CONTINUOUS
 62
     5
 10
9.0
 20
-45.6
 30
0.0
 11
35.0
 21
-45.6
 31
0.0
  0
LINE
  5
D8
  8
DETAIL
  6
CONTINUOUS
 62
     5
 10
-62.514734
 20
-13.499241
 30
0.0
 11
-57.029468
 21
-23.0
 31
0.0
  0
ARC
  5
D9
  8
DETAIL
  6
CONTINUOUS
 62
     5
 10
-68.0
 20
-23.0
 30
0.0
 40
14.0
 50
0.0
 51
180.0
  0
LINE
  5
DA
  8
NOTE
  6
CONTINUOUS
 62
     4
 10
-56.999684
 20
-23.0
 30
0.0
 11
-79.000316
 21
-23.0
 31
0.0
  0
LINE
  5
DB
  8
DETAIL
  6
CONTINUOUS
 62
     5
 10
-73.485266
 20
-13.499241
 30
0.0
 11
-62.514734
 21
-13.499241
 31
0.0
  0
LINE
  5
DC
  8
DETAIL
  6
CONTINUOUS
 62
     5
 10
-177.029468
 20
-23.0
 30
0.0
 11
-182.514734
 21
-13.499241
 31
0.0
  0
ARC
  5
DD
  8
DETAIL
  6
CONTINUOUS
 62
     5
 10
-128.0
 20
-23.0
 30
0.0
 40
14.0
 50
0.0
 51
180.0
  0
LINE
  5
DE
  8
DETAIL
  6
CONTINUOUS
 62
     5
 10
-117.029468
 20
-23.0
 30
0.0
 11
-122.514734
 21
-13.499241
 31
0.0
  0
LINE
  5
DF
  8
NOTE
  6
CONTINUOUS
 62
     4
 10
-116.999684
 20
-23.0
 30
0.0
 11
-139.000316
 21
-23.0
 31
0.0
  0
LINE
  5
E0
  8
DETAIL
  6
CONTINUOUS
 62
     5
 10
-138.970532
 20
-23.0
 30
0.0
 11
-133.485266
 21
-13.499241
 31
0.0
  0
LINE
  5
E1
  8
DETAIL
  6
CONTINUOUS
 62
     5
 10
-133.485266
 20
-13.499241
 30
0.0
 11
-122.514734
 21
-13.499241
 31
0.0
  0
LINE
  5
E2
  8
DETAIL
  6
CONTINUOUS
 62
     5
 10
-78.970532
 20
-23.0
 30
0.0
 11
-73.485266
 21
-13.499241
 31
0.0
  0
LINE
  5
E3
  8
DETAIL
  6
CONTINUOUS
 62
     5
 10
-198.970532
 20
-23.0
 30
0.0
 11
-193.485266
 21
-13.499241
 31
0.0
  0
POINT
  5
E4
  8
DEFPOINTS
  6
CONTINUOUS
 62
     7
 10
-188.0
 20
-23.0
 30
0.0
  0
ARC
  5
E5
  8
DETAIL
  6
CONTINUOUS
 62
     5
 10
-188.0
 20
-23.0
 30
0.0
 40
14.0
 50
0.0
 51
180.0
  0
LINE
  5
E6
  8
NOTE
  6
CONTINUOUS
 62
     4
 10
-176.999684
 20
-23.0
 30
0.0
 11
-199.000316
 21
-23.0
 31
0.0
  0
LINE
  5
E7
  8
DETAIL
  6
CONTINUOUS
 62
     5
 10
-193.485266
 20
-13.499241
 30
0.0
 11
-182.514734
 21
-13.499241
 31
0.0
  0
ARC
  5
E8
  8
DETAIL
  6
CONTINUOUS
 62
     5
 10
52.0
 20
-23.0
 30
0.0
 40
14.0
 50
0.0
 51
180.0
  0
LINE
  5
E9
  8
DETAIL
  6
CONTINUOUS
 62
     5
 10
41.029468
 20
-23.0
 30
0.0
 11
46.514734
 21
-13.499241
 31
0.0
  0
LINE
  5
EA
  8
DETAIL
  6
CONTINUOUS
 62
     5
 10
46.514734
 20
-13.499241
 30
0.0
 11
57.485266
 21
-13.499241
 31
0.0
  0
LINE
  5
EB
  8
NOTE
  6
CONTINUOUS
 62
     4
 10
63.000316
 20
-23.0
 30
0.0
 11
40.999684
 21
-23.0
 31
0.0
  0
LINE
  5
EC
  8
DETAIL
  6
CONTINUOUS
 62
     5
 10
57.485266
 20
-13.499241
 30
0.0
 11
62.970532
 21
-23.0
 31
0.0
  0
ARC
  5
ED
  8
DETAIL
  6
CONTINUOUS
 62
     5
 10
-8.0
 20
-23.0
 30
0.0
 40
14.0
 50
0.0
 51
180.0
  0
LINE
  5
EE
  8
DETAIL
  6
CONTINUOUS
 62
     5
 10
-18.970532
 20
-23.0
 30
0.0
 11
-13.485266
 21
-13.499241
 31
0.0
  0
LINE
  5
EF
  8
DETAIL
  6
CONTINUOUS
 62
     5
 10
-13.485266
 20
-13.499241
 30
0.0
 11
-2.514734
 21
-13.499241
 31
0.0
  0
LINE
  5
F0
  8
NOTE
  6
CONTINUOUS
 62
     4
 10
3.000316
 20
-23.0
 30
0.0
 11
-19.000316
 21
-23.0
 31
0.0
  0
LINE
  5
F1
  8
DETAIL
  6
CONTINUOUS
 62
     5
 10
-2.514734
 20
-13.499241
 30
0.0
 11
2.970532
 21
-23.0
 31
0.0
  0
CIRCLE
  5
F9
  8
DETAIL
  6
CONTINUOUS
 62
     5
 10
172.0
 20
-23.0
 30
0.0
 40
4.76
  0
CIRCLE
  5
FB
  8
DETAIL
  6
CONTINUOUS
 62
     5
 10
112.0
 20
-23.0
 30
0.0
 40
4.76
  0
LINE
  5
FC
  8
DETAIL
  6
CONTINUOUS
 62
     5
 10
98.0
 20
-22.6
 30
0.0
 11
98.0
 21
-42.6
 31
0.0
  0
LINE
  5
FD
  8
DETAIL
  6
CONTINUOUS
 62
     5
 10
126.0
 20
-22.6
 30
0.0
 11
126.0
 21
-42.6
 31
0.0
  0
LINE
  5
FE
  8
DETAIL
  6
CONTINUOUS
 62
     5
 10
122.970532
 20
-23.0
 30
0.0
 11
117.485266
 21
-32.500759
 31
0.0
  0
LINE
  5
FF
  8
DETAIL
  6
CONTINUOUS
 62
     5
 10
106.514734
 20
-32.500759
 30
0.0
 11
101.029468
 21
-23.0
 31
0.0
  0
CIRCLE
  5
100
  8
DETAIL
  6
CONTINUOUS
 62
     5
 10
112.0
 20
-23.0
 30
0.0
 40
8.000316
  0
LINE
  5
101
  8
NOTE
  6
CONTINUOUS
 62
     4
 10
112.0
 20
-34.000316
 30
0.0
 11
112.0
 21
-11.999684
 31
0.0
  0
LINE
  5
102
  8
DETAIL
  6
CONTINUOUS
 62
     5
 10
158.0
 20
-22.6
 30
0.0
 11
158.0
 21
-42.6
 31
0.0
  0
LINE
  5
103
  8
DETAIL
  6
CONTINUOUS
 62
     5
 10
186.0
 20
-22.6
 30
0.0
 11
186.0
 21
-42.6
 31
0.0
  0
LINE
  5
104
  8
DETAIL
  6
CONTINUOUS
 62
     5
 10
182.970532
 20
-23.0
 30
0.0
 11
177.485266
 21
-32.500759
 31
0.0
  0
LINE
  5
105
  8
DETAIL
  6
CONTINUOUS
 62
     5
 10
166.514734
 20
-32.500759
 30
0.0
 11
161.029468
 21
-23.0
 31
0.0
  0
CIRCLE
  5
106
  8
DETAIL
  6
CONTINUOUS
 62
     5
 10
172.0
 20
-23.0
 30
0.0
 40
8.000316
  0
LINE
  5
107
  8
NOTE
  6
CONTINUOUS
 62
     4
 10
172.0
 20
-34.000316
 30
0.0
 11
172.0
 21
-11.999684
 31
0.0
  0
CIRCLE
  5
10E
  8
ARRANGE
  6
CONTINUOUS
 62
     1
 10
0.0
 20
0.0
 30
0.0
 40
40.0
  0
POINT
  5
10F
  8
ARRANGE
  6
CONTINUOUS
 62
     1
 10
0.0
 20
0.0
 30
0.0
  0
LINE
  5
117
  8
DETAIL
  6
CONTINUOUS
 62
     5
 10
158.0
 20
-37.0
 30
0.0
 11
186.0
 21
-37.0
 31
0.0
  0
LINE
  5
118
  8
DETAIL
  6
CONTINUOUS
 62
     5
 10
158.0
 20
-42.6
 30
0.0
 11
155.0
 21
-45.6
 31
0.0
  0
LINE
  5
119
  8
DETAIL
  6
CONTINUOUS
 62
     5
 10
177.485266
 20
-32.500759
 30
0.0
 11
166.514734
 21
-32.500759
 31
0.0
  0
LINE
  5
11A
  8
DETAIL
  6
CONTINUOUS
 62
     5
 10
189.0
 20
-45.6
 30
0.0
 11
186.0
 21
-42.6
 31
0.0
  0
ARC
  5
11B
  8
DETAIL
  6
CONTINUOUS
 62
     5
 10
172.0
 20
-153.0
 30
0.0
 40
17.0
 50
0.0
 51
180.0
  0
LINE
  5
11C
  8
NOTE
  6
CONTINUOUS
 62
     4
 10
186.100442
 20
-153.0
 30
0.0
 11
157.899558
 21
-153.0
 31
0.0
  0
LINE
  5
11D
  8
DETAIL
  6
CONTINUOUS
 62
     5
 10
187.100381
 20
-153.0
 30
0.0
 11
179.55019
 21
-139.922686
 31
0.0
  0
LINE
  5
11E
  8
DETAIL
  6
CONTINUOUS
 62
     5
 10
179.55019
 20
-139.922686
 30
0.0
 11
164.44981
 21
-139.922686
 31
0.0
  0
LINE
  5
11F
  8
DETAIL
  6
CONTINUOUS
 62
     5
 10
164.44981
 20
-139.922686
 30
0.0
 11
156.899619
 21
-153.0
 31
0.0
  0
CIRCLE
  5
120
  8
DETAIL
  6
CONTINUOUS
 62
     5
 10
172.0
 20
-153.0
 30
0.0
 40
11.100442
  0
CIRCLE
  5
121
  8
DETAIL
  6
CONTINUOUS
 62
     5
 10
172.0
 20
-153.0
 30
0.0
 40
7.94
  0
LINE
  5
122
  8
DETAIL
  6
CONTINUOUS
 62
     5
 10
189.0
 20
-45.6
 30
0.0
 11
320.0
 21
-45.6
 31
0.0
  0
LINE
  5
126
  8
DETAIL
  6
CONTINUOUS
 62
     5
 10
98.0
 20
-37.0
 30
0.0
 11
126.0
 21
-37.0
 31
0.0
  0
LINE
  5
127
  8
DETAIL
  6
CONTINUOUS
 62
     5
 10
98.0
 20
-42.6
 30
0.0
 11
95.0
 21
-45.6
 31
0.0
  0
LINE
  5
128
  8
DETAIL
  6
CONTINUOUS
 62
     5
 10
117.485266
 20
-32.500759
 30
0.0
 11
106.514734
 21
-32.500759
 31
0.0
  0
LINE
  5
129
  8
DETAIL
  6
CONTINUOUS
 62
     5
 10
129.0
 20
-45.6
 30
0.0
 11
126.0
 21
-42.6
 31
0.0
  0
ARC
  5
12A
  8
DETAIL
  6
CONTINUOUS
 62
     5
 10
112.0
 20
-153.0
 30
0.0
 40
17.0
 50
0.0
 51
180.0
  0
LINE
  5
12B
  8
NOTE
  6
CONTINUOUS
 62
     4
 10
126.100442
 20
-153.0
 30
0.0
 11
97.899558
 21
-153.0
 31
0.0
  0
LINE
  5
12C
  8
DETAIL
  6
CONTINUOUS
 62
     5
 10
127.100381
 20
-153.0
 30
0.0
 11
119.55019
 21
-139.922686
 31
0.0
  0
LINE
  5
12D
  8
DETAIL
  6
CONTINUOUS
 62
     5
 10
119.55019
 20
-139.922686
 30
0.0
 11
104.44981
 21
-139.922686
 31
0.0
  0
LINE
  5
12E
  8
DETAIL
  6
CONTINUOUS
 62
     5
 10
104.44981
 20
-139.922686
 30
0.0
 11
96.899619
 21
-153.0
 31
0.0
  0
CIRCLE
  5
12F
  8
DETAIL
  6
CONTINUOUS
 62
     5
 10
112.0
 20
-153.0
 30
0.0
 40
11.100442
  0
CIRCLE
  5
130
  8
DETAIL
  6
CONTINUOUS
 62
     5
 10
112.0
 20
-153.0
 30
0.0
 40
7.94
  0
LINE
  5
131
  8
DETAIL
  6
CONTINUOUS
 62
     5
 10
129.0
 20
-45.6
 30
0.0
 11
155.0
 21
-45.6
 31
0.0
  0
LINE
  5
132
  8
DETAIL
  6
CONTINUOUS
 62
     5
 10
164.44981
 20
-166.077314
 30
0.0
 11
179.55019
 21
-166.077314
 31
0.0
  0
LINE
  5
133
  8
DETAIL
  6
CONTINUOUS
 62
     5
 10
104.44981
 20
-166.077314
 30
0.0
 11
119.55019
 21
-166.077314
 31
0.0
  0
LINE
  5
134
  8
DETAIL
  6
CONTINUOUS
 62
     5
 10
95.0
 20
-153.0
 30
0.0
 11
95.0
 21
-168.6
 31
0.0
  0
LINE
  5
135
  8
DETAIL
  6
CONTINUOUS
 62
     5
 10
129.0
 20
-168.6
 30
0.0
 11
129.0
 21
-153.0
 31
0.0
  0
LINE
  5
136
  8
NOTE
  6
CONTINUOUS
 62
     4
 10
112.0
 20
-138.899558
 30
0.0
 11
112.0
 21
-167.100442
 31
0.0
  0
LINE
  5
137
  8
DETAIL
  6
CONTINUOUS
 62
     5
 10
127.100381
 20
-153.0
 30
0.0
 11
119.55019
 21
-166.077314
 31
0.0
  0
LINE
  5
138
  8
DETAIL
  6
CONTINUOUS
 62
     5
 10
96.899619
 20
-153.0
 30
0.0
 11
104.44981
 21
-166.077314
 31
0.0
  0
LINE
  5
139
  8
DETAIL
  6
CONTINUOUS
 62
     5
 10
155.0
 20
-153.0
 30
0.0
 11
155.0
 21
-168.6
 31
0.0
  0
LINE
  5
13A
  8
DETAIL
  6
CONTINUOUS
 62
     5
 10
189.0
 20
-168.6
 30
0.0
 11
189.0
 21
-153.0
 31
0.0
  0
LINE
  5
13B
  8
NOTE
  6
CONTINUOUS
 62
     4
 10
172.0
 20
-138.899558
 30
0.0
 11
172.0
 21
-167.100442
 31
0.0
  0
LINE
  5
13C
  8
DETAIL
  6
CONTINUOUS
 62
     5
 10
187.100381
 20
-153.0
 30
0.0
 11
179.55019
 21
-166.077314
 31
0.0
  0
LINE
  5
13D
  8
DETAIL
  6
CONTINUOUS
 62
     5
 10
156.899619
 20
-153.0
 30
0.0
 11
164.44981
 21
-166.077314
 31
0.0
  0
ARC
  5
15B
  8
DETAIL
  6
CONTINUOUS
 62
     5
 10
172.0
 20
-23.0
 30
0.0
 40
14.0
 50
0.0
 51
180.0
  0
LINE
  5
15C
  8
DETAIL
  6
CONTINUOUS
 62
     5
 10
161.029468
 20
-23.0
 30
0.0
 11
166.514734
 21
-13.499241
 31
0.0
  0
LINE
  5
15D
  8
DETAIL
  6
CONTINUOUS
 62
     5
 10
166.514734
 20
-13.499241
 30
0.0
 11
177.485266
 21
-13.499241
 31
0.0
  0
LINE
  5
15E
  8
NOTE
  6
CONTINUOUS
 62
     4
 10
183.000316
 20
-23.0
 30
0.0
 11
160.999684
 21
-23.0
 31
0.0
  0
LINE
  5
15F
  8
DETAIL
  6
CONTINUOUS
 62
     5
 10
177.485266
 20
-13.499241
 30
0.0
 11
182.970532
 21
-23.0
 31
0.0
  0
ARC
  5
162
  8
DETAIL
  6
CONTINUOUS
 62
     5
 10
112.0
 20
-23.0
 30
0.0
 40
14.0
 50
0.0
 51
180.0
  0
LINE
  5
163
  8
DETAIL
  6
CONTINUOUS
 62
     5
 10
101.029468
 20
-23.0
 30
0.0
 11
106.514734
 21
-13.499241
 31
0.0
  0
LINE
  5
164
  8
DETAIL
  6
CONTINUOUS
 62
     5
 10
106.514734
 20
-13.499241
 30
0.0
 11
117.485266
 21
-13.499241
 31
0.0
  0
LINE
  5
165
  8
NOTE
  6
CONTINUOUS
 62
     4
 10
123.000316
 20
-23.0
 30
0.0
 11
100.999684
 21
-23.0
 31
0.0
  0
LINE
  5
166
  8
DETAIL
  6
CONTINUOUS
 62
     5
 10
117.485266
 20
-13.499241
 30
0.0
 11
122.970532
 21
-23.0
 31
0.0
  0
LINE
  5
16C
  8
DETAIL
  6
CONTINUOUS
 62
     5
 10
324.0
 20
0.0
 30
0.0
 11
324.0
 21
-284.0
 31
0.0
  0
LINE
  5
16D
  8
OUTLINE
  6
CONTINUOUS
 62
     3
 10
324.0
 20
0.0
 30
0.0
 11
324.0
 21
-284.0
 31
0.0
  0
LINE
  5
16E
  8
DETAIL
  6
CONTINUOUS
 62
     5
 10
324.0
 20
-41.6
 30
0.0
 11
320.0
 21
-45.6
 31
0.0
  0
LINE
  5
170
  8
DETAIL
  6
CONTINUOUS
 62
     5
 10
-520.0
 20
-301.0
 30
0.0
 11
-520.0
 21
0.0
 31
0.0
  0
LINE
  5
171
  8
DETAIL
  6
CONTINUOUS
 62
     5
 10
-520.0
 20
1.0
 30
0.0
 11
-378.138107
 21
1.0
 31
0.0
  0
LINE
  5
172
  8
DETAIL
  6
CONTINUOUS
 62
     5
 10
-378.138107
 20
-301.0
 30
0.0
 11
-520.0
 21
-301.0
 31
0.0
  0
ARC
  5
173
  8
DETAIL
  6
CONTINUOUS
 62
     5
 10
-439.294118
 20
-264.726087
 30
0.0
 40
20.051151
 50
90.563955
 51
284.925466
  0
ARC
  5
174
  8
DETAIL
  6
CONTINUOUS
 62
     5
 10
-434.327055
 20
-264.050566
 30
0.0
 40
20.051151
 50
95.730999
 51
279.758422
  0
LINE
  5
175
  8
DETAIL
  6
CONTINUOUS
 62
     5
 10
-416.713431
 20
-276.831914
 30
0.0
 11
-421.004973
 21
-282.474498
 31
0.0
  0
LINE
  5
176
  8
DETAIL
  6
CONTINUOUS
 62
     5
 10
-416.713431
 20
-276.831914
 30
0.0
 11
-420.766554
 21
-247.029538
 31
0.0
  0
LINE
  5
177
  8
DETAIL
  6
CONTINUOUS
 62
     5
 10
-420.766554
 20
-247.029538
 30
0.0
 11
-416.475012
 21
-241.386954
 31
0.0
  0
LINE
  5
178
  8
DETAIL
  6
CONTINUOUS
 62
     5
 10
-426.647556
 20
-278.182955
 30
0.0
 11
-421.004973
 21
-282.474498
 31
0.0
  0
LINE
  5
179
  8
DETAIL
  6
CONTINUOUS
 62
     5
 10
-430.70068
 20
-248.380579
 30
0.0
 11
-426.409137
 21
-242.737995
 31
0.0
  0
LINE
  5
17A
  8
DETAIL
  6
CONTINUOUS
 62
     5
 10
-426.647556
 20
-278.182955
 30
0.0
 11
-430.939099
 21
-283.825539
 31
0.0
  0
LINE
  5
17B
  8
DETAIL
  6
CONTINUOUS
 62
     5
 10
-430.939099
 20
-283.825539
 30
0.0
 11
-436.343263
 21
-244.089036
 31
0.0
  0
LINE
  5
17C
  8
DETAIL
  6
CONTINUOUS
 62
     5
 10
-426.647556
 20
-278.182955
 30
0.0
 11
-430.70068
 21
-248.380579
 31
0.0
  0
ARC
  5
17D
  8
DETAIL
  6
CONTINUOUS
 62
     5
 10
-429.359992
 20
-263.375046
 30
0.0
 40
20.051151
 50
112.002215
 51
263.487206
  0
LINE
  5
17E
  8
DETAIL
  6
CONTINUOUS
 62
     5
 10
-436.345642
 20
-244.071543
 30
0.0
 11
-430.703059
 21
-248.363085
 31
0.0
  0
ARC
  5
17F
  8
DETAIL
  6
CONTINUOUS
 62
     5
 10
-409.138892
 20
-261.022066
 30
0.0
 40
32.05507
 50
148.076005
 51
226.391175
  0
LINE
  5
180
  8
DETAIL
  6
CONTINUOUS
 62
     5
 10
-421.004973
 20
-282.474498
 30
0.0
 11
-426.409137
 21
-242.737995
 31
0.0
  0
LINE
  5
181
  8
DETAIL
  6
CONTINUOUS
 62
     5
 10
-426.409137
 20
-242.737995
 30
0.0
 11
-420.766554
 21
-247.029538
 31
0.0
  0
LINE
  5
182
  8
DETAIL
  6
CONTINUOUS
 62
     5
 10
-364.102302
 20
-276.556266
 30
0.0
 11
-364.102302
 21
-232.443734
 31
0.0
  0
LINE
  5
183
  8
DETAIL
  6
CONTINUOUS
 62
     5
 10
-364.102302
 20
-269.538363
 30
0.0
 11
-364.102302
 21
-239.461637
 31
0.0
  0
LINE
  5
184
  8
DETAIL
  6
CONTINUOUS
 62
     5
 10
-371.095926
 20
-240.274332
 30
0.0
 11
-366.804384
 21
-234.631749
 31
0.0
  0
LINE
  5
185
  8
DETAIL
  6
CONTINUOUS
 62
     5
 10
-366.804384
 20
-234.631749
 30
0.0
 11
-364.102302
 21
-236.686854
 31
0.0
  0
LINE
  5
186
  8
DETAIL
  6
CONTINUOUS
 62
     5
 10
-367.042803
 20
-270.076709
 30
0.0
 11
-364.102302
 21
-272.313146
 31
0.0
  0
LINE
  5
187
  8
DETAIL
  6
CONTINUOUS
 62
     5
 10
-371.334345
 20
-275.719292
 30
0.0
 11
-376.73851
 21
-235.98279
 31
0.0
  0
LINE
  5
188
  8
DETAIL
  6
CONTINUOUS
 62
     5
 10
-381.030052
 20
-241.625373
 30
0.0
 11
-376.73851
 21
-235.98279
 31
0.0
  0
LINE
  5
189
  8
DETAIL
  6
CONTINUOUS
 62
     5
 10
-376.73851
 20
-235.98279
 30
0.0
 11
-371.095926
 21
-240.274332
 31
0.0
  0
LINE
  5
18A
  8
DETAIL
  6
CONTINUOUS
 62
     5
 10
-367.042803
 20
-270.076709
 30
0.0
 11
-371.334345
 21
-275.719292
 31
0.0
  0
LINE
  5
18B
  8
DETAIL
  6
CONTINUOUS
 62
     5
 10
-376.976929
 20
-271.42775
 30
0.0
 11
-371.334345
 21
-275.719292
 31
0.0
  0
LINE
  5
18C
  8
DETAIL
  6
CONTINUOUS
 62
     5
 10
-367.042803
 20
-270.076709
 30
0.0
 11
-371.095926
 21
-240.274332
 31
0.0
  0
LINE
  5
18D
  8
DETAIL
  6
CONTINUOUS
 62
     5
 10
-381.268471
 20
-277.070333
 30
0.0
 11
-386.672635
 21
-237.333831
 31
0.0
  0
LINE
  5
18E
  8
DETAIL
  6
CONTINUOUS
 62
     5
 10
-390.964177
 20
-242.976414
 30
0.0
 11
-386.672635
 21
-237.333831
 31
0.0
  0
LINE
  5
18F
  8
DETAIL
  6
CONTINUOUS
 62
     5
 10
-386.672635
 20
-237.333831
 30
0.0
 11
-381.030052
 21
-241.625373
 31
0.0
  0
LINE
  5
190
  8
DETAIL
  6
CONTINUOUS
 62
     5
 10
-376.976929
 20
-271.42775
 30
0.0
 11
-381.268471
 21
-277.070333
 31
0.0
  0
LINE
  5
191
  8
DETAIL
  6
CONTINUOUS
 62
     5
 10
-386.911054
 20
-272.778791
 30
0.0
 11
-381.268471
 21
-277.070333
 31
0.0
  0
LINE
  5
192
  8
DETAIL
  6
CONTINUOUS
 62
     5
 10
-376.976929
 20
-271.42775
 30
0.0
 11
-381.030052
 21
-241.625373
 31
0.0
  0
LINE
  5
193
  8
DETAIL
  6
CONTINUOUS
 62
     5
 10
-391.202596
 20
-278.421374
 30
0.0
 11
-396.606761
 21
-238.684872
 31
0.0
  0
LINE
  5
194
  8
DETAIL
  6
CONTINUOUS
 62
     5
 10
-400.898303
 20
-244.327455
 30
0.0
 11
-396.606761
 21
-238.684872
 31
0.0
  0
LINE
  5
195
  8
DETAIL
  6
CONTINUOUS
 62
     5
 10
-396.606761
 20
-238.684872
 30
0.0
 11
-390.964177
 21
-242.976414
 31
0.0
  0
LINE
  5
196
  8
DETAIL
  6
CONTINUOUS
 62
     5
 10
-386.911054
 20
-272.778791
 30
0.0
 11
-391.202596
 21
-278.421374
 31
0.0
  0
LINE
  5
197
  8
DETAIL
  6
CONTINUOUS
 62
     5
 10
-396.84518
 20
-274.129832
 30
0.0
 11
-391.202596
 21
-278.421374
 31
0.0
  0
LINE
  5
198
  8
DETAIL
  6
CONTINUOUS
 62
     5
 10
-386.911054
 20
-272.778791
 30
0.0
 11
-390.964177
 21
-242.976414
 31
0.0
  0
LINE
  5
199
  8
DETAIL
  6
CONTINUOUS
 62
     5
 10
-396.84518
 20
-274.129832
 30
0.0
 11
-401.136722
 21
-279.772415
 31
0.0
  0
LINE
  5
19A
  8
DETAIL
  6
CONTINUOUS
 62
     5
 10
-406.779305
 20
-275.480873
 30
0.0
 11
-411.070848
 21
-281.123457
 31
0.0
  0
LINE
  5
19B
  8
DETAIL
  6
CONTINUOUS
 62
     5
 10
-406.779305
 20
-275.480873
 30
0.0
 11
-401.136722
 21
-279.772415
 31
0.0
  0
LINE
  5
19C
  8
DETAIL
  6
CONTINUOUS
 62
     5
 10
-416.713431
 20
-276.831914
 30
0.0
 11
-411.070848
 21
-281.123457
 31
0.0
  0
LINE
  5
19D
  8
DETAIL
  6
CONTINUOUS
 62
     5
 10
-401.136722
 20
-279.772415
 30
0.0
 11
-406.540886
 21
-240.035913
 31
0.0
  0
LINE
  5
19E
  8
DETAIL
  6
CONTINUOUS
 62
     5
 10
-411.070848
 20
-281.123457
 30
0.0
 11
-416.475012
 21
-241.386954
 31
0.0
  0
LINE
  5
19F
  8
DETAIL
  6
CONTINUOUS
 62
     5
 10
-396.84518
 20
-274.129832
 30
0.0
 11
-400.898303
 21
-244.327455
 31
0.0
  0
LINE
  5
1A0
  8
DETAIL
  6
CONTINUOUS
 62
     5
 10
-406.779305
 20
-275.480873
 30
0.0
 11
-410.832429
 21
-245.678496
 31
0.0
  0
LINE
  5
1A1
  8
DETAIL
  6
CONTINUOUS
 62
     5
 10
-410.832429
 20
-245.678496
 30
0.0
 11
-406.540886
 21
-240.035913
 31
0.0
  0
LINE
  5
1A2
  8
DETAIL
  6
CONTINUOUS
 62
     5
 10
-406.540886
 20
-240.035913
 30
0.0
 11
-400.898303
 21
-244.327455
 31
0.0
  0
LINE
  5
1A3
  8
DETAIL
  6
CONTINUOUS
 62
     5
 10
-416.475012
 20
-241.386954
 30
0.0
 11
-410.832429
 21
-245.678496
 31
0.0
  0
LINE
  5
1A4
  8
DETAIL
  6
CONTINUOUS
 62
     5
 10
-366.804384
 20
-234.631749
 30
0.0
 11
-364.221511
 21
-272.22248
 31
0.0
  0
LINE
  5
1A5
  8
DETAIL
  6
CONTINUOUS
 62
     5
 10
-553.585678
 20
-52.051151
 30
0.0
 11
-553.585678
 21
-11.948849
 31
0.0
  0
LINE
  5
1A6
  8
DETAIL
  6
CONTINUOUS
 62
     5
 10
-563.611253
 20
-52.051151
 30
0.0
 11
-563.611253
 21
-11.948849
 31
0.0
  0
LINE
  5
1A7
  8
DETAIL
  6
CONTINUOUS
 62
     5
 10
-573.636829
 20
-52.051151
 30
0.0
 11
-573.636829
 21
-11.948849
 31
0.0
  0
LINE
  5
1A8
  8
DETAIL
  6
CONTINUOUS
 62
     5
 10
-583.662404
 20
-52.051151
 30
0.0
 11
-583.662404
 21
-11.948849
 31
0.0
  0
LINE
  5
1A9
  8
DETAIL
  6
CONTINUOUS
 62
     5
 10
-663.867008
 20
-53.655243
 30
0.0
 11
-663.867008
 21
-9.542711
 31
0.0
  0
LINE
  5
1AA
  8
DETAIL
  6
CONTINUOUS
 62
     5
 10
-658.85422
 20
-53.655243
 30
0.0
 11
-658.85422
 21
-9.542711
 31
0.0
  0
LINE
  5
1AB
  8
DETAIL
  6
CONTINUOUS
 62
     5
 10
-593.68798
 20
-52.051151
 30
0.0
 11
-593.68798
 21
-11.948849
 31
0.0
  0
LINE
  5
1AC
  8
DETAIL
  6
CONTINUOUS
 62
     5
 10
-603.713555
 20
-52.051151
 30
0.0
 11
-603.713555
 21
-11.948849
 31
0.0
  0
LINE
  5
1AD
  8
DETAIL
  6
CONTINUOUS
 62
     5
 10
-613.73913
 20
-52.051151
 30
0.0
 11
-613.73913
 21
-11.948849
 31
0.0
  0
LINE
  5
1AE
  8
DETAIL
  6
CONTINUOUS
 62
     5
 10
-623.764706
 20
-52.051151
 30
0.0
 11
-623.764706
 21
-11.948849
 31
0.0
  0
LINE
  5
1AF
  8
DETAIL
  6
CONTINUOUS
 62
     5
 10
-633.790281
 20
-52.051151
 30
0.0
 11
-633.790281
 21
-11.948849
 31
0.0
  0
LINE
  5
1B0
  8
DETAIL
  6
CONTINUOUS
 62
     5
 10
-643.815857
 20
-52.051151
 30
0.0
 11
-643.815857
 21
-11.948849
 31
0.0
  0
LINE
  5
1B1
  8
DETAIL
  6
CONTINUOUS
 62
     5
 10
-653.841432
 20
-52.051151
 30
0.0
 11
-653.841432
 21
-11.948849
 31
0.0
  0
LINE
  5
1B2
  8
DETAIL
  6
CONTINUOUS
 62
     5
 10
-693.943734
 20
-49.043478
 30
0.0
 11
-693.943734
 21
-14.956522
 31
0.0
  0
LINE
  5
1B3
  8
DETAIL
  6
CONTINUOUS
 62
     5
 10
-548.57289
 20
-16.460358
 30
0.0
 11
-548.57289
 21
-47.539642
 31
0.0
  0
LINE
  5
1B4
  8
DETAIL
  6
CONTINUOUS
 62
     5
 10
-578.649616
 20
-47.038363
 30
0.0
 11
-578.649616
 21
-16.961637
 31
0.0
  0
LINE
  5
1B5
  8
DETAIL
  6
CONTINUOUS
 62
     5
 10
-588.675192
 20
-47.038363
 30
0.0
 11
-588.675192
 21
-16.961637
 31
0.0
  0
LINE
  5
1B6
  8
DETAIL
  6
CONTINUOUS
 62
     5
 10
-598.700767
 20
-47.038363
 30
0.0
 11
-598.700767
 21
-16.961637
 31
0.0
  0
LINE
  5
1B7
  8
DETAIL
  6
CONTINUOUS
 62
     5
 10
-608.726343
 20
-47.038363
 30
0.0
 11
-608.726343
 21
-16.961637
 31
0.0
  0
LINE
  5
1B8
  8
DETAIL
  6
CONTINUOUS
 62
     5
 10
-618.751918
 20
-47.038363
 30
0.0
 11
-618.751918
 21
-16.961637
 31
0.0
  0
LINE
  5
1B9
  8
DETAIL
  6
CONTINUOUS
 62
     5
 10
-628.777494
 20
-47.038363
 30
0.0
 11
-628.777494
 21
-16.961637
 31
0.0
  0
LINE
  5
1BA
  8
DETAIL
  6
CONTINUOUS
 62
     5
 10
-638.803069
 20
-47.038363
 30
0.0
 11
-638.803069
 21
-16.961637
 31
0.0
  0
LINE
  5
1BB
  8
DETAIL
  6
CONTINUOUS
 62
     5
 10
-648.828645
 20
-47.038363
 30
0.0
 11
-648.828645
 21
-16.961637
 31
0.0
  0
LINE
  5
1BC
  8
DETAIL
  6
CONTINUOUS
 62
     5
 10
-558.598465
 20
-47.038363
 30
0.0
 11
-558.598465
 21
-16.961637
 31
0.0
  0
LINE
  5
1BD
  8
DETAIL
  6
CONTINUOUS
 62
     5
 10
-568.624041
 20
-47.038363
 30
0.0
 11
-568.624041
 21
-16.961637
 31
0.0
  0
LINE
  5
1BE
  8
DETAIL
  6
CONTINUOUS
 62
     5
 10
-568.624041
 20
-47.038363
 30
0.0
 11
-573.636829
 21
-52.051151
 31
0.0
  0
LINE
  5
1BF
  8
DETAIL
  6
CONTINUOUS
 62
     5
 10
-578.649616
 20
-47.038363
 30
0.0
 11
-573.636829
 21
-52.051151
 31
0.0
  0
LINE
  5
1C0
  8
DETAIL
  6
CONTINUOUS
 62
     5
 10
-578.649616
 20
-47.038363
 30
0.0
 11
-583.662404
 21
-52.051151
 31
0.0
  0
LINE
  5
1C1
  8
DETAIL
  6
CONTINUOUS
 62
     5
 10
-588.675192
 20
-47.038363
 30
0.0
 11
-583.662404
 21
-52.051151
 31
0.0
  0
LINE
  5
1C2
  8
DETAIL
  6
CONTINUOUS
 62
     5
 10
-693.943734
 20
-49.043478
 30
0.0
 11
-663.867008
 21
-49.043478
 31
0.0
  0
LINE
  5
1C3
  8
DETAIL
  6
CONTINUOUS
 62
     5
 10
-663.867008
 20
-53.655243
 30
0.0
 11
-658.85422
 21
-53.655243
 31
0.0
  0
LINE
  5
1C4
  8
DETAIL
  6
CONTINUOUS
 62
     5
 10
-588.675192
 20
-47.038363
 30
0.0
 11
-593.68798
 21
-52.051151
 31
0.0
  0
LINE
  5
1C5
  8
DETAIL
  6
CONTINUOUS
 62
     5
 10
-598.700767
 20
-47.038363
 30
0.0
 11
-603.713555
 21
-52.051151
 31
0.0
  0
LINE
  5
1C6
  8
DETAIL
  6
CONTINUOUS
 62
     5
 10
-608.726343
 20
-47.038363
 30
0.0
 11
-613.73913
 21
-52.051151
 31
0.0
  0
LINE
  5
1C7
  8
DETAIL
  6
CONTINUOUS
 62
     5
 10
-618.751918
 20
-47.038363
 30
0.0
 11
-623.764706
 21
-52.051151
 31
0.0
  0
LINE
  5
1C8
  8
DETAIL
  6
CONTINUOUS
 62
     5
 10
-628.777494
 20
-47.038363
 30
0.0
 11
-633.790281
 21
-52.051151
 31
0.0
  0
LINE
  5
1C9
  8
DETAIL
  6
CONTINUOUS
 62
     5
 10
-638.803069
 20
-47.038363
 30
0.0
 11
-643.815857
 21
-52.051151
 31
0.0
  0
LINE
  5
1CA
  8
DETAIL
  6
CONTINUOUS
 62
     5
 10
-648.828645
 20
-47.038363
 30
0.0
 11
-653.841432
 21
-52.051151
 31
0.0
  0
LINE
  5
1CB
  8
DETAIL
  6
CONTINUOUS
 62
     5
 10
-598.700767
 20
-47.038363
 30
0.0
 11
-593.68798
 21
-52.051151
 31
0.0
  0
LINE
  5
1CC
  8
DETAIL
  6
CONTINUOUS
 62
     5
 10
-608.726343
 20
-47.038363
 30
0.0
 11
-603.713555
 21
-52.051151
 31
0.0
  0
LINE
  5
1CD
  8
DETAIL
  6
CONTINUOUS
 62
     5
 10
-618.751918
 20
-47.038363
 30
0.0
 11
-613.73913
 21
-52.051151
 31
0.0
  0
LINE
  5
1CE
  8
DETAIL
  6
CONTINUOUS
 62
     5
 10
-628.777494
 20
-47.038363
 30
0.0
 11
-623.764706
 21
-52.051151
 31
0.0
  0
LINE
  5
1CF
  8
DETAIL
  6
CONTINUOUS
 62
     5
 10
-638.803069
 20
-47.038363
 30
0.0
 11
-633.790281
 21
-52.051151
 31
0.0
  0
LINE
  5
1D0
  8
DETAIL
  6
CONTINUOUS
 62
     5
 10
-648.828645
 20
-47.038363
 30
0.0
 11
-643.815857
 21
-52.051151
 31
0.0
  0
LINE
  5
1D1
  8
DETAIL
  6
CONTINUOUS
 62
     5
 10
-658.85422
 20
-47.038363
 30
0.0
 11
-653.841432
 21
-52.051151
 31
0.0
  0
LINE
  5
1D2
  8
DETAIL
  6
CONTINUOUS
 62
     5
 10
-548.57289
 20
-47.038363
 30
0.0
 11
-553.585678
 21
-52.051151
 31
0.0
  0
LINE
  5
1D3
  8
DETAIL
  6
CONTINUOUS
 62
     5
 10
-558.598465
 20
-47.038363
 30
0.0
 11
-553.585678
 21
-52.051151
 31
0.0
  0
LINE
  5
1D4
  8
DETAIL
  6
CONTINUOUS
 62
     5
 10
-558.598465
 20
-47.038363
 30
0.0
 11
-563.611253
 21
-52.051151
 31
0.0
  0
LINE
  5
1D5
  8
DETAIL
  6
CONTINUOUS
 62
     5
 10
-568.624041
 20
-47.038363
 30
0.0
 11
-563.611253
 21
-52.051151
 31
0.0
  0
LINE
  5
1D6
  8
DETAIL
  6
CONTINUOUS
 62
     5
 10
-520.0
 20
-47.539642
 30
0.0
 11
-548.57289
 21
-47.539642
 31
0.0
  0
LINE
  5
1D7
  8
DETAIL
  6
CONTINUOUS
 62
     5
 10
-573.636829
 20
-11.948849
 30
0.0
 11
-568.624041
 21
-16.961637
 31
0.0
  0
LINE
  5
1D8
  8
NOTE
  6
CONTINUOUS
 62
     4
 10
-531.136604
 20
-32.0
 30
0.0
 11
-508.863396
 21
-32.0
 31
0.0
  0
LINE
  5
1D9
  8
DETAIL
  6
CONTINUOUS
 62
     5
 10
-578.649616
 20
-16.961637
 30
0.0
 11
-573.636829
 21
-11.948849
 31
0.0
  0
LINE
  5
1DA
  8
DETAIL
  6
CONTINUOUS
 62
     5
 10
-588.675192
 20
-16.961637
 30
0.0
 11
-583.662404
 21
-11.948849
 31
0.0
  0
LINE
  5
1DB
  8
DETAIL
  6
CONTINUOUS
 62
     5
 10
-583.662404
 20
-11.948849
 30
0.0
 11
-578.649616
 21
-16.961637
 31
0.0
  0
LINE
  5
1DC
  8
DETAIL
  6
CONTINUOUS
 62
     5
 10
-598.700767
 20
-16.961637
 30
0.0
 11
-593.68798
 21
-11.948849
 31
0.0
  0
LINE
  5
1DD
  8
DETAIL
  6
CONTINUOUS
 62
     5
 10
-608.726343
 20
-16.961637
 30
0.0
 11
-603.713555
 21
-11.948849
 31
0.0
  0
LINE
  5
1DE
  8
DETAIL
  6
CONTINUOUS
 62
     5
 10
-618.751918
 20
-16.961637
 30
0.0
 11
-613.73913
 21
-11.948849
 31
0.0
  0
LINE
  5
1DF
  8
DETAIL
  6
CONTINUOUS
 62
     5
 10
-628.777494
 20
-16.961637
 30
0.0
 11
-623.764706
 21
-11.948849
 31
0.0
  0
LINE
  5
1E0
  8
DETAIL
  6
CONTINUOUS
 62
     5
 10
-638.803069
 20
-16.961637
 30
0.0
 11
-633.790281
 21
-11.948849
 31
0.0
  0
LINE
  5
1E1
  8
DETAIL
  6
CONTINUOUS
 62
     5
 10
-648.828645
 20
-16.961637
 30
0.0
 11
-643.815857
 21
-11.948849
 31
0.0
  0
LINE
  5
1E2
  8
DETAIL
  6
CONTINUOUS
 62
     5
 10
-658.85422
 20
-16.961637
 30
0.0
 11
-653.841432
 21
-11.948849
 31
0.0
  0
LINE
  5
1E3
  8
DETAIL
  6
CONTINUOUS
 62
     5
 10
-593.68798
 20
-11.948849
 30
0.0
 11
-588.675192
 21
-16.961637
 31
0.0
  0
LINE
  5
1E4
  8
DETAIL
  6
CONTINUOUS
 62
     5
 10
-603.713555
 20
-11.948849
 30
0.0
 11
-598.700767
 21
-16.961637
 31
0.0
  0
LINE
  5
1E5
  8
DETAIL
  6
CONTINUOUS
 62
     5
 10
-613.73913
 20
-11.948849
 30
0.0
 11
-608.726343
 21
-16.961637
 31
0.0
  0
LINE
  5
1E6
  8
DETAIL
  6
CONTINUOUS
 62
     5
 10
-623.764706
 20
-11.948849
 30
0.0
 11
-618.751918
 21
-16.961637
 31
0.0
  0
LINE
  5
1E7
  8
DETAIL
  6
CONTINUOUS
 62
     5
 10
-633.790281
 20
-11.948849
 30
0.0
 11
-628.777494
 21
-16.961637
 31
0.0
  0
LINE
  5
1E8
  8
DETAIL
  6
CONTINUOUS
 62
     5
 10
-643.815857
 20
-11.948849
 30
0.0
 11
-638.803069
 21
-16.961637
 31
0.0
  0
LINE
  5
1E9
  8
DETAIL
  6
CONTINUOUS
 62
     5
 10
-653.841432
 20
-11.948849
 30
0.0
 11
-648.828645
 21
-16.961637
 31
0.0
  0
LINE
  5
1EA
  8
DETAIL
  6
CONTINUOUS
 62
     5
 10
-693.943734
 20
-14.956522
 30
0.0
 11
-663.867008
 21
-14.956522
 31
0.0
  0
LINE
  5
1EB
  8
DETAIL
  6
CONTINUOUS
 62
     5
 10
-663.867008
 20
-9.542711
 30
0.0
 11
-658.85422
 21
-9.542711
 31
0.0
  0
LINE
  5
1EC
  8
DETAIL
  6
CONTINUOUS
 62
     5
 10
-558.598465
 20
-16.961637
 30
0.0
 11
-553.585678
 21
-11.948849
 31
0.0
  0
LINE
  5
1ED
  8
DETAIL
  6
CONTINUOUS
 62
     5
 10
-553.585678
 20
-11.948849
 30
0.0
 11
-548.57289
 21
-16.961637
 31
0.0
  0
LINE
  5
1EE
  8
DETAIL
  6
CONTINUOUS
 62
     5
 10
-568.624041
 20
-16.961637
 30
0.0
 11
-563.611253
 21
-11.948849
 31
0.0
  0
LINE
  5
1EF
  8
DETAIL
  6
CONTINUOUS
 62
     5
 10
-563.611253
 20
-11.948849
 30
0.0
 11
-558.598465
 21
-16.961637
 31
0.0
  0
LINE
  5
1F0
  8
DETAIL
  6
CONTINUOUS
 62
     5
 10
-520.0
 20
-16.460358
 30
0.0
 11
-548.57289
 21
-16.460358
 31
0.0
  0
LINE
  5
1F1
  8
DETAIL
  6
CONTINUOUS
 62
     5
 10
-378.138107
 20
1.0
 30
0.0
 11
-378.138107
 21
-301.0
 31
0.0
  0
LINE
  5
1F2
  8
DETAIL
  6
CONTINUOUS
 62
     5
 10
-375.832225
 20
-27.0
 30
0.0
 11
-375.832225
 21
-47.295652
 31
0.0
  0
LINE
  5
1F3
  8
DETAIL
  6
CONTINUOUS
 62
     5
 10
-343.872123
 20
-82.362148
 30
0.0
 11
-343.872123
 21
-33.637852
 31
0.0
  0
LINE
  5
1F4
  8
DETAIL
  6
CONTINUOUS
 62
     5
 10
-394.0
 20
-140.531969
 30
0.0
 11
-394.0
 21
-115.468031
 31
0.0
  0
LINE
  5
1F5
  8
DETAIL
  6
CONTINUOUS
 62
     5
 10
-343.872123
 20
-113.663427
 30
0.0
 11
-372.144246
 21
-113.663427
 31
0.0
  0
LINE
  5
1F6
  8
DETAIL
  6
CONTINUOUS
 62
     5
 10
-343.872123
 20
-142.336573
 30
0.0
 11
-372.144246
 21
-142.336573
 31
0.0
  0
LINE
  5
1F7
  8
DETAIL
  6
CONTINUOUS
 62
     5
 10
-343.872123
 20
-152.362148
 30
0.0
 11
-343.872123
 21
-103.637852
 31
0.0
  0
LINE
  5
1F8
  8
DETAIL
  6
CONTINUOUS
 62
     5
 10
-394.0
 20
-68.551918
 30
0.0
 11
-373.948849
 21
-68.551918
 31
0.0
  0
LINE
  5
1F9
  8
DETAIL
  6
CONTINUOUS
 62
     5
 10
-394.0
 20
-47.448082
 30
0.0
 11
-373.948849
 21
-47.448082
 31
0.0
  0
LINE
  5
1FA
  8
DETAIL
  6
CONTINUOUS
 62
     5
 10
-372.946292
 20
-48.450639
 30
0.0
 11
-343.872123
 21
-48.450639
 31
0.0
  0
LINE
  5
1FB
  8
DETAIL
  6
CONTINUOUS
 62
     5
 10
-372.946292
 20
-67.549361
 30
0.0
 11
-343.872123
 21
-67.549361
 31
0.0
  0
LINE
  5
1FC
  8
DETAIL
  6
CONTINUOUS
 62
     5
 10
-372.946292
 20
-48.450639
 30
0.0
 11
-372.946292
 21
-67.549361
 31
0.0
  0
LINE
  5
1FD
  8
DETAIL
  6
CONTINUOUS
 62
     5
 10
-373.948849
 20
-47.448082
 30
0.0
 11
-372.946292
 21
-48.450639
 31
0.0
  0
LINE
  5
1FE
  8
DETAIL
  6
CONTINUOUS
 62
     5
 10
-373.948849
 20
-68.551918
 30
0.0
 11
-372.946292
 21
-67.549361
 31
0.0
  0
LINE
  5
1FF
  8
DETAIL
  6
CONTINUOUS
 62
     5
 10
-373.948849
 20
-68.551918
 30
0.0
 11
-373.948849
 21
-47.448082
 31
0.0
  0
LINE
  5
200
  8
DETAIL
  6
CONTINUOUS
 62
     5
 10
-394.0
 20
-68.551918
 30
0.0
 11
-394.0
 21
-47.448082
 31
0.0
  0
LINE
  5
201
  8
DETAIL
  6
CONTINUOUS
 62
     5
 10
-373.948849
 20
-115.468031
 30
0.0
 11
-394.0
 21
-115.468031
 31
0.0
  0
LINE
  5
202
  8
DETAIL
  6
CONTINUOUS
 62
     5
 10
-373.948849
 20
-140.531969
 30
0.0
 11
-373.948849
 21
-115.468031
 31
0.0
  0
LINE
  5
203
  8
DETAIL
  6
CONTINUOUS
 62
     5
 10
-373.948849
 20
-140.531969
 30
0.0
 11
-394.0
 21
-140.531969
 31
0.0
  0
LINE
  5
204
  8
DETAIL
  6
CONTINUOUS
 62
     5
 10
-373.948849
 20
-115.468031
 30
0.0
 11
-372.144246
 21
-113.663427
 31
0.0
  0
LINE
  5
205
  8
DETAIL
  6
CONTINUOUS
 62
     5
 10
-373.948849
 20
-140.531969
 30
0.0
 11
-372.144246
 21
-142.336573
 31
0.0
  0
LINE
  5
206
  8
DETAIL
  6
CONTINUOUS
 62
     5
 10
-372.144246
 20
-113.663427
 30
0.0
 11
-372.144246
 21
-142.336573
 31
0.0
  0
LINE
  5
207
  8
DETAIL
  6
CONTINUOUS
 62
     5
 10
-336.030691
 20
-24.694118
 30
0.0
 11
-336.030691
 21
-27.0
 31
0.0
  0
LINE
  5
208
  8
DETAIL
  6
CONTINUOUS
 62
     5
 10
-375.832225
 20
-24.694118
 30
0.0
 11
-336.030691
 21
-24.694118
 31
0.0
  0
ARC
  5
209
  8
DETAIL
  6
CONTINUOUS
 62
     5
 10
-375.832225
 20
-27.0
 30
0.0
 40
2.305882
 50
90.0
 51
180.0
  0
LINE
  5
20A
  8
DETAIL
  6
CONTINUOUS
 62
     5
 10
-375.832225
 20
-27.0
 30
0.0
 11
-336.030691
 21
-27.0
 31
0.0
  0
LINE
  5
20B
  8
DETAIL
  6
CONTINUOUS
 62
     5
 10
-371.821995
 20
-29.305882
 30
0.0
 11
-371.821995
 21
-39.030691
 31
0.0
  0
LINE
  5
20C
  8
DETAIL
  6
CONTINUOUS
 62
     5
 10
-374.127877
 20
-39.030691
 30
0.0
 11
-374.127877
 21
-29.305882
 31
0.0
  0
LINE
  5
20D
  8
DETAIL
  6
CONTINUOUS
 62
     5
 10
-374.127877
 20
-39.030691
 30
0.0
 11
-371.821995
 21
-39.030691
 31
0.0
  0
ARC
  5
20E
  8
DETAIL
  6
CONTINUOUS
 62
     5
 10
-371.821995
 20
-29.305882
 30
0.0
 40
2.305882
 50
90.0
 51
180.0
  0
LINE
  5
20F
  8
DETAIL
  6
CONTINUOUS
 62
     5
 10
-324.0
 20
-276.556266
 30
0.0
 11
-364.102302
 21
-276.556266
 31
0.0
  0
LINE
  5
210
  8
DETAIL
  6
CONTINUOUS
 62
     5
 10
-324.0
 20
-232.443734
 30
0.0
 11
-364.102302
 21
-232.443734
 31
0.0
  0
LINE
  5
211
  8
DETAIL
  6
CONTINUOUS
 62
     5
 10
-378.138107
 20
-229.28491
 30
0.0
 11
-324.0
 21
-229.28491
 31
0.0
  0
LINE
  5
212
  8
DETAIL
  6
CONTINUOUS
 62
     5
 10
-375.832225
 20
-199.208184
 30
0.0
 11
-324.0
 21
-199.208184
 31
0.0
  0
LINE
  5
213
  8
DETAIL
  6
CONTINUOUS
 62
     5
 10
-364.102302
 20
-254.5
 30
0.0
 11
-324.0
 21
-254.5
 31
0.0
  0
LINE
  5
214
  8
DETAIL
  6
CONTINUOUS
 62
     5
 10
-343.872123
 20
-152.362148
 30
0.0
 11
-323.820972
 21
-152.362148
 31
0.0
  0
LINE
  5
215
  8
DETAIL
  6
CONTINUOUS
 62
     5
 10
-343.872123
 20
-103.637852
 30
0.0
 11
-323.820972
 21
-103.637852
 31
0.0
  0
LINE
  5
216
  8
DETAIL
  6
CONTINUOUS
 62
     5
 10
-343.872123
 20
-82.362148
 30
0.0
 11
-323.820972
 21
-82.362148
 31
0.0
  0
LINE
  5
217
  8
DETAIL
  6
CONTINUOUS
 62
     5
 10
-324.0
 20
-27.0
 30
0.0
 11
-371.821995
 21
-27.0
 31
0.0
  0
LINE
  5
218
  8
DETAIL
  6
CONTINUOUS
 62
     5
 10
-324.0
 20
-29.305882
 30
0.0
 11
-371.821995
 21
-29.305882
 31
0.0
  0
LINE
  5
219
  8
DETAIL
  6
CONTINUOUS
 62
     5
 10
-343.872123
 20
-33.637852
 30
0.0
 11
-323.820972
 21
-33.637852
 31
0.0
  0
LINE
  5
21A
  8
NOTE
  6
CONTINUOUS
 62
     4
 10
-330.999539
 20
-27.0
 30
0.0
 11
-370.999539
 21
-27.0
 31
0.0
  0
LINE
  5
21B
  8
NOTE
  6
CONTINUOUS
 62
     4
 10
-350.999539
 20
-47.0
 30
0.0
 11
-350.999539
 21
-7.0
 31
0.0
  0
CIRCLE
  5
21C
  8
FIX
  6
CONTINUOUS
 62
    11
 10
-350.999539
 20
-27.0
 30
0.0
 40
20.0
  0
LINE
  5
21D
  8
NOTE
  6
CONTINUOUS
 62
     4
 10
350.999539
 20
-47.0
 30
0.0
 11
350.999539
 21
-7.0
 31
0.0
  0
CIRCLE
  5
21E
  8
FIX
  6
CONTINUOUS
 62
    11
 10
350.999539
 20
-27.0
 30
0.0
 40
20.0
  0
LINE
  5
21F
  8
DETAIL
  6
CONTINUOUS
 62
     5
 10
371.821995
 20
-29.305882
 30
0.0
 11
371.821995
 21
-39.030691
 31
0.0
  0
LINE
  5
220
  8
DETAIL
  6
CONTINUOUS
 62
     5
 10
374.127877
 20
-39.030691
 30
0.0
 11
374.127877
 21
-29.305882
 31
0.0
  0
ARC
  5
221
  8
DETAIL
  6
CONTINUOUS
 62
     5
 10
371.821995
 20
-29.305882
 30
0.0
 40
2.305882
 50
0.0
 51
90.0
  0
LINE
  5
222
  8
DETAIL
  6
CONTINUOUS
 62
     5
 10
324.0
 20
-29.305882
 30
0.0
 11
371.821995
 21
-29.305882
 31
0.0
  0
LINE
  5
223
  8
DETAIL
  6
CONTINUOUS
 62
     5
 10
374.127877
 20
-39.030691
 30
0.0
 11
371.821995
 21
-39.030691
 31
0.0
  0
LINE
  5
224
  8
NOTE
  6
CONTINUOUS
 62
     4
 10
330.999539
 20
-27.0
 30
0.0
 11
370.999539
 21
-27.0
 31
0.0
  0
LINE
  5
225
  8
DETAIL
  6
CONTINUOUS
 62
     5
 10
324.0
 20
-27.0
 30
0.0
 11
371.821995
 21
-27.0
 31
0.0
  0
LINE
  5
226
  8
SIZE
  6
CONTINUOUS
 62
    30
 10
-350.999539
 20
8.0
 30
0.0
 11
-350.999539
 21
414.14583
 31
0.0
  0
LINE
  5
227
  8
SIZE
  6
CONTINUOUS
 62
    30
 10
350.999539
 20
8.0
 30
0.0
 11
350.999539
 21
414.14583
 31
0.0
  0
LINE
  5
228
  8
SIZE
  6
CONTINUOUS
 62
    30
 10
-350.999539
 20
399.14583
 30
0.0
 11
350.999539
 21
399.14583
 31
0.0
  0
CIRCLE
  5
229
  8
SIZE
  6
CONTINUOUS
 62
    30
 10
-350.999539
 20
399.14583
 30
0.0
 40
7.5
  0
CIRCLE
  5
22A
  8
SIZE
  6
CONTINUOUS
 62
    30
 10
350.999539
 20
399.14583
 30
0.0
 40
7.5
  0
TEXT
  5
22B
  8
SIZE
  6
CONTINUOUS
 62
    30
 10
-262.260104
 20
414.14583
 30
0.0
 40
50.0
  1
702
 41
0.9
 72
     1
 11
-204.402961
 21
414.14583
 31
0.0
  0
POINT
  5
22C
  8
DEFPOINTS
  6
CONTINUOUS
 62
     7
 10
-350.999539
 20
-7.0
 30
0.0
  0
POINT
  5
22D
  8
DEFPOINTS
  6
CONTINUOUS
 62
     7
 10
350.999539
 20
-7.0
 30
0.0
  0
POINT
  5
22E
  8
DEFPOINTS
  6
CONTINUOUS
 62
     7
 10
350.999539
 20
399.14583
 30
0.0
  0
LINE
  5
22F
  8
OUTLINE
  6
CONTINUOUS
 62
     3
 10
-520.0
 20
1.0
 30
0.0
 11
-378.138107
 21
1.0
 31
0.0
  0
LINE
  5
230
  8
OUTLINE
  6
CONTINUOUS
 62
     3
 10
-378.138107
 20
1.0
 30
0.0
 11
-378.138107
 21
-301.0
 31
0.0
  0
LINE
  5
231
  8
OUTLINE
  6
CONTINUOUS
 62
     3
 10
-378.138107
 20
-301.0
 30
0.0
 11
-520.0
 21
-301.0
 31
0.0
  0
LINE
  5
232
  8
OUTLINE
  6
CONTINUOUS
 62
     3
 10
-520.0
 20
-301.0
 30
0.0
 11
-520.0
 21
1.0
 31
0.0
  0
LINE
  5
233
  8
SIZE
  6
CONTINUOUS
 62
    30
 10
339.0
 20
0.0
 30
0.0
 11
511.873824
 21
0.0
 31
0.0
  0
LINE
  5
234
  8
SIZE
  6
CONTINUOUS
 62
    30
 10
385.999539
 20
-27.0
 30
0.0
 11
511.873824
 21
-27.0
 31
0.0
  0
LINE
  5
235
  8
SIZE
  6
CONTINUOUS
 62
    30
 10
496.873824
 20
-27.0
 30
0.0
 11
496.873824
 21
-57.0
 31
0.0
  0
LINE
  5
236
  8
SIZE
  6
CONTINUOUS
 62
    30
 10
496.873824
 20
0.0
 30
0.0
 11
496.873824
 21
162.857143
 31
0.0
  0
LINE
  5
237
  8
SIZE
  6
CONTINUOUS
 62
    30
 10
496.873824
 20
-27.0
 30
0.0
 11
496.873824
 21
0.0
 31
0.0
  0
CIRCLE
  5
238
  8
SIZE
  6
CONTINUOUS
 62
    30
 10
496.873824
 20
-27.0
 30
0.0
 40
7.5
  0
CIRCLE
  5
239
  8
SIZE
  6
CONTINUOUS
 62
    30
 10
496.873824
 20
0.0
 30
0.0
 40
7.5
  0
TEXT
  5
23A
  8
SIZE
  6
CONTINUOUS
 62
    30
 10
481.873824
 20
75.0
 30
0.0
 40
50.0
  1
27
 50
90.0
 41
0.9
 72
     1
 11
481.873824
 21
111.428571
 31
0.0
  0
POINT
  5
23B
  8
DEFPOINTS
  6
CONTINUOUS
 62
     7
 10
324.0
 20
0.0
 30
0.0
  0
POINT
  5
23C
  8
DEFPOINTS
  6
CONTINUOUS
 62
     7
 10
370.999539
 20
-27.0
 30
0.0
  0
POINT
  5
23D
  8
DEFPOINTS
  6
CONTINUOUS
 62
     7
 10
496.873824
 20
-27.0
 30
0.0
  0
LINE
  5
23E
  8
SIZE
  6
CONTINUOUS
 62
    30
 10
339.0
 20
0.0
 30
0.0
 11
612.950361
 21
0.0
 31
0.0
  0
LINE
  5
23F
  8
SIZE
  6
CONTINUOUS
 62
    30
 10
200.0
 20
-23.0
 30
0.0
 11
612.950361
 21
-23.0
 31
0.0
  0
LINE
  5
240
  8
SIZE
  6
CONTINUOUS
 62
    30
 10
597.950361
 20
-23.0
 30
0.0
 11
597.950361
 21
-53.0
 31
0.0
  0
LINE
  5
241
  8
SIZE
  6
CONTINUOUS
 62
    30
 10
597.950361
 20
0.0
 30
0.0
 11
597.950361
 21
162.857143
 31
0.0
  0
LINE
  5
242
  8
SIZE
  6
CONTINUOUS
 62
    30
 10
597.950361
 20
-23.0
 30
0.0
 11
597.950361
 21
0.0
 31
0.0
  0
CIRCLE
  5
243
  8
SIZE
  6
CONTINUOUS
 62
    30
 10
597.950361
 20
-23.0
 30
0.0
 40
7.5
  0
CIRCLE
  5
244
  8
SIZE
  6
CONTINUOUS
 62
    30
 10
597.950361
 20
0.0
 30
0.0
 40
7.5
  0
TEXT
  5
245
  8
SIZE
  6
CONTINUOUS
 62
    30
 10
582.950361
 20
75.0
 30
0.0
 40
50.0
  1
23
 50
90.0
 41
0.9
 72
     1
 11
582.950361
 21
111.428571
 31
0.0
  0
POINT
  5
246
  8
DEFPOINTS
  6
CONTINUOUS
 62
     7
 10
324.0
 20
0.0
 30
0.0
  0
POINT
  5
248
  8
DEFPOINTS
  6
CONTINUOUS
 62
     7
 10
597.950361
 20
-23.0
 30
0.0
  0
LINE
  5
24A
  8
SIZE
  6
CONTINUOUS
 62
    30
 10
200.0
 20
-153.0
 30
0.0
 11
612.950361
 21
-153.0
 31
0.0
  0
LINE
  5
24B
  8
SIZE
  6
CONTINUOUS
 62
    30
 10
597.950361
 20
-23.0
 30
0.0
 11
597.950361
 21
-153.0
 31
0.0
  0
TEXT
  5
24C
  8
SIZE
  6
CONTINUOUS
 62
    30
 10
582.950361
 20
-141.571429
 30
0.0
 40
50.0
  1
130
 50
90.0
 41
0.9
 72
     1
 11
582.950361
 21
-88.0
 31
0.0
  0
CIRCLE
  5
24D
  8
SIZE
  6
CONTINUOUS
 62
    30
 10
597.950361
 20
-23.0
 30
0.0
 40
7.5
  0
CIRCLE
  5
24E
  8
SIZE
  6
CONTINUOUS
 62
    30
 10
597.950361
 20
-153.0
 30
0.0
 40
7.5
  0
POINT
  5
24F
  8
DEFPOINTS
  6
CONTINUOUS
 62
     7
 10
190.0
 20
-23.0
 30
0.0
  0
POINT
  5
251
  8
DEFPOINTS
  6
CONTINUOUS
 62
     7
 10
597.950361
 20
-153.0
 30
0.0
  0
LINE
  5
252
  8
NOTE
  6
CONTINUOUS
 62
     4
 10
-520.0
 20
-43.000316
 30
0.0
 11
-520.0
 21
-20.999684
 31
0.0
  0
LINE
  5
253
  8
NOTE
  6
CONTINUOUS
 62
     4
 10
-324.0
 20
-240.399558
 30
0.0
 11
-324.0
 21
-268.600442
 31
0.0
  0
LINE
  5
254
  8
NOTE
  6
CONTINUOUS
 62
     4
 10
-309.899558
 20
-254.5
 30
0.0
 11
-338.100442
 21
-254.5
 31
0.0
  0
LINE
  5
255
  8
NOTE
  6
CONTINUOUS
 62
     4
 10
-394.0
 20
-69.000316
 30
0.0
 11
-394.0
 21
-46.999684
 31
0.0
  0
LINE
  5
256
  8
NOTE
  6
CONTINUOUS
 62
     4
 10
-382.999684
 20
-58.0
 30
0.0
 11
-405.000316
 21
-58.0
 31
0.0
  0
LINE
  5
257
  8
NOTE
  6
CONTINUOUS
 62
     4
 10
-394.0
 20
-139.000316
 30
0.0
 11
-394.0
 21
-116.999684
 31
0.0
  0
LINE
  5
258
  8
NOTE
  6
CONTINUOUS
 62
     4
 10
-382.999684
 20
-128.0
 30
0.0
 11
-405.000316
 21
-128.0
 31
0.0
  0
LINE
  5
259
  8
SIZE
  6
CONTINUOUS
 62
    30
 10
-339.0
 20
0.0
 30
0.0
 11
-769.516043
 21
0.0
 31
0.0
  0
LINE
  5
25A
  8
SIZE
  6
CONTINUOUS
 62
    30
 10
-420.000316
 20
-58.0
 30
0.0
 11
-769.516043
 21
-58.0
 31
0.0
  0
LINE
  5
25B
  8
SIZE
  6
CONTINUOUS
 62
    30
 10
-754.516043
 20
-58.0
 30
0.0
 11
-754.516043
 21
0.0
 31
0.0
  0
LINE
  5
25C
  8
SIZE
  6
CONTINUOUS
 62
    30
 10
-754.516043
 20
0.0
 30
0.0
 11
-754.516043
 21
132.857143
 31
0.0
  0
CIRCLE
  5
25D
  8
SIZE
  6
CONTINUOUS
 62
    30
 10
-754.516043
 20
-58.0
 30
0.0
 40
7.5
  0
CIRCLE
  5
25E
  8
SIZE
  6
CONTINUOUS
 62
    30
 10
-754.516043
 20
0.0
 30
0.0
 40
7.5
  0
TEXT
  5
25F
  8
SIZE
  6
CONTINUOUS
 62
    30
 10
-769.516043
 20
45.0
 30
0.0
 40
50.0
  1
58
 50
90.0
 41
0.9
 72
     1
 11
-769.516043
 21
81.428571
 31
0.0
  0
POINT
  5
260
  8
DEFPOINTS
  6
CONTINUOUS
 62
     7
 10
-324.0
 20
0.0
 30
0.0
  0
POINT
  5
261
  8
DEFPOINTS
  6
CONTINUOUS
 62
     7
 10
-405.000316
 20
-58.0
 30
0.0
  0
POINT
  5
262
  8
DEFPOINTS
  6
CONTINUOUS
 62
     7
 10
-754.516043
 20
-58.0
 30
0.0
  0
LINE
  5
263
  8
SIZE
  6
CONTINUOUS
 62
    30
 10
-339.0
 20
0.0
 30
0.0
 11
-883.080536
 21
0.0
 31
0.0
  0
LINE
  5
264
  8
SIZE
  6
CONTINUOUS
 62
    30
 10
-420.000316
 20
-128.0
 30
0.0
 11
-883.080536
 21
-128.0
 31
0.0
  0
LINE
  5
265
  8
SIZE
  6
CONTINUOUS
 62
    30
 10
-868.080536
 20
-128.0
 30
0.0
 11
-868.080536
 21
0.0
 31
0.0
  0
LINE
  5
266
  8
SIZE
  6
CONTINUOUS
 62
    30
 10
-868.080536
 20
0.0
 30
0.0
 11
-868.080536
 21
167.142857
 31
0.0
  0
CIRCLE
  5
267
  8
SIZE
  6
CONTINUOUS
 62
    30
 10
-868.080536
 20
-128.0
 30
0.0
 40
7.5
  0
CIRCLE
  5
268
  8
SIZE
  6
CONTINUOUS
 62
    30
 10
-868.080536
 20
0.0
 30
0.0
 40
7.5
  0
TEXT
  5
269
  8
SIZE
  6
CONTINUOUS
 62
    30
 10
-883.080536
 20
45.0
 30
0.0
 40
50.0
  1
128
 50
90.0
 41
0.9
 72
     1
 11
-883.080536
 21
98.571429
 31
0.0
  0
POINT
  5
26A
  8
DEFPOINTS
  6
CONTINUOUS
 62
     7
 10
-324.0
 20
0.0
 30
0.0
  0
POINT
  5
26B
  8
DEFPOINTS
  6
CONTINUOUS
 62
     7
 10
-405.000316
 20
-128.0
 30
0.0
  0
POINT
  5
26C
  8
DEFPOINTS
  6
CONTINUOUS
 62
     7
 10
-868.080536
 20
-128.0
 30
0.0
  0
LINE
  5
26D
  8
SIZE
  6
CONTINUOUS
 62
    30
 10
-535.0
 20
-301.0
 30
0.0
 11
-637.97538
 21
-301.0
 31
0.0
  0
LINE
  5
26E
  8
SIZE
  6
CONTINUOUS
 62
    30
 10
-339.0
 20
-284.0
 30
0.0
 11
-637.97538
 21
-284.0
 31
0.0
  0
LINE
  5
26F
  8
SIZE
  6
CONTINUOUS
 62
    30
 10
-622.97538
 20
-284.0
 30
0.0
 11
-622.97538
 21
-254.0
 31
0.0
  0
LINE
  5
270
  8
SIZE
  6
CONTINUOUS
 62
    30
 10
-622.97538
 20
-301.0
 30
0.0
 11
-622.97538
 21
-455.285714
 31
0.0
  0
LINE
  5
271
  8
SIZE
  6
CONTINUOUS
 62
    30
 10
-622.97538
 20
-284.0
 30
0.0
 11
-622.97538
 21
-301.0
 31
0.0
  0
CIRCLE
  5
272
  8
SIZE
  6
CONTINUOUS
 62
    30
 10
-622.97538
 20
-284.0
 30
0.0
 40
7.5
  0
CIRCLE
  5
273
  8
SIZE
  6
CONTINUOUS
 62
    30
 10
-622.97538
 20
-301.0
 30
0.0
 40
7.5
  0
TEXT
  5
274
  8
SIZE
  6
CONTINUOUS
 62
    30
 10
-637.97538
 20
-440.285714
 30
0.0
 40
50.0
  1
17
 50
90.0
 41
0.9
 72
     1
 11
-637.97538
 21
-408.142857
 31
0.0
  0
POINT
  5
275
  8
DEFPOINTS
  6
CONTINUOUS
 62
     7
 10
-520.0
 20
-301.0
 30
0.0
  0
POINT
  5
276
  8
DEFPOINTS
  6
CONTINUOUS
 62
     7
 10
-324.0
 20
-284.0
 30
0.0
  0
POINT
  5
277
  8
DEFPOINTS
  6
CONTINUOUS
 62
     7
 10
-622.97538
 20
-284.0
 30
0.0
  0
LINE
  5
278
  8
SIZE
  6
CONTINUOUS
 62
    30
 10
-535.0
 20
-301.0
 30
0.0
 11
-989.259436
 21
-301.0
 31
0.0
  0
LINE
  5
279
  8
SIZE
  6
CONTINUOUS
 62
    30
 10
-353.100442
 20
-254.5
 30
0.0
 11
-989.259436
 21
-254.5
 31
0.0
  0
LINE
  5
27A
  8
SIZE
  6
CONTINUOUS
 62
    30
 10
-974.259436
 20
-254.5
 30
0.0
 11
-974.259436
 21
-301.0
 31
0.0
  0
LINE
  5
27B
  8
SIZE
  6
CONTINUOUS
 62
    30
 10
-974.259436
 20
-301.0
 30
0.0
 11
-974.259436
 21
-498.142857
 31
0.0
  0
CIRCLE
  5
27C
  8
SIZE
  6
CONTINUOUS
 62
    30
 10
-974.259436
 20
-254.5
 30
0.0
 40
7.5
  0
CIRCLE
  5
27D
  8
SIZE
  6
CONTINUOUS
 62
    30
 10
-974.259436
 20
-301.0
 30
0.0
 40
7.5
  0
TEXT
  5
27E
  8
SIZE
  6
CONTINUOUS
 62
    30
 10
-989.259436
 20
-483.142858
 30
0.0
 40
50.0
  1
46.5
 50
90.0
 41
0.9
 72
     1
 11
-989.259436
 21
-414.571429
 31
0.0
  0
POINT
  5
27F
  8
DEFPOINTS
  6
CONTINUOUS
 62
     7
 10
-520.0
 20
-301.0
 30
0.0
  0
POINT
  5
280
  8
DEFPOINTS
  6
CONTINUOUS
 62
     7
 10
-338.100442
 20
-254.5
 30
0.0
  0
POINT
  5
281
  8
DEFPOINTS
  6
CONTINUOUS
 62
     7
 10
-974.259436
 20
-254.5
 30
0.0
  0
LINE
  5
282
  8
SIZE
  6
CONTINUOUS
 62
    30
 10
-353.100442
 20
-254.5
 30
0.0
 11
-989.259436
 21
-254.5
 31
0.0
  0
LINE
  5
283
  8
SIZE
  6
CONTINUOUS
 62
    30
 10
-719.449609
 20
-32.0
 30
0.0
 11
-989.259436
 21
-32.0
 31
0.0
  0
LINE
  5
284
  8
SIZE
  6
CONTINUOUS
 62
    30
 10
-974.259436
 20
-254.5
 30
0.0
 11
-974.259436
 21
-32.0
 31
0.0
  0
CIRCLE
  5
285
  8
SIZE
  6
CONTINUOUS
 62
    30
 10
-974.259436
 20
-254.5
 30
0.0
 40
7.5
  0
CIRCLE
  5
286
  8
SIZE
  6
CONTINUOUS
 62
    30
 10
-974.259436
 20
-32.0
 30
0.0
 40
7.5
  0
TEXT
  5
287
  8
SIZE
  6
CONTINUOUS
 62
    30
 10
-989.259436
 20
-233.25
 30
0.0
 40
50.0
  1
222.5
 50
90.0
 41
0.9
 72
     1
 11
-989.259436
 21
-143.25
 31
0.0
  0
POINT
  5
288
  8
DEFPOINTS
  6
CONTINUOUS
 62
     7
 10
-338.100442
 20
-254.5
 30
0.0
  0
POINT
  5
289
  8
DEFPOINTS
  6
CONTINUOUS
 62
     7
 10
-704.449609
 20
-32.0
 30
0.0
  0
POINT
  5
28A
  8
DEFPOINTS
  6
CONTINUOUS
 62
     7
 10
-974.259436
 20
-32.0
 30
0.0
  0
LINE
  5
28B
  8
SIZE
  6
CONTINUOUS
 62
    30
 10
-719.449609
 20
-32.0
 30
0.0
 11
-989.259436
 21
-32.0
 31
0.0
  0
LINE
  5
28C
  8
SIZE
  6
CONTINUOUS
 62
    30
 10
-535.0
 20
1.0
 30
0.0
 11
-989.259436
 21
1.0
 31
0.0
  0
LINE
  5
28D
  8
SIZE
  6
CONTINUOUS
 62
    30
 10
-974.259436
 20
-32.0
 30
0.0
 11
-974.259436
 21
1.0
 31
0.0
  0
LINE
  5
28E
  8
SIZE
  6
CONTINUOUS
 62
    30
 10
-974.259436
 20
1.0
 30
0.0
 11
-974.259436
 21
133.857143
 31
0.0
  0
CIRCLE
  5
28F
  8
SIZE
  6
CONTINUOUS
 62
    30
 10
-974.259436
 20
-32.0
 30
0.0
 40
7.5
  0
CIRCLE
  5
290
  8
SIZE
  6
CONTINUOUS
 62
    30
 10
-974.259436
 20
1.0
 30
0.0
 40
7.5
  0
TEXT
  5
291
  8
SIZE
  6
CONTINUOUS
 62
    30
 10
-989.259436
 20
46.0
 30
0.0
 40
50.0
  1
33
 50
90.0
 41
0.9
 72
     1
 11
-989.259436
 21
82.428571
 31
0.0
  0
POINT
  5
292
  8
DEFPOINTS
  6
CONTINUOUS
 62
     7
 10
-704.449609
 20
-32.0
 30
0.0
  0
POINT
  5
293
  8
DEFPOINTS
  6
CONTINUOUS
 62
     7
 10
-520.0
 20
1.0
 30
0.0
  0
POINT
  5
294
  8
DEFPOINTS
  6
CONTINUOUS
 62
     7
 10
-974.259436
 20
1.0
 30
0.0
  0
LINE
  5
295
  8
SIZE
  6
CONTINUOUS
 62
    30
 10
-248.0
 20
-123.899558
 30
0.0
 11
-248.0
 21
134.239532
 31
0.0
  0
LINE
  5
296
  8
SIZE
  6
CONTINUOUS
 62
    30
 10
-188.0
 20
-123.899558
 30
0.0
 11
-188.0
 21
134.239532
 31
0.0
  0
LINE
  5
297
  8
SIZE
  6
CONTINUOUS
 62
    30
 10
-248.0
 20
119.239532
 30
0.0
 11
-188.0
 21
119.239532
 31
0.0
  0
LINE
  5
298
  8
SIZE
  6
CONTINUOUS
 62
    30
 10
-188.0
 20
119.239532
 30
0.0
 11
-55.142857
 21
119.239532
 31
0.0
  0
CIRCLE
  5
299
  8
SIZE
  6
CONTINUOUS
 62
    30
 10
-248.0
 20
119.239532
 30
0.0
 40
7.5
  0
CIRCLE
  5
29A
  8
SIZE
  6
CONTINUOUS
 62
    30
 10
-188.0
 20
119.239532
 30
0.0
 40
7.5
  0
TEXT
  5
29B
  8
SIZE
  6
CONTINUOUS
 62
    30
 10
-143.0
 20
134.239532
 30
0.0
 40
50.0
  1
60
 41
0.9
 72
     1
 11
-106.571429
 21
134.239532
 31
0.0
  0
POINT
  5
29C
  8
DEFPOINTS
  6
CONTINUOUS
 62
     7
 10
-248.0
 20
-138.899558
 30
0.0
  0
POINT
  5
29D
  8
DEFPOINTS
  6
CONTINUOUS
 62
     7
 10
-188.0
 20
-138.899558
 30
0.0
  0
POINT
  5
29E
  8
DEFPOINTS
  6
CONTINUOUS
 62
     7
 10
-188.0
 20
119.239532
 30
0.0
  0
LINE
  5
29F
  8
SIZE
  6
CONTINUOUS
 62
    30
 10
-394.0
 20
-101.999684
 30
0.0
 11
-394.0
 21
239.793532
 31
0.0
  0
LINE
  5
2A0
  8
SIZE
  6
CONTINUOUS
 62
    30
 10
-324.0
 20
15.0
 30
0.0
 11
-324.0
 21
239.793532
 31
0.0
  0
LINE
  5
2A1
  8
SIZE
  6
CONTINUOUS
 62
    30
 10
-324.0
 20
224.793532
 30
0.0
 11
-394.0
 21
224.793532
 31
0.0
  0
LINE
  5
2A2
  8
SIZE
  6
CONTINUOUS
 62
    30
 10
-394.0
 20
224.793532
 30
0.0
 11
-526.857143
 21
224.793532
 31
0.0
  0
CIRCLE
  5
2A3
  8
SIZE
  6
CONTINUOUS
 62
    30
 10
-324.0
 20
224.793532
 30
0.0
 40
7.5
  0
CIRCLE
  5
2A4
  8
SIZE
  6
CONTINUOUS
 62
    30
 10
-394.0
 20
224.793532
 30
0.0
 40
7.5
  0
TEXT
  5
2A5
  8
SIZE
  6
CONTINUOUS
 62
    30
 10
-511.857142
 20
239.793532
 30
0.0
 40
50.0
  1
70
 41
0.9
 72
     1
 11
-475.428571
 21
239.793532
 31
0.0
  0
POINT
  5
2A6
  8
DEFPOINTS
  6
CONTINUOUS
 62
     7
 10
-394.0
 20
-116.999684
 30
0.0
  0
POINT
  5
2A7
  8
DEFPOINTS
  6
CONTINUOUS
 62
     7
 10
-324.0
 20
0.0
 30
0.0
  0
POINT
  5
2A8
  8
DEFPOINTS
  6
CONTINUOUS
 62
     7
 10
-324.0
 20
224.793532
 30
0.0
  0
LINE
  5
2A9
  8
SIZE
  6
CONTINUOUS
 62
    30
 10
-324.0
 20
15.0
 30
0.0
 11
-324.0
 21
239.793532
 31
0.0
  0
LINE
  5
2AA
  8
SIZE
  6
CONTINUOUS
 62
    30
 10
-248.0
 20
-124.922686
 30
0.0
 11
-248.0
 21
239.793532
 31
0.0
  0
LINE
  5
2AB
  8
SIZE
  6
CONTINUOUS
 62
    30
 10
-324.0
 20
224.793532
 30
0.0
 11
-248.0
 21
224.793532
 31
0.0
  0
LINE
  5
2AC
  8
SIZE
  6
CONTINUOUS
 62
    30
 10
-286.0
 20
224.793532
 30
0.0
 11
-250.60507
 21
313.148839
 31
0.0
  0
LINE
  5
2AD
  8
SIZE
  6
CONTINUOUS
 62
    30
 10
-250.60507
 20
313.148839
 30
0.0
 11
-149.890784
 21
313.148839
 31
0.0
  0
TEXT
  5
2AE
  8
SIZE
  6
CONTINUOUS
 62
    30
 10
-235.60507
 20
328.148839
 30
0.0
 40
50.0
  1
76
 41
0.9
 72
     1
 11
-200.247927
 21
328.148839
 31
0.0
  0
CIRCLE
  5
2AF
  8
SIZE
  6
CONTINUOUS
 62
    30
 10
-324.0
 20
224.793532
 30
0.0
 40
7.5
  0
CIRCLE
  5
2B0
  8
SIZE
  6
CONTINUOUS
 62
    30
 10
-248.0
 20
224.793532
 30
0.0
 40
7.5
  0
POINT
  5
2B1
  8
DEFPOINTS
  6
CONTINUOUS
 62
     7
 10
-324.0
 20
0.0
 30
0.0
  0
POINT
  5
2B2
  8
DEFPOINTS
  6
CONTINUOUS
 62
     7
 10
-248.0
 20
-139.922686
 30
0.0
  0
POINT
  5
2B3
  8
DEFPOINTS
  6
CONTINUOUS
 62
     7
 10
-248.0
 20
224.793532
 30
0.0
  0
LINE
  5
2B4
  8
SIZE
  6
CONTINUOUS
 62
    30
 10
-248.0
 20
-123.899558
 30
0.0
 11
-248.0
 21
239.793532
 31
0.0
  0
LINE
  5
2B5
  8
SIZE
  6
CONTINUOUS
 62
    30
 10
172.0
 20
-124.922686
 30
0.0
 11
172.0
 21
239.793532
 31
0.0
  0
LINE
  5
2B6
  8
SIZE
  6
CONTINUOUS
 62
    30
 10
-248.0
 20
224.793532
 30
0.0
 11
172.0
 21
224.793532
 31
0.0
  0
CIRCLE
  5
2B7
  8
SIZE
  6
CONTINUOUS
 62
    30
 10
-248.0
 20
224.793532
 30
0.0
 40
7.5
  0
CIRCLE
  5
2B8
  8
SIZE
  6
CONTINUOUS
 62
    30
 10
172.0
 20
224.793532
 30
0.0
 40
7.5
  0
TEXT
  5
2B9
  8
SIZE
  6
CONTINUOUS
 62
    30
 10
-212.324029
 20
241.167513
 30
0.0
 40
50.0
  1
60×7＝420
 41
0.9
 72
     1
 11
-36.181172
 21
241.167513
 31
0.0
  0
POINT
  5
2BA
  8
DEFPOINTS
  6
CONTINUOUS
 62
     7
 10
-248.0
 20
-138.899558
 30
0.0
  0
POINT
  5
2BC
  8
DEFPOINTS
  6
CONTINUOUS
 62
     7
 10
172.0
 20
224.793532
 30
0.0
  0
TEXT
  5
2BD
  8
SIZE
  6
CONTINUOUS
 62
    30
 10
-59.740385
 20
417.301181
 30
0.0
 40
50.0
  1
（吊りﾎﾞﾙﾄﾋﾟｯﾁ）
 41
0.75
  0
LINE
  5
2BE
  8
SIZE
  6
CONTINUOUS
 62
    30
 10
-324.0
 20
-299.0
 30
0.0
 11
-324.0
 21
-469.019993
 31
0.0
  0
LINE
  5
2BF
  8
SIZE
  6
CONTINUOUS
 62
    30
 10
-520.0
 20
-316.0
 30
0.0
 11
-520.0
 21
-469.019993
 31
0.0
  0
LINE
  5
2C0
  8
SIZE
  6
CONTINUOUS
 62
    30
 10
-324.0
 20
-454.019993
 30
0.0
 11
-520.0
 21
-454.019993
 31
0.0
  0
CIRCLE
  5
2C1
  8
SIZE
  6
CONTINUOUS
 62
    30
 10
-324.0
 20
-454.019993
 30
0.0
 40
7.5
  0
CIRCLE
  5
2C2
  8
SIZE
  6
CONTINUOUS
 62
    30
 10
-520.0
 20
-454.019993
 30
0.0
 40
7.5
  0
TEXT
  5
2C3
  8
SIZE
  6
CONTINUOUS
 62
    30
 10
-474.5
 20
-439.019993
 30
0.0
 40
50.0
  1
196
 41
0.9
 72
     1
 11
-422.0
 21
-439.019993
 31
0.0
  0
POINT
  5
2C4
  8
DEFPOINTS
  6
CONTINUOUS
 62
     7
 10
-324.0
 20
-284.0
 30
0.0
  0
POINT
  5
2C5
  8
DEFPOINTS
  6
CONTINUOUS
 62
     7
 10
-520.0
 20
-301.0
 30
0.0
  0
POINT
  5
2C6
  8
DEFPOINTS
  6
CONTINUOUS
 62
     7
 10
-520.0
 20
-454.019993
 30
0.0
  0
TEXT
  5
2C7
  8
ETC
  6
CONTINUOUS
 62
    61
 10
-317.088692
 20
628.607573
 30
0.0
 40
64.0
  1
CMB-P108GB(ﾄﾞﾚﾝｱｯﾌﾟﾒｶ組込)_2
 41
0.9
  0
LINE
  5
2C8
  8
SIZE
  6
CONTINUOUS
 62
    30
 10
339.0
 20
0.0
 30
0.0
 11
739.47016
 21
0.0
 31
0.0
  0
LINE
  5
2C9
  8
SIZE
  6
CONTINUOUS
 62
    30
 10
339.0
 20
-284.0
 30
0.0
 11
739.47016
 21
-284.0
 31
0.0
  0
LINE
  5
2CA
  8
SIZE
  6
CONTINUOUS
 62
    30
 10
724.47016
 20
0.0
 30
0.0
 11
724.47016
 21
-284.0
 31
0.0
  0
CIRCLE
  5
2CB
  8
SIZE
  6
CONTINUOUS
 62
    30
 10
724.47016
 20
0.0
 30
0.0
 40
7.5
  0
CIRCLE
  5
2CC
  8
SIZE
  6
CONTINUOUS
 62
    30
 10
724.47016
 20
-284.0
 30
0.0
 40
7.5
  0
TEXT
  5
2CD
  8
SIZE
  6
CONTINUOUS
 62
    30
 10
709.47016
 20
-200.928571
 30
0.0
 40
50.0
  1
284
 50
90.0
 41
0.9
 72
     1
 11
709.47016
 21
-142.0
 31
0.0
  0
POINT
  5
2CE
  8
DEFPOINTS
  6
CONTINUOUS
 62
     7
 10
324.0
 20
0.0
 30
0.0
  0
POINT
  5
2CF
  8
DEFPOINTS
  6
CONTINUOUS
 62
     7
 10
324.0
 20
-284.0
 30
0.0
  0
POINT
  5
2D0
  8
DEFPOINTS
  6
CONTINUOUS
 62
     7
 10
724.47016
 20
-284.0
 30
0.0
  0
LINE
  5
2D1
  8
SIZE
  6
CONTINUOUS
 62
    30
 10
-324.0
 20
-299.0
 30
0.0
 11
-324.0
 21
-469.019993
 31
0.0
  0
LINE
  5
2D2
  8
SIZE
  6
CONTINUOUS
 62
    30
 10
324.0
 20
-299.0
 30
0.0
 11
324.0
 21
-469.019993
 31
0.0
  0
LINE
  5
2D3
  8
SIZE
  6
CONTINUOUS
 62
    30
 10
-324.0
 20
-454.019993
 30
0.0
 11
324.0
 21
-454.019993
 31
0.0
  0
CIRCLE
  5
2D4
  8
SIZE
  6
CONTINUOUS
 62
    30
 10
-324.0
 20
-454.019993
 30
0.0
 40
7.5
  0
CIRCLE
  5
2D5
  8
SIZE
  6
CONTINUOUS
 62
    30
 10
324.0
 20
-454.019993
 30
0.0
 40
7.5
  0
TEXT
  5
2D6
  8
SIZE
  6
CONTINUOUS
 62
    30
 10
-57.857143
 20
-439.019993
 30
0.0
 40
50.0
  1
648
 41
0.9
 72
     1
 11
0.0
 21
-439.019993
 31
0.0
  0
POINT
  5
2D7
  8
DEFPOINTS
  6
CONTINUOUS
 62
     7
 10
-324.0
 20
-284.0
 30
0.0
  0
POINT
  5
2D8
  8
DEFPOINTS
  6
CONTINUOUS
 62
     7
 10
324.0
 20
-284.0
 30
0.0
  0
POINT
  5
2D9
  8
DEFPOINTS
  6
CONTINUOUS
 62
     7
 10
324.0
 20
-454.019993
 30
0.0
  0
TEXT
  5
2DA
  8
NOTE
  6
CONTINUOUS
 62
     4
 10
382.683328
 20
-610.000383
 30
0.0
 40
50.0
  1
φ15.88
 41
0.8
  0
LINE
  5
2DB
  8
NOTE
  6
CONTINUOUS
 62
     4
 10
610.444301
 20
-631.291725
 30
0.0
 11
-121.091505
 21
-631.291725
 31
0.0
  0
TEXT
  5
2DC
  8
NOTE
  6
CONTINUOUS
 62
     4
 10
-102.424531
 20
-615.058395
 30
0.0
 40
50.0
  1
RG(室内ユニット側)
 41
0.8
 72
     2
 11
353.575469
 21
-615.058395
 31
0.0
  0
TEXT
  5
2DD
  8
NOTE
  6
CONTINUOUS
 62
     4
 10
61.779981
 20
-724.267167
 30
0.0
 40
50.0
  1
φ9.52
 41
0.8
  0
TEXT
  5
2DE
  8
NOTE
  6
CONTINUOUS
 62
     4
 10
-401.24955
 20
-724.307206
 30
0.0
 40
50.0
  1
RL(室内ユニット側)
 41
0.8
 72
     2
 11
47.131402
 21
-724.307206
 31
0.0
  0
LINE
  5
2DF
  8
NOTE
  6
CONTINUOUS
 62
     4
 10
-423.581228
 20
-739.650528
 30
0.0
 11
229.12748
 21
-739.650528
 31
0.0
  0
TEXT
  5
2E0
  8
NOTE
  6
CONTINUOUS
 62
     4
 10
-1069.608106
 20
191.557464
 30
0.0
 40
55.0
  1
D　VP-20
 41
0.8
 72
     2
 11
-761.189058
 21
191.557464
 31
0.0
  0
TEXT
  5
2E1
  8
NOTE
  6
CONTINUOUS
 62
     4
 10
-1697.591992
 20
-668.918829
 30
0.0
 40
50.0
  1
224形：φ15.88〈ロウ付〉(付属配管を使用)
 41
0.8
  0
TEXT
  5
2E2
  8
NOTE
  6
CONTINUOUS
 62
     4
 10
-1697.591992
 20
-751.418829
 30
0.0
 40
50.0
  1
280.335.400形：φ19.05〈ロウ付〉
 41
0.8
  0
TEXT
  5
2E3
  8
NOTE
  6
CONTINUOUS
 62
     4
 10
-1714.946078
 20
-581.765775
 30
0.0
 40
50.0
  1
室外ユニット側配管接続口（高圧）
 41
0.8
 72
     2
 11
-978.946078
 21
-581.765775
 31
0.0
  0
TEXT
  5
2E4
  8
NOTE
  6
CONTINUOUS
 62
     4
 10
-1799.250493
 20
326.192236
 30
0.0
 40
50.0
  1
400形：φ25.4〈ロウ付〉（付属配管を使用）
 41
0.8
  0
TEXT
  5
2E5
  8
NOTE
  6
CONTINUOUS
 62
     4
 10
-1800.541789
 20
469.176378
 30
0.0
 40
50.0
  1
224形：φ19.05〈ロウ付〉（付属配管を使用）
 41
0.8
  0
TEXT
  5
2E6
  8
NOTE
  6
CONTINUOUS
 62
     4
 10
-1796.726704
 20
398.147254
 30
0.0
 40
50.0
  1
280.335形：φ22.2〈ロウ付〉
 41
0.8
  0
TEXT
  5
2E7
  8
NOTE
  6
CONTINUOUS
 62
     4
 10
-1854.061436
 20
564.384166
 30
0.0
 40
50.0
  1
室外ユニット側配管接続口（低圧）
 41
0.8
 72
     2
 11
-1118.061436
 21
564.384166
 31
0.0
  0
LINE
  5
2E8
  8
NOTE
  6
CONTINUOUS
 62
     4
 10
369.515345
 20
-2.064443
 30
0.0
 11
350.999539
 21
-27.0
 31
0.0
  0
LINE
  5
2E9
  8
NOTE
  6
CONTINUOUS
 62
     4
 10
350.999539
 20
-27.0
 30
0.0
 11
354.566919
 21
3.852729
 31
0.0
  0
LINE
  5
2EA
  8
NOTE
  6
CONTINUOUS
 62
     4
 10
350.999539
 20
-27.0
 30
0.0
 11
362.041132
 21
0.894143
 31
0.0
  0
LINE
  5
2EB
  8
NOTE
  6
CONTINUOUS
 62
     4
 10
362.041132
 20
0.894143
 30
0.0
 11
465.092341
 21
261.230235
 31
0.0
  0
LINE
  5
2EC
  8
NOTE
  6
CONTINUOUS
 62
     4
 10
465.092341
 20
261.230235
 30
0.0
 11
941.589573
 21
261.230235
 31
0.0
  0
LINE
  5
2ED
  8
NOTE
  6
CONTINUOUS
 62
     4
 10
-248.075744
 20
-184.058193
 30
0.0
 11
-248.0
 21
-153.0
 31
0.0
  0
LINE
  5
2EE
  8
NOTE
  6
CONTINUOUS
 62
     4
 10
-248.0
 20
-153.0
 30
0.0
 11
-232.5365
 21
-179.935056
 31
0.0
  0
LINE
  5
2EF
  8
NOTE
  6
CONTINUOUS
 62
     4
 10
-248.0
 20
-153.0
 30
0.0
 11
-240.306122
 21
-181.996625
 31
0.0
  0
LINE
  5
2F0
  8
NOTE
  6
CONTINUOUS
 62
     4
 10
-240.306122
 20
-181.996625
 30
0.0
 11
-121.091505
 21
-631.291725
 31
0.0
  0
LINE
  5
2F1
  8
NOTE
  6
CONTINUOUS
 62
     4
 10
-536.042022
 20
-5.40544
 30
0.0
 11
-520.0
 21
-32.0
 31
0.0
  0
LINE
  5
2F2
  8
NOTE
  6
CONTINUOUS
 62
     4
 10
-520.0
 20
-32.0
 30
0.0
 11
-547.190079
 21
-16.989446
 31
0.0
  0
LINE
  5
2F3
  8
NOTE
  6
CONTINUOUS
 62
     4
 10
-520.0
 20
-32.0
 30
0.0
 11
-541.61605
 21
-11.197443
 31
0.0
  0
LINE
  5
2F4
  8
NOTE
  6
CONTINUOUS
 62
     4
 10
-541.61605
 20
-11.197443
 30
0.0
 11
-737.422982
 21
177.240536
 31
0.0
  0
LINE
  5
2F5
  8
NOTE
  6
CONTINUOUS
 62
     4
 10
-737.422982
 20
177.240536
 30
0.0
 11
-1083.047108
 21
177.240536
 31
0.0
  0
LINE
  5
2F6
  8
NOTE
  6
CONTINUOUS
 62
     4
 10
-415.659843
 20
-150.259117
 30
0.0
 11
-394.0
 21
-128.0
 31
0.0
  0
LINE
  5
2F7
  8
NOTE
  6
CONTINUOUS
 62
     4
 10
-394.0
 20
-128.0
 30
0.0
 11
-401.628415
 21
-158.106882
 31
0.0
  0
LINE
  5
2F8
  8
NOTE
  6
CONTINUOUS
 62
     4
 10
-394.0
 20
-128.0
 30
0.0
 11
-408.644129
 21
-154.183
 31
0.0
  0
LINE
  5
2F9
  8
NOTE
  6
CONTINUOUS
 62
     4
 10
-408.644129
 20
-154.183
 30
0.0
 11
-655.916446
 21
-596.294038
 31
0.0
  0
LINE
  5
2FA
  8
NOTE
  6
CONTINUOUS
 62
     4
 10
-655.916446
 20
-596.294038
 30
0.0
 11
-1728.169666
 21
-596.294038
 31
0.0
  0
LINE
  5
2FB
  8
NOTE
  6
CONTINUOUS
 62
     4
 10
-401.33651
 20
-27.820657
 30
0.0
 11
-394.0
 21
-58.0
 31
0.0
  0
LINE
  5
2FC
  8
NOTE
  6
CONTINUOUS
 62
     4
 10
-394.0
 20
-58.0
 30
0.0
 11
-415.443275
 21
-35.532177
 31
0.0
  0
LINE
  5
2FD
  8
NOTE
  6
CONTINUOUS
 62
     4
 10
-394.0
 20
-58.0
 30
0.0
 11
-408.389892
 21
-31.676417
 31
0.0
  0
LINE
  5
2FE
  8
NOTE
  6
CONTINUOUS
 62
     4
 10
-408.389892
 20
-31.676417
 30
0.0
 11
-728.024485
 21
553.034528
 31
0.0
  0
LINE
  5
2FF
  8
NOTE
  6
CONTINUOUS
 62
     4
 10
-728.024485
 20
553.034528
 30
0.0
 11
-1861.448456
 21
553.034528
 31
0.0
  0
LINE
  5
300
  8
NOTE
  6
CONTINUOUS
 62
     4
 10
-262.946499
 20
-50.225342
 30
0.0
 11
-248.0
 21
-23.0
 31
0.0
  0
LINE
  5
301
  8
NOTE
  6
CONTINUOUS
 62
     4
 10
-248.0
 20
-23.0
 30
0.0
 11
-247.331377
 21
-54.051087
 31
0.0
  0
LINE
  5
302
  8
NOTE
  6
CONTINUOUS
 62
     4
 10
-248.0
 20
-23.0
 30
0.0
 11
-255.138938
 21
-52.138215
 31
0.0
  0
LINE
  5
303
  8
NOTE
  6
CONTINUOUS
 62
     4
 10
-255.138938
 20
-52.138215
 30
0.0
 11
-423.581228
 21
-739.650528
 31
0.0
  0
ENDSEC
  0
EOF
