  0
SECTION
  2
HEADER
  9
$ACADVER
  1
AC1009
  9
$INSBASE
 10
0.0
 20
0.0
 30
0.0
  9
$EXTMIN
 10
-1757.969272
 20
-978.188523
 30
-0.001526
  9
$EXTMAX
 10
1166.598837
 20
1144.463007
 30
0.0
  9
$LIMMIN
 10
-3837.000175
 20
-3000.109539
  9
$LIMMAX
 10
7319.256881
 20
4045.223003
  9
$ORTHOMODE
 70
     0
  9
$REGENMODE
 70
     1
  9
$FILLMODE
 70
     1
  9
$QTEXTMODE
 70
     0
  9
$MIRRTEXT
 70
     0
  9
$DRAGMODE
 70
     2
  9
$LTSCALE
 40
20.0
  9
$OSMODE
 70
    37
  9
$ATTMODE
 70
     1
  9
$TEXTSIZE
 40
64.0
  9
$TRACEWID
 40
0.05
  9
$TEXTSTYLE
  7
STANDARD
  9
$CLAYER
  8
SIZE
  9
$CELTYPE
  6
CONTINUOUS
  9
$CECOLOR
 62
     7
  9
$DIMSCALE
 40
1.0
  9
$DIMASZ
 40
30.0
  9
$DIMEXO
 40
15.0
  9
$DIMDLI
 40
80.0
  9
$DIMRND
 40
0.0
  9
$DIMDLE
 40
0.0
  9
$DIMEXE
 40
15.0
  9
$DIMTP
 40
0.0
  9
$DIMTM
 40
0.0
  9
$DIMTXT
 40
50.0
  9
$DIMCEN
 40
0.09
  9
$DIMTSZ
 40
0.0
  9
$DIMTOL
 70
     0
  9
$DIMLIM
 70
     0
  9
$DIMTIH
 70
     0
  9
$DIMTOH
 70
     0
  9
$DIMSE1
 70
     0
  9
$DIMSE2
 70
     0
  9
$DIMTAD
 70
     1
  9
$DIMZIN
 70
     8
  9
$DIMBLK
  1
_SMALL
  9
$DIMASO
 70
     1
  9
$DIMSHO
 70
     0
  9
$DIMPOST
  1

  9
$DIMAPOST
  1

  9
$DIMALT
 70
     0
  9
$DIMALTD
 70
     2
  9
$DIMALTF
 40
25.4
  9
$DIMLFAC
 40
1.0
  9
$DIMTOFL
 70
     1
  9
$DIMTVP
 40
0.0
  9
$DIMTIX
 70
     0
  9
$DIMSOXD
 70
     0
  9
$DIMSAH
 70
     0
  9
$DIMBLK1
  1

  9
$DIMBLK2
  1

  9
$DIMSTYLE
  2
STANDARD
  9
$DIMCLRD
 70
     0
  9
$DIMCLRE
 70
     0
  9
$DIMCLRT
 70
     0
  9
$DIMTFAC
 40
1.0
  9
$DIMGAP
 40
0.09
  9
$LUNITS
 70
     2
  9
$LUPREC
 70
     4
  9
$SKETCHINC
 40
0.1
  9
$FILLETRAD
 40
10.0
  9
$AUNITS
 70
     1
  9
$AUPREC
 70
     3
  9
$MENU
  1
ACAD
  9
$ELEVATION
 40
0.0
  9
$PELEVATION
 40
0.0
  9
$THICKNESS
 40
0.0
  9
$LIMCHECK
 70
     0
  9
$BLIPMODE
 70
     0
  9
$CHAMFERA
 40
0.0
  9
$CHAMFERB
 40
0.0
  9
$SKPOLY
 70
     0
  9
$TDCREATE
 40
2450330.439931
  9
$TDUPDATE
 40
2454645.656003
  9
$TDINDWG
 40
1.601154
  9
$TDUSRTIMER
 40
1.601153
  9
$USRTIMER
 70
     1
  9
$ANGBASE
 50
0.0
  9
$ANGDIR
 70
     0
  9
$PDMODE
 70
     3
  9
$PDSIZE
 40
-2.0
  9
$PLINEWID
 40
0.0
  9
$COORDS
 70
     0
  9
$SPLFRAME
 70
     0
  9
$SPLINETYPE
 70
     6
  9
$SPLINESEGS
 70
     8
  9
$ATTDIA
 70
     0
  9
$ATTREQ
 70
     1
  9
$HANDLING
 70
     1
  9
$HANDSEED
  5
425
  9
$SURFTAB1
 70
     6
  9
$SURFTAB2
 70
     6
  9
$SURFTYPE
 70
     6
  9
$SURFU
 70
     6
  9
$SURFV
 70
     6
  9
$UCSNAME
  2

  9
$UCSORG
 10
0.0
 20
0.0
 30
0.0
  9
$UCSXDIR
 10
1.0
 20
0.0
 30
0.0
  9
$UCSYDIR
 10
0.0
 20
1.0
 30
0.0
  9
$PUCSNAME
  2

  9
$PUCSORG
 10
0.0
 20
0.0
 30
0.0
  9
$PUCSXDIR
 10
1.0
 20
0.0
 30
0.0
  9
$PUCSYDIR
 10
0.0
 20
1.0
 30
0.0
  9
$USERI1
 70
     0
  9
$USERI2
 70
     0
  9
$USERI3
 70
     0
  9
$USERI4
 70
     0
  9
$USERI5
 70
     0
  9
$USERR1
 40
20.0
  9
$USERR2
 40
0.0
  9
$USERR3
 40
0.0
  9
$USERR4
 40
0.0
  9
$USERR5
 40
0.0
  9
$WORLDVIEW
 70
     1
  9
$SHADEDGE
 70
     3
  9
$SHADEDIF
 70
    70
  9
$TILEMODE
 70
     1
  9
$MAXACTVP
 70
    48
  9
$PLIMCHECK
 70
     0
  9
$PEXTMIN
 10
1.000000E+020
 20
1.000000E+020
 30
1.000000E+020
  9
$PEXTMAX
 10
-1.000000E+020
 20
-1.000000E+020
 30
-1.000000E+020
  9
$PLIMMIN
 10
0.0
 20
0.0
  9
$PLIMMAX
 10
12.0
 20
9.0
  9
$UNITMODE
 70
     0
  9
$VISRETAIN
 70
     1
  9
$PLINEGEN
 70
     0
  9
$PSLTSCALE
 70
     1
  0
ENDSEC
  0
SECTION
  2
TABLES
  0
TABLE
  2
VPORT
 70
     2
  0
VPORT
  2
*ACTIVE
 70
     0
 10
0.0
 20
0.0
 11
1.0
 21
1.0
 12
2690.131069
 22
522.556732
 13
0.0
 23
0.0
 14
50.0
 24
50.0
 15
100.0
 25
100.0
 16
0.0
 26
0.0
 36
1.0
 17
0.0
 27
0.0
 37
0.0
 40
7045.332542
 41
1.852895
 42
50.0
 43
0.0
 44
0.0
 50
0.0
 51
0.0
 71
     0
 72
  1000
 73
     1
 74
     0
 75
     0
 76
     0
 77
     0
 78
     0
  0
ENDTAB
  0
TABLE
  2
LTYPE
 70
     2
  0
LTYPE
  2
CONTINUOUS
 70
     0
  3
実線
 72
    65
 73
     0
 40
0.0
  0
LTYPE
  2
DASHDOT
 70
     0
  3
____ _ ____ _ ____ _ ____ _ ____ _ ____ _ ____
 72
    65
 73
     4
 40
5.5
 49
4.0
 49
-0.6
 49
0.3
 49
-0.6
  0
ENDTAB
  0
TABLE
  2
LAYER
 70
    12
  0
LAYER
  2
0
 70
     0
 62
     7
  6
CONTINUOUS
  0
LAYER
  2
SIZE
 70
     0
 62
    30
  6
CONTINUOUS
  0
LAYER
  2
OUTLINE
 70
     0
 62
     3
  6
CONTINUOUS
  0
LAYER
  2
DETAIL
 70
     0
 62
     5
  6
CONTINUOUS
  0
LAYER
  2
BASIS
 70
     0
 62
     6
  6
DASHDOT
  0
LAYER
  2
NOTE
 70
     0
 62
     4
  6
CONTINUOUS
  0
LAYER
  2
ARRANGE
 70
     0
 62
     1
  6
CONTINUOUS
  0
LAYER
  2
FIX
 70
     0
 62
    11
  6
CONTINUOUS
  0
LAYER
  2
SERVICESPACE
 70
     0
 62
     2
  6
DASHDOT
  0
LAYER
  2
ETC
 70
     0
 62
    61
  6
CONTINUOUS
  0
LAYER
  2
SYMBOLLINE
 70
     0
 62
    15
  6
CONTINUOUS
  0
LAYER
  2
DEFPOINTS
 70
     0
 62
     7
  6
CONTINUOUS
  0
ENDTAB
  0
TABLE
  2
STYLE
 70
     1
  0
STYLE
  2
STANDARD
 70
     0
 40
0.0
 41
0.9
 50
0.0
 71
     0
 42
64.0
  3
SIMPLEX
  4
BIGFONT
  0
ENDTAB
  0
TABLE
  2
VIEW
 70
     1
  0
VIEW
  2
ALL
 70
     0
 40
9000.0
 10
241.506647
 20
0.0
 41
12483.01
 11
0.0
 21
0.0
 31
1.0
 12
0.0
 22
0.0
 32
0.0
 42
50.0
 43
0.0
 44
0.0
 50
0.0
 71
     0
  0
ENDTAB
  0
TABLE
  2
UCS
 70
     0
  0
ENDTAB
  0
TABLE
  2
APPID
 70
     1
  0
APPID
  2
ACAD
 70
     0
  0
ENDTAB
  0
TABLE
  2
DIMSTYLE
 70
     1
  0
DIMSTYLE
  2
STANDARD
 70
     0
  3

  4

  5

  6

  7

 40
1.0
 41
0.18
 42
0.0625
 43
0.38
 44
0.18
 45
0.0
 46
0.0
 47
0.0
 48
0.0
140
0.18
141
0.09
142
0.0
143
25.4
144
1.0
145
0.0
146
1.0
147
0.09
 71
     0
 72
     0
 73
     1
 74
     1
 75
     0
 76
     0
 77
     0
 78
     0
170
     0
171
     2
172
     0
173
     0
174
     0
175
     0
176
     0
177
     0
178
     0
  0
ENDTAB
  0
ENDSEC
  0
SECTION
  2
BLOCKS
  0
BLOCK
  8
0
  2
$MODEL_SPACE
 70
     0
 10
0.0
 20
0.0
 30
0.0
  3
$MODEL_SPACE
  1

  0
ENDBLK
  5
409
  8
0
  0
BLOCK
 67
     1
  8
0
  2
$PAPER_SPACE
 70
     0
 10
0.0
 20
0.0
 30
0.0
  3
$PAPER_SPACE
  1

  0
ENDBLK
  5
406
 67
     1
  8
0
  0
BLOCK
  8
0
  2
_SMALL
 70
     0
 10
0.0
 20
0.0
 30
0.0
  3
_SMALL
  1

  0
CIRCLE
  5
30
  8
0
  6
CONTINUOUS
 62
     7
 10
0.0
 20
0.0
 30
0.0
 40
0.25
  0
ENDBLK
  5
31
  8
0
  0
ENDSEC
  0
SECTION
  2
ENTITIES
  0
LINE
  5
32
  8
OUTLINE
  6
CONTINUOUS
 62
     3
 10
324.0
 20
-181.0
 30
0.0
 11
-324.0
 21
-181.0
 31
0.0
  0
LINE
  5
34
  8
OUTLINE
  6
CONTINUOUS
 62
     3
 10
-324.0
 20
181.0
 30
0.0
 11
266.94262
 21
181.0
 31
0.0
  0
LINE
  5
35
  8
OUTLINE
  6
CONTINUOUS
 62
     3
 10
324.0
 20
-181.0
 30
0.0
 11
-324.0
 21
-181.0
 31
0.0
  0
POINT
  5
36
  8
ARRANGE
  6
CONTINUOUS
 62
     1
 10
0.0
 20
0.0
 30
0.0
  0
CIRCLE
  5
37
  8
ARRANGE
  6
CONTINUOUS
 62
     1
 10
0.0
 20
0.0
 30
0.0
 40
40.0
  0
LINE
  5
38
  8
BASIS
  6
DASHDOT
 62
     6
 10
-533.797076
 20
0.0
 30
0.0
 11
387.281876
 21
0.0
 31
0.0
  0
LINE
  5
39
  8
DETAIL
  6
CONTINUOUS
 62
     5
 10
-324.0
 20
181.0
 30
0.0
 11
324.0
 21
181.0
 31
0.0
  0
LINE
  5
3A
  8
DETAIL
  6
CONTINUOUS
 62
     5
 10
-324.0
 20
-181.0
 30
0.0
 11
324.0
 21
-181.0
 31
0.0
  0
LINE
  5
3B
  8
OUTLINE
  6
CONTINUOUS
 62
     3
 10
-324.0
 20
-181.0
 30
0.0
 11
-324.0
 21
181.0
 31
0.0
  0
LINE
  5
3C
  8
DETAIL
  6
CONTINUOUS
 62
     5
 10
-324.0
 20
180.600221
 30
0.0
 11
-324.0
 21
-181.0
 31
0.0
  0
LINE
  5
3D
  8
DETAIL
  6
CONTINUOUS
 62
     5
 10
-324.0
 20
181.0
 30
0.0
 11
-324.0
 21
-181.0
 31
0.0
  0
LINE
  5
3E
  8
DETAIL
  6
CONTINUOUS
 62
     5
 10
-324.0
 20
181.0
 30
0.0
 11
-324.0
 21
-181.0
 31
0.0
  0
LINE
  5
3F
  8
NOTE
  6
CONTINUOUS
 62
     4
 10
-168.0
 20
-245.0
 30
0.0
 11
-208.0
 21
-245.0
 31
0.0
  0
LINE
  5
40
  8
NOTE
  6
CONTINUOUS
 62
     4
 10
-374.0
 20
-78.0
 30
0.0
 11
-414.0
 21
-78.0
 31
0.0
  0
CIRCLE
  5
41
  8
FIX
  6
CONTINUOUS
 62
    11
 10
-350.999539
 20
-149.0
 30
0.0
 40
20.0
  0
LINE
  5
42
  8
NOTE
  6
CONTINUOUS
 62
     4
 10
-350.999539
 20
-169.0
 30
0.0
 11
-350.999539
 21
-129.0
 31
0.0
  0
LINE
  5
43
  8
DETAIL
  6
CONTINUOUS
 62
     5
 10
-374.001839
 20
-154.996687
 30
0.0
 11
-374.001839
 21
-173.986195
 31
0.0
  0
POINT
  5
44
  8
DEFPOINTS
  6
CONTINUOUS
 62
     7
 10
-324.0
 20
-181.0
 30
0.0
  0
POINT
  5
45
  8
DEFPOINTS
  6
CONTINUOUS
 62
     7
 10
-324.0
 20
-181.0
 30
0.0
  0
POINT
  5
46
  8
DEFPOINTS
  6
CONTINUOUS
 62
     7
 10
-324.0
 20
-181.0
 30
0.0
  0
POINT
  5
47
  8
DEFPOINTS
  6
CONTINUOUS
 62
     7
 10
-324.0
 20
-181.0
 30
0.0
  0
LINE
  5
48
  8
DETAIL
  6
CONTINUOUS
 62
     5
 10
-324.0
 20
-173.986195
 30
0.0
 11
-374.001839
 21
-173.986195
 31
0.0
  0
LINE
  5
4A
  8
NOTE
  6
CONTINUOUS
 62
     4
 10
-188.0
 20
-265.0
 30
0.0
 11
-188.0
 21
-225.0
 31
0.0
  0
LINE
  5
4B
  8
NOTE
  6
CONTINUOUS
 62
     4
 10
-228.0
 20
-245.0
 30
0.0
 11
-268.0
 21
-245.0
 31
0.0
  0
LINE
  5
4C
  8
NOTE
  6
CONTINUOUS
 62
     4
 10
-248.0
 20
-265.0
 30
0.0
 11
-248.0
 21
-225.0
 31
0.0
  0
POINT
  5
4D
  8
DEFPOINTS
  6
CONTINUOUS
 62
     7
 10
-350.999539
 20
-149.0
 30
0.0
  0
LINE
  5
4E
  8
NOTE
  6
CONTINUOUS
 62
     4
 10
-394.0
 20
-98.0
 30
0.0
 11
-394.0
 21
-58.0
 31
0.0
  0
POINT
  5
4F
  8
DEFPOINTS
  6
CONTINUOUS
 62
     7
 10
-394.0
 20
-90.7
 30
0.0
  0
LINE
  5
50
  8
NOTE
  6
CONTINUOUS
 62
     4
 10
-330.999539
 20
-149.0
 30
0.0
 11
-370.999539
 21
-149.0
 31
0.0
  0
LINE
  5
51
  8
DETAIL
  6
CONTINUOUS
 62
     5
 10
-394.0
 20
-65.3
 30
0.0
 11
-394.0
 21
-90.7
 31
0.0
  0
LINE
  5
52
  8
DETAIL
  6
CONTINUOUS
 62
     5
 10
-394.0
 20
-90.7
 30
0.0
 11
-324.0
 21
-90.7
 31
0.0
  0
LINE
  5
53
  8
DETAIL
  6
CONTINUOUS
 62
     5
 10
-394.0
 20
-65.3
 30
0.0
 11
-324.0
 21
-65.3
 31
0.0
  0
LINE
  5
54
  8
DETAIL
  6
CONTINUOUS
 62
     5
 10
-357.999539
 20
-143.0
 30
0.0
 11
-373.986839
 21
-143.0
 31
0.0
  0
LINE
  5
55
  8
DETAIL
  6
CONTINUOUS
 62
     5
 10
-374.001839
 20
-124.013805
 30
0.0
 11
-374.001839
 21
-143.0
 31
0.0
  0
LINE
  5
56
  8
DETAIL
  6
CONTINUOUS
 62
     5
 10
-357.999539
 20
-155.0
 30
0.0
 11
-373.986839
 21
-154.996687
 31
0.0
  0
LINE
  5
57
  8
DETAIL
  6
CONTINUOUS
 62
     5
 10
-357.999539
 20
-157.0
 30
0.0
 11
-357.999539
 21
-155.0
 31
0.0
  0
LINE
  5
58
  8
DETAIL
  6
CONTINUOUS
 62
     5
 10
-343.999539
 20
-157.0
 30
0.0
 11
-343.999539
 21
-149.0
 31
0.0
  0
ARC
  5
59
  8
DETAIL
  6
CONTINUOUS
 62
     5
 10
-350.999539
 20
-157.0
 30
0.0
 40
7.0
 50
180.0
 51
0.0
  0
LINE
  5
5A
  8
DETAIL
  6
CONTINUOUS
 62
     5
 10
-357.999539
 20
-141.0
 30
0.0
 11
-357.999539
 21
-143.0
 31
0.0
  0
LINE
  5
5B
  8
DETAIL
  6
CONTINUOUS
 62
     5
 10
-343.999539
 20
-141.0
 30
0.0
 11
-343.999539
 21
-149.0
 31
0.0
  0
ARC
  5
5C
  8
DETAIL
  6
CONTINUOUS
 62
     5
 10
-350.999539
 20
-141.0
 30
0.0
 40
7.0
 50
0.0
 51
180.0
  0
LINE
  5
5D
  8
DETAIL
  6
CONTINUOUS
 62
     5
 10
-324.0
 20
-124.013805
 30
0.0
 11
-374.001839
 21
-124.013805
 31
0.0
  0
LINE
  5
5E
  8
NOTE
  6
CONTINUOUS
 62
     4
 10
72.0
 20
-245.0
 30
0.0
 11
32.0
 21
-245.0
 31
0.0
  0
LINE
  5
5F
  8
NOTE
  6
CONTINUOUS
 62
     4
 10
-48.0
 20
-245.0
 30
0.0
 11
-88.0
 21
-245.0
 31
0.0
  0
LINE
  5
60
  8
NOTE
  6
CONTINUOUS
 62
     4
 10
-108.0
 20
-245.0
 30
0.0
 11
-148.0
 21
-245.0
 31
0.0
  0
LINE
  5
61
  8
NOTE
  6
CONTINUOUS
 62
     4
 10
-128.0
 20
-265.0
 30
0.0
 11
-128.0
 21
-225.0
 31
0.0
  0
LINE
  5
62
  8
NOTE
  6
CONTINUOUS
 62
     4
 10
12.0
 20
-245.0
 30
0.0
 11
-28.0
 21
-245.0
 31
0.0
  0
LINE
  5
63
  8
NOTE
  6
CONTINUOUS
 62
     4
 10
-8.0
 20
-265.0
 30
0.0
 11
-8.0
 21
-225.0
 31
0.0
  0
LINE
  5
64
  8
NOTE
  6
CONTINUOUS
 62
     4
 10
-68.0
 20
-265.0
 30
0.0
 11
-68.0
 21
-225.0
 31
0.0
  0
LINE
  5
65
  8
NOTE
  6
CONTINUOUS
 62
     4
 10
132.0
 20
-245.0
 30
0.0
 11
92.0
 21
-245.0
 31
0.0
  0
LINE
  5
66
  8
NOTE
  6
CONTINUOUS
 62
     4
 10
112.0
 20
-265.0
 30
0.0
 11
112.0
 21
-225.0
 31
0.0
  0
LINE
  5
67
  8
NOTE
  6
CONTINUOUS
 62
     4
 10
52.0
 20
-265.0
 30
0.0
 11
52.0
 21
-225.0
 31
0.0
  0
LINE
  5
69
  8
NOTE
  6
CONTINUOUS
 62
     4
 10
192.0
 20
-245.0
 30
0.0
 11
152.0
 21
-245.0
 31
0.0
  0
LINE
  5
6A
  8
NOTE
  6
CONTINUOUS
 62
     4
 10
172.0
 20
-265.0
 30
0.0
 11
172.0
 21
-225.0
 31
0.0
  0
LINE
  5
6B
  8
NOTE
  6
CONTINUOUS
 62
     4
 10
-374.0
 20
67.0
 30
0.0
 11
-414.0
 21
67.0
 31
0.0
  0
LINE
  5
6C
  8
NOTE
  6
CONTINUOUS
 62
     4
 10
-394.0
 20
47.0
 30
0.0
 11
-394.0
 21
87.0
 31
0.0
  0
LINE
  5
6D
  8
DETAIL
  6
CONTINUOUS
 62
     5
 10
-394.0
 20
76.525
 30
0.0
 11
-324.0
 21
76.525
 31
0.0
  0
LINE
  5
6E
  8
DETAIL
  6
CONTINUOUS
 62
     5
 10
-394.0
 20
57.475
 30
0.0
 11
-324.0
 21
57.475
 31
0.0
  0
LINE
  5
6F
  8
DETAIL
  6
CONTINUOUS
 62
     5
 10
-394.0
 20
76.525
 30
0.0
 11
-394.0
 21
57.475
 31
0.0
  0
LINE
  5
70
  8
NOTE
  6
CONTINUOUS
 62
     4
 10
-330.999539
 20
149.0
 30
0.0
 11
-370.999539
 21
149.0
 31
0.0
  0
LINE
  5
71
  8
NOTE
  6
CONTINUOUS
 62
     4
 10
-350.999539
 20
129.0
 30
0.0
 11
-350.999539
 21
169.0
 31
0.0
  0
LINE
  5
72
  8
DETAIL
  6
CONTINUOUS
 62
     5
 10
-324.0
 20
173.986195
 30
0.0
 11
-335.999986
 21
173.986195
 31
0.0
  0
LINE
  5
73
  8
DETAIL
  6
CONTINUOUS
 62
     5
 10
-324.0
 20
124.013805
 30
0.0
 11
-374.001839
 21
124.013805
 31
0.0
  0
LINE
  5
74
  8
DETAIL
  6
CONTINUOUS
 62
     5
 10
-374.001839
 20
126.900221
 30
0.0
 11
-374.001839
 21
124.013805
 31
0.0
  0
LINE
  5
75
  8
OUTLINE
  6
CONTINUOUS
 62
     3
 10
324.0
 20
181.0
 30
0.0
 11
324.0
 21
-181.0
 31
0.0
  0
LINE
  5
76
  8
DETAIL
  6
CONTINUOUS
 62
     5
 10
324.0
 20
181.0
 30
0.0
 11
324.0
 21
-181.0
 31
0.0
  0
LINE
  5
77
  8
BASIS
  6
DASHDOT
 62
     6
 10
0.0
 20
255.975204
 30
0.0
 11
0.0
 21
-255.975204
 31
0.0
  0
LINE
  5
78
  8
DETAIL
  6
CONTINUOUS
 62
     5
 10
324.0
 20
181.0
 30
0.0
 11
324.0
 21
-180.600221
 31
0.0
  0
CIRCLE
  5
7B
  8
FIX
  6
CONTINUOUS
 62
    11
 10
350.999539
 20
-149.0
 30
0.0
 40
20.0
  0
LINE
  5
7C
  8
NOTE
  6
CONTINUOUS
 62
     4
 10
350.999539
 20
-169.0
 30
0.0
 11
350.999539
 21
-129.0
 31
0.0
  0
LINE
  5
7D
  8
DETAIL
  6
CONTINUOUS
 62
     5
 10
374.001839
 20
-154.996687
 30
0.0
 11
374.001839
 21
-173.986195
 31
0.0
  0
LINE
  5
7E
  8
DETAIL
  6
CONTINUOUS
 62
     5
 10
324.0
 20
-173.986195
 30
0.0
 11
374.001839
 21
-173.986195
 31
0.0
  0
POINT
  5
7F
  8
DEFPOINTS
  6
CONTINUOUS
 62
     7
 10
324.0
 20
-181.0
 30
0.0
  0
POINT
  5
80
  8
DEFPOINTS
  6
CONTINUOUS
 62
     7
 10
324.0
 20
-180.600221
 30
0.0
  0
LINE
  5
81
  8
NOTE
  6
CONTINUOUS
 62
     4
 10
370.999539
 20
-149.0
 30
0.0
 11
330.999539
 21
-149.0
 31
0.0
  0
ARC
  5
82
  8
DETAIL
  6
CONTINUOUS
 62
     5
 10
350.999539
 20
-157.0
 30
0.0
 40
7.0
 50
180.0
 51
0.0
  0
ARC
  5
83
  8
DETAIL
  6
CONTINUOUS
 62
     5
 10
350.999539
 20
-141.0
 30
0.0
 40
7.0
 50
0.0
 51
180.0
  0
LINE
  5
84
  8
DETAIL
  6
CONTINUOUS
 62
     5
 10
324.0
 20
-124.013805
 30
0.0
 11
374.001839
 21
-124.013805
 31
0.0
  0
LINE
  5
85
  8
DETAIL
  6
CONTINUOUS
 62
     5
 10
343.999539
 20
-157.0
 30
0.0
 11
343.999539
 21
-149.0
 31
0.0
  0
LINE
  5
86
  8
DETAIL
  6
CONTINUOUS
 62
     5
 10
343.999539
 20
-141.0
 30
0.0
 11
343.999539
 21
-149.0
 31
0.0
  0
LINE
  5
87
  8
DETAIL
  6
CONTINUOUS
 62
     5
 10
357.999539
 20
-143.0
 30
0.0
 11
373.986839
 21
-143.0
 31
0.0
  0
LINE
  5
88
  8
DETAIL
  6
CONTINUOUS
 62
     5
 10
374.001839
 20
-124.013805
 30
0.0
 11
374.001839
 21
-143.0
 31
0.0
  0
LINE
  5
89
  8
DETAIL
  6
CONTINUOUS
 62
     5
 10
357.999539
 20
-155.0
 30
0.0
 11
373.986839
 21
-154.996687
 31
0.0
  0
LINE
  5
8A
  8
DETAIL
  6
CONTINUOUS
 62
     5
 10
357.999539
 20
-157.0
 30
0.0
 11
357.999539
 21
-155.0
 31
0.0
  0
LINE
  5
8B
  8
DETAIL
  6
CONTINUOUS
 62
     5
 10
357.999539
 20
-141.0
 30
0.0
 11
357.999539
 21
-143.0
 31
0.0
  0
LINE
  5
8C
  8
OUTLINE
  6
CONTINUOUS
 62
     3
 10
-183.05738
 20
251.0
 30
0.0
 11
276.937881
 21
251.0
 31
0.0
  0
LINE
  5
8D
  8
DETAIL
  6
CONTINUOUS
 62
     5
 10
-183.05738
 20
251.0
 30
0.0
 11
276.937881
 21
251.0
 31
0.0
  0
LINE
  5
8E
  8
OUTLINE
  6
CONTINUOUS
 62
     3
 10
-183.05738
 20
181.0
 30
0.0
 11
-183.05738
 21
251.0
 31
0.0
  0
LINE
  5
8F
  8
DETAIL
  6
CONTINUOUS
 62
     5
 10
-183.05738
 20
181.0
 30
0.0
 11
-183.05738
 21
251.0
 31
0.0
  0
LINE
  5
90
  8
OUTLINE
  6
CONTINUOUS
 62
     3
 10
276.937881
 20
251.0
 30
0.0
 11
276.937881
 21
181.0
 31
0.0
  0
LINE
  5
91
  8
DETAIL
  6
CONTINUOUS
 62
     5
 10
276.937881
 20
181.0
 30
0.0
 11
276.937881
 21
251.0
 31
0.0
  0
CIRCLE
  5
92
  8
FIX
  6
CONTINUOUS
 62
    11
 10
350.999539
 20
149.0
 30
0.0
 40
20.0
  0
LINE
  5
93
  8
NOTE
  6
CONTINUOUS
 62
     4
 10
370.999539
 20
149.0
 30
0.0
 11
330.999539
 21
149.0
 31
0.0
  0
ARC
  5
94
  8
DETAIL
  6
CONTINUOUS
 62
     5
 10
350.999539
 20
141.0
 30
0.0
 40
7.0
 50
180.0
 51
0.0
  0
ARC
  5
95
  8
DETAIL
  6
CONTINUOUS
 62
     5
 10
350.999539
 20
157.0
 30
0.0
 40
7.0
 50
0.0
 51
180.0
  0
LINE
  5
96
  8
DETAIL
  6
CONTINUOUS
 62
     5
 10
323.985
 20
173.986195
 30
0.0
 11
373.986839
 21
173.986195
 31
0.0
  0
LINE
  5
97
  8
DETAIL
  6
CONTINUOUS
 62
     5
 10
323.985
 20
124.013805
 30
0.0
 11
373.986839
 21
124.013805
 31
0.0
  0
POINT
  5
98
  8
DEFPOINTS
  6
CONTINUOUS
 62
     7
 10
276.937881
 20
181.0
 30
0.0
  0
LINE
  5
99
  8
OUTLINE
  6
CONTINUOUS
 62
     3
 10
276.937881
 20
181.0
 30
0.0
 11
324.0
 21
181.0
 31
0.0
  0
POINT
  5
9A
  8
DEFPOINTS
  6
CONTINUOUS
 62
     7
 10
343.999539
 20
157.399779
 30
0.0
  0
LINE
  5
9B
  8
DETAIL
  6
CONTINUOUS
 62
     5
 10
343.999539
 20
141.0
 30
0.0
 11
343.999539
 21
149.0
 31
0.0
  0
LINE
  5
9C
  8
DETAIL
  6
CONTINUOUS
 62
     5
 10
343.999539
 20
157.0
 30
0.0
 11
343.999539
 21
149.0
 31
0.0
  0
POINT
  5
9D
  8
DEFPOINTS
  6
CONTINUOUS
 62
     7
 10
350.999539
 20
134.0
 30
0.0
  0
POINT
  5
9E
  8
DEFPOINTS
  6
CONTINUOUS
 62
     7
 10
350.999539
 20
164.0
 30
0.0
  0
POINT
  5
9F
  8
DEFPOINTS
  6
CONTINUOUS
 62
     7
 10
357.999539
 20
143.0
 30
0.0
  0
POINT
  5
A0
  8
DEFPOINTS
  6
CONTINUOUS
 62
     7
 10
357.999539
 20
155.0
 30
0.0
  0
LINE
  5
A1
  8
NOTE
  6
CONTINUOUS
 62
     4
 10
350.999539
 20
129.0
 30
0.0
 11
350.999539
 21
169.0
 31
0.0
  0
LINE
  5
A2
  8
DETAIL
  6
CONTINUOUS
 62
     5
 10
357.999539
 20
155.0
 30
0.0
 11
373.986839
 21
155.0
 31
0.0
  0
POINT
  5
A3
  8
DEFPOINTS
  6
CONTINUOUS
 62
     7
 10
357.999539
 20
157.399779
 30
0.0
  0
LINE
  5
A4
  8
DETAIL
  6
CONTINUOUS
 62
     5
 10
357.999539
 20
143.0
 30
0.0
 11
373.986839
 21
143.003313
 31
0.0
  0
LINE
  5
A5
  8
DETAIL
  6
CONTINUOUS
 62
     5
 10
357.999539
 20
141.0
 30
0.0
 11
357.999539
 21
143.0
 31
0.0
  0
LINE
  5
A6
  8
DETAIL
  6
CONTINUOUS
 62
     5
 10
357.999539
 20
157.0
 30
0.0
 11
357.999539
 21
155.0
 31
0.0
  0
LINE
  5
A7
  8
DETAIL
  6
CONTINUOUS
 62
     5
 10
373.986839
 20
173.986195
 30
0.0
 11
373.986839
 21
155.0
 31
0.0
  0
LINE
  5
A8
  8
DETAIL
  6
CONTINUOUS
 62
     5
 10
373.986839
 20
143.003313
 30
0.0
 11
373.986839
 21
124.013805
 31
0.0
  0
POINT
  5
A9
  8
DEFPOINTS
  6
CONTINUOUS
 62
     7
 10
276.937881
 20
251.0
 30
0.0
  0
TEXT
  5
AA
  8
NOTE
  6
CONTINUOUS
 62
     4
 10
-1032.723207
 20
315.363043
 30
0.0
 40
55.0
  1
D　VP-20
 41
0.8
 72
     2
 11
-724.304159
 21
315.363043
 31
0.0
  0
LINE
  5
AB
  8
DETAIL
  6
CONTINUOUS
 62
     5
 10
-377.999986
 20
125.400221
 30
0.0
 11
-520.0
 21
125.400221
 31
0.0
  0
LINE
  5
AC
  8
DETAIL
  6
CONTINUOUS
 62
     5
 10
-520.0
 20
310.0
 30
0.0
 11
-377.999986
 21
310.0
 31
0.0
  0
LINE
  5
AD
  8
DETAIL
  6
CONTINUOUS
 62
     5
 10
-520.0
 20
302.200221
 30
0.0
 11
-377.999986
 21
302.200221
 31
0.0
  0
LINE
  5
AE
  8
DETAIL
  6
CONTINUOUS
 62
     5
 10
-399.732843
 20
-19.946676
 30
0.0
 11
-396.229244
 21
20.099646
 31
0.0
  0
LINE
  5
AF
  8
DETAIL
  6
CONTINUOUS
 62
     5
 10
-403.681614
 20
15.693615
 30
0.0
 11
-396.229244
 21
20.099646
 31
0.0
  0
LINE
  5
B0
  8
DETAIL
  6
CONTINUOUS
 62
     5
 10
-390.597244
 20
-14.507136
 30
0.0
 11
-399.732843
 21
-19.946676
 31
0.0
  0
LINE
  5
B1
  8
DETAIL
  6
CONTINUOUS
 62
     5
 10
-423.333244
 20
101.124785
 30
0.0
 11
-418.746921
 21
94.084785
 31
0.0
  0
LINE
  5
B2
  8
DETAIL
  6
CONTINUOUS
 62
     5
 10
-459.253079
 20
94.084785
 30
0.0
 11
-455.013244
 21
101.124785
 31
0.0
  0
LINE
  5
B3
  8
DETAIL
  6
CONTINUOUS
 62
     5
 10
-421.843695
 20
-12.758898
 30
0.0
 11
-414.190934
 21
15.801597
 31
0.0
  0
LINE
  5
B4
  8
DETAIL
  6
CONTINUOUS
 62
     5
 10
-415.881778
 20
-19.488929
 30
0.0
 11
-408.901244
 21
20.099646
 31
0.0
  0
LINE
  5
B5
  8
DETAIL
  6
CONTINUOUS
 62
     5
 10
-415.941244
 20
20.099646
 30
0.0
 11
-414.190934
 21
15.801597
 31
0.0
  0
LINE
  5
B6
  8
DETAIL
  6
CONTINUOUS
 62
     5
 10
-406.258635
 20
-13.76187
 30
0.0
 11
-415.881778
 21
-19.488929
 31
0.0
  0
LINE
  5
B7
  8
DETAIL
  6
CONTINUOUS
 62
     5
 10
-436.947109
 20
-8.289517
 30
0.0
 11
-420.843222
 21
16.508294
 31
0.0
  0
LINE
  5
B8
  8
DETAIL
  6
CONTINUOUS
 62
     5
 10
-432.930199
 20
-16.333286
 30
0.0
 11
-415.941244
 21
20.099646
 31
0.0
  0
LINE
  5
B9
  8
DETAIL
  6
CONTINUOUS
 62
     5
 10
-418.746921
 20
94.084785
 30
0.0
 11
-459.253079
 21
94.084785
 31
0.0
  0
LINE
  5
BA
  8
DETAIL
  6
CONTINUOUS
 62
     5
 10
-423.333244
 20
58.884785
 30
0.0
 11
-455.013244
 21
58.884785
 31
0.0
  0
LINE
  5
BB
  8
DETAIL
  6
CONTINUOUS
 62
     5
 10
-418.746921
 20
51.844785
 30
0.0
 11
-459.253079
 21
51.844785
 31
0.0
  0
LINE
  5
BC
  8
DETAIL
  6
CONTINUOUS
 62
     5
 10
-423.929368
 20
47.194271
 30
0.0
 11
-455.488816
 21
44.433177
 31
0.0
  0
LINE
  5
BD
  8
DETAIL
  6
CONTINUOUS
 62
     5
 10
-418.746921
 20
41.988785
 30
0.0
 11
-459.098941
 21
38.458441
 31
0.0
  0
LINE
  5
BE
  8
DETAIL
  6
CONTINUOUS
 62
     5
 10
-419.511756
 20
34.17473
 30
0.0
 11
-458.637699
 21
23.690965
 31
0.0
  0
LINE
  5
BF
  8
DETAIL
  6
CONTINUOUS
 62
     5
 10
-424.486051
 20
36.861425
 30
0.0
 11
-455.68476
 21
31.360251
 31
0.0
  0
LINE
  5
C0
  8
DETAIL
  6
CONTINUOUS
 62
     5
 10
-416.695756
 20
28.54273
 30
0.0
 11
-451.775117
 21
8.289651
 31
0.0
  0
LINE
  5
C1
  8
DETAIL
  6
CONTINUOUS
 62
     5
 10
-422.195924
 20
29.850436
 30
0.0
 11
-450.907754
 21
16.461889
 31
0.0
  0
LINE
  5
C2
  8
DETAIL
  6
CONTINUOUS
 62
     5
 10
-445.379018
 20
-9.854454
 30
0.0
 11
-420.629862
 21
21.823021
 31
0.0
  0
LINE
  5
C3
  8
DETAIL
  6
CONTINUOUS
 62
     5
 10
-422.983591
 20
20.312581
 30
0.0
 11
-443.488979
 21
3.106517
 31
0.0
  0
LINE
  5
C4
  8
DETAIL
  6
CONTINUOUS
 62
     5
 10
-418.746921
 20
94.084785
 30
0.0
 11
-423.333244
 21
87.044785
 31
0.0
  0
LINE
  5
C5
  8
DETAIL
  6
CONTINUOUS
 62
     5
 10
-423.333244
 20
58.884785
 30
0.0
 11
-418.746921
 21
51.844785
 31
0.0
  0
LINE
  5
C6
  8
DETAIL
  6
CONTINUOUS
 62
     5
 10
-418.746921
 20
51.844785
 30
0.0
 11
-423.929368
 21
47.194271
 31
0.0
  0
LINE
  5
C7
  8
DETAIL
  6
CONTINUOUS
 62
     5
 10
-423.929368
 20
47.194271
 30
0.0
 11
-418.746921
 21
41.988785
 31
0.0
  0
LINE
  5
C8
  8
DETAIL
  6
CONTINUOUS
 62
     5
 10
-418.746921
 20
41.988785
 30
0.0
 11
-424.486051
 21
36.861425
 31
0.0
  0
LINE
  5
C9
  8
DETAIL
  6
CONTINUOUS
 62
     5
 10
-424.486051
 20
36.861425
 30
0.0
 11
-419.511756
 21
34.17473
 31
0.0
  0
LINE
  5
CA
  8
DETAIL
  6
CONTINUOUS
 62
     5
 10
-419.511756
 20
34.17473
 30
0.0
 11
-422.195924
 21
29.850436
 31
0.0
  0
LINE
  5
CB
  8
DETAIL
  6
CONTINUOUS
 62
     5
 10
-422.195924
 20
29.850436
 30
0.0
 11
-416.695756
 21
28.54273
 31
0.0
  0
LINE
  5
CC
  8
DETAIL
  6
CONTINUOUS
 62
     5
 10
-416.695756
 20
28.54273
 30
0.0
 11
-422.983591
 21
20.312581
 31
0.0
  0
LINE
  5
CD
  8
DETAIL
  6
CONTINUOUS
 62
     5
 10
-422.983591
 20
20.312581
 30
0.0
 11
-420.629862
 21
21.823021
 31
0.0
  0
LINE
  5
CE
  8
DETAIL
  6
CONTINUOUS
 62
     5
 10
-420.629862
 20
21.823021
 30
0.0
 11
-420.843222
 21
16.508294
 31
0.0
  0
LINE
  5
CF
  8
DETAIL
  6
CONTINUOUS
 62
     5
 10
-420.843222
 20
16.508294
 30
0.0
 11
-415.941244
 21
20.099646
 31
0.0
  0
LINE
  5
D0
  8
DETAIL
  6
CONTINUOUS
 62
     5
 10
-415.881778
 20
-19.488929
 30
0.0
 11
-421.843695
 21
-12.758898
 31
0.0
  0
LINE
  5
D1
  8
DETAIL
  6
CONTINUOUS
 62
     5
 10
-421.843695
 20
-12.758898
 30
0.0
 11
-433.818672
 21
-16.532457
 31
0.0
  0
LINE
  5
D2
  8
DETAIL
  6
CONTINUOUS
 62
     5
 10
-433.818672
 20
-16.532457
 30
0.0
 11
-436.947109
 21
-8.289517
 31
0.0
  0
LINE
  5
D3
  8
DETAIL
  6
CONTINUOUS
 62
     5
 10
-436.947109
 20
-8.289517
 30
0.0
 11
-445.379018
 21
-9.854454
 31
0.0
  0
LINE
  5
D4
  8
DETAIL
  6
CONTINUOUS
 62
     5
 10
-445.379018
 20
-9.854454
 30
0.0
 11
-443.488979
 21
3.106517
 31
0.0
  0
LINE
  5
D5
  8
DETAIL
  6
CONTINUOUS
 62
     5
 10
-443.488979
 20
3.106517
 30
0.0
 11
-451.775117
 21
8.289651
 31
0.0
  0
LINE
  5
D6
  8
DETAIL
  6
CONTINUOUS
 62
     5
 10
-451.775117
 20
8.289651
 30
0.0
 11
-450.907754
 21
16.461889
 31
0.0
  0
LINE
  5
D7
  8
DETAIL
  6
CONTINUOUS
 62
     5
 10
-450.907754
 20
16.461889
 30
0.0
 11
-458.637699
 21
23.690965
 31
0.0
  0
LINE
  5
D8
  8
DETAIL
  6
CONTINUOUS
 62
     5
 10
-458.637699
 20
23.690965
 30
0.0
 11
-455.68476
 21
31.360251
 31
0.0
  0
LINE
  5
D9
  8
DETAIL
  6
CONTINUOUS
 62
     5
 10
-455.68476
 20
31.360251
 30
0.0
 11
-459.098941
 21
38.458441
 31
0.0
  0
LINE
  5
DA
  8
DETAIL
  6
CONTINUOUS
 62
     5
 10
-459.098941
 20
38.458441
 30
0.0
 11
-455.488816
 21
44.433177
 31
0.0
  0
LINE
  5
DB
  8
DETAIL
  6
CONTINUOUS
 62
     5
 10
-455.488816
 20
44.433177
 30
0.0
 11
-459.253079
 21
51.844785
 31
0.0
  0
LINE
  5
DC
  8
DETAIL
  6
CONTINUOUS
 62
     5
 10
-459.253079
 20
51.844785
 30
0.0
 11
-455.013244
 21
58.884785
 31
0.0
  0
LINE
  5
DD
  8
DETAIL
  6
CONTINUOUS
 62
     5
 10
-455.013244
 20
87.044785
 30
0.0
 11
-459.253079
 21
94.084785
 31
0.0
  0
LINE
  5
DE
  8
DETAIL
  6
CONTINUOUS
 62
     5
 10
-455.013244
 20
87.044785
 30
0.0
 11
-423.333244
 21
87.044785
 31
0.0
  0
LINE
  5
DF
  8
DETAIL
  6
CONTINUOUS
 62
     5
 10
-455.013244
 20
72.964785
 30
0.0
 11
-423.333244
 21
72.964785
 31
0.0
  0
LINE
  5
E0
  8
DETAIL
  6
CONTINUOUS
 62
     5
 10
-418.746921
 20
80.004785
 30
0.0
 11
-459.253079
 21
80.004785
 31
0.0
  0
LINE
  5
E1
  8
DETAIL
  6
CONTINUOUS
 62
     5
 10
-423.333244
 20
87.044785
 30
0.0
 11
-418.746921
 21
80.004785
 31
0.0
  0
LINE
  5
E2
  8
DETAIL
  6
CONTINUOUS
 62
     5
 10
-418.746921
 20
80.004785
 30
0.0
 11
-423.333244
 21
72.964785
 31
0.0
  0
LINE
  5
E3
  8
DETAIL
  6
CONTINUOUS
 62
     5
 10
-455.013244
 20
72.964785
 30
0.0
 11
-459.253079
 21
80.004785
 31
0.0
  0
LINE
  5
E4
  8
DETAIL
  6
CONTINUOUS
 62
     5
 10
-459.253079
 20
80.004785
 30
0.0
 11
-455.013244
 21
87.044785
 31
0.0
  0
LINE
  5
E5
  8
DETAIL
  6
CONTINUOUS
 62
     5
 10
-455.013244
 20
58.884785
 30
0.0
 11
-423.333244
 21
58.884785
 31
0.0
  0
LINE
  5
E6
  8
DETAIL
  6
CONTINUOUS
 62
     5
 10
-418.746921
 20
65.924785
 30
0.0
 11
-459.253079
 21
65.924785
 31
0.0
  0
LINE
  5
E7
  8
DETAIL
  6
CONTINUOUS
 62
     5
 10
-423.333244
 20
72.964785
 30
0.0
 11
-418.746921
 21
65.924785
 31
0.0
  0
LINE
  5
E8
  8
DETAIL
  6
CONTINUOUS
 62
     5
 10
-418.746921
 20
65.924785
 30
0.0
 11
-423.333244
 21
58.884785
 31
0.0
  0
LINE
  5
E9
  8
DETAIL
  6
CONTINUOUS
 62
     5
 10
-455.013244
 20
58.884785
 30
0.0
 11
-459.253079
 21
65.924785
 31
0.0
  0
LINE
  5
EA
  8
DETAIL
  6
CONTINUOUS
 62
     5
 10
-459.253079
 20
65.924785
 30
0.0
 11
-455.013244
 21
72.964785
 31
0.0
  0
LINE
  5
EB
  8
DETAIL
  6
CONTINUOUS
 62
     5
 10
-406.258635
 20
-13.76187
 30
0.0
 11
-403.681614
 21
15.693615
 31
0.0
  0
LINE
  5
EC
  8
DETAIL
  6
CONTINUOUS
 62
     5
 10
-414.190934
 20
15.801597
 30
0.0
 11
-408.901244
 21
20.099646
 31
0.0
  0
LINE
  5
ED
  8
DETAIL
  6
CONTINUOUS
 62
     5
 10
-408.901244
 20
20.099646
 30
0.0
 11
-403.681614
 21
15.693615
 31
0.0
  0
LINE
  5
EE
  8
DETAIL
  6
CONTINUOUS
 62
     5
 10
-399.732843
 20
-19.946676
 30
0.0
 11
-406.258635
 21
-13.76187
 31
0.0
  0
LINE
  5
EF
  8
DETAIL
  6
CONTINUOUS
 62
     5
 10
-618.0
 20
142.0
 30
0.0
 11
-613.0
 21
137.0
 31
0.0
  0
LINE
  5
F0
  8
DETAIL
  6
CONTINUOUS
 62
     5
 10
-618.0
 20
172.0
 30
0.0
 11
-613.0
 21
177.0
 31
0.0
  0
LINE
  5
F1
  8
DETAIL
  6
CONTINUOUS
 62
     5
 10
-693.0
 20
140.0
 30
0.0
 11
-663.0
 21
140.0
 31
0.0
  0
LINE
  5
F2
  8
DETAIL
  6
CONTINUOUS
 62
     5
 10
-663.0
 20
135.4
 30
0.0
 11
-658.0
 21
135.4
 31
0.0
  0
LINE
  5
F3
  8
DETAIL
  6
CONTINUOUS
 62
     5
 10
-618.0
 20
142.0
 30
0.0
 11
-623.0
 21
137.0
 31
0.0
  0
LINE
  5
F4
  8
DETAIL
  6
CONTINUOUS
 62
     5
 10
-628.0
 20
142.0
 30
0.0
 11
-633.0
 21
137.0
 31
0.0
  0
LINE
  5
F5
  8
DETAIL
  6
CONTINUOUS
 62
     5
 10
-638.0
 20
142.0
 30
0.0
 11
-643.0
 21
137.0
 31
0.0
  0
LINE
  5
F6
  8
DETAIL
  6
CONTINUOUS
 62
     5
 10
-648.0
 20
142.0
 30
0.0
 11
-653.0
 21
137.0
 31
0.0
  0
LINE
  5
F7
  8
DETAIL
  6
CONTINUOUS
 62
     5
 10
-628.0
 20
142.0
 30
0.0
 11
-623.0
 21
137.0
 31
0.0
  0
LINE
  5
F8
  8
DETAIL
  6
CONTINUOUS
 62
     5
 10
-638.0
 20
142.0
 30
0.0
 11
-633.0
 21
137.0
 31
0.0
  0
LINE
  5
F9
  8
DETAIL
  6
CONTINUOUS
 62
     5
 10
-648.0
 20
142.0
 30
0.0
 11
-643.0
 21
137.0
 31
0.0
  0
LINE
  5
FA
  8
DETAIL
  6
CONTINUOUS
 62
     5
 10
-658.0
 20
142.0
 30
0.0
 11
-653.0
 21
137.0
 31
0.0
  0
LINE
  5
FB
  8
DETAIL
  6
CONTINUOUS
 62
     5
 10
-663.0
 20
135.4
 30
0.0
 11
-663.0
 21
179.4
 31
0.0
  0
LINE
  5
FC
  8
DETAIL
  6
CONTINUOUS
 62
     5
 10
-658.0
 20
135.4
 30
0.0
 11
-658.0
 21
179.4
 31
0.0
  0
LINE
  5
FD
  8
DETAIL
  6
CONTINUOUS
 62
     5
 10
-623.0
 20
137.0
 30
0.0
 11
-623.0
 21
177.0
 31
0.0
  0
LINE
  5
FE
  8
DETAIL
  6
CONTINUOUS
 62
     5
 10
-633.0
 20
137.0
 30
0.0
 11
-633.0
 21
177.0
 31
0.0
  0
LINE
  5
FF
  8
DETAIL
  6
CONTINUOUS
 62
     5
 10
-643.0
 20
137.0
 30
0.0
 11
-643.0
 21
177.0
 31
0.0
  0
LINE
  5
100
  8
DETAIL
  6
CONTINUOUS
 62
     5
 10
-653.0
 20
137.0
 30
0.0
 11
-653.0
 21
177.0
 31
0.0
  0
LINE
  5
101
  8
DETAIL
  6
CONTINUOUS
 62
     5
 10
-618.0
 20
142.0
 30
0.0
 11
-618.0
 21
172.0
 31
0.0
  0
LINE
  5
102
  8
DETAIL
  6
CONTINUOUS
 62
     5
 10
-628.0
 20
142.0
 30
0.0
 11
-628.0
 21
172.0
 31
0.0
  0
LINE
  5
103
  8
DETAIL
  6
CONTINUOUS
 62
     5
 10
-638.0
 20
142.0
 30
0.0
 11
-638.0
 21
172.0
 31
0.0
  0
LINE
  5
104
  8
DETAIL
  6
CONTINUOUS
 62
     5
 10
-648.0
 20
142.0
 30
0.0
 11
-648.0
 21
172.0
 31
0.0
  0
LINE
  5
105
  8
DETAIL
  6
CONTINUOUS
 62
     5
 10
-693.0
 20
174.0
 30
0.0
 11
-663.0
 21
174.0
 31
0.0
  0
LINE
  5
106
  8
DETAIL
  6
CONTINUOUS
 62
     5
 10
-663.0
 20
179.4
 30
0.0
 11
-658.0
 21
179.4
 31
0.0
  0
LINE
  5
107
  8
DETAIL
  6
CONTINUOUS
 62
     5
 10
-628.0
 20
172.0
 30
0.0
 11
-623.0
 21
177.0
 31
0.0
  0
LINE
  5
108
  8
DETAIL
  6
CONTINUOUS
 62
     5
 10
-638.0
 20
172.0
 30
0.0
 11
-633.0
 21
177.0
 31
0.0
  0
LINE
  5
109
  8
DETAIL
  6
CONTINUOUS
 62
     5
 10
-648.0
 20
172.0
 30
0.0
 11
-643.0
 21
177.0
 31
0.0
  0
LINE
  5
10A
  8
DETAIL
  6
CONTINUOUS
 62
     5
 10
-658.0
 20
172.0
 30
0.0
 11
-653.0
 21
177.0
 31
0.0
  0
LINE
  5
10B
  8
DETAIL
  6
CONTINUOUS
 62
     5
 10
-623.0
 20
177.0
 30
0.0
 11
-618.0
 21
172.0
 31
0.0
  0
LINE
  5
10C
  8
DETAIL
  6
CONTINUOUS
 62
     5
 10
-633.0
 20
177.0
 30
0.0
 11
-628.0
 21
172.0
 31
0.0
  0
LINE
  5
10D
  8
DETAIL
  6
CONTINUOUS
 62
     5
 10
-643.0
 20
177.0
 30
0.0
 11
-638.0
 21
172.0
 31
0.0
  0
LINE
  5
10E
  8
DETAIL
  6
CONTINUOUS
 62
     5
 10
-653.0
 20
177.0
 30
0.0
 11
-648.0
 21
172.0
 31
0.0
  0
LINE
  5
10F
  8
DETAIL
  6
CONTINUOUS
 62
     5
 10
-693.0
 20
140.0
 30
0.0
 11
-693.0
 21
174.0
 31
0.0
  0
LINE
  5
110
  8
DETAIL
  6
CONTINUOUS
 62
     5
 10
-520.000014
 20
172.5
 30
0.0
 11
-529.602708
 21
172.5
 31
0.0
  0
LINE
  5
111
  8
DETAIL
  6
CONTINUOUS
 62
     5
 10
-520.000014
 20
141.5
 30
0.0
 11
-529.602708
 21
141.5
 31
0.0
  0
LINE
  5
112
  8
DETAIL
  6
CONTINUOUS
 62
     5
 10
-520.0
 20
310.0
 30
0.0
 11
-520.0
 21
125.400221
 31
0.0
  0
LINE
  5
113
  8
DETAIL
  6
CONTINUOUS
 62
     5
 10
-548.0
 20
172.5
 30
0.0
 11
-548.0
 21
141.5
 31
0.0
  0
LINE
  5
114
  8
DETAIL
  6
CONTINUOUS
 62
     5
 10
-539.602708
 20
178.398489
 30
0.0
 11
-539.602708
 21
134.603293
 31
0.0
  0
LINE
  5
115
  8
DETAIL
  6
CONTINUOUS
 62
     5
 10
-529.602708
 20
178.398489
 30
0.0
 11
-529.602708
 21
134.603293
 31
0.0
  0
LINE
  5
116
  8
DETAIL
  6
CONTINUOUS
 62
     5
 10
-539.602708
 20
178.398489
 30
0.0
 11
-529.602708
 21
178.398489
 31
0.0
  0
LINE
  5
117
  8
DETAIL
  6
CONTINUOUS
 62
     5
 10
-539.602708
 20
134.603293
 30
0.0
 11
-529.602708
 21
134.603293
 31
0.0
  0
LINE
  5
118
  8
DETAIL
  6
CONTINUOUS
 62
     5
 10
-539.602708
 20
172.5
 30
0.0
 11
-548.0
 21
172.5
 31
0.0
  0
LINE
  5
119
  8
DETAIL
  6
CONTINUOUS
 62
     5
 10
-539.602708
 20
141.5
 30
0.0
 11
-548.0
 21
141.5
 31
0.0
  0
LINE
  5
11A
  8
DETAIL
  6
CONTINUOUS
 62
     5
 10
-553.0
 20
137.0
 30
0.0
 11
-553.0
 21
177.0
 31
0.0
  0
LINE
  5
11B
  8
DETAIL
  6
CONTINUOUS
 62
     5
 10
-558.0
 20
172.0
 30
0.0
 11
-553.0
 21
177.0
 31
0.0
  0
LINE
  5
11C
  8
DETAIL
  6
CONTINUOUS
 62
     5
 10
-553.0
 20
177.0
 30
0.0
 11
-548.0
 21
172.0
 31
0.0
  0
LINE
  5
11D
  8
DETAIL
  6
CONTINUOUS
 62
     5
 10
-548.0
 20
142.0
 30
0.0
 11
-553.0
 21
137.0
 31
0.0
  0
LINE
  5
11E
  8
DETAIL
  6
CONTINUOUS
 62
     5
 10
-558.0
 20
142.0
 30
0.0
 11
-553.0
 21
137.0
 31
0.0
  0
LINE
  5
11F
  8
DETAIL
  6
CONTINUOUS
 62
     5
 10
-563.0
 20
137.0
 30
0.0
 11
-563.0
 21
177.0
 31
0.0
  0
LINE
  5
120
  8
DETAIL
  6
CONTINUOUS
 62
     5
 10
-568.0
 20
172.0
 30
0.0
 11
-563.0
 21
177.0
 31
0.0
  0
LINE
  5
121
  8
DETAIL
  6
CONTINUOUS
 62
     5
 10
-563.0
 20
177.0
 30
0.0
 11
-558.0
 21
172.0
 31
0.0
  0
LINE
  5
122
  8
DETAIL
  6
CONTINUOUS
 62
     5
 10
-558.0
 20
142.0
 30
0.0
 11
-563.0
 21
137.0
 31
0.0
  0
LINE
  5
123
  8
DETAIL
  6
CONTINUOUS
 62
     5
 10
-568.0
 20
142.0
 30
0.0
 11
-563.0
 21
137.0
 31
0.0
  0
LINE
  5
124
  8
DETAIL
  6
CONTINUOUS
 62
     5
 10
-558.0
 20
142.0
 30
0.0
 11
-558.0
 21
172.0
 31
0.0
  0
LINE
  5
125
  8
DETAIL
  6
CONTINUOUS
 62
     5
 10
-573.0
 20
137.0
 30
0.0
 11
-573.0
 21
177.0
 31
0.0
  0
LINE
  5
126
  8
DETAIL
  6
CONTINUOUS
 62
     5
 10
-578.0
 20
172.0
 30
0.0
 11
-573.0
 21
177.0
 31
0.0
  0
LINE
  5
127
  8
DETAIL
  6
CONTINUOUS
 62
     5
 10
-573.0
 20
177.0
 30
0.0
 11
-568.0
 21
172.0
 31
0.0
  0
LINE
  5
128
  8
DETAIL
  6
CONTINUOUS
 62
     5
 10
-568.0
 20
142.0
 30
0.0
 11
-573.0
 21
137.0
 31
0.0
  0
LINE
  5
129
  8
DETAIL
  6
CONTINUOUS
 62
     5
 10
-578.0
 20
142.0
 30
0.0
 11
-573.0
 21
137.0
 31
0.0
  0
LINE
  5
12A
  8
DETAIL
  6
CONTINUOUS
 62
     5
 10
-568.0
 20
142.0
 30
0.0
 11
-568.0
 21
172.0
 31
0.0
  0
LINE
  5
12B
  8
DETAIL
  6
CONTINUOUS
 62
     5
 10
-578.0
 20
142.0
 30
0.0
 11
-578.0
 21
172.0
 31
0.0
  0
LINE
  5
12C
  8
DETAIL
  6
CONTINUOUS
 62
     5
 10
-583.0
 20
137.0
 30
0.0
 11
-583.0
 21
177.0
 31
0.0
  0
LINE
  5
12D
  8
DETAIL
  6
CONTINUOUS
 62
     5
 10
-588.0
 20
172.0
 30
0.0
 11
-583.0
 21
177.0
 31
0.0
  0
LINE
  5
12E
  8
DETAIL
  6
CONTINUOUS
 62
     5
 10
-588.0
 20
142.0
 30
0.0
 11
-583.0
 21
137.0
 31
0.0
  0
LINE
  5
12F
  8
DETAIL
  6
CONTINUOUS
 62
     5
 10
-588.0
 20
142.0
 30
0.0
 11
-593.0
 21
137.0
 31
0.0
  0
LINE
  5
130
  8
DETAIL
  6
CONTINUOUS
 62
     5
 10
-598.0
 20
142.0
 30
0.0
 11
-603.0
 21
137.0
 31
0.0
  0
LINE
  5
131
  8
DETAIL
  6
CONTINUOUS
 62
     5
 10
-608.0
 20
142.0
 30
0.0
 11
-613.0
 21
137.0
 31
0.0
  0
LINE
  5
132
  8
DETAIL
  6
CONTINUOUS
 62
     5
 10
-598.0
 20
142.0
 30
0.0
 11
-593.0
 21
137.0
 31
0.0
  0
LINE
  5
133
  8
DETAIL
  6
CONTINUOUS
 62
     5
 10
-608.0
 20
142.0
 30
0.0
 11
-603.0
 21
137.0
 31
0.0
  0
LINE
  5
134
  8
DETAIL
  6
CONTINUOUS
 62
     5
 10
-593.0
 20
137.0
 30
0.0
 11
-593.0
 21
177.0
 31
0.0
  0
LINE
  5
135
  8
DETAIL
  6
CONTINUOUS
 62
     5
 10
-603.0
 20
137.0
 30
0.0
 11
-603.0
 21
177.0
 31
0.0
  0
LINE
  5
136
  8
DETAIL
  6
CONTINUOUS
 62
     5
 10
-613.0
 20
137.0
 30
0.0
 11
-613.0
 21
177.0
 31
0.0
  0
LINE
  5
137
  8
DETAIL
  6
CONTINUOUS
 62
     5
 10
-588.0
 20
142.0
 30
0.0
 11
-588.0
 21
172.0
 31
0.0
  0
LINE
  5
138
  8
DETAIL
  6
CONTINUOUS
 62
     5
 10
-598.0
 20
142.0
 30
0.0
 11
-598.0
 21
172.0
 31
0.0
  0
LINE
  5
139
  8
DETAIL
  6
CONTINUOUS
 62
     5
 10
-608.0
 20
142.0
 30
0.0
 11
-608.0
 21
172.0
 31
0.0
  0
LINE
  5
13A
  8
DETAIL
  6
CONTINUOUS
 62
     5
 10
-598.0
 20
172.0
 30
0.0
 11
-593.0
 21
177.0
 31
0.0
  0
LINE
  5
13B
  8
DETAIL
  6
CONTINUOUS
 62
     5
 10
-608.0
 20
172.0
 30
0.0
 11
-603.0
 21
177.0
 31
0.0
  0
LINE
  5
13C
  8
DETAIL
  6
CONTINUOUS
 62
     5
 10
-593.0
 20
177.0
 30
0.0
 11
-588.0
 21
172.0
 31
0.0
  0
LINE
  5
13D
  8
DETAIL
  6
CONTINUOUS
 62
     5
 10
-603.0
 20
177.0
 30
0.0
 11
-598.0
 21
172.0
 31
0.0
  0
LINE
  5
13E
  8
DETAIL
  6
CONTINUOUS
 62
     5
 10
-613.0
 20
177.0
 30
0.0
 11
-608.0
 21
172.0
 31
0.0
  0
LINE
  5
13F
  8
DETAIL
  6
CONTINUOUS
 62
     5
 10
-583.0
 20
177.0
 30
0.0
 11
-578.0
 21
172.0
 31
0.0
  0
LINE
  5
140
  8
DETAIL
  6
CONTINUOUS
 62
     5
 10
-578.0
 20
142.0
 30
0.0
 11
-583.0
 21
137.0
 31
0.0
  0
LINE
  5
141
  8
DETAIL
  6
CONTINUOUS
 62
     5
 10
-455.013244
 20
101.124785
 30
0.0
 11
-455.013244
 21
125.400221
 31
0.0
  0
LINE
  5
142
  8
DETAIL
  6
CONTINUOUS
 62
     5
 10
-423.333244
 20
101.124785
 30
0.0
 11
-423.333244
 21
125.400221
 31
0.0
  0
LINE
  5
143
  8
DETAIL
  6
CONTINUOUS
 62
     5
 10
-423.333244
 20
101.124785
 30
0.0
 11
-455.013244
 21
101.124785
 31
0.0
  0
LINE
  5
144
  8
DETAIL
  6
CONTINUOUS
 62
     5
 10
-350.074022
 20
15.488
 30
0.0
 11
-350.074022
 21
-15.488
 31
0.0
  0
LINE
  5
145
  8
DETAIL
  6
CONTINUOUS
 62
     5
 10
-350.711982
 20
-15.488
 30
0.0
 11
-356.517244
 21
-20.099646
 31
0.0
  0
LINE
  5
146
  8
DETAIL
  6
CONTINUOUS
 62
     5
 10
-356.517244
 20
20.099646
 30
0.0
 11
-350.074022
 21
15.488
 31
0.0
  0
LINE
  5
147
  8
DETAIL
  6
CONTINUOUS
 62
     5
 10
-356.517244
 20
-20.099646
 30
0.0
 11
-356.517244
 21
20.099646
 31
0.0
  0
LINE
  5
148
  8
DETAIL
  6
CONTINUOUS
 62
     5
 10
-324.0
 20
-15.488
 30
0.0
 11
-350.711982
 21
-15.488
 31
0.0
  0
LINE
  5
149
  8
DETAIL
  6
CONTINUOUS
 62
     5
 10
-324.0
 20
15.488
 30
0.0
 11
-350.074022
 21
15.488
 31
0.0
  0
LINE
  5
14A
  8
DETAIL
  6
CONTINUOUS
 62
     5
 10
-390.597244
 20
-14.507136
 30
0.0
 11
-390.597244
 21
15.060864
 31
0.0
  0
LINE
  5
14B
  8
DETAIL
  6
CONTINUOUS
 62
     5
 10
-396.229244
 20
20.099646
 30
0.0
 11
-390.597244
 21
15.060864
 31
0.0
  0
LINE
  5
14C
  8
DETAIL
  6
CONTINUOUS
 62
     5
 10
-370.000466
 20
19.672511
 30
0.0
 11
-363.557244
 21
15.060864
 31
0.0
  0
LINE
  5
14D
  8
DETAIL
  6
CONTINUOUS
 62
     5
 10
-370.000466
 20
-20.526782
 30
0.0
 11
-370.000466
 21
19.672511
 31
0.0
  0
LINE
  5
14E
  8
DETAIL
  6
CONTINUOUS
 62
     5
 10
-377.040466
 20
14.633729
 30
0.0
 11
-370.000466
 21
19.672511
 31
0.0
  0
LINE
  5
14F
  8
DETAIL
  6
CONTINUOUS
 62
     5
 10
-370.000466
 20
-20.526782
 30
0.0
 11
-377.040466
 21
-14.934271
 31
0.0
  0
LINE
  5
150
  8
DETAIL
  6
CONTINUOUS
 62
     5
 10
-363.557244
 20
15.060864
 30
0.0
 11
-363.557244
 21
-14.507136
 31
0.0
  0
LINE
  5
151
  8
DETAIL
  6
CONTINUOUS
 62
     5
 10
-383.483688
 20
19.245375
 30
0.0
 11
-377.040466
 21
14.633729
 31
0.0
  0
LINE
  5
152
  8
DETAIL
  6
CONTINUOUS
 62
     5
 10
-383.483688
 20
-20.953917
 30
0.0
 11
-383.483688
 21
19.245375
 31
0.0
  0
LINE
  5
153
  8
DETAIL
  6
CONTINUOUS
 62
     5
 10
-390.523688
 20
14.206593
 30
0.0
 11
-383.483688
 21
19.245375
 31
0.0
  0
LINE
  5
154
  8
DETAIL
  6
CONTINUOUS
 62
     5
 10
-377.040466
 20
14.633729
 30
0.0
 11
-377.040466
 21
-14.934271
 31
0.0
  0
LINE
  5
155
  8
DETAIL
  6
CONTINUOUS
 62
     5
 10
-370.000466
 20
-20.526782
 30
0.0
 11
-363.557244
 21
-14.507136
 31
0.0
  0
LINE
  5
156
  8
DETAIL
  6
CONTINUOUS
 62
     5
 10
-383.483688
 20
-20.953917
 30
0.0
 11
-377.040466
 21
-14.934271
 31
0.0
  0
LINE
  5
157
  8
DETAIL
  6
CONTINUOUS
 62
     5
 10
-383.483688
 20
-20.953917
 30
0.0
 11
-390.597244
 21
-14.507136
 31
0.0
  0
LINE
  5
158
  8
DETAIL
  6
CONTINUOUS
 62
     5
 10
-363.557244
 20
15.060864
 30
0.0
 11
-356.517244
 21
20.099646
 31
0.0
  0
LINE
  5
159
  8
DETAIL
  6
CONTINUOUS
 62
     5
 10
-356.517244
 20
-20.099646
 30
0.0
 11
-363.557244
 21
-14.507136
 31
0.0
  0
LINE
  5
15A
  8
DETAIL
  6
CONTINUOUS
 62
     5
 10
-335.999986
 20
179.000221
 30
0.0
 11
-324.0
 21
179.000221
 31
0.0
  0
LINE
  5
15B
  8
DETAIL
  6
CONTINUOUS
 62
     5
 10
-377.999986
 20
310.0
 30
0.0
 11
-377.999986
 21
125.400221
 31
0.0
  0
LINE
  5
15C
  8
DETAIL
  6
CONTINUOUS
 62
     5
 10
-340.999986
 20
237.900221
 30
0.0
 11
-335.999986
 21
232.900221
 31
0.0
  0
LINE
  5
15D
  8
DETAIL
  6
CONTINUOUS
 62
     5
 10
-340.999986
 20
237.900221
 30
0.0
 11
-377.999986
 21
237.900221
 31
0.0
  0
LINE
  5
15E
  8
DETAIL
  6
CONTINUOUS
 62
     5
 10
-374.001839
 20
126.900221
 30
0.0
 11
-377.999986
 21
126.900221
 31
0.0
  0
LINE
  5
15F
  8
DETAIL
  6
CONTINUOUS
 62
     5
 10
-377.999986
 20
237.900221
 30
0.0
 11
-377.999986
 21
126.900221
 31
0.0
  0
LINE
  5
160
  8
NOTE
  6
CONTINUOUS
 62
     4
 10
-520.0
 20
137.0
 30
0.0
 11
-520.0
 21
177.0
 31
0.0
  0
LINE
  5
161
  8
NOTE
  6
CONTINUOUS
 62
     4
 10
-540.0
 20
157.0
 30
0.0
 11
-500.0
 21
157.0
 31
0.0
  0
LINE
  5
162
  8
DETAIL
  6
CONTINUOUS
 62
     5
 10
-241.250089
 20
-238.0
 30
0.0
 11
-241.250089
 21
-243.0
 31
0.0
  0
LINE
  5
163
  8
DETAIL
  6
CONTINUOUS
 62
     5
 10
-254.750058
 20
-238.0
 30
0.0
 11
-254.750058
 21
-243.0
 31
0.0
  0
LINE
  5
164
  8
DETAIL
  6
CONTINUOUS
 62
     5
 10
-256.000058
 20
-238.0
 30
0.0
 11
-236.899963
 21
-238.0
 31
0.0
  0
LINE
  5
165
  8
DETAIL
  6
CONTINUOUS
 62
     5
 10
-257.549988
 20
-243.0
 30
0.0
 11
-241.444204
 21
-243.0
 31
0.0
  0
LINE
  5
166
  8
DETAIL
  6
CONTINUOUS
 62
     5
 10
-232.900024
 20
-209.475928
 30
0.0
 11
-232.900024
 21
-220.996307
 31
0.0
  0
LINE
  5
167
  8
DETAIL
  6
CONTINUOUS
 62
     5
 10
-263.100037
 20
-209.475928
 30
0.0
 11
-263.100037
 21
-220.996307
 31
0.0
  0
LINE
  5
168
  8
DETAIL
  6
CONTINUOUS
 62
     5
 10
-263.525542
 20
-209.475928
 30
0.0
 11
-263.525542
 21
-180.975869
 31
0.0
  0
LINE
  5
169
  8
DETAIL
  6
CONTINUOUS
 62
     5
 10
-263.525542
 20
-209.475928
 30
0.0
 11
-232.475269
 21
-209.475928
 31
0.0
  0
LINE
  5
16A
  8
DETAIL
  6
CONTINUOUS
 62
     5
 10
-232.475269
 20
-209.475928
 30
0.0
 11
-232.475269
 21
-180.975869
 31
0.0
  0
LINE
  5
16B
  8
DETAIL
  6
CONTINUOUS
 62
     5
 10
-256.000058
 20
-225.975928
 30
0.0
 11
-240.000089
 21
-225.975928
 31
0.0
  0
LINE
  5
16C
  8
DETAIL
  6
CONTINUOUS
 62
     5
 10
-258.970273
 20
-209.475928
 30
0.0
 11
-258.970273
 21
-223.475928
 31
0.0
  0
ARC
  5
16D
  8
DETAIL
  6
CONTINUOUS
 62
     5
 10
-240.016691
 20
-222.92591
 30
0.0
 40
3.04353
 50
190.029906
 51
348.921908
  0
ARC
  5
16E
  8
DETAIL
  6
CONTINUOUS
 62
     5
 10
-247.999082
 20
-219.785407
 30
0.0
 40
6.19092
 50
216.711357
 51
323.636766
  0
ARC
  5
16F
  8
DETAIL
  6
CONTINUOUS
 62
     5
 10
-255.950254
 20
-222.92591
 30
0.0
 40
3.040188
 50
186.603336
 51
349.381333
  0
LINE
  5
170
  8
DETAIL
  6
CONTINUOUS
 62
     5
 10
-243.029874
 20
-209.475928
 30
0.0
 11
-243.029874
 21
-223.475928
 31
0.0
  0
LINE
  5
171
  8
DETAIL
  6
CONTINUOUS
 62
     5
 10
-252.970273
 20
-209.475928
 30
0.0
 11
-252.970273
 21
-223.475928
 31
0.0
  0
LINE
  5
172
  8
DETAIL
  6
CONTINUOUS
 62
     5
 10
-237.029844
 20
-209.475928
 30
0.0
 11
-237.029844
 21
-223.510566
 31
0.0
  0
LINE
  5
173
  8
DETAIL
  6
CONTINUOUS
 62
     5
 10
-241.444204
 20
-243.0
 30
0.0
 11
-238.450012
 21
-243.0
 31
0.0
  0
LINE
  5
174
  8
DETAIL
  6
CONTINUOUS
 62
     5
 10
-257.567907
 20
-225.5
 30
0.0
 11
-259.100037
 21
-225.5
 31
0.0
  0
LINE
  5
175
  8
DETAIL
  6
CONTINUOUS
 62
     5
 10
-257.549988
 20
-243.0
 30
0.0
 11
-257.549988
 21
-238.0
 31
0.0
  0
LINE
  5
176
  8
DETAIL
  6
CONTINUOUS
 62
     5
 10
-259.100037
 20
-238.0
 30
0.0
 11
-259.100037
 21
-225.5
 31
0.0
  0
ARC
  5
177
  8
DETAIL
  6
CONTINUOUS
 62
     5
 10
-258.600037
 20
-216.952332
 30
0.0
 40
6.050119
 50
221.944975
 51
266.491596
  0
LINE
  5
178
  8
DETAIL
  6
CONTINUOUS
 62
     5
 10
-257.549981
 20
-242.999918
 30
0.0
 11
-255.549988
 21
-244.999758
 31
0.0
  0
ARC
  5
179
  8
DETAIL
  6
CONTINUOUS
 62
     5
 10
-237.400085
 20
-216.952332
 30
0.0
 40
6.050117
 50
273.508454
 51
318.055026
  0
LINE
  5
17A
  8
DETAIL
  6
CONTINUOUS
 62
     5
 10
-236.899963
 20
-225.5
 30
0.0
 11
-238.392765
 21
-225.5
 31
0.0
  0
LINE
  5
17B
  8
DETAIL
  6
CONTINUOUS
 62
     5
 10
-259.100037
 20
-238.0
 30
0.0
 11
-256.000058
 21
-238.0
 31
0.0
  0
LINE
  5
17C
  8
DETAIL
  6
CONTINUOUS
 62
     5
 10
-238.450012
 20
-243.0
 30
0.0
 11
-238.450012
 21
-238.0
 31
0.0
  0
LINE
  5
17D
  8
DETAIL
  6
CONTINUOUS
 62
     5
 10
-236.899963
 20
-238.0
 30
0.0
 11
-236.899963
 21
-225.5
 31
0.0
  0
LINE
  5
17E
  8
DETAIL
  6
CONTINUOUS
 62
     5
 10
-255.549988
 20
-245.0
 30
0.0
 11
-240.450012
 21
-245.0
 31
0.0
  0
LINE
  5
17F
  8
DETAIL
  6
CONTINUOUS
 62
     5
 10
-240.450029
 20
-245.000101
 30
0.0
 11
-238.450143
 21
-243.000154
 31
0.0
  0
LINE
  5
180
  8
DETAIL
  6
CONTINUOUS
 62
     5
 10
-181.250089
 20
-238.0
 30
0.0
 11
-181.250089
 21
-243.0
 31
0.0
  0
LINE
  5
181
  8
DETAIL
  6
CONTINUOUS
 62
     5
 10
-194.750058
 20
-238.0
 30
0.0
 11
-194.750058
 21
-243.0
 31
0.0
  0
LINE
  5
182
  8
DETAIL
  6
CONTINUOUS
 62
     5
 10
-196.000058
 20
-238.0
 30
0.0
 11
-176.899963
 21
-238.0
 31
0.0
  0
LINE
  5
183
  8
DETAIL
  6
CONTINUOUS
 62
     5
 10
-197.549988
 20
-243.0
 30
0.0
 11
-181.444204
 21
-243.0
 31
0.0
  0
LINE
  5
184
  8
DETAIL
  6
CONTINUOUS
 62
     5
 10
-172.900024
 20
-209.475928
 30
0.0
 11
-172.900024
 21
-220.996307
 31
0.0
  0
LINE
  5
185
  8
DETAIL
  6
CONTINUOUS
 62
     5
 10
-196.000058
 20
-225.975928
 30
0.0
 11
-180.000089
 21
-225.975928
 31
0.0
  0
LINE
  5
186
  8
DETAIL
  6
CONTINUOUS
 62
     5
 10
-198.970273
 20
-209.475928
 30
0.0
 11
-198.970273
 21
-223.475928
 31
0.0
  0
ARC
  5
187
  8
DETAIL
  6
CONTINUOUS
 62
     5
 10
-180.016691
 20
-222.92591
 30
0.0
 40
3.04353
 50
190.029906
 51
348.921908
  0
ARC
  5
188
  8
DETAIL
  6
CONTINUOUS
 62
     5
 10
-187.999082
 20
-219.785407
 30
0.0
 40
6.19092
 50
216.711357
 51
323.636766
  0
ARC
  5
189
  8
DETAIL
  6
CONTINUOUS
 62
     5
 10
-195.950254
 20
-222.92591
 30
0.0
 40
3.040188
 50
186.603336
 51
349.381333
  0
LINE
  5
18A
  8
DETAIL
  6
CONTINUOUS
 62
     5
 10
-183.029874
 20
-209.475928
 30
0.0
 11
-183.029874
 21
-223.475928
 31
0.0
  0
LINE
  5
18B
  8
DETAIL
  6
CONTINUOUS
 62
     5
 10
-192.970273
 20
-209.475928
 30
0.0
 11
-192.970273
 21
-223.475928
 31
0.0
  0
LINE
  5
18C
  8
DETAIL
  6
CONTINUOUS
 62
     5
 10
-177.029844
 20
-209.475928
 30
0.0
 11
-177.029844
 21
-223.510566
 31
0.0
  0
LINE
  5
18D
  8
DETAIL
  6
CONTINUOUS
 62
     5
 10
-181.444204
 20
-243.0
 30
0.0
 11
-178.450012
 21
-243.0
 31
0.0
  0
LINE
  5
18E
  8
DETAIL
  6
CONTINUOUS
 62
     5
 10
-197.567907
 20
-225.5
 30
0.0
 11
-199.100037
 21
-225.5
 31
0.0
  0
LINE
  5
18F
  8
DETAIL
  6
CONTINUOUS
 62
     5
 10
-197.549988
 20
-243.0
 30
0.0
 11
-197.549988
 21
-238.0
 31
0.0
  0
LINE
  5
190
  8
DETAIL
  6
CONTINUOUS
 62
     5
 10
-199.100037
 20
-238.0
 30
0.0
 11
-199.100037
 21
-225.5
 31
0.0
  0
LINE
  5
191
  8
DETAIL
  6
CONTINUOUS
 62
     5
 10
-197.549981
 20
-242.999918
 30
0.0
 11
-195.549988
 21
-244.999758
 31
0.0
  0
ARC
  5
192
  8
DETAIL
  6
CONTINUOUS
 62
     5
 10
-177.400085
 20
-216.952332
 30
0.0
 40
6.050117
 50
273.508454
 51
318.055026
  0
LINE
  5
193
  8
DETAIL
  6
CONTINUOUS
 62
     5
 10
-176.899963
 20
-225.5
 30
0.0
 11
-178.392765
 21
-225.5
 31
0.0
  0
LINE
  5
194
  8
DETAIL
  6
CONTINUOUS
 62
     5
 10
-199.100037
 20
-238.0
 30
0.0
 11
-196.000058
 21
-238.0
 31
0.0
  0
LINE
  5
195
  8
DETAIL
  6
CONTINUOUS
 62
     5
 10
-178.450012
 20
-243.0
 30
0.0
 11
-178.450012
 21
-238.0
 31
0.0
  0
LINE
  5
196
  8
DETAIL
  6
CONTINUOUS
 62
     5
 10
-176.899963
 20
-238.0
 30
0.0
 11
-176.899963
 21
-225.5
 31
0.0
  0
LINE
  5
197
  8
DETAIL
  6
CONTINUOUS
 62
     5
 10
-195.549988
 20
-245.0
 30
0.0
 11
-180.450012
 21
-245.0
 31
0.0
  0
LINE
  5
198
  8
DETAIL
  6
CONTINUOUS
 62
     5
 10
-180.450029
 20
-245.000101
 30
0.0
 11
-178.450143
 21
-243.000154
 31
0.0
  0
LINE
  5
199
  8
DETAIL
  6
CONTINUOUS
 62
     5
 10
-172.475269
 20
-209.475928
 30
0.0
 11
-172.475269
 21
-180.975869
 31
0.0
  0
LINE
  5
19A
  8
DETAIL
  6
CONTINUOUS
 62
     5
 10
-203.100037
 20
-209.475928
 30
0.0
 11
-203.100037
 21
-220.996307
 31
0.0
  0
LINE
  5
19B
  8
DETAIL
  6
CONTINUOUS
 62
     5
 10
-203.525542
 20
-209.475928
 30
0.0
 11
-203.525542
 21
-180.975869
 31
0.0
  0
LINE
  5
19C
  8
DETAIL
  6
CONTINUOUS
 62
     5
 10
-203.525542
 20
-209.475928
 30
0.0
 11
-172.475269
 21
-209.475928
 31
0.0
  0
ARC
  5
19D
  8
DETAIL
  6
CONTINUOUS
 62
     5
 10
-198.600037
 20
-216.952332
 30
0.0
 40
6.050119
 50
221.944975
 51
266.491596
  0
LINE
  5
19E
  8
DETAIL
  6
CONTINUOUS
 62
     5
 10
-121.250089
 20
-238.0
 30
0.0
 11
-121.250089
 21
-243.0
 31
0.0
  0
LINE
  5
19F
  8
DETAIL
  6
CONTINUOUS
 62
     5
 10
-134.750058
 20
-238.0
 30
0.0
 11
-134.750058
 21
-243.0
 31
0.0
  0
LINE
  5
1A0
  8
DETAIL
  6
CONTINUOUS
 62
     5
 10
-136.000058
 20
-238.0
 30
0.0
 11
-116.899963
 21
-238.0
 31
0.0
  0
LINE
  5
1A1
  8
DETAIL
  6
CONTINUOUS
 62
     5
 10
-137.549988
 20
-243.0
 30
0.0
 11
-121.444204
 21
-243.0
 31
0.0
  0
LINE
  5
1A2
  8
DETAIL
  6
CONTINUOUS
 62
     5
 10
-112.900024
 20
-209.475928
 30
0.0
 11
-112.900024
 21
-220.996307
 31
0.0
  0
LINE
  5
1A3
  8
DETAIL
  6
CONTINUOUS
 62
     5
 10
-136.000058
 20
-225.975928
 30
0.0
 11
-120.000089
 21
-225.975928
 31
0.0
  0
LINE
  5
1A4
  8
DETAIL
  6
CONTINUOUS
 62
     5
 10
-138.970273
 20
-209.475928
 30
0.0
 11
-138.970273
 21
-223.475928
 31
0.0
  0
ARC
  5
1A5
  8
DETAIL
  6
CONTINUOUS
 62
     5
 10
-120.016691
 20
-222.92591
 30
0.0
 40
3.04353
 50
190.029906
 51
348.921908
  0
ARC
  5
1A6
  8
DETAIL
  6
CONTINUOUS
 62
     5
 10
-127.999082
 20
-219.785407
 30
0.0
 40
6.19092
 50
216.711357
 51
323.636766
  0
ARC
  5
1A7
  8
DETAIL
  6
CONTINUOUS
 62
     5
 10
-135.950254
 20
-222.92591
 30
0.0
 40
3.040188
 50
186.603336
 51
349.381333
  0
LINE
  5
1A8
  8
DETAIL
  6
CONTINUOUS
 62
     5
 10
-123.029874
 20
-209.475928
 30
0.0
 11
-123.029874
 21
-223.475928
 31
0.0
  0
LINE
  5
1A9
  8
DETAIL
  6
CONTINUOUS
 62
     5
 10
-132.970273
 20
-209.475928
 30
0.0
 11
-132.970273
 21
-223.475928
 31
0.0
  0
LINE
  5
1AA
  8
DETAIL
  6
CONTINUOUS
 62
     5
 10
-117.029844
 20
-209.475928
 30
0.0
 11
-117.029844
 21
-223.510566
 31
0.0
  0
LINE
  5
1AB
  8
DETAIL
  6
CONTINUOUS
 62
     5
 10
-121.444204
 20
-243.0
 30
0.0
 11
-118.450012
 21
-243.0
 31
0.0
  0
LINE
  5
1AC
  8
DETAIL
  6
CONTINUOUS
 62
     5
 10
-137.567907
 20
-225.5
 30
0.0
 11
-139.100037
 21
-225.5
 31
0.0
  0
LINE
  5
1AD
  8
DETAIL
  6
CONTINUOUS
 62
     5
 10
-137.549988
 20
-243.0
 30
0.0
 11
-137.549988
 21
-238.0
 31
0.0
  0
LINE
  5
1AE
  8
DETAIL
  6
CONTINUOUS
 62
     5
 10
-139.100037
 20
-238.0
 30
0.0
 11
-139.100037
 21
-225.5
 31
0.0
  0
LINE
  5
1AF
  8
DETAIL
  6
CONTINUOUS
 62
     5
 10
-137.549981
 20
-242.999918
 30
0.0
 11
-135.549988
 21
-244.999758
 31
0.0
  0
ARC
  5
1B0
  8
DETAIL
  6
CONTINUOUS
 62
     5
 10
-117.400085
 20
-216.952332
 30
0.0
 40
6.050117
 50
273.508454
 51
318.055026
  0
LINE
  5
1B1
  8
DETAIL
  6
CONTINUOUS
 62
     5
 10
-116.899963
 20
-225.5
 30
0.0
 11
-118.392765
 21
-225.5
 31
0.0
  0
LINE
  5
1B2
  8
DETAIL
  6
CONTINUOUS
 62
     5
 10
-139.100037
 20
-238.0
 30
0.0
 11
-136.000058
 21
-238.0
 31
0.0
  0
LINE
  5
1B3
  8
DETAIL
  6
CONTINUOUS
 62
     5
 10
-118.450012
 20
-243.0
 30
0.0
 11
-118.450012
 21
-238.0
 31
0.0
  0
LINE
  5
1B4
  8
DETAIL
  6
CONTINUOUS
 62
     5
 10
-116.899963
 20
-238.0
 30
0.0
 11
-116.899963
 21
-225.5
 31
0.0
  0
LINE
  5
1B5
  8
DETAIL
  6
CONTINUOUS
 62
     5
 10
-135.549988
 20
-245.0
 30
0.0
 11
-120.450012
 21
-245.0
 31
0.0
  0
LINE
  5
1B6
  8
DETAIL
  6
CONTINUOUS
 62
     5
 10
-120.450029
 20
-245.000101
 30
0.0
 11
-118.450143
 21
-243.000154
 31
0.0
  0
LINE
  5
1B7
  8
DETAIL
  6
CONTINUOUS
 62
     5
 10
-112.475269
 20
-209.475928
 30
0.0
 11
-112.475269
 21
-180.975869
 31
0.0
  0
LINE
  5
1B8
  8
DETAIL
  6
CONTINUOUS
 62
     5
 10
-143.100037
 20
-209.475928
 30
0.0
 11
-143.100037
 21
-220.996307
 31
0.0
  0
LINE
  5
1B9
  8
DETAIL
  6
CONTINUOUS
 62
     5
 10
-143.525542
 20
-209.475928
 30
0.0
 11
-143.525542
 21
-180.975869
 31
0.0
  0
LINE
  5
1BA
  8
DETAIL
  6
CONTINUOUS
 62
     5
 10
-143.525542
 20
-209.475928
 30
0.0
 11
-112.475269
 21
-209.475928
 31
0.0
  0
ARC
  5
1BB
  8
DETAIL
  6
CONTINUOUS
 62
     5
 10
-138.600037
 20
-216.952332
 30
0.0
 40
6.050119
 50
221.944975
 51
266.491596
  0
LINE
  5
1BC
  8
DETAIL
  6
CONTINUOUS
 62
     5
 10
-61.250089
 20
-238.0
 30
0.0
 11
-61.250089
 21
-243.0
 31
0.0
  0
LINE
  5
1BD
  8
DETAIL
  6
CONTINUOUS
 62
     5
 10
-74.750058
 20
-238.0
 30
0.0
 11
-74.750058
 21
-243.0
 31
0.0
  0
LINE
  5
1BE
  8
DETAIL
  6
CONTINUOUS
 62
     5
 10
-76.000058
 20
-238.0
 30
0.0
 11
-56.899963
 21
-238.0
 31
0.0
  0
LINE
  5
1BF
  8
DETAIL
  6
CONTINUOUS
 62
     5
 10
-77.549988
 20
-243.0
 30
0.0
 11
-61.444204
 21
-243.0
 31
0.0
  0
LINE
  5
1C0
  8
DETAIL
  6
CONTINUOUS
 62
     5
 10
-52.900024
 20
-209.475928
 30
0.0
 11
-52.900024
 21
-220.996307
 31
0.0
  0
LINE
  5
1C1
  8
DETAIL
  6
CONTINUOUS
 62
     5
 10
-76.000058
 20
-225.975928
 30
0.0
 11
-60.000089
 21
-225.975928
 31
0.0
  0
LINE
  5
1C2
  8
DETAIL
  6
CONTINUOUS
 62
     5
 10
-78.970273
 20
-209.475928
 30
0.0
 11
-78.970273
 21
-223.475928
 31
0.0
  0
ARC
  5
1C3
  8
DETAIL
  6
CONTINUOUS
 62
     5
 10
-60.016691
 20
-222.92591
 30
0.0
 40
3.04353
 50
190.029906
 51
348.921908
  0
ARC
  5
1C4
  8
DETAIL
  6
CONTINUOUS
 62
     5
 10
-67.999082
 20
-219.785407
 30
0.0
 40
6.19092
 50
216.711357
 51
323.636766
  0
ARC
  5
1C5
  8
DETAIL
  6
CONTINUOUS
 62
     5
 10
-75.950254
 20
-222.92591
 30
0.0
 40
3.040188
 50
186.603336
 51
349.381333
  0
LINE
  5
1C6
  8
DETAIL
  6
CONTINUOUS
 62
     5
 10
-63.029874
 20
-209.475928
 30
0.0
 11
-63.029874
 21
-223.475928
 31
0.0
  0
LINE
  5
1C7
  8
DETAIL
  6
CONTINUOUS
 62
     5
 10
-72.970273
 20
-209.475928
 30
0.0
 11
-72.970273
 21
-223.475928
 31
0.0
  0
LINE
  5
1C8
  8
DETAIL
  6
CONTINUOUS
 62
     5
 10
-57.029844
 20
-209.475928
 30
0.0
 11
-57.029844
 21
-223.510566
 31
0.0
  0
LINE
  5
1C9
  8
DETAIL
  6
CONTINUOUS
 62
     5
 10
-61.444204
 20
-243.0
 30
0.0
 11
-58.450012
 21
-243.0
 31
0.0
  0
LINE
  5
1CA
  8
DETAIL
  6
CONTINUOUS
 62
     5
 10
-77.567907
 20
-225.5
 30
0.0
 11
-79.100037
 21
-225.5
 31
0.0
  0
LINE
  5
1CB
  8
DETAIL
  6
CONTINUOUS
 62
     5
 10
-77.549988
 20
-243.0
 30
0.0
 11
-77.549988
 21
-238.0
 31
0.0
  0
LINE
  5
1CC
  8
DETAIL
  6
CONTINUOUS
 62
     5
 10
-79.100037
 20
-238.0
 30
0.0
 11
-79.100037
 21
-225.5
 31
0.0
  0
LINE
  5
1CD
  8
DETAIL
  6
CONTINUOUS
 62
     5
 10
-77.549981
 20
-242.999918
 30
0.0
 11
-75.549988
 21
-244.999758
 31
0.0
  0
ARC
  5
1CE
  8
DETAIL
  6
CONTINUOUS
 62
     5
 10
-57.400085
 20
-216.952332
 30
0.0
 40
6.050117
 50
273.508454
 51
318.055026
  0
LINE
  5
1CF
  8
DETAIL
  6
CONTINUOUS
 62
     5
 10
-56.899963
 20
-225.5
 30
0.0
 11
-58.392765
 21
-225.5
 31
0.0
  0
LINE
  5
1D0
  8
DETAIL
  6
CONTINUOUS
 62
     5
 10
-79.100037
 20
-238.0
 30
0.0
 11
-76.000058
 21
-238.0
 31
0.0
  0
LINE
  5
1D1
  8
DETAIL
  6
CONTINUOUS
 62
     5
 10
-58.450012
 20
-243.0
 30
0.0
 11
-58.450012
 21
-238.0
 31
0.0
  0
LINE
  5
1D2
  8
DETAIL
  6
CONTINUOUS
 62
     5
 10
-56.899963
 20
-238.0
 30
0.0
 11
-56.899963
 21
-225.5
 31
0.0
  0
LINE
  5
1D3
  8
DETAIL
  6
CONTINUOUS
 62
     5
 10
-75.549988
 20
-245.0
 30
0.0
 11
-60.450012
 21
-245.0
 31
0.0
  0
LINE
  5
1D4
  8
DETAIL
  6
CONTINUOUS
 62
     5
 10
-60.450029
 20
-245.000101
 30
0.0
 11
-58.450143
 21
-243.000154
 31
0.0
  0
LINE
  5
1D5
  8
DETAIL
  6
CONTINUOUS
 62
     5
 10
-52.475269
 20
-209.475928
 30
0.0
 11
-52.475269
 21
-180.975869
 31
0.0
  0
LINE
  5
1D6
  8
DETAIL
  6
CONTINUOUS
 62
     5
 10
-83.100037
 20
-209.475928
 30
0.0
 11
-83.100037
 21
-220.996307
 31
0.0
  0
LINE
  5
1D7
  8
DETAIL
  6
CONTINUOUS
 62
     5
 10
-83.525542
 20
-209.475928
 30
0.0
 11
-83.525542
 21
-180.975869
 31
0.0
  0
LINE
  5
1D8
  8
DETAIL
  6
CONTINUOUS
 62
     5
 10
-83.525542
 20
-209.475928
 30
0.0
 11
-52.475269
 21
-209.475928
 31
0.0
  0
ARC
  5
1D9
  8
DETAIL
  6
CONTINUOUS
 62
     5
 10
-78.600037
 20
-216.952332
 30
0.0
 40
6.050119
 50
221.944975
 51
266.491596
  0
LINE
  5
1DA
  8
DETAIL
  6
CONTINUOUS
 62
     5
 10
-1.250089
 20
-238.0
 30
0.0
 11
-1.250089
 21
-243.0
 31
0.0
  0
LINE
  5
1DB
  8
DETAIL
  6
CONTINUOUS
 62
     5
 10
-14.750058
 20
-238.0
 30
0.0
 11
-14.750058
 21
-243.0
 31
0.0
  0
LINE
  5
1DC
  8
DETAIL
  6
CONTINUOUS
 62
     5
 10
-16.000058
 20
-238.0
 30
0.0
 11
3.100037
 21
-238.0
 31
0.0
  0
LINE
  5
1DD
  8
DETAIL
  6
CONTINUOUS
 62
     5
 10
-17.549988
 20
-243.0
 30
0.0
 11
-1.444204
 21
-243.0
 31
0.0
  0
LINE
  5
1DE
  8
DETAIL
  6
CONTINUOUS
 62
     5
 10
7.099976
 20
-209.475928
 30
0.0
 11
7.099976
 21
-220.996307
 31
0.0
  0
LINE
  5
1DF
  8
DETAIL
  6
CONTINUOUS
 62
     5
 10
-16.000058
 20
-225.975928
 30
0.0
 11
-0.000089
 21
-225.975928
 31
0.0
  0
LINE
  5
1E0
  8
DETAIL
  6
CONTINUOUS
 62
     5
 10
-18.970273
 20
-209.475928
 30
0.0
 11
-18.970273
 21
-223.475928
 31
0.0
  0
ARC
  5
1E1
  8
DETAIL
  6
CONTINUOUS
 62
     5
 10
-0.016691
 20
-222.92591
 30
0.0
 40
3.04353
 50
190.029906
 51
348.921908
  0
ARC
  5
1E2
  8
DETAIL
  6
CONTINUOUS
 62
     5
 10
-7.999082
 20
-219.785407
 30
0.0
 40
6.19092
 50
216.711357
 51
323.636766
  0
ARC
  5
1E3
  8
DETAIL
  6
CONTINUOUS
 62
     5
 10
-15.950254
 20
-222.92591
 30
0.0
 40
3.040188
 50
186.603336
 51
349.381333
  0
LINE
  5
1E4
  8
DETAIL
  6
CONTINUOUS
 62
     5
 10
-3.029874
 20
-209.475928
 30
0.0
 11
-3.029874
 21
-223.475928
 31
0.0
  0
LINE
  5
1E5
  8
DETAIL
  6
CONTINUOUS
 62
     5
 10
-12.970273
 20
-209.475928
 30
0.0
 11
-12.970273
 21
-223.475928
 31
0.0
  0
LINE
  5
1E6
  8
DETAIL
  6
CONTINUOUS
 62
     5
 10
2.970156
 20
-209.475928
 30
0.0
 11
2.970156
 21
-223.510566
 31
0.0
  0
LINE
  5
1E7
  8
DETAIL
  6
CONTINUOUS
 62
     5
 10
-1.444204
 20
-243.0
 30
0.0
 11
1.549988
 21
-243.0
 31
0.0
  0
LINE
  5
1E8
  8
DETAIL
  6
CONTINUOUS
 62
     5
 10
-17.567907
 20
-225.5
 30
0.0
 11
-19.100037
 21
-225.5
 31
0.0
  0
LINE
  5
1E9
  8
DETAIL
  6
CONTINUOUS
 62
     5
 10
-17.549988
 20
-243.0
 30
0.0
 11
-17.549988
 21
-238.0
 31
0.0
  0
LINE
  5
1EA
  8
DETAIL
  6
CONTINUOUS
 62
     5
 10
-19.100037
 20
-238.0
 30
0.0
 11
-19.100037
 21
-225.5
 31
0.0
  0
LINE
  5
1EB
  8
DETAIL
  6
CONTINUOUS
 62
     5
 10
-17.549981
 20
-242.999918
 30
0.0
 11
-15.549988
 21
-244.999758
 31
0.0
  0
ARC
  5
1EC
  8
DETAIL
  6
CONTINUOUS
 62
     5
 10
2.599915
 20
-216.952332
 30
0.0
 40
6.050117
 50
273.508454
 51
318.055026
  0
LINE
  5
1ED
  8
DETAIL
  6
CONTINUOUS
 62
     5
 10
3.100037
 20
-225.5
 30
0.0
 11
1.607235
 21
-225.5
 31
0.0
  0
LINE
  5
1EE
  8
DETAIL
  6
CONTINUOUS
 62
     5
 10
-19.100037
 20
-238.0
 30
0.0
 11
-16.000058
 21
-238.0
 31
0.0
  0
LINE
  5
1EF
  8
DETAIL
  6
CONTINUOUS
 62
     5
 10
1.549988
 20
-243.0
 30
0.0
 11
1.549988
 21
-238.0
 31
0.0
  0
LINE
  5
1F0
  8
DETAIL
  6
CONTINUOUS
 62
     5
 10
3.100037
 20
-238.0
 30
0.0
 11
3.100037
 21
-225.5
 31
0.0
  0
LINE
  5
1F1
  8
DETAIL
  6
CONTINUOUS
 62
     5
 10
-15.549988
 20
-245.0
 30
0.0
 11
-0.450012
 21
-245.0
 31
0.0
  0
LINE
  5
1F2
  8
DETAIL
  6
CONTINUOUS
 62
     5
 10
-0.450029
 20
-245.000101
 30
0.0
 11
1.549857
 21
-243.000154
 31
0.0
  0
LINE
  5
1F3
  8
DETAIL
  6
CONTINUOUS
 62
     5
 10
7.524731
 20
-209.475928
 30
0.0
 11
7.524731
 21
-180.975869
 31
0.0
  0
LINE
  5
1F4
  8
DETAIL
  6
CONTINUOUS
 62
     5
 10
-23.100037
 20
-209.475928
 30
0.0
 11
-23.100037
 21
-220.996307
 31
0.0
  0
LINE
  5
1F5
  8
DETAIL
  6
CONTINUOUS
 62
     5
 10
-23.525542
 20
-209.475928
 30
0.0
 11
-23.525542
 21
-180.975869
 31
0.0
  0
LINE
  5
1F6
  8
DETAIL
  6
CONTINUOUS
 62
     5
 10
-23.525542
 20
-209.475928
 30
0.0
 11
7.524731
 21
-209.475928
 31
0.0
  0
ARC
  5
1F7
  8
DETAIL
  6
CONTINUOUS
 62
     5
 10
-18.600037
 20
-216.952332
 30
0.0
 40
6.050119
 50
221.944975
 51
266.491596
  0
LINE
  5
1F8
  8
DETAIL
  6
CONTINUOUS
 62
     5
 10
58.749911
 20
-238.0
 30
0.0
 11
58.749911
 21
-243.0
 31
0.0
  0
LINE
  5
1F9
  8
DETAIL
  6
CONTINUOUS
 62
     5
 10
45.249942
 20
-238.0
 30
0.0
 11
45.249942
 21
-243.0
 31
0.0
  0
LINE
  5
1FA
  8
DETAIL
  6
CONTINUOUS
 62
     5
 10
43.999942
 20
-238.0
 30
0.0
 11
63.100037
 21
-238.0
 31
0.0
  0
LINE
  5
1FB
  8
DETAIL
  6
CONTINUOUS
 62
     5
 10
42.450012
 20
-243.0
 30
0.0
 11
58.555796
 21
-243.0
 31
0.0
  0
LINE
  5
1FC
  8
DETAIL
  6
CONTINUOUS
 62
     5
 10
67.099976
 20
-209.475928
 30
0.0
 11
67.099976
 21
-220.996307
 31
0.0
  0
LINE
  5
1FD
  8
DETAIL
  6
CONTINUOUS
 62
     5
 10
43.999942
 20
-225.975928
 30
0.0
 11
59.999911
 21
-225.975928
 31
0.0
  0
LINE
  5
1FE
  8
DETAIL
  6
CONTINUOUS
 62
     5
 10
41.029727
 20
-209.475928
 30
0.0
 11
41.029727
 21
-223.475928
 31
0.0
  0
ARC
  5
1FF
  8
DETAIL
  6
CONTINUOUS
 62
     5
 10
59.983309
 20
-222.92591
 30
0.0
 40
3.04353
 50
190.029906
 51
348.921908
  0
ARC
  5
200
  8
DETAIL
  6
CONTINUOUS
 62
     5
 10
52.000918
 20
-219.785407
 30
0.0
 40
6.19092
 50
216.711357
 51
323.636766
  0
ARC
  5
201
  8
DETAIL
  6
CONTINUOUS
 62
     5
 10
44.049746
 20
-222.92591
 30
0.0
 40
3.040188
 50
186.603336
 51
349.381333
  0
LINE
  5
202
  8
DETAIL
  6
CONTINUOUS
 62
     5
 10
56.970126
 20
-209.475928
 30
0.0
 11
56.970126
 21
-223.475928
 31
0.0
  0
LINE
  5
203
  8
DETAIL
  6
CONTINUOUS
 62
     5
 10
47.029727
 20
-209.475928
 30
0.0
 11
47.029727
 21
-223.475928
 31
0.0
  0
LINE
  5
204
  8
DETAIL
  6
CONTINUOUS
 62
     5
 10
62.970156
 20
-209.475928
 30
0.0
 11
62.970156
 21
-223.510566
 31
0.0
  0
LINE
  5
205
  8
DETAIL
  6
CONTINUOUS
 62
     5
 10
58.555796
 20
-243.0
 30
0.0
 11
61.549988
 21
-243.0
 31
0.0
  0
LINE
  5
206
  8
DETAIL
  6
CONTINUOUS
 62
     5
 10
42.432093
 20
-225.5
 30
0.0
 11
40.899963
 21
-225.5
 31
0.0
  0
LINE
  5
207
  8
DETAIL
  6
CONTINUOUS
 62
     5
 10
42.450012
 20
-243.0
 30
0.0
 11
42.450012
 21
-238.0
 31
0.0
  0
LINE
  5
208
  8
DETAIL
  6
CONTINUOUS
 62
     5
 10
40.899963
 20
-238.0
 30
0.0
 11
40.899963
 21
-225.5
 31
0.0
  0
LINE
  5
209
  8
DETAIL
  6
CONTINUOUS
 62
     5
 10
42.450019
 20
-242.999918
 30
0.0
 11
44.450012
 21
-244.999758
 31
0.0
  0
ARC
  5
20A
  8
DETAIL
  6
CONTINUOUS
 62
     5
 10
62.599915
 20
-216.952332
 30
0.0
 40
6.050117
 50
273.508454
 51
318.055026
  0
LINE
  5
20B
  8
DETAIL
  6
CONTINUOUS
 62
     5
 10
63.100037
 20
-225.5
 30
0.0
 11
61.607235
 21
-225.5
 31
0.0
  0
LINE
  5
20C
  8
DETAIL
  6
CONTINUOUS
 62
     5
 10
40.899963
 20
-238.0
 30
0.0
 11
43.999942
 21
-238.0
 31
0.0
  0
LINE
  5
20D
  8
DETAIL
  6
CONTINUOUS
 62
     5
 10
61.549988
 20
-243.0
 30
0.0
 11
61.549988
 21
-238.0
 31
0.0
  0
LINE
  5
20E
  8
DETAIL
  6
CONTINUOUS
 62
     5
 10
63.100037
 20
-238.0
 30
0.0
 11
63.100037
 21
-225.5
 31
0.0
  0
LINE
  5
20F
  8
DETAIL
  6
CONTINUOUS
 62
     5
 10
44.450012
 20
-245.0
 30
0.0
 11
59.549988
 21
-245.0
 31
0.0
  0
LINE
  5
210
  8
DETAIL
  6
CONTINUOUS
 62
     5
 10
59.549971
 20
-245.000101
 30
0.0
 11
61.549857
 21
-243.000154
 31
0.0
  0
LINE
  5
211
  8
DETAIL
  6
CONTINUOUS
 62
     5
 10
67.524731
 20
-209.475928
 30
0.0
 11
67.524731
 21
-180.975869
 31
0.0
  0
LINE
  5
212
  8
DETAIL
  6
CONTINUOUS
 62
     5
 10
36.899963
 20
-209.475928
 30
0.0
 11
36.899963
 21
-220.996307
 31
0.0
  0
LINE
  5
213
  8
DETAIL
  6
CONTINUOUS
 62
     5
 10
36.474458
 20
-209.475928
 30
0.0
 11
36.474458
 21
-180.975869
 31
0.0
  0
LINE
  5
214
  8
DETAIL
  6
CONTINUOUS
 62
     5
 10
36.474458
 20
-209.475928
 30
0.0
 11
67.524731
 21
-209.475928
 31
0.0
  0
ARC
  5
215
  8
DETAIL
  6
CONTINUOUS
 62
     5
 10
41.399963
 20
-216.952332
 30
0.0
 40
6.050119
 50
221.944975
 51
266.491596
  0
LINE
  5
216
  8
DETAIL
  6
CONTINUOUS
 62
     5
 10
118.749911
 20
-238.0
 30
0.0
 11
118.749911
 21
-243.0
 31
0.0
  0
LINE
  5
217
  8
DETAIL
  6
CONTINUOUS
 62
     5
 10
105.249942
 20
-238.0
 30
0.0
 11
105.249942
 21
-243.0
 31
0.0
  0
LINE
  5
218
  8
DETAIL
  6
CONTINUOUS
 62
     5
 10
103.999942
 20
-238.0
 30
0.0
 11
123.100037
 21
-238.0
 31
0.0
  0
LINE
  5
219
  8
DETAIL
  6
CONTINUOUS
 62
     5
 10
102.450012
 20
-243.0
 30
0.0
 11
118.555796
 21
-243.0
 31
0.0
  0
LINE
  5
21A
  8
DETAIL
  6
CONTINUOUS
 62
     5
 10
127.099976
 20
-209.475928
 30
0.0
 11
127.099976
 21
-220.996307
 31
0.0
  0
LINE
  5
21B
  8
DETAIL
  6
CONTINUOUS
 62
     5
 10
103.999942
 20
-225.975928
 30
0.0
 11
119.999911
 21
-225.975928
 31
0.0
  0
LINE
  5
21C
  8
DETAIL
  6
CONTINUOUS
 62
     5
 10
101.029727
 20
-209.475928
 30
0.0
 11
101.029727
 21
-223.475928
 31
0.0
  0
ARC
  5
21D
  8
DETAIL
  6
CONTINUOUS
 62
     5
 10
119.983309
 20
-222.92591
 30
0.0
 40
3.04353
 50
190.029906
 51
348.921908
  0
ARC
  5
21E
  8
DETAIL
  6
CONTINUOUS
 62
     5
 10
112.000918
 20
-219.785407
 30
0.0
 40
6.19092
 50
216.711357
 51
323.636766
  0
ARC
  5
21F
  8
DETAIL
  6
CONTINUOUS
 62
     5
 10
104.049746
 20
-222.92591
 30
0.0
 40
3.040188
 50
186.603336
 51
349.381333
  0
LINE
  5
220
  8
DETAIL
  6
CONTINUOUS
 62
     5
 10
116.970126
 20
-209.475928
 30
0.0
 11
116.970126
 21
-223.475928
 31
0.0
  0
LINE
  5
221
  8
DETAIL
  6
CONTINUOUS
 62
     5
 10
107.029727
 20
-209.475928
 30
0.0
 11
107.029727
 21
-223.475928
 31
0.0
  0
LINE
  5
222
  8
DETAIL
  6
CONTINUOUS
 62
     5
 10
122.970156
 20
-209.475928
 30
0.0
 11
122.970156
 21
-223.510566
 31
0.0
  0
LINE
  5
223
  8
DETAIL
  6
CONTINUOUS
 62
     5
 10
118.555796
 20
-243.0
 30
0.0
 11
121.549988
 21
-243.0
 31
0.0
  0
LINE
  5
224
  8
DETAIL
  6
CONTINUOUS
 62
     5
 10
102.432093
 20
-225.5
 30
0.0
 11
100.899963
 21
-225.5
 31
0.0
  0
LINE
  5
225
  8
DETAIL
  6
CONTINUOUS
 62
     5
 10
102.450012
 20
-243.0
 30
0.0
 11
102.450012
 21
-238.0
 31
0.0
  0
LINE
  5
226
  8
DETAIL
  6
CONTINUOUS
 62
     5
 10
100.899963
 20
-238.0
 30
0.0
 11
100.899963
 21
-225.5
 31
0.0
  0
LINE
  5
227
  8
DETAIL
  6
CONTINUOUS
 62
     5
 10
102.450019
 20
-242.999918
 30
0.0
 11
104.450012
 21
-244.999758
 31
0.0
  0
ARC
  5
228
  8
DETAIL
  6
CONTINUOUS
 62
     5
 10
122.599915
 20
-216.952332
 30
0.0
 40
6.050117
 50
273.508454
 51
318.055026
  0
LINE
  5
229
  8
DETAIL
  6
CONTINUOUS
 62
     5
 10
123.100037
 20
-225.5
 30
0.0
 11
121.607235
 21
-225.5
 31
0.0
  0
LINE
  5
22A
  8
DETAIL
  6
CONTINUOUS
 62
     5
 10
100.899963
 20
-238.0
 30
0.0
 11
103.999942
 21
-238.0
 31
0.0
  0
LINE
  5
22B
  8
DETAIL
  6
CONTINUOUS
 62
     5
 10
121.549988
 20
-243.0
 30
0.0
 11
121.549988
 21
-238.0
 31
0.0
  0
LINE
  5
22C
  8
DETAIL
  6
CONTINUOUS
 62
     5
 10
123.100037
 20
-238.0
 30
0.0
 11
123.100037
 21
-225.5
 31
0.0
  0
LINE
  5
22D
  8
DETAIL
  6
CONTINUOUS
 62
     5
 10
104.450012
 20
-245.0
 30
0.0
 11
119.549988
 21
-245.0
 31
0.0
  0
LINE
  5
22E
  8
DETAIL
  6
CONTINUOUS
 62
     5
 10
119.549971
 20
-245.000101
 30
0.0
 11
121.549857
 21
-243.000154
 31
0.0
  0
LINE
  5
22F
  8
DETAIL
  6
CONTINUOUS
 62
     5
 10
127.524731
 20
-209.475928
 30
0.0
 11
127.524731
 21
-180.975869
 31
0.0
  0
LINE
  5
230
  8
DETAIL
  6
CONTINUOUS
 62
     5
 10
96.899963
 20
-209.475928
 30
0.0
 11
96.899963
 21
-220.996307
 31
0.0
  0
LINE
  5
231
  8
DETAIL
  6
CONTINUOUS
 62
     5
 10
96.474458
 20
-209.475928
 30
0.0
 11
96.474458
 21
-180.975869
 31
0.0
  0
LINE
  5
232
  8
DETAIL
  6
CONTINUOUS
 62
     5
 10
96.474458
 20
-209.475928
 30
0.0
 11
127.524731
 21
-209.475928
 31
0.0
  0
ARC
  5
233
  8
DETAIL
  6
CONTINUOUS
 62
     5
 10
101.399963
 20
-216.952332
 30
0.0
 40
6.050119
 50
221.944975
 51
266.491596
  0
LINE
  5
234
  8
DETAIL
  6
CONTINUOUS
 62
     5
 10
178.749911
 20
-238.0
 30
0.0
 11
178.749911
 21
-243.0
 31
0.0
  0
LINE
  5
235
  8
DETAIL
  6
CONTINUOUS
 62
     5
 10
165.249942
 20
-238.0
 30
0.0
 11
165.249942
 21
-243.0
 31
0.0
  0
LINE
  5
236
  8
DETAIL
  6
CONTINUOUS
 62
     5
 10
163.999942
 20
-238.0
 30
0.0
 11
183.100037
 21
-238.0
 31
0.0
  0
LINE
  5
237
  8
DETAIL
  6
CONTINUOUS
 62
     5
 10
162.450012
 20
-243.0
 30
0.0
 11
178.555796
 21
-243.0
 31
0.0
  0
LINE
  5
238
  8
DETAIL
  6
CONTINUOUS
 62
     5
 10
187.099976
 20
-209.475928
 30
0.0
 11
187.099976
 21
-220.996307
 31
0.0
  0
LINE
  5
239
  8
DETAIL
  6
CONTINUOUS
 62
     5
 10
163.999942
 20
-225.975928
 30
0.0
 11
179.999911
 21
-225.975928
 31
0.0
  0
LINE
  5
23A
  8
DETAIL
  6
CONTINUOUS
 62
     5
 10
161.029727
 20
-209.475928
 30
0.0
 11
161.029727
 21
-223.475928
 31
0.0
  0
ARC
  5
23B
  8
DETAIL
  6
CONTINUOUS
 62
     5
 10
179.983309
 20
-222.92591
 30
0.0
 40
3.04353
 50
190.029906
 51
348.921908
  0
ARC
  5
23C
  8
DETAIL
  6
CONTINUOUS
 62
     5
 10
172.000918
 20
-219.785407
 30
0.0
 40
6.19092
 50
216.711357
 51
323.636766
  0
ARC
  5
23D
  8
DETAIL
  6
CONTINUOUS
 62
     5
 10
164.049746
 20
-222.92591
 30
0.0
 40
3.040188
 50
186.603336
 51
349.381333
  0
LINE
  5
23E
  8
DETAIL
  6
CONTINUOUS
 62
     5
 10
176.970126
 20
-209.475928
 30
0.0
 11
176.970126
 21
-223.475928
 31
0.0
  0
LINE
  5
23F
  8
DETAIL
  6
CONTINUOUS
 62
     5
 10
167.029727
 20
-209.475928
 30
0.0
 11
167.029727
 21
-223.475928
 31
0.0
  0
LINE
  5
240
  8
DETAIL
  6
CONTINUOUS
 62
     5
 10
182.970156
 20
-209.475928
 30
0.0
 11
182.970156
 21
-223.510566
 31
0.0
  0
LINE
  5
241
  8
DETAIL
  6
CONTINUOUS
 62
     5
 10
178.555796
 20
-243.0
 30
0.0
 11
181.549988
 21
-243.0
 31
0.0
  0
LINE
  5
242
  8
DETAIL
  6
CONTINUOUS
 62
     5
 10
162.432093
 20
-225.5
 30
0.0
 11
160.899963
 21
-225.5
 31
0.0
  0
LINE
  5
243
  8
DETAIL
  6
CONTINUOUS
 62
     5
 10
162.450012
 20
-243.0
 30
0.0
 11
162.450012
 21
-238.0
 31
0.0
  0
LINE
  5
244
  8
DETAIL
  6
CONTINUOUS
 62
     5
 10
160.899963
 20
-238.0
 30
0.0
 11
160.899963
 21
-225.5
 31
0.0
  0
LINE
  5
245
  8
DETAIL
  6
CONTINUOUS
 62
     5
 10
162.450019
 20
-242.999918
 30
0.0
 11
164.450012
 21
-244.999758
 31
0.0
  0
ARC
  5
246
  8
DETAIL
  6
CONTINUOUS
 62
     5
 10
182.599915
 20
-216.952332
 30
0.0
 40
6.050117
 50
273.508454
 51
318.055026
  0
LINE
  5
247
  8
DETAIL
  6
CONTINUOUS
 62
     5
 10
183.100037
 20
-225.5
 30
0.0
 11
181.607235
 21
-225.5
 31
0.0
  0
LINE
  5
248
  8
DETAIL
  6
CONTINUOUS
 62
     5
 10
160.899963
 20
-238.0
 30
0.0
 11
163.999942
 21
-238.0
 31
0.0
  0
LINE
  5
249
  8
DETAIL
  6
CONTINUOUS
 62
     5
 10
181.549988
 20
-243.0
 30
0.0
 11
181.549988
 21
-238.0
 31
0.0
  0
LINE
  5
24A
  8
DETAIL
  6
CONTINUOUS
 62
     5
 10
183.100037
 20
-238.0
 30
0.0
 11
183.100037
 21
-225.5
 31
0.0
  0
LINE
  5
24B
  8
DETAIL
  6
CONTINUOUS
 62
     5
 10
164.450012
 20
-245.0
 30
0.0
 11
179.549988
 21
-245.0
 31
0.0
  0
LINE
  5
24C
  8
DETAIL
  6
CONTINUOUS
 62
     5
 10
179.549971
 20
-245.000101
 30
0.0
 11
181.549857
 21
-243.000154
 31
0.0
  0
LINE
  5
24D
  8
DETAIL
  6
CONTINUOUS
 62
     5
 10
187.524731
 20
-209.475928
 30
0.0
 11
187.524731
 21
-180.975869
 31
0.0
  0
LINE
  5
24E
  8
DETAIL
  6
CONTINUOUS
 62
     5
 10
156.899963
 20
-209.475928
 30
0.0
 11
156.899963
 21
-220.996307
 31
0.0
  0
LINE
  5
24F
  8
DETAIL
  6
CONTINUOUS
 62
     5
 10
156.474458
 20
-209.475928
 30
0.0
 11
156.474458
 21
-180.975869
 31
0.0
  0
LINE
  5
250
  8
DETAIL
  6
CONTINUOUS
 62
     5
 10
156.474458
 20
-209.475928
 30
0.0
 11
187.524731
 21
-209.475928
 31
0.0
  0
ARC
  5
251
  8
DETAIL
  6
CONTINUOUS
 62
     5
 10
161.399963
 20
-216.952332
 30
0.0
 40
6.050119
 50
221.944975
 51
266.491596
  0
LINE
  5
28E
  8
SIZE
  6
CONTINUOUS
 62
    30
 10
-248.0
 20
-280.0
 30
0.0
 11
-248.0
 21
-378.464072
 31
0.0
  0
LINE
  5
28F
  8
SIZE
  6
CONTINUOUS
 62
    30
 10
-188.0
 20
-280.0
 30
0.0
 11
-188.0
 21
-378.464072
 31
0.0
  0
LINE
  5
290
  8
SIZE
  6
CONTINUOUS
 62
    30
 10
-248.0
 20
-363.464072
 30
0.0
 11
-188.0
 21
-363.464072
 31
0.0
  0
LINE
  5
291
  8
SIZE
  6
CONTINUOUS
 62
    30
 10
-188.0
 20
-363.464072
 30
0.0
 11
-55.142857
 21
-363.464072
 31
0.0
  0
CIRCLE
  5
292
  8
SIZE
  6
CONTINUOUS
 62
    30
 10
-248.0
 20
-363.464072
 30
0.0
 40
7.5
  0
CIRCLE
  5
293
  8
SIZE
  6
CONTINUOUS
 62
    30
 10
-188.0
 20
-363.464072
 30
0.0
 40
7.5
  0
TEXT
  5
294
  8
SIZE
  6
CONTINUOUS
 62
    30
 10
-143.0
 20
-348.464072
 30
0.0
 40
50.0
  1
60
 41
0.9
 72
     1
 11
-106.571429
 21
-348.464072
 31
0.0
  0
POINT
  5
295
  8
DEFPOINTS
  6
CONTINUOUS
 62
     7
 10
-248.0
 20
-265.0
 30
0.0
  0
POINT
  5
296
  8
DEFPOINTS
  6
CONTINUOUS
 62
     7
 10
-188.0
 20
-265.0
 30
0.0
  0
POINT
  5
297
  8
DEFPOINTS
  6
CONTINUOUS
 62
     7
 10
-188.0
 20
-363.464072
 30
0.0
  0
LINE
  5
298
  8
SIZE
  6
CONTINUOUS
 62
    30
 10
-339.0
 20
-181.0
 30
0.0
 11
-864.584968
 21
-181.0
 31
0.0
  0
LINE
  5
299
  8
SIZE
  6
CONTINUOUS
 62
    30
 10
-533.558062
 20
0.0
 30
0.0
 11
-864.584968
 21
0.0
 31
0.0
  0
LINE
  5
29A
  8
SIZE
  6
CONTINUOUS
 62
    30
 10
-849.584968
 20
-181.0
 30
0.0
 11
-849.584968
 21
0.0
 31
0.0
  0
CIRCLE
  5
29B
  8
SIZE
  6
CONTINUOUS
 62
    30
 10
-849.584968
 20
-181.0
 30
0.0
 40
7.5
  0
CIRCLE
  5
29C
  8
SIZE
  6
CONTINUOUS
 62
    30
 10
-849.584968
 20
0.0
 30
0.0
 40
7.5
  0
TEXT
  5
29D
  8
SIZE
  6
CONTINUOUS
 62
    30
 10
-864.584968
 20
-134.428571
 30
0.0
 40
50.0
  1
181
 50
90.0
 41
0.9
 72
     1
 11
-864.584968
 21
-90.5
 31
0.0
  0
POINT
  5
29E
  8
DEFPOINTS
  6
CONTINUOUS
 62
     7
 10
-324.0
 20
-181.0
 30
0.0
  0
POINT
  5
29F
  8
DEFPOINTS
  6
CONTINUOUS
 62
     7
 10
-518.558062
 20
0.0
 30
0.0
  0
POINT
  5
2A0
  8
DEFPOINTS
  6
CONTINUOUS
 62
     7
 10
-849.584968
 20
0.0
 30
0.0
  0
LINE
  5
2A2
  8
SIZE
  6
CONTINUOUS
 62
    30
 10
-533.558062
 20
0.0
 30
0.0
 11
-864.584968
 21
0.0
 31
0.0
  0
LINE
  5
2A3
  8
SIZE
  6
CONTINUOUS
 62
    30
 10
-729.558062
 20
157.0
 30
0.0
 11
-864.584968
 21
157.0
 31
0.0
  0
LINE
  5
2A4
  8
SIZE
  6
CONTINUOUS
 62
    30
 10
-849.584968
 20
0.0
 30
0.0
 11
-849.584968
 21
157.0
 31
0.0
  0
CIRCLE
  5
2A5
  8
SIZE
  6
CONTINUOUS
 62
    30
 10
-849.584968
 20
0.0
 30
0.0
 40
7.5
  0
CIRCLE
  5
2A6
  8
SIZE
  6
CONTINUOUS
 62
    30
 10
-849.584968
 20
157.0
 30
0.0
 40
7.5
  0
TEXT
  5
2A7
  8
SIZE
  6
CONTINUOUS
 62
    30
 10
-864.584968
 20
24.928571
 30
0.0
 40
50.0
  1
157
 50
90.0
 41
0.9
 72
     1
 11
-864.584968
 21
78.5
 31
0.0
  0
POINT
  5
2A8
  8
DEFPOINTS
  6
CONTINUOUS
 62
     7
 10
-518.558062
 20
0.0
 30
0.0
  0
POINT
  5
2A9
  8
DEFPOINTS
  6
CONTINUOUS
 62
     7
 10
-714.558062
 20
157.0
 30
0.0
  0
POINT
  5
2AA
  8
DEFPOINTS
  6
CONTINUOUS
 62
     7
 10
-849.584968
 20
157.0
 30
0.0
  0
LINE
  5
2AB
  8
SIZE
  6
CONTINUOUS
 62
    30
 10
-339.0
 20
-181.0
 30
0.0
 11
-597.72669
 21
-181.0
 31
0.0
  0
LINE
  5
2AC
  8
SIZE
  6
CONTINUOUS
 62
    30
 10
-429.0
 20
-78.0
 30
0.0
 11
-597.72669
 21
-78.0
 31
0.0
  0
LINE
  5
2AD
  8
SIZE
  6
CONTINUOUS
 62
    30
 10
-582.72669
 20
-181.0
 30
0.0
 11
-582.72669
 21
-78.0
 31
0.0
  0
CIRCLE
  5
2AE
  8
SIZE
  6
CONTINUOUS
 62
    30
 10
-582.72669
 20
-181.0
 30
0.0
 40
7.5
  0
CIRCLE
  5
2AF
  8
SIZE
  6
CONTINUOUS
 62
    30
 10
-582.72669
 20
-78.0
 30
0.0
 40
7.5
  0
TEXT
  5
2B0
  8
SIZE
  6
CONTINUOUS
 62
    30
 10
-597.72669
 20
-183.071429
 30
0.0
 40
50.0
  1
103
 50
90.0
 41
0.9
 72
     1
 11
-597.72669
 21
-129.5
 31
0.0
  0
POINT
  5
2B1
  8
DEFPOINTS
  6
CONTINUOUS
 62
     7
 10
-324.0
 20
-181.0
 30
0.0
  0
POINT
  5
2B2
  8
DEFPOINTS
  6
CONTINUOUS
 62
     7
 10
-414.0
 20
-78.0
 30
0.0
  0
POINT
  5
2B3
  8
DEFPOINTS
  6
CONTINUOUS
 62
     7
 10
-582.72669
 20
-78.0
 30
0.0
  0
LINE
  5
2B4
  8
SIZE
  6
CONTINUOUS
 62
    30
 10
-429.0
 20
67.0
 30
0.0
 11
-735.756848
 21
67.0
 31
0.0
  0
LINE
  5
2B5
  8
SIZE
  6
CONTINUOUS
 62
    30
 10
-339.0
 20
-181.0
 30
0.0
 11
-735.756848
 21
-181.0
 31
0.0
  0
LINE
  5
2B6
  8
SIZE
  6
CONTINUOUS
 62
    30
 10
-720.756848
 20
67.0
 30
0.0
 11
-720.756848
 21
-181.0
 31
0.0
  0
CIRCLE
  5
2B7
  8
SIZE
  6
CONTINUOUS
 62
    30
 10
-720.756848
 20
67.0
 30
0.0
 40
7.5
  0
CIRCLE
  5
2B8
  8
SIZE
  6
CONTINUOUS
 62
    30
 10
-720.756848
 20
-181.0
 30
0.0
 40
7.5
  0
TEXT
  5
2B9
  8
SIZE
  6
CONTINUOUS
 62
    30
 10
-735.756848
 20
-141.672539
 30
0.0
 40
50.0
  1
248
 50
90.0
 41
0.9
 72
     1
 11
-735.756848
 21
-83.815396
 31
0.0
  0
POINT
  5
2BA
  8
DEFPOINTS
  6
CONTINUOUS
 62
     7
 10
-414.0
 20
67.0
 30
0.0
  0
POINT
  5
2BB
  8
DEFPOINTS
  6
CONTINUOUS
 62
     7
 10
-324.0
 20
-181.0
 30
0.0
  0
POINT
  5
2BC
  8
DEFPOINTS
  6
CONTINUOUS
 62
     7
 10
-720.756848
 20
-181.0
 30
0.0
  0
LINE
  5
2BD
  8
SIZE
  6
CONTINUOUS
 62
    30
 10
-324.0
 20
-196.0
 30
0.0
 11
-324.0
 21
-495.234772
 31
0.0
  0
LINE
  5
2BE
  8
SIZE
  6
CONTINUOUS
 62
    30
 10
-394.0
 20
47.0
 30
0.0
 11
-394.0
 21
-495.234772
 31
0.0
  0
LINE
  5
2BF
  8
SIZE
  6
CONTINUOUS
 62
    30
 10
-324.0
 20
-480.234772
 30
0.0
 11
-394.0
 21
-480.234772
 31
0.0
  0
LINE
  5
2C0
  8
SIZE
  6
CONTINUOUS
 62
    30
 10
-485.87003
 20
-480.234772
 30
0.0
 11
-394.0
 21
-480.234772
 31
0.0
  0
TEXT
  5
2C1
  8
SIZE
  6
CONTINUOUS
 62
    30
 10
-482.55758
 20
-465.234772
 30
0.0
 40
50.0
  1
70
 41
0.9
 72
     1
 11
-446.129009
 21
-465.234772
 31
0.0
  0
CIRCLE
  5
2C2
  8
SIZE
  6
CONTINUOUS
 62
    30
 10
-324.0
 20
-480.234772
 30
0.0
 40
7.5
  0
CIRCLE
  5
2C3
  8
SIZE
  6
CONTINUOUS
 62
    30
 10
-394.0
 20
-480.234772
 30
0.0
 40
7.5
  0
LINE
  5
2C4
  8
SIZE
  6
CONTINUOUS
 62
    30
 10
389.001839
 20
-143.0
 30
0.0
 11
538.649985
 21
-143.0
 31
0.0
  0
LINE
  5
2C5
  8
SIZE
  6
CONTINUOUS
 62
    30
 10
389.001839
 20
-154.996687
 30
0.0
 11
538.649985
 21
-154.996687
 31
0.0
  0
LINE
  5
2C6
  8
SIZE
  6
CONTINUOUS
 62
    30
 10
523.649985
 20
-154.996687
 30
0.0
 11
523.649985
 21
-184.996687
 31
0.0
  0
LINE
  5
2C7
  8
SIZE
  6
CONTINUOUS
 62
    30
 10
523.649985
 20
-143.0
 30
0.0
 11
523.649985
 21
11.285714
 31
0.0
  0
LINE
  5
2C8
  8
SIZE
  6
CONTINUOUS
 62
    30
 10
523.649985
 20
-154.996687
 30
0.0
 11
523.649985
 21
-143.0
 31
0.0
  0
CIRCLE
  5
2C9
  8
SIZE
  6
CONTINUOUS
 62
    30
 10
523.649985
 20
-154.996687
 30
0.0
 40
7.5
  0
CIRCLE
  5
2CA
  8
SIZE
  6
CONTINUOUS
 62
    30
 10
523.649985
 20
-143.0
 30
0.0
 40
7.5
  0
TEXT
  5
2CB
  8
SIZE
  6
CONTINUOUS
 62
    30
 10
508.649985
 20
-68.0
 30
0.0
 40
50.0
  1
12
 50
90.0
 41
0.9
 72
     1
 11
508.649985
 21
-35.857143
 31
0.0
  0
POINT
  5
2CC
  8
DEFPOINTS
  6
CONTINUOUS
 62
     7
 10
374.001839
 20
-143.0
 30
0.0
  0
POINT
  5
2CD
  8
DEFPOINTS
  6
CONTINUOUS
 62
     7
 10
374.001839
 20
-154.996687
 30
0.0
  0
POINT
  5
2CE
  8
DEFPOINTS
  6
CONTINUOUS
 62
     7
 10
523.649985
 20
-154.996687
 30
0.0
  0
LINE
  5
2CF
  8
SIZE
  6
CONTINUOUS
 62
    30
 10
365.999539
 20
-164.0
 30
0.0
 11
643.676227
 21
-164.0
 31
0.0
  0
LINE
  5
2D0
  8
SIZE
  6
CONTINUOUS
 62
    30
 10
365.999539
 20
-134.0
 30
0.0
 11
643.676227
 21
-134.0
 31
0.0
  0
LINE
  5
2D1
  8
SIZE
  6
CONTINUOUS
 62
    30
 10
628.676227
 20
-164.0
 30
0.0
 11
628.676227
 21
-134.0
 31
0.0
  0
LINE
  5
2D2
  8
SIZE
  6
CONTINUOUS
 62
    30
 10
628.676227
 20
-134.0
 30
0.0
 11
628.676227
 21
-1.142857
 31
0.0
  0
CIRCLE
  5
2D3
  8
SIZE
  6
CONTINUOUS
 62
    30
 10
628.676227
 20
-164.0
 30
0.0
 40
7.5
  0
CIRCLE
  5
2D4
  8
SIZE
  6
CONTINUOUS
 62
    30
 10
628.676227
 20
-134.0
 30
0.0
 40
7.5
  0
TEXT
  5
2D5
  8
SIZE
  6
CONTINUOUS
 62
    30
 10
613.676227
 20
-89.0
 30
0.0
 40
50.0
  1
30
 50
90.0
 41
0.9
 72
     1
 11
613.676227
 21
-52.571429
 31
0.0
  0
POINT
  5
2D6
  8
DEFPOINTS
  6
CONTINUOUS
 62
     7
 10
350.999539
 20
-164.0
 30
0.0
  0
POINT
  5
2D7
  8
DEFPOINTS
  6
CONTINUOUS
 62
     7
 10
350.999539
 20
-134.0
 30
0.0
  0
POINT
  5
2D8
  8
DEFPOINTS
  6
CONTINUOUS
 62
     7
 10
628.676227
 20
-134.0
 30
0.0
  0
LINE
  5
2D9
  8
SIZE
  6
CONTINUOUS
 62
    30
 10
343.999539
 20
-126.0
 30
0.0
 11
343.999539
 21
-69.461868
 31
0.0
  0
LINE
  5
2DA
  8
SIZE
  6
CONTINUOUS
 62
    30
 10
357.999539
 20
-126.0
 30
0.0
 11
357.999539
 21
-69.461868
 31
0.0
  0
LINE
  5
2DB
  8
SIZE
  6
CONTINUOUS
 62
    30
 10
343.999539
 20
-84.461868
 30
0.0
 11
313.999539
 21
-84.461868
 31
0.0
  0
LINE
  5
2DC
  8
SIZE
  6
CONTINUOUS
 62
    30
 10
357.999539
 20
-84.461868
 30
0.0
 11
435.259982
 21
-84.461868
 31
0.0
  0
LINE
  5
2DD
  8
SIZE
  6
CONTINUOUS
 62
    30
 10
343.999539
 20
-84.461868
 30
0.0
 11
357.999539
 21
-84.461868
 31
0.0
  0
CIRCLE
  5
2DE
  8
SIZE
  6
CONTINUOUS
 62
    30
 10
343.999539
 20
-84.461868
 30
0.0
 40
7.5
  0
CIRCLE
  5
2DF
  8
SIZE
  6
CONTINUOUS
 62
    30
 10
357.999539
 20
-84.461868
 30
0.0
 40
7.5
  0
TEXT
  5
2E0
  8
SIZE
  6
CONTINUOUS
 62
    30
 10
365.319863
 20
-75.018512
 30
0.0
 40
50.0
  1
14
 41
0.9
 72
     1
 11
398.534149
 21
-75.018512
 31
0.0
  0
LINE
  5
2E1
  8
SIZE
  6
CONTINUOUS
 62
    30
 10
385.999539
 20
-149.0
 30
0.0
 11
760.461196
 21
-149.0
 31
0.0
  0
LINE
  5
2E2
  8
SIZE
  6
CONTINUOUS
 62
    30
 10
385.999539
 20
149.0
 30
0.0
 11
760.461196
 21
149.0
 31
0.0
  0
LINE
  5
2E3
  8
SIZE
  6
CONTINUOUS
 62
    30
 10
745.461196
 20
-149.0
 30
0.0
 11
745.461196
 21
149.0
 31
0.0
  0
CIRCLE
  5
2E4
  8
SIZE
  6
CONTINUOUS
 62
    30
 10
745.461196
 20
-149.0
 30
0.0
 40
7.5
  0
CIRCLE
  5
2E5
  8
SIZE
  6
CONTINUOUS
 62
    30
 10
745.461196
 20
149.0
 30
0.0
 40
7.5
  0
TEXT
  5
2E6
  8
SIZE
  6
CONTINUOUS
 62
    30
 10
730.461196
 20
-57.857143
 30
0.0
 40
50.0
  1
298
 50
90.0
 41
0.9
 72
     1
 11
730.461196
 21
0.0
 31
0.0
  0
POINT
  5
2E7
  8
DEFPOINTS
  6
CONTINUOUS
 62
     7
 10
370.999539
 20
-149.0
 30
0.0
  0
POINT
  5
2E8
  8
DEFPOINTS
  6
CONTINUOUS
 62
     7
 10
370.999539
 20
149.0
 30
0.0
  0
POINT
  5
2E9
  8
DEFPOINTS
  6
CONTINUOUS
 62
     7
 10
745.461196
 20
149.0
 30
0.0
  0
TEXT
  5
2EA
  8
SIZE
  6
CONTINUOUS
 62
    30
 10
814.713797
 20
-153.754545
 30
0.0
 40
50.0
  1
（吊りﾎﾞﾙﾄﾋﾟｯﾁ）
 50
90.0
 41
0.75
  0
LINE
  5
2EB
  8
SIZE
  6
CONTINUOUS
 62
    30
 10
339.0
 20
-181.0
 30
0.0
 11
943.171157
 21
-181.0
 31
0.0
  0
LINE
  5
2EC
  8
SIZE
  6
CONTINUOUS
 62
    30
 10
339.0
 20
181.0
 30
0.0
 11
943.171157
 21
181.0
 31
0.0
  0
LINE
  5
2ED
  8
SIZE
  6
CONTINUOUS
 62
    30
 10
928.171157
 20
-181.0
 30
0.0
 11
928.171157
 21
181.0
 31
0.0
  0
CIRCLE
  5
2EE
  8
SIZE
  6
CONTINUOUS
 62
    30
 10
928.171157
 20
-181.0
 30
0.0
 40
7.5
  0
CIRCLE
  5
2EF
  8
SIZE
  6
CONTINUOUS
 62
    30
 10
928.171157
 20
181.0
 30
0.0
 40
7.5
  0
TEXT
  5
2F0
  8
SIZE
  6
CONTINUOUS
 62
    30
 10
913.171157
 20
-57.857143
 30
0.0
 40
50.0
  1
362
 50
90.0
 41
0.9
 72
     1
 11
913.171157
 21
0.0
 31
0.0
  0
POINT
  5
2F1
  8
DEFPOINTS
  6
CONTINUOUS
 62
     7
 10
324.0
 20
-181.0
 30
0.0
  0
POINT
  5
2F2
  8
DEFPOINTS
  6
CONTINUOUS
 62
     7
 10
324.0
 20
181.0
 30
0.0
  0
POINT
  5
2F3
  8
DEFPOINTS
  6
CONTINUOUS
 62
     7
 10
928.171157
 20
181.0
 30
0.0
  0
LINE
  5
2F4
  8
SIZE
  6
CONTINUOUS
 62
    30
 10
-362.999986
 20
310.0
 30
0.0
 11
-202.223492
 21
310.0
 31
0.0
  0
LINE
  5
2F5
  8
SIZE
  6
CONTINUOUS
 62
    30
 10
-309.0
 20
181.0
 30
0.0
 11
-202.223492
 21
181.0
 31
0.0
  0
LINE
  5
2F6
  8
SIZE
  6
CONTINUOUS
 62
    30
 10
-217.223492
 20
310.0
 30
0.0
 11
-217.223492
 21
181.0
 31
0.0
  0
CIRCLE
  5
2F7
  8
SIZE
  6
CONTINUOUS
 62
    30
 10
-217.223492
 20
310.0
 30
0.0
 40
7.5
  0
CIRCLE
  5
2F8
  8
SIZE
  6
CONTINUOUS
 62
    30
 10
-217.223492
 20
181.0
 30
0.0
 40
7.5
  0
TEXT
  5
2F9
  8
SIZE
  6
CONTINUOUS
 62
    30
 10
-232.223492
 20
193.0
 30
0.0
 40
50.0
  1
129
 50
90.0
 41
0.9
 72
     1
 11
-232.223492
 21
245.5
 31
0.0
  0
POINT
  5
2FA
  8
DEFPOINTS
  6
CONTINUOUS
 62
     7
 10
-377.999986
 20
310.0
 30
0.0
  0
POINT
  5
2FB
  8
DEFPOINTS
  6
CONTINUOUS
 62
     7
 10
-324.0
 20
181.0
 30
0.0
  0
POINT
  5
2FC
  8
DEFPOINTS
  6
CONTINUOUS
 62
     7
 10
-217.223492
 20
181.0
 30
0.0
  0
TEXT
  5
2FD
  8
ETC
  6
CONTINUOUS
 62
    61
 10
-1753.676228
 20
485.114436
 30
0.0
 40
64.0
  1
CMB-P108GB(ﾄﾞﾚﾝｱｯﾌﾟﾒｶ組込)_6
 41
0.9
  0
LINE
  5
2FE
  8
SERVICESPACE
  6
DASHDOT
 62
     2
 10
-326.0
 20
881.0
 30
0.0
 11
124.0
 21
431.0
 31
0.0
  0
LINE
  5
2FF
  8
SERVICESPACE
  6
DASHDOT
 62
     2
 10
-326.0
 20
431.0
 30
0.0
 11
124.0
 21
881.0
 31
0.0
  0
LINE
  5
300
  8
SERVICESPACE
  6
DASHDOT
 62
     2
 10
-524.0
 20
881.0
 30
0.0
 11
324.0
 21
881.0
 31
0.0
  0
LINE
  5
301
  8
SERVICESPACE
  6
DASHDOT
 62
     2
 10
-326.0
 20
881.0
 30
0.0
 11
-326.0
 21
431.0
 31
0.0
  0
LINE
  5
302
  8
SERVICESPACE
  6
DASHDOT
 62
     2
 10
124.0
 20
881.0
 30
0.0
 11
124.0
 21
431.0
 31
0.0
  0
LINE
  5
303
  8
SERVICESPACE
  6
DASHDOT
 62
     2
 10
324.0
 20
881.0
 30
0.0
 11
324.0
 21
181.0
 31
0.0
  0
LINE
  5
304
  8
SERVICESPACE
  6
DASHDOT
 62
     2
 10
-326.0
 20
431.0
 30
0.0
 11
124.0
 21
431.0
 31
0.0
  0
LINE
  5
305
  8
SERVICESPACE
  6
DASHDOT
 62
     2
 10
-324.0
 20
181.0
 30
0.0
 11
324.0
 21
181.0
 31
0.0
  0
LINE
  5
306
  8
SERVICESPACE
  6
DASHDOT
 62
     2
 10
-524.0
 20
881.0
 30
0.0
 11
-524.0
 21
-181.0
 31
0.0
  0
LINE
  5
307
  8
SERVICESPACE
  6
DASHDOT
 62
     2
 10
-524.0
 20
-181.0
 30
0.0
 11
-324.0
 21
-181.0
 31
0.0
  0
LINE
  5
308
  8
SERVICESPACE
  6
DASHDOT
 62
     2
 10
-324.0
 20
181.0
 30
0.0
 11
-324.0
 21
-181.0
 31
0.0
  0
LINE
  5
309
  8
SIZE
  6
CONTINUOUS
 62
    30
 10
291.937881
 20
251.0
 30
0.0
 11
534.237839
 21
251.0
 31
0.0
  0
LINE
  5
30A
  8
SIZE
  6
CONTINUOUS
 62
    30
 10
354.0
 20
181.0
 30
0.0
 11
534.237839
 21
181.0
 31
0.0
  0
LINE
  5
30B
  8
SIZE
  6
CONTINUOUS
 62
    30
 10
519.237839
 20
181.0
 30
0.0
 11
519.237839
 21
251.0
 31
0.0
  0
LINE
  5
30C
  8
SIZE
  6
CONTINUOUS
 62
    30
 10
519.237839
 20
251.0
 30
0.0
 11
519.237839
 21
428.886522
 31
0.0
  0
CIRCLE
  5
30D
  8
SIZE
  6
CONTINUOUS
 62
    30
 10
519.237839
 20
181.0
 30
0.0
 40
7.5
  0
CIRCLE
  5
30E
  8
SIZE
  6
CONTINUOUS
 62
    30
 10
519.237839
 20
251.0
 30
0.0
 40
7.5
  0
TEXT
  5
30F
  8
SIZE
  6
CONTINUOUS
 62
    30
 10
504.237839
 20
341.029379
 30
0.0
 40
50.0
  1
70
 50
90.0
 41
0.9
 72
     1
 11
504.237839
 21
377.45795
 31
0.0
  0
POINT
  5
310
  8
DEFPOINTS
  6
CONTINUOUS
 62
     7
 10
276.937881
 20
251.0
 30
0.0
  0
POINT
  5
311
  8
DEFPOINTS
  6
CONTINUOUS
 62
     7
 10
339.0
 20
181.0
 30
0.0
  0
POINT
  5
312
  8
DEFPOINTS
  6
CONTINUOUS
 62
     7
 10
519.237839
 20
181.0
 30
0.0
  0
LINE
  5
313
  8
SIZE
  6
CONTINUOUS
 62
    30
 10
339.0
 20
881.0
 30
0.0
 11
943.171157
 21
881.0
 31
0.0
  0
LINE
  5
314
  8
SIZE
  6
CONTINUOUS
 62
    30
 10
339.0
 20
181.0
 30
0.0
 11
943.171157
 21
181.0
 31
0.0
  0
LINE
  5
315
  8
SIZE
  6
CONTINUOUS
 62
    30
 10
928.171157
 20
881.0
 30
0.0
 11
928.171157
 21
181.0
 31
0.0
  0
CIRCLE
  5
316
  8
SIZE
  6
CONTINUOUS
 62
    30
 10
928.171157
 20
881.0
 30
0.0
 40
7.5
  0
CIRCLE
  5
317
  8
SIZE
  6
CONTINUOUS
 62
    30
 10
928.171157
 20
181.0
 30
0.0
 40
7.5
  0
TEXT
  5
318
  8
SIZE
  6
CONTINUOUS
 62
    30
 10
900.075919
 20
444.214286
 30
0.0
 40
50.0
  1
(700)
 50
90.0
 41
0.9
 72
     1
 11
900.075919
 21
531.0
 31
0.0
  0
POINT
  5
319
  8
DEFPOINTS
  6
CONTINUOUS
 62
     7
 10
324.0
 20
881.0
 30
0.0
  0
POINT
  5
31A
  8
DEFPOINTS
  6
CONTINUOUS
 62
     7
 10
324.0
 20
181.0
 30
0.0
  0
POINT
  5
31B
  8
DEFPOINTS
  6
CONTINUOUS
 62
     7
 10
928.171157
 20
181.0
 30
0.0
  0
LINE
  5
31C
  8
SIZE
  6
CONTINUOUS
 62
    30
 10
-326.0
 20
896.0
 30
0.0
 11
-326.0
 21
1091.789381
 31
0.0
  0
LINE
  5
31D
  8
SIZE
  6
CONTINUOUS
 62
    30
 10
124.0
 20
896.0
 30
0.0
 11
124.0
 21
1091.789381
 31
0.0
  0
LINE
  5
31E
  8
SIZE
  6
CONTINUOUS
 62
    30
 10
-326.0
 20
1076.789381
 30
0.0
 11
124.0
 21
1076.789381
 31
0.0
  0
CIRCLE
  5
31F
  8
SIZE
  6
CONTINUOUS
 62
    30
 10
-326.0
 20
1076.789381
 30
0.0
 40
7.5
  0
CIRCLE
  5
320
  8
SIZE
  6
CONTINUOUS
 62
    30
 10
124.0
 20
1076.789381
 30
0.0
 40
7.5
  0
TEXT
  5
321
  8
SIZE
  6
CONTINUOUS
 62
    30
 10
-158.857143
 20
1091.789381
 30
0.0
 40
50.0
  1
450
 41
0.9
 72
     1
 11
-101.0
 21
1091.789381
 31
0.0
  0
POINT
  5
322
  8
DEFPOINTS
  6
CONTINUOUS
 62
     7
 10
-326.0
 20
881.0
 30
0.0
  0
POINT
  5
323
  8
DEFPOINTS
  6
CONTINUOUS
 62
     7
 10
124.0
 20
881.0
 30
0.0
  0
POINT
  5
324
  8
DEFPOINTS
  6
CONTINUOUS
 62
     7
 10
124.0
 20
1076.789381
 30
0.0
  0
LINE
  5
325
  8
SIZE
  6
CONTINUOUS
 62
    30
 10
-324.0
 20
194.000221
 30
0.0
 11
-324.0
 21
1094.056306
 31
0.0
  0
LINE
  5
326
  8
SIZE
  6
CONTINUOUS
 62
    30
 10
-524.0
 20
896.0
 30
0.0
 11
-524.0
 21
1094.056306
 31
0.0
  0
LINE
  5
327
  8
SIZE
  6
CONTINUOUS
 62
    30
 10
-324.0
 20
1079.056306
 30
0.0
 11
-524.0
 21
1079.056306
 31
0.0
  0
CIRCLE
  5
328
  8
SIZE
  6
CONTINUOUS
 62
    30
 10
-324.0
 20
1079.056306
 30
0.0
 40
7.5
  0
CIRCLE
  5
329
  8
SIZE
  6
CONTINUOUS
 62
    30
 10
-524.0
 20
1079.056306
 30
0.0
 40
7.5
  0
TEXT
  5
32A
  8
SIZE
  6
CONTINUOUS
 62
    30
 10
-534.785714
 20
1094.056306
 30
0.0
 40
50.0
  1
（200）
 41
0.9
 72
     1
 11
-424.0
 21
1094.056306
 31
0.0
  0
POINT
  5
32B
  8
DEFPOINTS
  6
CONTINUOUS
 62
     7
 10
-324.0
 20
179.000221
 30
0.0
  0
POINT
  5
32C
  8
DEFPOINTS
  6
CONTINUOUS
 62
     7
 10
-524.0
 20
881.0
 30
0.0
  0
POINT
  5
32D
  8
DEFPOINTS
  6
CONTINUOUS
 62
     7
 10
-524.0
 20
1079.056306
 30
0.0
  0
LINE
  5
32E
  8
SIZE
  6
CONTINUOUS
 62
    30
 10
324.0
 20
896.0
 30
0.0
 11
324.0
 21
1091.789381
 31
0.0
  0
LINE
  5
32F
  8
SIZE
  6
CONTINUOUS
 62
    30
 10
124.0
 20
893.733075
 30
0.0
 11
124.0
 21
1091.789381
 31
0.0
  0
LINE
  5
330
  8
SIZE
  6
CONTINUOUS
 62
    30
 10
324.0
 20
1076.789381
 30
0.0
 11
124.0
 21
1076.789381
 31
0.0
  0
CIRCLE
  5
331
  8
SIZE
  6
CONTINUOUS
 62
    30
 10
324.0
 20
1076.789381
 30
0.0
 40
7.5
  0
CIRCLE
  5
332
  8
SIZE
  6
CONTINUOUS
 62
    30
 10
124.0
 20
1076.789381
 30
0.0
 40
7.5
  0
TEXT
  5
333
  8
SIZE
  6
CONTINUOUS
 62
    30
 10
113.214286
 20
1091.789381
 30
0.0
 40
50.0
  1
（200）
 41
0.9
 72
     1
 11
224.0
 21
1091.789381
 31
0.0
  0
POINT
  5
334
  8
DEFPOINTS
  6
CONTINUOUS
 62
     7
 10
324.0
 20
881.0
 30
0.0
  0
POINT
  5
335
  8
DEFPOINTS
  6
CONTINUOUS
 62
     7
 10
124.0
 20
878.733075
 30
0.0
  0
POINT
  5
336
  8
DEFPOINTS
  6
CONTINUOUS
 62
     7
 10
124.0
 20
1076.789381
 30
0.0
  0
TEXT
  5
337
  8
NOTE
  6
CONTINUOUS
 62
     4
 10
-233.604735
 20
351.265194
 30
0.0
 40
50.0
  1
サービススペース
 41
0.8
  0
TEXT
  5
338
  8
NOTE
  6
CONTINUOUS
 62
     4
 10
-162.622124
 20
753.696695
 30
0.0
 40
50.0
  1
点検口
 41
0.8
  0
LINE
  5
339
  8
SIZE
  6
CONTINUOUS
 62
    30
 10
139.0
 20
881.0
 30
0.0
 11
257.251173
 21
881.0
 31
0.0
  0
LINE
  5
33A
  8
SIZE
  6
CONTINUOUS
 62
    30
 10
139.0
 20
431.0
 30
0.0
 11
257.251173
 21
431.0
 31
0.0
  0
LINE
  5
33B
  8
SIZE
  6
CONTINUOUS
 62
    30
 10
242.251173
 20
881.0
 30
0.0
 11
242.251173
 21
431.0
 31
0.0
  0
CIRCLE
  5
33C
  8
SIZE
  6
CONTINUOUS
 62
    30
 10
242.251173
 20
881.0
 30
0.0
 40
7.5
  0
CIRCLE
  5
33D
  8
SIZE
  6
CONTINUOUS
 62
    30
 10
242.251173
 20
431.0
 30
0.0
 40
7.5
  0
TEXT
  5
33E
  8
SIZE
  6
CONTINUOUS
 62
    30
 10
227.251173
 20
598.142857
 30
0.0
 40
50.0
  1
450
 50
90.0
 41
0.9
 72
     1
 11
227.251173
 21
656.0
 31
0.0
  0
POINT
  5
33F
  8
DEFPOINTS
  6
CONTINUOUS
 62
     7
 10
124.0
 20
881.0
 30
0.0
  0
POINT
  5
340
  8
DEFPOINTS
  6
CONTINUOUS
 62
     7
 10
124.0
 20
431.0
 30
0.0
  0
POINT
  5
341
  8
DEFPOINTS
  6
CONTINUOUS
 62
     7
 10
242.251173
 20
431.0
 30
0.0
  0
TEXT
  5
342
  8
NOTE
  6
CONTINUOUS
 62
     4
 10
-1749.961453
 20
-739.634317
 30
0.0
 40
50.0
  1
室外ユニット側配管接続口（低圧）
 41
0.8
 72
     2
 11
-1013.961453
 21
-739.634317
 31
0.0
  0
TEXT
  5
343
  8
NOTE
  6
CONTINUOUS
 62
     4
 10
-1659.206227
 20
-388.415654
 30
0.0
 40
50.0
  1
224形：φ15.88〈ロウ付〉(付属配管を使用)
 41
0.8
  0
TEXT
  5
344
  8
NOTE
  6
CONTINUOUS
 62
     4
 10
-1695.15051
 20
-977.826247
 30
0.0
 40
50.0
  1
400形：φ25.4〈ロウ付〉（付属配管を使用）
 41
0.8
  0
TEXT
  5
345
  8
NOTE
  6
CONTINUOUS
 62
     4
 10
-1696.441806
 20
-834.842105
 30
0.0
 40
50.0
  1
224形：φ19.05〈ロウ付〉（付属配管を使用）
 41
0.8
  0
TEXT
  5
346
  8
NOTE
  6
CONTINUOUS
 62
     4
 10
-1692.626721
 20
-905.871229
 30
0.0
 40
50.0
  1
280.335形：φ22.2〈ロウ付〉
 41
0.8
  0
TEXT
  5
347
  8
NOTE
  6
CONTINUOUS
 62
     4
 10
-1676.560314
 20
-301.2626
 30
0.0
 40
50.0
  1
室外ユニット側配管接続口（高圧）
 41
0.8
 72
     2
 11
-940.560314
 21
-301.2626
 31
0.0
  0
TEXT
  5
348
  8
NOTE
  6
CONTINUOUS
 62
     4
 10
-1659.206227
 20
-470.915654
 30
0.0
 40
50.0
  1
280.335.400形：φ19.05〈ロウ付〉
 41
0.8
  0
LINE
  5
349
  8
DETAIL
  6
CONTINUOUS
 62
     5
 10
-374.001839
 20
143.003313
 30
0.0
 11
-374.001839
 21
124.013805
 31
0.0
  0
LINE
  5
34A
  8
DETAIL
  6
CONTINUOUS
 62
     5
 10
-374.001839
 20
173.986195
 30
0.0
 11
-374.001839
 21
155.0
 31
0.0
  0
LINE
  5
34B
  8
DETAIL
  6
CONTINUOUS
 62
     5
 10
-324.0
 20
173.986195
 30
0.0
 11
-374.001839
 21
173.986195
 31
0.0
  0
LINE
  5
34C
  8
DETAIL
  6
CONTINUOUS
 62
     5
 10
-324.0
 20
124.013805
 30
0.0
 11
-374.001839
 21
124.013805
 31
0.0
  0
LINE
  5
34D
  8
DETAIL
  6
CONTINUOUS
 62
     5
 10
-324.0
 20
173.986195
 30
0.0
 11
-374.001839
 21
173.986195
 31
0.0
  0
ARC
  5
34E
  8
DETAIL
  6
CONTINUOUS
 62
     5
 10
-350.999539
 20
157.0
 30
0.0
 40
7.0
 50
0.0
 51
180.0
  0
LINE
  5
34F
  8
DETAIL
  6
CONTINUOUS
 62
     5
 10
-343.999539
 20
157.0
 30
0.0
 11
-343.999539
 21
149.0
 31
0.0
  0
LINE
  5
350
  8
DETAIL
  6
CONTINUOUS
 62
     5
 10
-357.999539
 20
157.0
 30
0.0
 11
-357.999539
 21
155.0
 31
0.0
  0
ARC
  5
351
  8
DETAIL
  6
CONTINUOUS
 62
     5
 10
-350.999539
 20
141.0
 30
0.0
 40
7.0
 50
180.0
 51
0.0
  0
LINE
  5
352
  8
DETAIL
  6
CONTINUOUS
 62
     5
 10
-343.999539
 20
141.0
 30
0.0
 11
-343.999539
 21
149.0
 31
0.0
  0
LINE
  5
353
  8
DETAIL
  6
CONTINUOUS
 62
     5
 10
-357.999539
 20
141.0
 30
0.0
 11
-357.999539
 21
143.0
 31
0.0
  0
LINE
  5
354
  8
DETAIL
  6
CONTINUOUS
 62
     5
 10
-357.999539
 20
143.0
 30
0.0
 11
-373.986839
 21
143.003313
 31
0.0
  0
LINE
  5
355
  8
DETAIL
  6
CONTINUOUS
 62
     5
 10
-374.001839
 20
173.986195
 30
0.0
 11
-374.001839
 21
155.0
 31
0.0
  0
LINE
  5
356
  8
DETAIL
  6
CONTINUOUS
 62
     5
 10
-357.999539
 20
155.0
 30
0.0
 11
-373.986839
 21
155.0
 31
0.0
  0
LINE
  5
357
  8
DETAIL
  6
CONTINUOUS
 62
     5
 10
-324.0
 20
124.013805
 30
0.0
 11
-374.001839
 21
124.013805
 31
0.0
  0
LINE
  5
358
  8
DETAIL
  6
CONTINUOUS
 62
     5
 10
-374.001839
 20
143.003313
 30
0.0
 11
-374.001839
 21
124.013805
 31
0.0
  0
CIRCLE
  5
359
  8
FIX
  6
CONTINUOUS
 62
    11
 10
-350.999539
 20
149.0
 30
0.0
 40
20.0
  0
LINE
  5
35A
  8
DETAIL
  6
CONTINUOUS
 62
     5
 10
-335.999986
 20
232.900221
 30
0.0
 11
-335.999986
 21
173.986195
 31
0.0
  0
LINE
  5
35B
  8
OUTLINE
  6
CONTINUOUS
 62
     3
 10
-183.05738
 20
181.0
 30
0.0
 11
276.937881
 21
181.0
 31
0.0
  0
LINE
  5
35C
  8
OUTLINE
  6
CONTINUOUS
 62
     3
 10
-520.0
 20
310.0
 30
0.0
 11
-377.999986
 21
310.0
 31
0.0
  0
LINE
  5
35D
  8
OUTLINE
  6
CONTINUOUS
 62
     3
 10
-377.999986
 20
310.0
 30
0.0
 11
-377.999986
 21
125.400221
 31
0.0
  0
LINE
  5
35E
  8
OUTLINE
  6
CONTINUOUS
 62
     3
 10
-377.999986
 20
125.400221
 30
0.0
 11
-520.0
 21
125.400221
 31
0.0
  0
LINE
  5
35F
  8
OUTLINE
  6
CONTINUOUS
 62
     3
 10
-520.0
 20
125.400221
 30
0.0
 11
-520.0
 21
310.0
 31
0.0
  0
LINE
  5
360
  8
SIZE
  6
CONTINUOUS
 62
    30
 10
172.0
 20
-280.0
 30
0.0
 11
172.0
 21
-495.234772
 31
0.0
  0
LINE
  5
361
  8
SIZE
  6
CONTINUOUS
 62
    30
 10
-248.0
 20
-280.0
 30
0.0
 11
-248.0
 21
-495.234772
 31
0.0
  0
LINE
  5
362
  8
SIZE
  6
CONTINUOUS
 62
    30
 10
172.0
 20
-480.234772
 30
0.0
 11
-248.0
 21
-480.234772
 31
0.0
  0
CIRCLE
  5
363
  8
SIZE
  6
CONTINUOUS
 62
    30
 10
172.0
 20
-480.234772
 30
0.0
 40
7.5
  0
CIRCLE
  5
364
  8
SIZE
  6
CONTINUOUS
 62
    30
 10
-248.0
 20
-480.234772
 30
0.0
 40
7.5
  0
TEXT
  5
365
  8
SIZE
  6
CONTINUOUS
 62
    30
 10
-212.593921
 20
-465.578369
 30
0.0
 40
50.0
  1
60×7＝420
 41
0.9
 72
     1
 11
-36.451064
 21
-465.578369
 31
0.0
  0
POINT
  5
366
  8
DEFPOINTS
  6
CONTINUOUS
 62
     7
 10
172.0
 20
-265.0
 30
0.0
  0
POINT
  5
367
  8
DEFPOINTS
  6
CONTINUOUS
 62
     7
 10
-248.0
 20
-265.0
 30
0.0
  0
POINT
  5
368
  8
DEFPOINTS
  6
CONTINUOUS
 62
     7
 10
-248.0
 20
-480.234772
 30
0.0
  0
LINE
  5
369
  8
SIZE
  6
CONTINUOUS
 62
    30
 10
-248.0
 20
-280.0
 30
0.0
 11
-248.0
 21
-495.234772
 31
0.0
  0
LINE
  5
36A
  8
SIZE
  6
CONTINUOUS
 62
    30
 10
-324.0
 20
-196.0
 30
0.0
 11
-324.0
 21
-495.234772
 31
0.0
  0
LINE
  5
36B
  8
SIZE
  6
CONTINUOUS
 62
    30
 10
-248.0
 20
-480.234772
 30
0.0
 11
-324.0
 21
-480.234772
 31
0.0
  0
LINE
  5
36C
  8
SIZE
  6
CONTINUOUS
 62
    30
 10
-286.0
 20
-480.234772
 30
0.0
 11
-245.937575
 21
-613.666351
 31
0.0
  0
LINE
  5
36D
  8
SIZE
  6
CONTINUOUS
 62
    30
 10
-245.937575
 20
-613.666351
 30
0.0
 11
-145.223289
 21
-613.666351
 31
0.0
  0
TEXT
  5
36E
  8
SIZE
  6
CONTINUOUS
 62
    30
 10
-230.937575
 20
-598.666351
 30
0.0
 40
50.0
  1
76
 41
0.9
 72
     1
 11
-195.580432
 21
-598.666351
 31
0.0
  0
CIRCLE
  5
36F
  8
SIZE
  6
CONTINUOUS
 62
    30
 10
-248.0
 20
-480.234772
 30
0.0
 40
7.5
  0
CIRCLE
  5
370
  8
SIZE
  6
CONTINUOUS
 62
    30
 10
-324.0
 20
-480.234772
 30
0.0
 40
7.5
  0
POINT
  5
371
  8
DEFPOINTS
  6
CONTINUOUS
 62
     7
 10
-248.0
 20
-265.0
 30
0.0
  0
POINT
  5
372
  8
DEFPOINTS
  6
CONTINUOUS
 62
     7
 10
-324.0
 20
-181.0
 30
0.0
  0
POINT
  5
373
  8
DEFPOINTS
  6
CONTINUOUS
 62
     7
 10
-324.0
 20
-480.234772
 30
0.0
  0
LINE
  5
374
  8
SIZE
  6
CONTINUOUS
 62
    30
 10
-350.999539
 20
-184.0
 30
0.0
 11
-350.999539
 21
-730.693768
 31
0.0
  0
LINE
  5
375
  8
SIZE
  6
CONTINUOUS
 62
    30
 10
350.999539
 20
-184.0
 30
0.0
 11
350.999539
 21
-730.693768
 31
0.0
  0
LINE
  5
376
  8
SIZE
  6
CONTINUOUS
 62
    30
 10
-350.999539
 20
-715.693768
 30
0.0
 11
350.999539
 21
-715.693768
 31
0.0
  0
CIRCLE
  5
377
  8
SIZE
  6
CONTINUOUS
 62
    30
 10
-350.999539
 20
-715.693768
 30
0.0
 40
7.5
  0
CIRCLE
  5
378
  8
SIZE
  6
CONTINUOUS
 62
    30
 10
350.999539
 20
-715.693768
 30
0.0
 40
7.5
  0
TEXT
  5
379
  8
SIZE
  6
CONTINUOUS
 62
    30
 10
-191.707129
 20
-700.693768
 30
0.0
 40
50.0
  1
702
 41
0.9
 72
     1
 11
-133.849986
 21
-700.693768
 31
0.0
  0
POINT
  5
37A
  8
DEFPOINTS
  6
CONTINUOUS
 62
     7
 10
-350.999539
 20
-169.0
 30
0.0
  0
POINT
  5
37B
  8
DEFPOINTS
  6
CONTINUOUS
 62
     7
 10
350.999539
 20
-169.0
 30
0.0
  0
POINT
  5
37C
  8
DEFPOINTS
  6
CONTINUOUS
 62
     7
 10
350.999539
 20
-715.693768
 30
0.0
  0
LINE
  5
37D
  8
SIZE
  6
CONTINUOUS
 62
    30
 10
-324.0
 20
-196.0
 30
0.0
 11
-324.0
 21
-843.309128
 31
0.0
  0
LINE
  5
37E
  8
SIZE
  6
CONTINUOUS
 62
    30
 10
324.0
 20
-195.600221
 30
0.0
 11
324.0
 21
-843.309128
 31
0.0
  0
LINE
  5
37F
  8
SIZE
  6
CONTINUOUS
 62
    30
 10
-324.0
 20
-828.309128
 30
0.0
 11
324.0
 21
-828.309128
 31
0.0
  0
CIRCLE
  5
380
  8
SIZE
  6
CONTINUOUS
 62
    30
 10
-324.0
 20
-828.309128
 30
0.0
 40
7.5
  0
CIRCLE
  5
381
  8
SIZE
  6
CONTINUOUS
 62
    30
 10
324.0
 20
-828.309128
 30
0.0
 40
7.5
  0
TEXT
  5
382
  8
SIZE
  6
CONTINUOUS
 62
    30
 10
-60.017187
 20
-813.309128
 30
0.0
 40
50.0
  1
648
 41
0.9
 72
     1
 11
-2.160044
 21
-813.309128
 31
0.0
  0
POINT
  5
383
  8
DEFPOINTS
  6
CONTINUOUS
 62
     7
 10
-324.0
 20
-181.0
 30
0.0
  0
POINT
  5
384
  8
DEFPOINTS
  6
CONTINUOUS
 62
     7
 10
324.0
 20
-180.600221
 30
0.0
  0
POINT
  5
385
  8
DEFPOINTS
  6
CONTINUOUS
 62
     7
 10
324.0
 20
-828.309128
 30
0.0
  0
TEXT
  5
386
  8
SIZE
  6
CONTINUOUS
 62
    30
 10
-66.835078
 20
-696.857932
 30
0.0
 40
50.0
  1
（吊りﾎﾞﾙﾄﾋﾟｯﾁ）
 41
0.75
  0
LINE
  5
387
  8
NOTE
  6
CONTINUOUS
 62
     4
 10
1165.873674
 20
-558.541075
 30
0.0
 11
375.3939
 21
-558.541075
 31
0.0
  0
TEXT
  5
388
  8
NOTE
  6
CONTINUOUS
 62
     4
 10
442.662941
 20
-545.150811
 30
0.0
 40
50.0
  1
RG(室内ユニット側)
 41
0.8
 72
     2
 11
898.662941
 21
-545.150811
 31
0.0
  0
TEXT
  5
389
  8
NOTE
  6
CONTINUOUS
 62
     4
 10
453.875525
 20
-637.053403
 30
0.0
 40
50.0
  1
RL(室内ユニット側)
 41
0.8
 72
     2
 11
902.256477
 21
-637.053403
 31
0.0
  0
LINE
  5
38A
  8
SIZE
  6
CONTINUOUS
 62
    30
 10
-520.0
 20
110.400221
 30
0.0
 11
-520.0
 21
-843.309128
 31
0.0
  0
LINE
  5
38B
  8
SIZE
  6
CONTINUOUS
 62
    30
 10
-324.0
 20
-196.0
 30
0.0
 11
-324.0
 21
-843.309128
 31
0.0
  0
LINE
  5
38C
  8
SIZE
  6
CONTINUOUS
 62
    30
 10
-520.0
 20
-828.309128
 30
0.0
 11
-324.0
 21
-828.309128
 31
0.0
  0
CIRCLE
  5
38D
  8
SIZE
  6
CONTINUOUS
 62
    30
 10
-520.0
 20
-828.309128
 30
0.0
 40
7.5
  0
CIRCLE
  5
38E
  8
SIZE
  6
CONTINUOUS
 62
    30
 10
-324.0
 20
-828.309128
 30
0.0
 40
7.5
  0
TEXT
  5
38F
  8
SIZE
  6
CONTINUOUS
 62
    30
 10
-474.5
 20
-813.309128
 30
0.0
 40
50.0
  1
196
 41
0.9
 72
     1
 11
-422.0
 21
-813.309128
 31
0.0
  0
POINT
  5
390
  8
DEFPOINTS
  6
CONTINUOUS
 62
     7
 10
-520.0
 20
125.400221
 30
0.0
  0
POINT
  5
391
  8
DEFPOINTS
  6
CONTINUOUS
 62
     7
 10
-324.0
 20
-181.0
 30
0.0
  0
POINT
  5
392
  8
DEFPOINTS
  6
CONTINUOUS
 62
     7
 10
-324.0
 20
-828.309128
 30
0.0
  0
LINE
  5
393
  8
SIZE
  6
CONTINUOUS
 62
    30
 10
339.0
 20
-181.0
 30
0.0
 11
468.712614
 21
-181.0
 31
0.0
  0
LINE
  5
394
  8
SIZE
  6
CONTINUOUS
 62
    30
 10
-213.0
 20
-245.0
 30
0.0
 11
468.712614
 21
-245.0
 31
0.0
  0
LINE
  5
395
  8
SIZE
  6
CONTINUOUS
 62
    30
 10
453.712614
 20
-181.0
 30
0.0
 11
453.712614
 21
-245.0
 31
0.0
  0
LINE
  5
396
  8
SIZE
  6
CONTINUOUS
 62
    30
 10
453.712614
 20
-245.0
 30
0.0
 11
453.712614
 21
-380.0
 31
0.0
  0
CIRCLE
  5
397
  8
SIZE
  6
CONTINUOUS
 62
    30
 10
453.712614
 20
-181.0
 30
0.0
 40
7.5
  0
CIRCLE
  5
398
  8
SIZE
  6
CONTINUOUS
 62
    30
 10
453.712614
 20
-245.0
 30
0.0
 40
7.5
  0
TEXT
  5
399
  8
SIZE
  6
CONTINUOUS
 62
    30
 10
438.712614
 20
-365.0
 30
0.0
 40
50.0
  1
64
 50
90.0
 41
0.9
 72
     1
 11
438.712614
 21
-327.5
 31
0.0
  0
POINT
  5
39A
  8
DEFPOINTS
  6
CONTINUOUS
 62
     7
 10
324.0
 20
-181.0
 30
0.0
  0
POINT
  5
39B
  8
DEFPOINTS
  6
CONTINUOUS
 62
     7
 10
-228.0
 20
-245.0
 30
0.0
  0
POINT
  5
39C
  8
DEFPOINTS
  6
CONTINUOUS
 62
     7
 10
453.712614
 20
-245.0
 30
0.0
  0
TEXT
  5
39D
  8
NOTE
  6
CONTINUOUS
 62
     4
 10
532.059757
 20
-281.305348
 30
0.0
 40
50.0
  1
AH4-12×30長穴
 41
0.8
  0
TEXT
  5
39E
  8
NOTE
  6
CONTINUOUS
 62
     4
 10
938.560128
 20
-538.93599
 30
0.0
 40
50.0
  1
φ15.88
 41
0.8
  0
TEXT
  5
39F
  8
NOTE
  6
CONTINUOUS
 62
     4
 10
935.879314
 20
-637.013364
 30
0.0
 40
50.0
  1
φ9.52
 41
0.8
  0
LINE
  5
3A0
  8
NOTE
  6
CONTINUOUS
 62
     4
 10
-538.436963
 20
181.993909
 30
0.0
 11
-520.0
 21
157.0
 31
0.0
  0
LINE
  5
3A1
  8
NOTE
  6
CONTINUOUS
 62
     4
 10
-520.0
 20
157.0
 30
0.0
 11
-548.463833
 21
169.426879
 31
0.0
  0
LINE
  5
3A2
  8
NOTE
  6
CONTINUOUS
 62
     4
 10
-520.0
 20
157.0
 30
0.0
 11
-543.450398
 21
175.710394
 31
0.0
  0
LINE
  5
3A3
  8
NOTE
  6
CONTINUOUS
 62
     4
 10
-543.450398
 20
175.710394
 30
0.0
 11
-700.538083
 21
301.046115
 31
0.0
  0
LINE
  5
3A4
  8
NOTE
  6
CONTINUOUS
 62
     4
 10
-700.538083
 20
301.046115
 30
0.0
 11
-1046.16221
 21
301.046115
 31
0.0
  0
LINE
  5
3A5
  8
NOTE
  6
CONTINUOUS
 62
     4
 10
-411.305819
 20
-103.790031
 30
0.0
 11
-394.0
 21
-78.0
 31
0.0
  0
LINE
  5
3A6
  8
NOTE
  6
CONTINUOUS
 62
     4
 10
-394.0
 20
-78.0
 30
0.0
 11
-396.092264
 21
-108.987732
 31
0.0
  0
LINE
  5
3A7
  8
NOTE
  6
CONTINUOUS
 62
     4
 10
-394.0
 20
-78.0
 30
0.0
 11
-403.699042
 21
-106.388881
 31
0.0
  0
LINE
  5
3A8
  8
NOTE
  6
CONTINUOUS
 62
     4
 10
-403.699042
 20
-106.388881
 30
0.0
 11
-623.924502
 21
-750.983955
 31
0.0
  0
LINE
  5
3A9
  8
NOTE
  6
CONTINUOUS
 62
     4
 10
-623.924502
 20
-750.983955
 30
0.0
 11
-1757.348473
 21
-750.983955
 31
0.0
  0
LINE
  5
3AA
  8
NOTE
  6
CONTINUOUS
 62
     4
 10
-416.069649
 20
45.147135
 30
0.0
 11
-394.0
 21
67.0
 31
0.0
  0
LINE
  5
3AB
  8
NOTE
  6
CONTINUOUS
 62
     4
 10
-394.0
 20
67.0
 30
0.0
 11
-402.186444
 21
37.04004
 31
0.0
  0
LINE
  5
3AC
  8
NOTE
  6
CONTINUOUS
 62
     4
 10
-394.0
 20
67.0
 30
0.0
 11
-409.128047
 21
41.093588
 31
0.0
  0
LINE
  5
3AD
  8
NOTE
  6
CONTINUOUS
 62
     4
 10
-409.128047
 20
41.093588
 30
0.0
 11
-617.530681
 21
-315.790863
 31
0.0
  0
LINE
  5
3AE
  8
NOTE
  6
CONTINUOUS
 62
     4
 10
-617.530681
 20
-315.790863
 30
0.0
 11
-1689.783901
 21
-315.790863
 31
0.0
  0
LINE
  5
3AF
  8
NOTE
  6
CONTINUOUS
 62
     4
 10
181.758701
 20
-274.485333
 30
0.0
 11
172.0
 21
-245.0
 31
0.0
  0
LINE
  5
3B0
  8
NOTE
  6
CONTINUOUS
 62
     4
 10
172.0
 20
-245.0
 30
0.0
 11
195.19395
 21
-265.655696
 31
0.0
  0
LINE
  5
3B2
  8
NOTE
  6
CONTINUOUS
 62
     4
 10
172.0
 20
-245.0
 30
0.0
 11
445.795334
 21
-665.522086
 31
0.0
  0
LINE
  5
3B3
  8
NOTE
  6
CONTINUOUS
 62
     4
 10
445.795334
 20
-665.522086
 30
0.0
 11
1160.777303
 21
-665.522086
 31
0.0
  0
LINE
  5
3B4
  8
NOTE
  6
CONTINUOUS
 62
     4
 10
369.12003
 20
-174.224292
 30
0.0
 11
350.999539
 21
-149.0
 31
0.0
  0
LINE
  5
3B5
  8
NOTE
  6
CONTINUOUS
 62
     4
 10
350.999539
 20
-149.0
 30
0.0
 11
379.30449
 21
-161.784632
 31
0.0
  0
LINE
  5
3B6
  8
NOTE
  6
CONTINUOUS
 62
     4
 10
350.999539
 20
-149.0
 30
0.0
 11
374.21226
 21
-168.004462
 31
0.0
  0
LINE
  5
3B7
  8
NOTE
  6
CONTINUOUS
 62
     4
 10
374.21226
 20
-168.004462
 30
0.0
 11
527.504089
 21
-293.50585
 31
0.0
  0
LINE
  5
3B8
  8
NOTE
  6
CONTINUOUS
 62
     4
 10
527.504089
 20
-293.50585
 30
0.0
 11
1004.001321
 21
-293.50585
 31
0.0
  0
ENDSEC
  0
EOF
