  0
SECTION
  2
HEADER
  9
$ACADVER
  1
AC1009
  9
$INSBASE
 10
0.0
 20
0.0
 30
0.0
  9
$EXTMIN
 10
-2226.1044482827888
 20
-742.75642065022475
 30
-0.0000000000000015
  9
$EXTMAX
 10
1486.633067334041
 20
672.52376864865073
 30
0.0000000000000148
  9
$LIMMIN
 10
-3837.0001750000001
 20
-3000.109539
  9
$LIMMAX
 10
7319.2568810000002
 20
4045.2230030000001
  9
$ORTHOMODE
 70
     0
  9
$REGENMODE
 70
     1
  9
$FILLMODE
 70
     1
  9
$QTEXTMODE
 70
     0
  9
$MIRRTEXT
 70
     0
  9
$DRAGMODE
 70
     2
  9
$LTSCALE
 40
20.0
  9
$OSMODE
 70
   959
  9
$ATTMODE
 70
     1
  9
$TEXTSIZE
 40
64.0
  9
$TRACEWID
 40
0.05
  9
$TEXTSTYLE
  7
STANDARD
  9
$CLAYER
  8
SYMBOLLINE
  9
$CELTYPE
  6
CONTINUOUS
  9
$CECOLOR
 62
     7
  9
$DIMSCALE
 40
1.0
  9
$DIMASZ
 40
10.0
  9
$DIMEXO
 40
20.0
  9
$DIMDLI
 40
200.0
  9
$DIMRND
 40
0.0
  9
$DIMDLE
 40
0.0
  9
$DIMEXE
 40
30.0
  9
$DIMTP
 40
0.0
  9
$DIMTM
 40
0.0
  9
$DIMTXT
 40
64.0
  9
$DIMCEN
 40
0.0
  9
$DIMTSZ
 40
0.0
  9
$DIMTOL
 70
     0
  9
$DIMLIM
 70
     0
  9
$DIMTIH
 70
     0
  9
$DIMTOH
 70
     0
  9
$DIMSE1
 70
     0
  9
$DIMSE2
 70
     0
  9
$DIMTAD
 70
     1
  9
$DIMZIN
 70
     8
  9
$DIMBLK
  1

  9
$DIMASO
 70
     1
  9
$DIMSHO
 70
     0
  9
$DIMPOST
  1

  9
$DIMAPOST
  1

  9
$DIMALT
 70
     0
  9
$DIMALTD
 70
     2
  9
$DIMALTF
 40
25.399999999999999
  9
$DIMLFAC
 40
1.0
  9
$DIMTOFL
 70
     1
  9
$DIMTVP
 40
0.0
  9
$DIMTIX
 70
     1
  9
$DIMSOXD
 70
     0
  9
$DIMSAH
 70
     1
  9
$DIMBLK1
  1
DOTBLANK
  9
$DIMBLK2
  1
DOTBLANK
  9
$DIMSTYLE
  2
STANDARD
  9
$DIMCLRD
 70
     0
  9
$DIMCLRE
 70
     0
  9
$DIMCLRT
 70
     0
  9
$DIMTFAC
 40
1.0
  9
$DIMGAP
 40
0.09
  9
$LUNITS
 70
     2
  9
$LUPREC
 70
     4
  9
$SKETCHINC
 40
0.1
  9
$FILLETRAD
 40
10.0
  9
$AUNITS
 70
     1
  9
$AUPREC
 70
     3
  9
$MENU
  1
ACAD
  9
$ELEVATION
 40
0.0
  9
$PELEVATION
 40
0.0
  9
$THICKNESS
 40
0.0
  9
$LIMCHECK
 70
     0
  9
$BLIPMODE
 70
     0
  9
$CHAMFERA
 40
0.0
  9
$CHAMFERB
 40
0.0
  9
$SKPOLY
 70
     0
  9
$TDCREATE
 40
2450330.4399309959
  9
$TDUPDATE
 40
2455450.6603257642
  9
$TDINDWG
 40
1.4760955207999999
  9
$TDUSRTIMER
 40
1.4760949884000001
  9
$USRTIMER
 70
     1
  9
$ANGBASE
 50
0.0
  9
$ANGDIR
 70
     0
  9
$PDMODE
 70
     3
  9
$PDSIZE
 40
-2.0
  9
$PLINEWID
 40
0.0
  9
$COORDS
 70
     0
  9
$SPLFRAME
 70
     0
  9
$SPLINETYPE
 70
     6
  9
$SPLINESEGS
 70
     8
  9
$ATTDIA
 70
     0
  9
$ATTREQ
 70
     1
  9
$HANDLING
 70
     1
  9
$HANDSEED
  5
84D
  9
$SURFTAB1
 70
     6
  9
$SURFTAB2
 70
     6
  9
$SURFTYPE
 70
     6
  9
$SURFU
 70
     6
  9
$SURFV
 70
     6
  9
$UCSNAME
  2

  9
$UCSORG
 10
0.0
 20
0.0
 30
0.0
  9
$UCSXDIR
 10
1.0
 20
0.0
 30
0.0
  9
$UCSYDIR
 10
0.0
 20
1.0
 30
0.0
  9
$PUCSNAME
  2

  9
$PUCSORG
 10
0.0
 20
0.0
 30
0.0
  9
$PUCSXDIR
 10
1.0
 20
0.0
 30
0.0
  9
$PUCSYDIR
 10
0.0
 20
1.0
 30
0.0
  9
$USERI1
 70
     0
  9
$USERI2
 70
     0
  9
$USERI3
 70
     0
  9
$USERI4
 70
     0
  9
$USERI5
 70
     0
  9
$USERR1
 40
20.0
  9
$USERR2
 40
0.0
  9
$USERR3
 40
0.0
  9
$USERR4
 40
0.0
  9
$USERR5
 40
0.0
  9
$WORLDVIEW
 70
     1
  9
$SHADEDGE
 70
     3
  9
$SHADEDIF
 70
    70
  9
$TILEMODE
 70
     1
  9
$MAXACTVP
 70
    48
  9
$PLIMCHECK
 70
     0
  9
$PEXTMIN
 10
1.0000000000000000E+020
 20
1.0000000000000000E+020
 30
1.0000000000000000E+020
  9
$PEXTMAX
 10
-1.0000000000000000E+020
 20
-1.0000000000000000E+020
 30
-1.0000000000000000E+020
  9
$PLIMMIN
 10
0.0
 20
0.0
  9
$PLIMMAX
 10
12.0
 20
9.0
  9
$UNITMODE
 70
     0
  9
$VISRETAIN
 70
     1
  9
$PLINEGEN
 70
     0
  9
$PSLTSCALE
 70
     1
  0
ENDSEC
  0
SECTION
  2
TABLES
  0
TABLE
  2
VPORT
 70
     1
  0
VPORT
  2
*ACTIVE
 70
     0
 10
0.0
 20
0.0
 11
1.0
 21
1.0
 12
1741.1283530000001
 22
522.55673200000001
 13
0.0
 23
0.0
 14
50.0
 24
50.0
 15
100.0
 25
100.0
 16
0.0
 26
0.0
 36
1.0
 17
0.0
 27
0.0
 37
0.0
 40
7168.3883690244638
 41
1.5639386189258311
 42
50.0
 43
0.0
 44
0.0
 50
0.0
 51
0.0
 71
     0
 72
  1000
 73
     1
 74
     0
 75
     0
 76
     0
 77
     0
 78
     0
  0
ENDTAB
  0
TABLE
  2
LTYPE
 70
     2
  0
LTYPE
  2
CONTINUOUS
 70
     0
  3
実線
 72
    65
 73
     0
 40
0.0
  0
LTYPE
  2
DASHDOT
 70
     0
  3
____ _ ____ _ ____ _ ____ _ ____ _ ____ _ ____
 72
    65
 73
     4
 40
5.5
 49
4.0
 49
-0.6
 49
0.3
 49
-0.6
  0
ENDTAB
  0
TABLE
  2
LAYER
 70
    12
  0
LAYER
  2
0
 70
     0
 62
     7
  6
CONTINUOUS
  0
LAYER
  2
SYMBOLLINE
 70
     0
 62
    15
  6
CONTINUOUS
  0
LAYER
  2
SIZE
 70
     0
 62
    30
  6
CONTINUOUS
  0
LAYER
  2
OUTLINE
 70
     0
 62
     3
  6
CONTINUOUS
  0
LAYER
  2
DETAIL
 70
     0
 62
     5
  6
CONTINUOUS
  0
LAYER
  2
BASIS
 70
     0
 62
     6
  6
DASHDOT
  0
LAYER
  2
NOTE
 70
     0
 62
     4
  6
CONTINUOUS
  0
LAYER
  2
ARRANGE
 70
     0
 62
     1
  6
CONTINUOUS
  0
LAYER
  2
FIX
 70
     0
 62
    11
  6
CONTINUOUS
  0
LAYER
  2
SERVICESPACE
 70
     0
 62
     2
  6
DASHDOT
  0
LAYER
  2
ETC
 70
     0
 62
    61
  6
CONTINUOUS
  0
LAYER
  2
DEFPOINTS
 70
     0
 62
     7
  6
CONTINUOUS
  0
ENDTAB
  0
TABLE
  2
STYLE
 70
     2
  0
STYLE
  2
STANDARD
 70
     0
 40
0.0
 41
0.9
 50
0.0
 71
     0
 42
64.0
  3
SIMPLEX
  4
BIGFONT
  0
STYLE
  2
ANNOTATIVE
 70
     0
 40
0.0
 41
1.0
 50
0.0
 71
     0
 42
0.2
  3
txt
  4

  0
ENDTAB
  0
TABLE
  2
VIEW
 70
     2
  0
VIEW
  2
ALL
 70
     0
 40
9000.0
 10
241.50664699999999
 20
0.0
 41
12483.01
 11
0.0
 21
0.0
 31
1.0
 12
0.0
 22
0.0
 32
0.0
 42
50.0
 43
0.0
 44
0.0
 50
0.0
 71
     0
  0
ENDTAB
  0
TABLE
  2
UCS
 70
     0
  0
ENDTAB
  0
TABLE
  2
APPID
 70
     4
  0
APPID
  2
ACAD
 70
     0
  0
APPID
  2
ACADANNOTATIVE
 70
     0
  0
APPID
  2
ACAD_MLEADERVER
 70
     0
  0
APPID
  2
ACAD_EXEMPT_FROM_CAD_STANDARDS
 70
     0
  0
ENDTAB
  0
TABLE
  2
DIMSTYLE
 70
     2
  0
DIMSTYLE
  2
STANDARD
 70
     0
  3

  4

  5

  6

  7

 40
1.0
 41
0.18
 42
0.0625
 43
0.38
 44
0.18
 45
0.0
 46
0.0
 47
0.0
 48
0.0
140
0.18
141
0.09
142
0.0
143
25.399999999999999
144
1.0
145
0.0
146
1.0
147
0.09
 71
     0
 72
     0
 73
     1
 74
     1
 75
     0
 76
     0
 77
     0
 78
     0
170
     0
171
     2
172
     0
173
     0
174
     0
175
     0
176
     0
177
     0
178
     0
  0
DIMSTYLE
  2
ANNOTATIVE
 70
     0
  3

  4

  5

  6

  7

 40
1.0
 41
0.18
 42
0.0625
 43
0.38
 44
0.18
 45
0.0
 46
0.0
 47
0.0
 48
0.0
140
0.18
141
0.09
142
0.0
143
25.399999999999999
144
1.0
145
0.0
146
1.0
147
0.09
 71
     0
 72
     0
 73
     1
 74
     1
 75
     0
 76
     0
 77
     0
 78
     0
170
     0
171
     2
172
     0
173
     0
174
     0
175
     0
176
     0
177
     0
178
     0
  0
ENDTAB
  0
ENDSEC
  0
SECTION
  2
BLOCKS
  0
BLOCK
  8
0
  2
$MODEL_SPACE
 70
     0
 10
0.0
 20
0.0
 30
0.0
  3
$MODEL_SPACE
  1

  0
ENDBLK
  5
803
  8
0
  0
BLOCK
 67
     1
  8
0
  2
$PAPER_SPACE
 70
     0
 10
0.0
 20
0.0
 30
0.0
  3
$PAPER_SPACE
  1

  0
ENDBLK
  5
7FF
 67
     1
  8
0
  0
BLOCK
  8
0
  2
_DOTBLANK
 70
     0
 10
0.0
 20
0.0
 30
0.0
  3
_DOTBLANK
  1

  0
CIRCLE
  5
30
  8
0
  6
CONTINUOUS
 62
     7
 10
0.0
 20
0.0
 30
0.0
 40
0.5
  0
LINE
  5
31
  8
0
  6
CONTINUOUS
 62
     7
 10
-0.5
 20
0.0
 30
0.0
 11
-1.0
 21
0.0
 31
0.0
  0
ENDBLK
  5
32
  8
0
  0
ENDSEC
  0
SECTION
  2
ENTITIES
  0
LINE
  5
33
  8
DETAIL
  6
CONTINUOUS
 62
     5
 10
309.0
 20
-168.19999999999999
 30
0.0
 11
-308.5
 21
-168.19999999999999
 31
0.0
  0
LINE
  5
34
  8
DETAIL
  6
CONTINUOUS
 62
     5
 10
324.0
 20
0.0
 30
0.0
 11
-324.0
 21
0.0
 31
0.0
  0
LINE
  5
35
  8
DETAIL
  6
CONTINUOUS
 62
     5
 10
-231.0
 20
-45.600000000000001
 30
0.0
 11
-205.0
 21
-45.600000000000001
 31
0.0
  0
LINE
  5
36
  8
DETAIL
  6
CONTINUOUS
 62
     5
 10
-524.0
 20
-272.0
 30
0.0
 11
-479.0
 21
-272.0
 31
0.0
  0
LINE
  5
37
  8
DETAIL
  6
CONTINUOUS
 62
     5
 10
-524.0
 20
-238.0
 30
0.0
 11
-479.0
 21
-238.0
 31
0.0
  0
LINE
  5
3B
  8
DETAIL
  6
CONTINUOUS
 62
     5
 10
-524.0
 20
-272.0
 30
0.0
 11
-524.0
 21
-238.0
 31
0.0
  0
LINE
  5
3C
  8
DETAIL
  6
CONTINUOUS
 62
     5
 10
-324.0
 20
-163.90000000000001
 30
0.0
 11
-320.5
 21
-167.40000000000001
 31
0.0
  0
LINE
  5
3D
  8
DETAIL
  6
CONTINUOUS
 62
     5
 10
-265.0
 20
-153.0
 30
0.0
 11
-265.0
 21
-168.19999999999999
 31
0.0
  0
LINE
  5
3E
  8
DETAIL
  6
CONTINUOUS
 62
     5
 10
-231.0
 20
-168.19999999999999
 30
0.0
 11
-231.0
 21
-153.0
 31
0.0
  0
LINE
  5
3F
  8
DETAIL
  6
CONTINUOUS
 62
     5
 10
-324.0
 20
0.0
 30
0.0
 11
-324.0
 21
-284.0
 31
0.0
  0
LINE
  5
40
  8
NOTE
  6
CONTINUOUS
 62
     4
 10
-248.0
 20
-138.89955800000001
 30
0.0
 11
-248.0
 21
-167.10044199999999
 31
0.0
  0
LINE
  5
41
  8
DETAIL
  6
CONTINUOUS
 62
     5
 10
-232.899619
 20
-153.0
 30
0.0
 11
-240.44981000000001
 21
-166.077314
 31
0.0
  0
LINE
  5
42
  8
DETAIL
  6
CONTINUOUS
 62
     5
 10
-263.10038100000003
 20
-153.0
 30
0.0
 11
-255.55018999999999
 21
-166.077314
 31
0.0
  0
LINE
  5
43
  8
DETAIL
  6
CONTINUOUS
 62
     5
 10
-359.0
 20
-238.0
 30
0.0
 11
-324.0
 21
-238.0
 31
0.0
  0
LINE
  5
44
  8
DETAIL
  6
CONTINUOUS
 62
     5
 10
-359.0
 20
-272.0
 30
0.0
 11
-324.0
 21
-272.0
 31
0.0
  0
LINE
  5
45
  8
DETAIL
  6
CONTINUOUS
 62
     5
 10
-364.0
 20
-277.0
 30
0.0
 11
-364.0
 21
-233.0
 31
0.0
  0
LINE
  5
46
  8
DETAIL
  6
CONTINUOUS
 62
     5
 10
-364.0
 20
-270.0
 30
0.0
 11
-364.0
 21
-240.0
 31
0.0
  0
LINE
  5
47
  8
DETAIL
  6
CONTINUOUS
 62
     5
 10
-479.0
 20
-277.0
 30
0.0
 11
-479.0
 21
-233.0
 31
0.0
  0
LINE
  5
48
  8
DETAIL
  6
CONTINUOUS
 62
     5
 10
-474.0
 20
-277.0
 30
0.0
 11
-474.0
 21
-233.0
 31
0.0
  0
LINE
  5
49
  8
DETAIL
  6
CONTINUOUS
 62
     5
 10
-373.94679600000001
 20
-272.7274700000001
 30
0.0
 11
-378.94679600000001
 21
-238.72747000000001
 31
0.0
  0
LINE
  5
4A
  8
DETAIL
  6
CONTINUOUS
 62
     5
 10
-364.05320399999999
 20
-271.27253000000002
 30
0.0
 11
-369.05320399999999
 21
-237.27252999999999
 31
0.0
  0
LINE
  5
4B
  8
DETAIL
  6
CONTINUOUS
 62
     5
 10
-363.94679600000001
 20
-272.7274700000001
 30
0.0
 11
-368.94679600000001
 21
-238.72747000000001
 31
0.0
  0
LINE
  5
4C
  8
DETAIL
  6
CONTINUOUS
 62
     5
 10
-383.94679600000001
 20
-272.7274700000001
 30
0.0
 11
-388.94679600000001
 21
-238.72747000000001
 31
0.0
  0
LINE
  5
4D
  8
DETAIL
  6
CONTINUOUS
 62
     5
 10
-374.05320399999999
 20
-271.27253000000002
 30
0.0
 11
-379.05320399999999
 21
-237.27252999999999
 31
0.0
  0
LINE
  5
4E
  8
DETAIL
  6
CONTINUOUS
 62
     5
 10
-393.94679600000001
 20
-272.7274700000001
 30
0.0
 11
-398.94679600000001
 21
-238.72747000000001
 31
0.0
  0
LINE
  5
4F
  8
DETAIL
  6
CONTINUOUS
 62
     5
 10
-384.05320399999999
 20
-271.27253000000002
 30
0.0
 11
-389.05320399999999
 21
-237.27252999999999
 31
0.0
  0
LINE
  5
50
  8
DETAIL
  6
CONTINUOUS
 62
     5
 10
-403.94679600000001
 20
-272.7274700000001
 30
0.0
 11
-408.94679600000001
 21
-238.72747000000001
 31
0.0
  0
LINE
  5
51
  8
DETAIL
  6
CONTINUOUS
 62
     5
 10
-394.05320399999999
 20
-271.27253000000002
 30
0.0
 11
-399.05320399999999
 21
-237.27252999999999
 31
0.0
  0
LINE
  5
52
  8
DETAIL
  6
CONTINUOUS
 62
     5
 10
-413.94679600000001
 20
-272.7274700000001
 30
0.0
 11
-418.94679599999989
 21
-238.72747000000001
 31
0.0
  0
LINE
  5
53
  8
DETAIL
  6
CONTINUOUS
 62
     5
 10
-404.05320399999999
 20
-271.27253000000002
 30
0.0
 11
-409.05320399999999
 21
-237.27252999999999
 31
0.0
  0
LINE
  5
54
  8
DETAIL
  6
CONTINUOUS
 62
     5
 10
-423.94679599999989
 20
-272.7274700000001
 30
0.0
 11
-428.94679600000001
 21
-238.72747000000001
 31
0.0
  0
LINE
  5
55
  8
DETAIL
  6
CONTINUOUS
 62
     5
 10
-414.05320399999999
 20
-271.27253000000002
 30
0.0
 11
-419.05320399999988
 21
-237.27252999999999
 31
0.0
  0
LINE
  5
56
  8
DETAIL
  6
CONTINUOUS
 62
     5
 10
-433.94679600000001
 20
-272.7274700000001
 30
0.0
 11
-438.94679600000001
 21
-238.72747000000001
 31
0.0
  0
LINE
  5
57
  8
DETAIL
  6
CONTINUOUS
 62
     5
 10
-424.05320399999988
 20
-271.27253000000002
 30
0.0
 11
-429.05320399999999
 21
-237.27252999999999
 31
0.0
  0
LINE
  5
58
  8
DETAIL
  6
CONTINUOUS
 62
     5
 10
-443.94679599999989
 20
-272.7274700000001
 30
0.0
 11
-448.94679599999989
 21
-238.72747000000001
 31
0.0
  0
LINE
  5
59
  8
DETAIL
  6
CONTINUOUS
 62
     5
 10
-434.05320399999999
 20
-271.27253000000002
 30
0.0
 11
-439.05320399999999
 21
-237.27252999999999
 31
0.0
  0
LINE
  5
5A
  8
DETAIL
  6
CONTINUOUS
 62
     5
 10
-453.94679600000001
 20
-272.7274700000001
 30
0.0
 11
-458.94679600000001
 21
-238.72747000000001
 31
0.0
  0
LINE
  5
5B
  8
DETAIL
  6
CONTINUOUS
 62
     5
 10
-444.05320399999988
 20
-271.27253000000002
 30
0.0
 11
-449.05320399999988
 21
-237.27252999999999
 31
0.0
  0
LINE
  5
5C
  8
DETAIL
  6
CONTINUOUS
 62
     5
 10
-463.94679600000001
 20
-272.7274700000001
 30
0.0
 11
-468.94679599999989
 21
-238.72747000000001
 31
0.0
  0
LINE
  5
5D
  8
DETAIL
  6
CONTINUOUS
 62
     5
 10
-454.05320399999999
 20
-271.27253000000002
 30
0.0
 11
-459.05320399999999
 21
-237.27252999999999
 31
0.0
  0
LINE
  5
5E
  8
DETAIL
  6
CONTINUOUS
 62
     5
 10
-464.05320399999999
 20
-271.27253000000002
 30
0.0
 11
-469.05320399999988
 21
-237.27252999999999
 31
0.0
  0
LINE
  5
5F
  8
DETAIL
  6
CONTINUOUS
 62
     5
 10
-359.0
 20
-277.0
 30
0.0
 11
-359.0
 21
-233.0
 31
0.0
  0
ARC
  5
60
  8
DETAIL
  6
CONTINUOUS
 62
     5
 10
-419.0
 20
-272.0
 30
0.0
 40
5.0
 50
188.36588599999999
 51
8.3658859999999962
  0
ARC
  5
61
  8
DETAIL
  6
CONTINUOUS
 62
     5
 10
-449.0
 20
-272.0
 30
0.0
 40
5.0
 50
188.36588599999999
 51
8.3658859999999962
  0
LINE
  5
62
  8
DETAIL
  6
CONTINUOUS
 62
     5
 10
-479.0
 20
-277.0
 30
0.0
 11
-474.0
 21
-277.0
 31
0.0
  0
ARC
  5
63
  8
DETAIL
  6
CONTINUOUS
 62
     5
 10
-459.0
 20
-272.0
 30
0.0
 40
5.0
 50
188.36588599999999
 51
8.3658859999999962
  0
ARC
  5
64
  8
DETAIL
  6
CONTINUOUS
 62
     5
 10
-469.0
 20
-272.0
 30
0.0
 40
5.0
 50
188.36588599999999
 51
8.3658859999999962
  0
ARC
  5
65
  8
DETAIL
  6
CONTINUOUS
 62
     5
 10
-429.0
 20
-272.0
 30
0.0
 40
5.0
 50
188.36588599999999
 51
8.3658859999999962
  0
ARC
  5
66
  8
DETAIL
  6
CONTINUOUS
 62
     5
 10
-439.0
 20
-272.0
 30
0.0
 40
5.0
 50
188.36588599999999
 51
8.3658859999999962
  0
ARC
  5
67
  8
DETAIL
  6
CONTINUOUS
 62
     5
 10
-379.0
 20
-272.0
 30
0.0
 40
5.0
 50
188.36588599999999
 51
8.3658859999999962
  0
ARC
  5
68
  8
DETAIL
  6
CONTINUOUS
 62
     5
 10
-389.0
 20
-272.0
 30
0.0
 40
5.0
 50
188.36588599999999
 51
8.3658859999999962
  0
ARC
  5
69
  8
DETAIL
  6
CONTINUOUS
 62
     5
 10
-399.0
 20
-272.0
 30
0.0
 40
5.0
 50
188.36588599999999
 51
8.3658859999999962
  0
ARC
  5
6A
  8
DETAIL
  6
CONTINUOUS
 62
     5
 10
-409.0
 20
-272.0
 30
0.0
 40
5.0
 50
188.36588599999999
 51
8.3658859999999962
  0
LINE
  5
6B
  8
DETAIL
  6
CONTINUOUS
 62
     5
 10
-359.0
 20
-277.0
 30
0.0
 11
-364.0
 21
-277.0
 31
0.0
  0
ARC
  5
6C
  8
DETAIL
  6
CONTINUOUS
 62
     5
 10
-369.0
 20
-272.0
 30
0.0
 40
5.0
 50
188.36588599999999
 51
8.3658859999999962
  0
ARC
  5
6D
  8
DETAIL
  6
CONTINUOUS
 62
     5
 10
-414.0
 20
-238.0
 30
0.0
 40
5.0
 50
8.3658859999999962
 51
188.36588599999999
  0
ARC
  5
6E
  8
DETAIL
  6
CONTINUOUS
 62
     5
 10
-444.0
 20
-238.0
 30
0.0
 40
5.0
 50
8.3658859999999962
 51
188.36588599999999
  0
LINE
  5
6F
  8
DETAIL
  6
CONTINUOUS
 62
     5
 10
-479.0
 20
-233.0
 30
0.0
 11
-474.0
 21
-233.0
 31
0.0
  0
ARC
  5
70
  8
DETAIL
  6
CONTINUOUS
 62
     5
 10
-454.0
 20
-238.0
 30
0.0
 40
5.0
 50
8.3658859999999962
 51
188.36588599999999
  0
ARC
  5
71
  8
DETAIL
  6
CONTINUOUS
 62
     5
 10
-464.0
 20
-238.0
 30
0.0
 40
5.0
 50
8.3658859999999962
 51
188.36588599999999
  0
ARC
  5
72
  8
DETAIL
  6
CONTINUOUS
 62
     5
 10
-474.0
 20
-238.0
 30
0.0
 40
5.0
 50
8.3658859999999962
 51
90.0
  0
ARC
  5
73
  8
DETAIL
  6
CONTINUOUS
 62
     5
 10
-424.0
 20
-238.0
 30
0.0
 40
5.0
 50
8.3658859999999962
 51
188.36588599999999
  0
ARC
  5
74
  8
DETAIL
  6
CONTINUOUS
 62
     5
 10
-434.0
 20
-238.0
 30
0.0
 40
5.0
 50
8.3658859999999962
 51
188.36588599999999
  0
ARC
  5
75
  8
DETAIL
  6
CONTINUOUS
 62
     5
 10
-384.0
 20
-238.0
 30
0.0
 40
5.0
 50
8.3658859999999962
 51
188.36588599999999
  0
ARC
  5
76
  8
DETAIL
  6
CONTINUOUS
 62
     5
 10
-394.0
 20
-238.0
 30
0.0
 40
5.0
 50
8.3658859999999962
 51
188.36588599999999
  0
ARC
  5
77
  8
DETAIL
  6
CONTINUOUS
 62
     5
 10
-404.0
 20
-238.0
 30
0.0
 40
5.0
 50
8.3658859999999962
 51
188.36588599999999
  0
LINE
  5
78
  8
DETAIL
  6
CONTINUOUS
 62
     5
 10
-359.0
 20
-233.0
 30
0.0
 11
-364.0
 21
-233.0
 31
0.0
  0
ARC
  5
79
  8
DETAIL
  6
CONTINUOUS
 62
     5
 10
-374.0
 20
-238.0
 30
0.0
 40
5.0
 50
8.3658859999999962
 51
188.36588599999999
  0
ARC
  5
7A
  8
DETAIL
  6
CONTINUOUS
 62
     5
 10
-364.0
 20
-238.0
 30
0.0
 40
5.0
 50
90.0
 51
188.36588599999999
  0
LINE
  5
7B
  8
DETAIL
  6
CONTINUOUS
 62
     5
 10
-308.5
 20
-167.40000000000001
 30
0.0
 11
-320.5
 21
-167.40000000000001
 31
0.0
  0
CIRCLE
  5
7C
  8
DETAIL
  6
CONTINUOUS
 62
     5
 10
-316.0
 20
-197.59999999999999
 30
0.0
 40
2.5
  0
LINE
  5
7D
  8
DETAIL
  6
CONTINUOUS
 62
     5
 10
-308.5
 20
-168.80000000000001
 30
0.0
 11
-318.0
 21
-168.80000000000001
 31
0.0
  0
LINE
  5
7E
  8
DETAIL
  6
CONTINUOUS
 62
     5
 10
-318.0
 20
-168.80000000000001
 30
0.0
 11
-324.0
 21
-174.80000000000001
 31
0.0
  0
LINE
  5
80
  8
DETAIL
  6
CONTINUOUS
 62
     5
 10
-308.5
 20
-168.80000000000001
 30
0.0
 11
-308.5
 21
-167.40000000000001
 31
0.0
  0
LINE
  5
81
  8
DETAIL
  6
CONTINUOUS
 62
     5
 10
-255.55018999999999
 20
-166.077314
 30
0.0
 11
-240.44981000000001
 21
-166.077314
 31
0.0
  0
LINE
  5
82
  8
DETAIL
  6
CONTINUOUS
 62
     5
 10
-374.0
 20
-27.0
 30
0.0
 11
-374.0
 21
-37.0
 31
0.0
  0
ARC
  5
83
  8
DETAIL
  6
CONTINUOUS
 62
     5
 10
-248.0
 20
-153.0
 30
0.0
 40
17.0
 50
0.0
 51
180.0
  0
LINE
  5
84
  8
NOTE
  6
CONTINUOUS
 62
     4
 10
-233.89955800000001
 20
-153.0
 30
0.0
 11
-262.10044199999999
 21
-153.0
 31
0.0
  0
LINE
  5
85
  8
DETAIL
  6
CONTINUOUS
 62
     5
 10
-240.44981000000001
 20
-139.922686
 30
0.0
 11
-255.55018999999999
 21
-139.922686
 31
0.0
  0
CIRCLE
  5
86
  8
DETAIL
  6
CONTINUOUS
 62
     5
 10
-248.0
 20
-153.0
 30
0.0
 40
11.100441999999999
  0
LINE
  5
87
  8
DETAIL
  6
CONTINUOUS
 62
     5
 10
-255.55018999999999
 20
-139.922686
 30
0.0
 11
-263.10038100000003
 21
-153.0
 31
0.0
  0
LINE
  5
88
  8
DETAIL
  6
CONTINUOUS
 62
     5
 10
-232.899619
 20
-153.0
 30
0.0
 11
-240.44981000000001
 21
-139.922686
 31
0.0
  0
LINE
  5
89
  8
DETAIL
  6
CONTINUOUS
 62
     5
 10
-320.0
 20
-45.600000000000001
 30
0.0
 11
-265.0
 21
-45.600000000000001
 31
0.0
  0
CIRCLE
  5
8A
  8
DETAIL
  6
CONTINUOUS
 62
     5
 10
-316.0
 20
-29.600000000000001
 30
0.0
 40
2.5
  0
LINE
  5
8C
  8
DETAIL
  6
CONTINUOUS
 62
     5
 10
-320.0
 20
-45.600000000000001
 30
0.0
 11
-324.0
 21
-41.600000000000001
 31
0.0
  0
LINE
  5
95
  8
DETAIL
  6
CONTINUOUS
 62
     5
 10
-262.0
 20
-42.600000000000001
 30
0.0
 11
-265.0
 21
-45.600000000000001
 31
0.0
  0
LINE
  5
96
  8
DETAIL
  6
CONTINUOUS
 62
     5
 10
-231.0
 20
-45.600000000000001
 30
0.0
 11
-234.0
 21
-42.600000000000001
 31
0.0
  0
LINE
  5
AE
  8
DETAIL
  6
CONTINUOUS
 62
     5
 10
-111.0
 20
-45.600000000000001
 30
0.0
 11
-85.0
 21
-45.600000000000001
 31
0.0
  0
LINE
  5
BB
  8
DETAIL
  6
CONTINUOUS
 62
     5
 10
-171.0
 20
-45.600000000000001
 30
0.0
 11
-145.0
 21
-45.600000000000001
 31
0.0
  0
LINE
  5
C4
  8
DETAIL
  6
CONTINUOUS
 62
     5
 10
-202.0
 20
-42.600000000000001
 30
0.0
 11
-205.0
 21
-45.600000000000001
 31
0.0
  0
LINE
  5
C5
  8
DETAIL
  6
CONTINUOUS
 62
     5
 10
-171.0
 20
-45.600000000000001
 30
0.0
 11
-174.0
 21
-42.600000000000001
 31
0.0
  0
LINE
  5
D2
  8
DETAIL
  6
CONTINUOUS
 62
     5
 10
-142.0
 20
-42.600000000000001
 30
0.0
 11
-145.0
 21
-45.600000000000001
 31
0.0
  0
LINE
  5
D4
  8
DETAIL
  6
CONTINUOUS
 62
     5
 10
-111.0
 20
-45.600000000000001
 30
0.0
 11
-114.0
 21
-42.600000000000001
 31
0.0
  0
LINE
  5
E7
  8
DETAIL
  6
CONTINUOUS
 62
     5
 10
-82.0
 20
-42.600000000000001
 30
0.0
 11
-85.0
 21
-45.600000000000001
 31
0.0
  0
LINE
  5
E9
  8
DETAIL
  6
CONTINUOUS
 62
     5
 10
-51.0
 20
-45.600000000000001
 30
0.0
 11
-54.0
 21
-42.600000000000001
 31
0.0
  0
LINE
  5
EE
  8
DETAIL
  6
CONTINUOUS
 62
     5
 10
324.0
 20
-27.0
 30
0.0
 11
374.0
 21
-27.0
 31
0.0
  0
LINE
  5
EF
  8
DETAIL
  6
CONTINUOUS
 62
     5
 10
324.0
 20
-163.90000000000001
 30
0.0
 11
320.5
 21
-167.40000000000001
 31
0.0
  0
LINE
  5
F0
  8
DETAIL
  6
CONTINUOUS
 62
     5
 10
324.0
 20
0.0
 30
0.0
 11
324.0
 21
-284.0
 31
0.0
  0
LINE
  5
F1
  8
DETAIL
  6
CONTINUOUS
 62
     5
 10
320.5
 20
-167.40000000000001
 30
0.0
 11
309.0
 21
-167.40000000000001
 31
0.0
  0
CIRCLE
  5
F2
  8
DETAIL
  6
CONTINUOUS
 62
     5
 10
316.0
 20
-197.59999999999999
 30
0.0
 40
2.5
  0
LINE
  5
F3
  8
DETAIL
  6
CONTINUOUS
 62
     5
 10
318.0
 20
-168.80000000000001
 30
0.0
 11
324.0
 21
-174.80000000000001
 31
0.0
  0
LINE
  5
F4
  8
DETAIL
  6
CONTINUOUS
 62
     5
 10
318.0
 20
-168.80000000000001
 30
0.0
 11
309.0
 21
-168.80000000000001
 31
0.0
  0
CIRCLE
  5
F5
  8
DETAIL
  6
CONTINUOUS
 62
     5
 10
316.0
 20
-121.59999999999999
 30
0.0
 40
2.5
  0
CIRCLE
  5
F6
  8
DETAIL
  6
CONTINUOUS
 62
     5
 10
316.0
 20
-29.600000000000001
 30
0.0
 40
2.5
  0
LINE
  5
F7
  8
DETAIL
  6
CONTINUOUS
 62
     5
 10
324.0
 20
-41.600000000000001
 30
0.0
 11
320.0
 21
-45.600000000000001
 31
0.0
  0
LINE
  5
F9
  8
DETAIL
  6
CONTINUOUS
 62
     5
 10
374.0
 20
-27.0
 30
0.0
 11
374.0
 21
-37.0
 31
0.0
  0
LINE
  5
FB
  8
SIZE
  6
CONTINUOUS
 62
    30
 10
-324.0
 20
19.399999999999999
 30
0.0
 11
-324.0
 21
163.22291799999999
 31
0.0
  0
LINE
  5
FC
  8
SIZE
  6
CONTINUOUS
 62
    30
 10
-248.0
 20
-2.6000000000000001
 30
0.0
 11
-248.0
 21
163.22291799999999
 31
0.0
  0
LINE
  5
FD
  8
SIZE
  6
CONTINUOUS
 62
    30
 10
-314.0
 20
133.22291799999999
 30
0.0
 11
-258.0
 21
133.22291799999999
 31
0.0
  0
CIRCLE
  5
FE
  8
SIZE
  6
CONTINUOUS
 62
    30
 10
-324.0
 20
133.22291799999999
 30
0.0
 40
5.0
  0
LINE
  5
FF
  8
SIZE
  6
CONTINUOUS
 62
    30
 10
-319.0
 20
133.22291799999999
 30
0.0
 11
-314.0
 21
133.22291799999999
 31
0.0
  0
CIRCLE
  5
100
  8
SIZE
  6
CONTINUOUS
 62
    30
 10
-248.0
 20
133.22291799999999
 30
0.0
 40
5.0
  0
LINE
  5
101
  8
SIZE
  6
CONTINUOUS
 62
    30
 10
-253.0
 20
133.22291799999999
 30
0.0
 11
-258.0
 21
133.22291799999999
 31
0.0
  0
TEXT
  5
102
  8
SIZE
  6
CONTINUOUS
 62
    30
 10
-331.25714285714292
 20
153.22291799999999
 30
0.0
 40
64.0
  1
76
 41
0.9
 72
     1
 11
-286.0
 21
153.22291799999999
 31
0.0
  0
POINT
  5
103
  8
DEFPOINTS
  6
CONTINUOUS
 62
     7
 10
-324.0
 20
0.0
 30
0.0
  0
POINT
  5
105
  8
DEFPOINTS
  6
CONTINUOUS
 62
     7
 10
-248.0
 20
133.22291799999999
 30
0.0
  0
LINE
  5
106
  8
SIZE
  6
CONTINUOUS
 62
    30
 10
-248.0
 20
-2.6000000000000001
 30
0.0
 11
-248.0
 21
62.013706999999997
 31
0.0
  0
LINE
  5
107
  8
SIZE
  6
CONTINUOUS
 62
    30
 10
-188.0
 20
-2.6000000000000001
 30
0.0
 11
-188.0
 21
62.013706999999997
 31
0.0
  0
LINE
  5
10A
  8
SIZE
  6
CONTINUOUS
 62
    30
 10
-248.0
 20
32.013706999999997
 30
0.0
 11
-188.0
 21
32.013706999999997
 31
0.0
  0
CIRCLE
  5
10B
  8
SIZE
  6
CONTINUOUS
 62
    30
 10
-248.0
 20
32.013706999999997
 30
0.0
 40
5.0
  0
CIRCLE
  5
10D
  8
SIZE
  6
CONTINUOUS
 62
    30
 10
-188.0
 20
32.013706999999997
 30
0.0
 40
5.0
  0
LINE
  5
10E
  8
SIZE
  6
CONTINUOUS
 62
    30
 10
-183.0
 20
32.013706999999997
 30
0.0
 11
-71.204608750424086
 21
32.013706999999997
 31
0.0
  0
TEXT
  5
10F
  8
SIZE
  6
CONTINUOUS
 62
    30
 10
-168.90881664082369
 20
52.013706999999997
 30
0.0
 40
64.0
  1
60
 41
0.9
 72
     1
 11
-122.2802452122523
 21
52.013706999999997
 31
0.0
  0
POINT
  5
112
  8
DEFPOINTS
  6
CONTINUOUS
 62
     7
 10
-188.0
 20
32.013706999999997
 30
0.0
  0
LINE
  5
113
  8
SIZE
  6
CONTINUOUS
 62
    30
 10
-248.0
 20
-2.6000000000000001
 30
0.0
 11
-248.0
 21
163.29024799999999
 31
0.0
  0
CIRCLE
  5
114
  8
SIZE
  6
CONTINUOUS
 62
    30
 10
-248.0
 20
133.29024799999999
 30
0.0
 40
5.0
  0
LINE
  5
115
  8
SIZE
  6
CONTINUOUS
 62
    30
 10
-243.0
 20
133.29024799999999
 30
0.0
 11
-238.0
 21
133.29024799999999
 31
0.0
  0
LINE
  5
116
  8
SIZE
  6
CONTINUOUS
 62
    30
 10
-324.0
 20
19.399999999999999
 30
0.0
 11
-324.0
 21
161.838086
 31
0.0
  0
LINE
  5
117
  8
SIZE
  6
CONTINUOUS
 62
    30
 10
-394.0
 20
-29.194239975087839
 30
0.0
 11
-394.0
 21
161.838086
 31
0.0
  0
LINE
  5
118
  8
SIZE
  6
CONTINUOUS
 62
    30
 10
-334.0
 20
131.838086
 30
0.0
 11
-384.0
 21
131.838086
 31
0.0
  0
LINE
  5
119
  8
SIZE
  6
CONTINUOUS
 62
    30
 10
-394.0
 20
131.838086
 30
0.0
 11
-537.25714299999993
 21
131.838086
 31
0.0
  0
CIRCLE
  5
11A
  8
SIZE
  6
CONTINUOUS
 62
    30
 10
-324.0
 20
131.838086
 30
0.0
 40
5.0
  0
LINE
  5
11B
  8
SIZE
  6
CONTINUOUS
 62
    30
 10
-329.0
 20
131.838086
 30
0.0
 11
-334.0
 21
131.838086
 31
0.0
  0
CIRCLE
  5
11C
  8
SIZE
  6
CONTINUOUS
 62
    30
 10
-394.0
 20
131.838086
 30
0.0
 40
5.0
  0
LINE
  5
11D
  8
SIZE
  6
CONTINUOUS
 62
    30
 10
-389.0
 20
131.838086
 30
0.0
 11
-384.0
 21
131.838086
 31
0.0
  0
TEXT
  5
11E
  8
SIZE
  6
CONTINUOUS
 62
    30
 10
-517.25714242857146
 20
151.838086
 30
0.0
 40
64.0
  1
70
 41
0.9
 72
     1
 11
-470.62857100000002
 21
151.838086
 31
0.0
  0
POINT
  5
11F
  8
DEFPOINTS
  6
CONTINUOUS
 62
     7
 10
-324.0
 20
0.0
 30
0.0
  0
POINT
  5
120
  8
DEFPOINTS
  6
CONTINUOUS
 62
     7
 10
-394.0
 20
-58.0
 30
0.0
  0
POINT
  5
121
  8
DEFPOINTS
  6
CONTINUOUS
 62
     7
 10
-394.0
 20
131.838086
 30
0.0
  0
LINE
  5
122
  8
DETAIL
  6
CONTINUOUS
 62
     5
 10
-374.0
 20
-27.0
 30
0.0
 11
-324.0
 21
-27.0
 31
0.0
  0
LINE
  5
123
  8
DETAIL
  6
CONTINUOUS
 62
     5
 10
324.0
 20
-284.0
 30
0.0
 11
-324.0
 21
-284.0
 31
0.0
  0
LINE
  5
124
  8
SIZE
  6
CONTINUOUS
 62
    30
 10
-344.0
 20
0.0
 30
0.0
 11
-939.20296299999995
 21
0.0
 31
0.0
  0
LINE
  5
125
  8
SIZE
  6
CONTINUOUS
 62
    30
 10
-344.0
 20
-284.0
 30
0.0
 11
-939.20296299999995
 21
-284.0
 31
0.0
  0
LINE
  5
126
  8
SIZE
  6
CONTINUOUS
 62
    30
 10
-909.20296299999984
 20
-10.0
 30
0.0
 11
-909.20296299999984
 21
-274.0
 31
0.0
  0
CIRCLE
  5
127
  8
SIZE
  6
CONTINUOUS
 62
    30
 10
-909.20296299999984
 20
0.0
 30
0.0
 40
5.0
  0
LINE
  5
128
  8
SIZE
  6
CONTINUOUS
 62
    30
 10
-909.20296299999984
 20
-5.0
 30
0.0
 11
-909.20296299999984
 21
-10.0
 31
0.0
  0
CIRCLE
  5
129
  8
SIZE
  6
CONTINUOUS
 62
    30
 10
-909.20296299999984
 20
-284.0
 30
0.0
 40
5.0
  0
LINE
  5
12A
  8
SIZE
  6
CONTINUOUS
 62
    30
 10
-909.20296299999984
 20
-279.0
 30
0.0
 11
-909.20296299999984
 21
-274.0
 31
0.0
  0
TEXT
  5
12B
  8
SIZE
  6
CONTINUOUS
 62
    30
 10
-929.20296299999995
 20
-217.42857142857139
 30
0.0
 40
64.0
  1
284
 50
90.0
 41
0.9
 72
     1
 11
-929.20296299999995
 21
-142.0
 31
0.0
  0
POINT
  5
12C
  8
DEFPOINTS
  6
CONTINUOUS
 62
     7
 10
-324.0
 20
0.0
 30
0.0
  0
POINT
  5
12D
  8
DEFPOINTS
  6
CONTINUOUS
 62
     7
 10
-324.0
 20
-284.0
 30
0.0
  0
POINT
  5
12E
  8
DEFPOINTS
  6
CONTINUOUS
 62
     7
 10
-909.20296299999984
 20
-284.0
 30
0.0
  0
LINE
  5
12F
  8
NOTE
  6
CONTINUOUS
 62
     4
 10
-524.0
 20
-275.0
 30
0.0
 11
-524.0
 21
-235.0
 31
0.0
  0
LINE
  5
130
  8
NOTE
  6
CONTINUOUS
 62
     4
 10
-504.0
 20
-255.0
 30
0.0
 11
-544.0
 21
-255.0
 31
0.0
  0
LINE
  5
131
  8
NOTE
  6
CONTINUOUS
 62
     4
 10
-394.0
 20
-148.0
 30
0.0
 11
-394.0
 21
-108.0
 31
0.0
  0
LINE
  5
132
  8
NOTE
  6
CONTINUOUS
 62
     4
 10
-374.0
 20
-128.0
 30
0.0
 11
-414.0
 21
-128.0
 31
0.0
  0
LINE
  5
133
  8
NOTE
  6
CONTINUOUS
 62
     4
 10
-394.0
 20
-78.0
 30
0.0
 11
-394.0
 21
-38.0
 31
0.0
  0
LINE
  5
134
  8
NOTE
  6
CONTINUOUS
 62
     4
 10
-374.0
 20
-58.0
 30
0.0
 11
-414.0
 21
-58.0
 31
0.0
  0
LINE
  5
135
  8
NOTE
  6
CONTINUOUS
 62
     4
 10
-351.0
 20
-7.175453000000001
 30
0.0
 11
-351.0
 21
-46.824547000000003
 31
0.0
  0
LINE
  5
136
  8
NOTE
  6
CONTINUOUS
 62
     4
 10
-331.0
 20
-27.0
 30
0.0
 11
-371.0
 21
-27.0
 31
0.0
  0
CIRCLE
  5
137
  8
FIX
  6
CONTINUOUS
 62
    11
 10
-351.0
 20
-27.0
 30
0.0
 40
20.0
  0
LINE
  5
138
  8
NOTE
  6
CONTINUOUS
 62
     4
 10
351.0
 20
-7.1754530000000001
 30
0.0
 11
351.0
 21
-46.824547000000003
 31
0.0
  0
CIRCLE
  5
139
  8
FIX
  6
CONTINUOUS
 62
    11
 10
351.0
 20
-27.0
 30
0.0
 40
20.0
  0
TEXT
  5
13B
  8
ETC
  6
CONTINUOUS
 62
    61
 10
340.65882299999998
 20
423.00759900000003
 30
0.0
 40
64.0
  1
CMB-RP1010G_2
 41
0.9
  0
LINE
  5
13C
  8
SIZE
  6
CONTINUOUS
 62
    30
 10
-351.0
 20
-4.599999999999997
 30
0.0
 11
-351.0
 21
290.06571100000002
 31
0.0
  0
LINE
  5
13D
  8
SIZE
  6
CONTINUOUS
 62
    30
 10
351.0
 20
-4.599999999999997
 30
0.0
 11
351.0
 21
290.06571100000002
 31
0.0
  0
LINE
  5
13E
  8
SIZE
  6
CONTINUOUS
 62
    30
 10
-341.0
 20
260.06571100000002
 30
0.0
 11
341.0
 21
260.06571100000002
 31
0.0
  0
CIRCLE
  5
13F
  8
SIZE
  6
CONTINUOUS
 62
    30
 10
-351.0
 20
260.06571100000002
 30
0.0
 40
5.0
  0
LINE
  5
140
  8
SIZE
  6
CONTINUOUS
 62
    30
 10
-346.0
 20
260.06571100000002
 30
0.0
 11
-341.0
 21
260.06571100000002
 31
0.0
  0
CIRCLE
  5
141
  8
SIZE
  6
CONTINUOUS
 62
    30
 10
351.0
 20
260.06571100000002
 30
0.0
 40
5.0
  0
LINE
  5
142
  8
SIZE
  6
CONTINUOUS
 62
    30
 10
346.0
 20
260.06571100000002
 30
0.0
 11
341.0
 21
260.06571100000002
 31
0.0
  0
TEXT
  5
143
  8
SIZE
  6
CONTINUOUS
 62
    30
 10
-250.8045676966502
 20
280.06571099999991
 30
0.0
 40
64.0
  1
702
 41
0.9
 72
     1
 11
-176.7474248395074
 21
280.06571099999991
 31
0.0
  0
POINT
  5
144
  8
DEFPOINTS
  6
CONTINUOUS
 62
     7
 10
-351.0
 20
-27.0
 30
0.0
  0
POINT
  5
145
  8
DEFPOINTS
  6
CONTINUOUS
 62
     7
 10
351.0
 20
-27.0
 30
0.0
  0
POINT
  5
146
  8
DEFPOINTS
  6
CONTINUOUS
 62
     7
 10
351.0
 20
260.06571100000002
 30
0.0
  0
LINE
  5
147
  8
NOTE
  6
CONTINUOUS
 62
     4
 10
331.0
 20
-27.0
 30
0.0
 11
371.0
 21
-27.0
 31
0.0
  0
LINE
  5
148
  8
SIZE
  6
CONTINUOUS
 62
    30
 10
-344.0
 20
0.0
 30
0.0
 11
-468.671515
 21
0.0
 31
0.0
  0
LINE
  5
149
  8
SIZE
  6
CONTINUOUS
 62
    30
 10
-379.8609611502107
 20
-27.0
 30
0.0
 11
-468.671515
 21
-27.0
 31
0.0
  0
LINE
  5
14B
  8
SIZE
  6
CONTINUOUS
 62
    30
 10
-438.671515
 20
-37.0
 30
0.0
 11
-438.671515
 21
-47.0
 31
0.0
  0
LINE
  5
14C
  8
SIZE
  6
CONTINUOUS
 62
    30
 10
-438.671515
 20
0.0
 30
0.0
 11
-438.671515
 21
-27.0
 31
0.0
  0
CIRCLE
  5
14D
  8
SIZE
  6
CONTINUOUS
 62
    30
 10
-438.671515
 20
0.0
 30
0.0
 40
5.0
  0
LINE
  5
14E
  8
SIZE
  6
CONTINUOUS
 62
    30
 10
-438.671515
 20
5.0
 30
0.0
 11
-438.671515
 21
109.5760499079297
 31
0.0
  0
CIRCLE
  5
14F
  8
SIZE
  6
CONTINUOUS
 62
    30
 10
-438.671515
 20
-27.0
 30
0.0
 40
5.0
  0
LINE
  5
150
  8
SIZE
  6
CONTINUOUS
 62
    30
 10
-438.671515
 20
-32.0
 30
0.0
 11
-438.671515
 21
-37.0
 31
0.0
  0
TEXT
  5
151
  8
SIZE
  6
CONTINUOUS
 62
    30
 10
-458.671515
 20
9.208389284069149
 30
0.0
 40
64.0
  1
27
 50
90.0
 41
0.9
 72
     1
 11
-458.671515
 21
55.836960712640568
 31
0.0
  0
POINT
  5
152
  8
DEFPOINTS
  6
CONTINUOUS
 62
     7
 10
-324.0
 20
0.0
 30
0.0
  0
POINT
  5
153
  8
DEFPOINTS
  6
CONTINUOUS
 62
     7
 10
-351.0
 20
-27.0
 30
0.0
  0
POINT
  5
154
  8
DEFPOINTS
  6
CONTINUOUS
 62
     7
 10
-438.671515
 20
-27.0
 30
0.0
  0
LINE
  5
155
  8
SIZE
  6
CONTINUOUS
 62
    30
 10
-324.0
 20
-304.0
 30
0.0
 11
-324.0
 21
-468.66388999999998
 31
0.0
  0
LINE
  5
156
  8
SIZE
  6
CONTINUOUS
 62
    30
 10
324.0
 20
-304.0
 30
0.0
 11
324.0
 21
-468.66388999999998
 31
0.0
  0
LINE
  5
157
  8
SIZE
  6
CONTINUOUS
 62
    30
 10
-314.0
 20
-438.66388999999998
 30
0.0
 11
314.0
 21
-438.66388999999998
 31
0.0
  0
CIRCLE
  5
158
  8
SIZE
  6
CONTINUOUS
 62
    30
 10
-324.0
 20
-438.66388999999998
 30
0.0
 40
5.0
  0
LINE
  5
159
  8
SIZE
  6
CONTINUOUS
 62
    30
 10
-319.0
 20
-438.66388999999998
 30
0.0
 11
-314.0
 21
-438.66388999999998
 31
0.0
  0
CIRCLE
  5
15A
  8
SIZE
  6
CONTINUOUS
 62
    30
 10
324.0
 20
-438.66388999999998
 30
0.0
 40
5.0
  0
LINE
  5
15B
  8
SIZE
  6
CONTINUOUS
 62
    30
 10
319.0
 20
-438.66388999999998
 30
0.0
 11
314.0
 21
-438.66388999999998
 31
0.0
  0
TEXT
  5
15C
  8
SIZE
  6
CONTINUOUS
 62
    30
 10
-81.091040857142829
 20
-418.66388999999998
 30
0.0
 40
64.0
  1
648
 41
0.9
 72
     1
 11
-7.0338979999999971
 21
-418.66388999999998
 31
0.0
  0
POINT
  5
15D
  8
DEFPOINTS
  6
CONTINUOUS
 62
     7
 10
-324.0
 20
-284.0
 30
0.0
  0
POINT
  5
15E
  8
DEFPOINTS
  6
CONTINUOUS
 62
     7
 10
324.0
 20
-284.0
 30
0.0
  0
POINT
  5
15F
  8
DEFPOINTS
  6
CONTINUOUS
 62
     7
 10
324.0
 20
-438.66388999999998
 30
0.0
  0
TEXT
  5
160
  8
SIZE
  6
CONTINUOUS
 62
    30
 10
-87.970617839507355
 20
299.87843299999997
 30
0.0
 40
35.0
  1
（吊りボルトピッチ）
 41
0.9
  0
LINE
  5
161
  8
BASIS
  6
DASHDOT
 62
     6
 10
0.0
 20
75.0
 30
0.0
 11
0.0
 21
-344.0
 31
0.0
  0
CIRCLE
  5
162
  8
ARRANGE
  6
CONTINUOUS
 62
     1
 10
0.0
 20
0.0
 30
0.0
 40
40.0
  0
POINT
  5
163
  8
ARRANGE
  6
CONTINUOUS
 62
     1
 10
0.0
 20
0.0
 30
0.0
  0
TEXT
  5
164
  8
NOTE
  6
CONTINUOUS
 62
     4
 10
414.09932700000002
 20
-107.219267
 30
0.0
 40
64.0
  1
AH4-12×14長穴
 41
0.9
  0
LINE
  5
16A
  8
NOTE
  6
CONTINUOUS
 62
     4
 10
351.58869199999998
 20
-37.336010999999999
 30
0.0
 11
351.0
 21
-27.0
 31
0.0
  0
LINE
  5
16B
  8
NOTE
  6
CONTINUOUS
 62
     4
 10
351.0
 20
-27.0
 30
0.0
 11
356.67782699999998
 21
-35.656902000000009
 31
0.0
  0
LINE
  5
16C
  8
OUTLINE
  6
CONTINUOUS
 62
     3
 10
-324.0
 20
0.0
 30
0.0
 11
324.0
 21
0.0
 31
0.0
  0
LINE
  5
16D
  8
OUTLINE
  6
CONTINUOUS
 62
     3
 10
324.0
 20
0.0
 30
0.0
 11
324.0
 21
-284.0
 31
0.0
  0
LINE
  5
16E
  8
OUTLINE
  6
CONTINUOUS
 62
     3
 10
324.0
 20
-284.0
 30
0.0
 11
-324.0
 21
-284.0
 31
0.0
  0
LINE
  5
16F
  8
OUTLINE
  6
CONTINUOUS
 62
     3
 10
-324.0
 20
-284.0
 30
0.0
 11
-324.0
 21
0.0
 31
0.0
  0
CIRCLE
  5
170
  8
DETAIL
  6
CONTINUOUS
 62
     5
 10
-248.0
 20
-23.0
 30
0.0
 40
4.759999999999998
  0
CIRCLE
  5
171
  8
DETAIL
  6
CONTINUOUS
 62
     5
 10
-248.0
 20
-153.0
 30
0.0
 40
7.9400000000000004
  0
CIRCLE
  5
172
  8
DETAIL
  6
CONTINUOUS
 62
     5
 10
-188.0
 20
-23.0
 30
0.0
 40
4.759999999999998
  0
CIRCLE
  5
173
  8
DETAIL
  6
CONTINUOUS
 62
     5
 10
-128.0
 20
-23.0
 30
0.0
 40
4.759999999999998
  0
CIRCLE
  5
174
  8
DETAIL
  6
CONTINUOUS
 62
     5
 10
-68.0
 20
-23.0
 30
0.0
 40
4.759999999999998
  0
CIRCLE
  5
175
  8
DETAIL
  6
CONTINUOUS
 62
     5
 10
-188.0
 20
-153.0
 30
0.0
 40
7.9400000000000004
  0
CIRCLE
  5
176
  8
DETAIL
  6
CONTINUOUS
 62
     5
 10
-128.0
 20
-153.0
 30
0.0
 40
7.9400000000000004
  0
CIRCLE
  5
177
  8
DETAIL
  6
CONTINUOUS
 62
     5
 10
-68.0
 20
-153.0
 30
0.0
 40
7.9400000000000004
  0
LINE
  5
182
  8
DETAIL
  6
CONTINUOUS
 62
     5
 10
-394.0
 20
-45.299999999999997
 30
0.0
 11
-324.0
 21
-45.299999999999997
 31
0.0
  0
LINE
  5
183
  8
DETAIL
  6
CONTINUOUS
 62
     5
 10
-394.0
 20
-70.700000000000003
 30
0.0
 11
-324.0
 21
-70.700000000000003
 31
0.0
  0
LINE
  5
184
  8
DETAIL
  6
CONTINUOUS
 62
     5
 10
-394.0
 20
-118.47499999999999
 30
0.0
 11
-324.0
 21
-118.47499999999999
 31
0.0
  0
LINE
  5
185
  8
DETAIL
  6
CONTINUOUS
 62
     5
 10
-394.0
 20
-137.52500000000001
 30
0.0
 11
-324.0
 21
-137.52500000000001
 31
0.0
  0
LINE
  5
186
  8
DETAIL
  6
CONTINUOUS
 62
     5
 10
-394.0
 20
-45.299999999999997
 30
0.0
 11
-394.0
 21
-70.700000000000003
 31
0.0
  0
LINE
  5
187
  8
DETAIL
  6
CONTINUOUS
 62
     5
 10
-394.0
 20
-118.47499999999999
 30
0.0
 11
-394.0
 21
-137.52500000000001
 31
0.0
  0
LINE
  5
19E
  8
NOTE
  6
CONTINUOUS
 62
     4
 10
-524.90896109946925
 20
-263.9353444641373
 30
0.0
 11
-524.0
 21
-255.0
 31
0.0
  0
LINE
  5
1A0
  8
NOTE
  6
CONTINUOUS
 62
     4
 10
-403.25038999999998
 20
-132.648652
 30
0.0
 11
-394.0
 21
-128.0
 31
0.0
  0
LINE
  5
1A1
  8
NOTE
  6
CONTINUOUS
 62
     4
 10
-394.0
 20
-128.0
 30
0.0
 11
-399.68674700000003
 21
-136.65104600000001
 31
0.0
  0
LINE
  5
1A4
  8
NOTE
  6
CONTINUOUS
 62
     4
 10
-392.24698323405829
 20
-47.796735181290963
 30
0.0
 11
-394.0
 21
-58.0
 31
0.0
  0
LINE
  5
1A5
  8
NOTE
  6
CONTINUOUS
 62
     4
 10
-394.0
 20
-58.0
 30
0.0
 11
-397.58347499554611
 21
-48.287204776233487
 31
0.0
  0
LINE
  5
1A6
  8
NOTE
  6
CONTINUOUS
 62
     4
 10
-248.82304989736289
 20
-163.3199929633586
 30
0.0
 11
-248.0
 21
-153.0
 31
0.0
  0
LINE
  5
1A7
  8
NOTE
  6
CONTINUOUS
 62
     4
 10
-248.0
 20
-153.0
 30
0.0
 11
-243.55278506368319
 21
-162.348901497133
 31
0.0
  0
LINE
  5
1A8
  8
SIZE
  6
CONTINUOUS
 62
    30
 10
-248.0
 20
-2.6000000000000001
 30
0.0
 11
-248.0
 21
163.55035899999999
 31
0.0
  0
CIRCLE
  5
1A9
  8
SIZE
  6
CONTINUOUS
 62
    30
 10
-248.0
 20
133.55035899999999
 30
0.0
 40
5.0
  0
LINE
  5
1AA
  8
SIZE
  6
CONTINUOUS
 62
    30
 10
-243.0
 20
133.55035899999999
 30
0.0
 11
-238.0
 21
133.55035899999999
 31
0.0
  0
LINE
  5
1AB
  8
SIZE
  6
CONTINUOUS
 62
    30
 10
-344.0
 20
0.0
 30
0.0
 11
-600.11711899999989
 21
0.0
 31
0.0
  0
LINE
  5
1AC
  8
SIZE
  6
CONTINUOUS
 62
    30
 10
-425.06758930118292
 20
-58.0
 30
0.0
 11
-600.11711899999989
 21
-58.0
 31
0.0
  0
LINE
  5
1AE
  8
SIZE
  6
CONTINUOUS
 62
    30
 10
-570.117119
 20
-68.0
 30
0.0
 11
-570.117119
 21
-78.0
 31
0.0
  0
LINE
  5
1AF
  8
SIZE
  6
CONTINUOUS
 62
    30
 10
-570.117119
 20
0.0
 30
0.0
 11
-570.117119
 21
-58.0
 31
0.0
  0
CIRCLE
  5
1B0
  8
SIZE
  6
CONTINUOUS
 62
    30
 10
-570.117119
 20
0.0
 30
0.0
 40
5.0
  0
LINE
  5
1B1
  8
SIZE
  6
CONTINUOUS
 62
    30
 10
-570.117119
 20
5.0
 30
0.0
 11
-570.117119
 21
110.24778114121
 31
0.0
  0
CIRCLE
  5
1B2
  8
SIZE
  6
CONTINUOUS
 62
    30
 10
-570.117119
 20
-58.0
 30
0.0
 40
5.0
  0
LINE
  5
1B3
  8
SIZE
  6
CONTINUOUS
 62
    30
 10
-570.117119
 20
-63.0
 30
0.0
 11
-570.117119
 21
-68.0
 31
0.0
  0
TEXT
  5
1B4
  8
SIZE
  6
CONTINUOUS
 62
    30
 10
-590.117119
 20
13.23882589482486
 30
0.0
 40
64.0
  1
58
 50
90.0
 41
0.9
 72
     1
 11
-590.117119
 21
59.867397323396283
 31
0.0
  0
POINT
  5
1B5
  8
DEFPOINTS
  6
CONTINUOUS
 62
     7
 10
-324.0
 20
0.0
 30
0.0
  0
POINT
  5
1B6
  8
DEFPOINTS
  6
CONTINUOUS
 62
     7
 10
-394.0
 20
-58.0
 30
0.0
  0
POINT
  5
1B7
  8
DEFPOINTS
  6
CONTINUOUS
 62
     7
 10
-570.117119
 20
-58.0
 30
0.0
  0
LINE
  5
1B8
  8
SIZE
  6
CONTINUOUS
 62
    30
 10
-344.0
 20
0.0
 30
0.0
 11
-705.23039300000005
 21
0.0
 31
0.0
  0
LINE
  5
1B9
  8
SIZE
  6
CONTINUOUS
 62
    30
 10
-426.0354786843526
 20
-128.0
 30
0.0
 11
-705.23039300000005
 21
-128.0
 31
0.0
  0
LINE
  5
1BB
  8
SIZE
  6
CONTINUOUS
 62
    30
 10
-675.23039300000005
 20
-138.0
 30
0.0
 11
-675.23039300000005
 21
-148.0
 31
0.0
  0
LINE
  5
1BC
  8
SIZE
  6
CONTINUOUS
 62
    30
 10
-675.23039300000005
 20
0.0
 30
0.0
 11
-675.23039300000005
 21
-128.0
 31
0.0
  0
CIRCLE
  5
1BD
  8
SIZE
  6
CONTINUOUS
 62
    30
 10
-675.23039300000005
 20
0.0
 30
0.0
 40
5.0
  0
LINE
  5
1BE
  8
SIZE
  6
CONTINUOUS
 62
    30
 10
-675.23039300000005
 20
5.0
 30
0.0
 11
-675.23039300000005
 21
154.582518244737
 31
0.0
  0
CIRCLE
  5
1BF
  8
SIZE
  6
CONTINUOUS
 62
    30
 10
-675.23039300000005
 20
-128.0
 30
0.0
 40
5.0
  0
LINE
  5
1C0
  8
SIZE
  6
CONTINUOUS
 62
    30
 10
-675.23039300000005
 20
-133.0
 30
0.0
 11
-675.23039300000005
 21
-138.0
 31
0.0
  0
TEXT
  5
1C1
  8
SIZE
  6
CONTINUOUS
 62
    30
 10
-695.23039300000016
 20
10.776387765074871
 30
0.0
 40
64.0
  1
128
 50
90.0
 41
0.9
 72
     1
 11
-695.23039300000016
 21
79.347816336503442
 31
0.0
  0
POINT
  5
1C2
  8
DEFPOINTS
  6
CONTINUOUS
 62
     7
 10
-324.0
 20
0.0
 30
0.0
  0
POINT
  5
1C3
  8
DEFPOINTS
  6
CONTINUOUS
 62
     7
 10
-394.0
 20
-128.0
 30
0.0
  0
POINT
  5
1C4
  8
DEFPOINTS
  6
CONTINUOUS
 62
     7
 10
-675.23039300000005
 20
-128.0
 30
0.0
  0
LINE
  5
1C5
  8
SIZE
  6
CONTINUOUS
 62
    30
 10
-344.0
 20
0.0
 30
0.0
 11
-818.42927899999984
 21
0.0
 31
0.0
  0
LINE
  5
1C6
  8
SIZE
  6
CONTINUOUS
 62
    30
 10
-557.74947797283664
 20
-255.0
 30
0.0
 11
-818.42927899999984
 21
-255.0
 31
0.0
  0
LINE
  5
1C7
  8
SIZE
  6
CONTINUOUS
 62
    30
 10
-788.42927899999984
 20
-10.0
 30
0.0
 11
-788.42927899999984
 21
-245.0
 31
0.0
  0
CIRCLE
  5
1C8
  8
SIZE
  6
CONTINUOUS
 62
    30
 10
-788.42927899999984
 20
0.0
 30
0.0
 40
5.0
  0
LINE
  5
1C9
  8
SIZE
  6
CONTINUOUS
 62
    30
 10
-788.42927899999984
 20
-5.0
 30
0.0
 11
-788.42927899999984
 21
-10.0
 31
0.0
  0
CIRCLE
  5
1CA
  8
SIZE
  6
CONTINUOUS
 62
    30
 10
-788.42927899999984
 20
-255.0
 30
0.0
 40
5.0
  0
LINE
  5
1CB
  8
SIZE
  6
CONTINUOUS
 62
    30
 10
-788.42927899999984
 20
-250.0
 30
0.0
 11
-788.42927899999984
 21
-245.0
 31
0.0
  0
TEXT
  5
1CC
  8
SIZE
  6
CONTINUOUS
 62
    30
 10
-808.42927899999995
 20
-201.55714285714291
 30
0.0
 40
64.0
  1
255
 50
90.0
 41
0.9
 72
     1
 11
-808.42927899999995
 21
-127.5
 31
0.0
  0
POINT
  5
1CD
  8
DEFPOINTS
  6
CONTINUOUS
 62
     7
 10
-324.0
 20
0.0
 30
0.0
  0
POINT
  5
1CE
  8
DEFPOINTS
  6
CONTINUOUS
 62
     7
 10
-504.0
 20
-255.0
 30
0.0
  0
POINT
  5
1CF
  8
DEFPOINTS
  6
CONTINUOUS
 62
     7
 10
-788.42927899999984
 20
-255.0
 30
0.0
  0
LINE
  5
1D6
  8
DETAIL
  6
CONTINUOUS
 62
     5
 10
-51.0
 20
-45.600000000000001
 30
0.0
 11
-25.0
 21
-45.600000000000001
 31
0.0
  0
LINE
  5
1E4
  8
DETAIL
  6
CONTINUOUS
 62
     5
 10
-22.0
 20
-42.600000000000001
 30
0.0
 11
-25.0
 21
-45.600000000000001
 31
0.0
  0
LINE
  5
1E6
  8
DETAIL
  6
CONTINUOUS
 62
     5
 10
9.0
 20
-45.600000000000001
 30
0.0
 11
6.0
 21
-42.600000000000001
 31
0.0
  0
CIRCLE
  5
1EC
  8
DETAIL
  6
CONTINUOUS
 62
     5
 10
-8.0
 20
-23.0
 30
0.0
 40
4.759999999999998
  0
CIRCLE
  5
1ED
  8
DETAIL
  6
CONTINUOUS
 62
     5
 10
-8.0
 20
-153.0
 30
0.0
 40
7.9400000000000004
  0
LINE
  5
1EE
  8
DETAIL
  6
CONTINUOUS
 62
     5
 10
9.0
 20
-45.600000000000001
 30
0.0
 11
35.0
 21
-45.600000000000001
 31
0.0
  0
LINE
  5
1F6
  8
DETAIL
  6
CONTINUOUS
 62
     5
 10
38.0
 20
-42.600000000000001
 30
0.0
 11
35.0
 21
-45.600000000000001
 31
0.0
  0
LINE
  5
1F8
  8
DETAIL
  6
CONTINUOUS
 62
     5
 10
69.0
 20
-45.600000000000001
 30
0.0
 11
66.0
 21
-42.600000000000001
 31
0.0
  0
CIRCLE
  5
1FE
  8
DETAIL
  6
CONTINUOUS
 62
     5
 10
52.0
 20
-23.0
 30
0.0
 40
4.759999999999998
  0
LINE
  5
201
  8
DETAIL
  6
CONTINUOUS
 62
     5
 10
69.0
 20
-45.600000000000001
 30
0.0
 11
95.0
 21
-45.600000000000001
 31
0.0
  0
LINE
  5
209
  8
DETAIL
  6
CONTINUOUS
 62
     5
 10
98.0
 20
-42.600000000000001
 30
0.0
 11
95.0
 21
-45.600000000000001
 31
0.0
  0
LINE
  5
20B
  8
DETAIL
  6
CONTINUOUS
 62
     5
 10
129.0
 20
-45.600000000000001
 30
0.0
 11
126.0
 21
-42.600000000000001
 31
0.0
  0
CIRCLE
  5
211
  8
DETAIL
  6
CONTINUOUS
 62
     5
 10
112.0
 20
-23.0
 30
0.0
 40
4.759999999999998
  0
CIRCLE
  5
21E
  8
DETAIL
  6
CONTINUOUS
 62
     5
 10
52.0
 20
-153.0
 30
0.0
 40
7.9400000000000004
  0
CIRCLE
  5
22B
  8
DETAIL
  6
CONTINUOUS
 62
     5
 10
112.0
 20
-153.0
 30
0.0
 40
7.9400000000000004
  0
LINE
  5
22C
  8
DETAIL
  6
CONTINUOUS
 62
     5
 10
129.0
 20
-45.600000000000001
 30
0.0
 11
155.0
 21
-45.600000000000001
 31
0.0
  0
LINE
  5
234
  8
DETAIL
  6
CONTINUOUS
 62
     5
 10
158.0
 20
-42.600000000000001
 30
0.0
 11
155.0
 21
-45.600000000000001
 31
0.0
  0
LINE
  5
236
  8
DETAIL
  6
CONTINUOUS
 62
     5
 10
189.0
 20
-45.600000000000001
 30
0.0
 11
186.0
 21
-42.600000000000001
 31
0.0
  0
CIRCLE
  5
23C
  8
DETAIL
  6
CONTINUOUS
 62
     5
 10
172.0
 20
-23.0
 30
0.0
 40
4.759999999999998
  0
CIRCLE
  5
24B
  8
DETAIL
  6
CONTINUOUS
 62
     5
 10
172.0
 20
-153.0
 30
0.0
 40
7.9400000000000004
  0
LINE
  5
24C
  8
DETAIL
  6
CONTINUOUS
 62
     5
 10
189.0
 20
-45.600000000000001
 30
0.0
 11
215.0
 21
-45.600000000000001
 31
0.0
  0
LINE
  5
254
  8
DETAIL
  6
CONTINUOUS
 62
     5
 10
218.0
 20
-42.600000000000001
 30
0.0
 11
215.0
 21
-45.600000000000001
 31
0.0
  0
LINE
  5
256
  8
DETAIL
  6
CONTINUOUS
 62
     5
 10
249.0
 20
-45.600000000000001
 30
0.0
 11
246.0
 21
-42.600000000000001
 31
0.0
  0
CIRCLE
  5
25C
  8
DETAIL
  6
CONTINUOUS
 62
     5
 10
232.0
 20
-23.0
 30
0.0
 40
4.759999999999998
  0
CIRCLE
  5
269
  8
DETAIL
  6
CONTINUOUS
 62
     5
 10
232.0
 20
-153.0
 30
0.0
 40
7.9400000000000004
  0
LINE
  5
26A
  8
DETAIL
  6
CONTINUOUS
 62
     5
 10
249.0
 20
-45.600000000000001
 30
0.0
 11
275.0
 21
-45.600000000000001
 31
0.0
  0
LINE
  5
26B
  8
DETAIL
  6
CONTINUOUS
 62
     5
 10
278.0
 20
-23.0
 30
0.0
 11
278.0
 21
-42.600000000000001
 31
0.0
  0
LINE
  5
26C
  8
DETAIL
  6
CONTINUOUS
 62
     5
 10
306.0
 20
-23.0
 30
0.0
 11
306.0
 21
-42.600000000000001
 31
0.0
  0
LINE
  5
26D
  8
DETAIL
  6
CONTINUOUS
 62
     5
 10
302.97053199999999
 20
-23.0
 30
0.0
 11
297.48526600000002
 21
-32.500759000000009
 31
0.0
  0
LINE
  5
26E
  8
DETAIL
  6
CONTINUOUS
 62
     5
 10
286.51473399999998
 20
-32.500759000000009
 30
0.0
 11
281.02946800000001
 21
-23.0
 31
0.0
  0
CIRCLE
  5
26F
  8
DETAIL
  6
CONTINUOUS
 62
     5
 10
292.0
 20
-23.0
 30
0.0
 40
8.0003159999999998
  0
LINE
  5
270
  8
NOTE
  6
CONTINUOUS
 62
     4
 10
292.0
 20
-34.000315999999998
 30
0.0
 11
292.0
 21
-11.999684
 31
0.0
  0
LINE
  5
271
  8
DETAIL
  6
CONTINUOUS
 62
     5
 10
278.0
 20
-37.0
 30
0.0
 11
306.0
 21
-37.0
 31
0.0
  0
LINE
  5
272
  8
DETAIL
  6
CONTINUOUS
 62
     5
 10
278.0
 20
-42.600000000000001
 30
0.0
 11
275.0
 21
-45.600000000000001
 31
0.0
  0
LINE
  5
273
  8
DETAIL
  6
CONTINUOUS
 62
     5
 10
297.48526600000002
 20
-32.500759000000009
 30
0.0
 11
286.51473399999998
 21
-32.500759000000009
 31
0.0
  0
LINE
  5
274
  8
DETAIL
  6
CONTINUOUS
 62
     5
 10
309.0
 20
-45.600000000000001
 30
0.0
 11
306.0
 21
-42.600000000000001
 31
0.0
  0
ARC
  5
275
  8
DETAIL
  6
CONTINUOUS
 62
     5
 10
292.0
 20
-23.0
 30
0.0
 40
14.0
 50
0.0
 51
180.0
  0
LINE
  5
276
  8
DETAIL
  6
CONTINUOUS
 62
     5
 10
281.02946800000001
 20
-23.0
 30
0.0
 11
286.51473399999998
 21
-13.499241
 31
0.0
  0
LINE
  5
277
  8
DETAIL
  6
CONTINUOUS
 62
     5
 10
286.51473399999998
 20
-13.499241
 30
0.0
 11
297.48526600000002
 21
-13.499241
 31
0.0
  0
LINE
  5
278
  8
NOTE
  6
CONTINUOUS
 62
     4
 10
303.000316
 20
-23.0
 30
0.0
 11
280.999684
 21
-23.0
 31
0.0
  0
LINE
  5
279
  8
DETAIL
  6
CONTINUOUS
 62
     5
 10
297.48526600000002
 20
-13.499241
 30
0.0
 11
302.97053199999999
 21
-23.0
 31
0.0
  0
CIRCLE
  5
27A
  8
DETAIL
  6
CONTINUOUS
 62
     5
 10
292.0
 20
-23.0
 30
0.0
 40
4.759999999999998
  0
LINE
  5
27B
  8
NOTE
  6
CONTINUOUS
 62
     4
 10
296.255966
 20
-13.562499000000001
 30
0.0
 11
292.0
 21
-23.0
 31
0.0
  0
LINE
  5
27C
  8
NOTE
  6
CONTINUOUS
 62
     4
 10
292.0
 20
-23.0
 30
0.0
 11
300.40452599999998
 21
-16.954867
 31
0.0
  0
CIRCLE
  5
289
  8
DETAIL
  6
CONTINUOUS
 62
     5
 10
292.0
 20
-153.0
 30
0.0
 40
7.9400000000000004
  0
LINE
  5
28A
  8
DETAIL
  6
CONTINUOUS
 62
     5
 10
309.0
 20
-45.600000000000001
 30
0.0
 11
320.0
 21
-45.600000000000001
 31
0.0
  0
LINE
  5
28B
  8
NOTE
  6
CONTINUOUS
 62
     4
 10
292.0
 20
-23.0
 30
0.0
 11
430.189773
 21
143.11093299999999
 31
0.0
  0
LINE
  5
28D
  8
SIZE
  6
CONTINUOUS
 62
    30
 10
-248.0
 20
-2.6000000000000001
 30
0.0
 11
-248.0
 21
162.34559899999999
 31
0.0
  0
LINE
  5
28E
  8
SIZE
  6
CONTINUOUS
 62
    30
 10
292.0
 20
-2.6000000000000001
 30
0.0
 11
292.0
 21
162.34559899999999
 31
0.0
  0
LINE
  5
28F
  8
SIZE
  6
CONTINUOUS
 62
    30
 10
-238.0
 20
132.34559899999999
 30
0.0
 11
282.0
 21
132.34559899999999
 31
0.0
  0
CIRCLE
  5
290
  8
SIZE
  6
CONTINUOUS
 62
    30
 10
-248.0
 20
132.34559899999999
 30
0.0
 40
5.0
  0
LINE
  5
291
  8
SIZE
  6
CONTINUOUS
 62
    30
 10
-243.0
 20
132.34559899999999
 30
0.0
 11
-238.0
 21
132.34559899999999
 31
0.0
  0
CIRCLE
  5
292
  8
SIZE
  6
CONTINUOUS
 62
    30
 10
292.0
 20
132.34559899999999
 30
0.0
 40
5.0
  0
LINE
  5
293
  8
SIZE
  6
CONTINUOUS
 62
    30
 10
287.0
 20
132.34559899999999
 30
0.0
 11
282.0
 21
132.34559899999999
 31
0.0
  0
TEXT
  5
294
  8
SIZE
  6
CONTINUOUS
 62
    30
 10
-203.4628571428571
 20
152.34559899999999
 30
0.0
 40
64.0
  1
60×9＝540
 41
0.9
 72
     1
 11
22.0
 21
152.34559899999999
 31
0.0
  0
POINT
  5
296
  8
DEFPOINTS
  6
CONTINUOUS
 62
     7
 10
292.0
 20
-23.0
 30
0.0
  0
POINT
  5
297
  8
DEFPOINTS
  6
CONTINUOUS
 62
     7
 10
292.0
 20
132.34559899999999
 30
0.0
  0
LINE
  5
298
  8
SIZE
  6
CONTINUOUS
 62
    30
 10
-324.0
 20
-304.0
 30
0.0
 11
-324.0
 21
-469.25806699999993
 31
0.0
  0
LINE
  5
299
  8
SIZE
  6
CONTINUOUS
 62
    30
 10
-524.0
 20
-289.47022799841221
 30
0.0
 11
-524.0
 21
-469.25806699999993
 31
0.0
  0
LINE
  5
29A
  8
SIZE
  6
CONTINUOUS
 62
    30
 10
-334.0
 20
-439.25806699999998
 30
0.0
 11
-514.0
 21
-439.25806699999998
 31
0.0
  0
CIRCLE
  5
29B
  8
SIZE
  6
CONTINUOUS
 62
    30
 10
-324.0
 20
-439.25806699999998
 30
0.0
 40
5.0
  0
LINE
  5
29C
  8
SIZE
  6
CONTINUOUS
 62
    30
 10
-329.0
 20
-439.25806699999998
 30
0.0
 11
-334.0
 21
-439.25806699999998
 31
0.0
  0
CIRCLE
  5
29D
  8
SIZE
  6
CONTINUOUS
 62
    30
 10
-524.0
 20
-439.25806699999998
 30
0.0
 40
5.0
  0
LINE
  5
29E
  8
SIZE
  6
CONTINUOUS
 62
    30
 10
-519.0
 20
-439.25806699999998
 30
0.0
 11
-514.0
 21
-439.25806699999998
 31
0.0
  0
TEXT
  5
29F
  8
SIZE
  6
CONTINUOUS
 62
    30
 10
-490.55714285714282
 20
-419.25806699999993
 30
0.0
 40
64.0
  1
200
 41
0.9
 72
     1
 11
-416.5
 21
-419.25806699999993
 31
0.0
  0
POINT
  5
2A0
  8
DEFPOINTS
  6
CONTINUOUS
 62
     7
 10
-324.0
 20
-284.0
 30
0.0
  0
POINT
  5
2A1
  8
DEFPOINTS
  6
CONTINUOUS
 62
     7
 10
-504.0
 20
-255.0
 30
0.0
  0
POINT
  5
2A2
  8
DEFPOINTS
  6
CONTINUOUS
 62
     7
 10
-524.0
 20
-439.25806699999998
 30
0.0
  0
LINE
  5
3A1
  8
NOTE
  6
CONTINUOUS
 62
     4
 10
-394.0
 20
-58.0
 30
0.0
 11
-446.05391941338161
 21
588.31699703761842
 31
0.0
  0
LINE
  5
3A5
  8
NOTE
  6
CONTINUOUS
 62
     4
 10
-394.0
 20
-128.0
 30
0.0
 11
-811.12408243624634
 21
-433.96580046907542
 31
0.0
  0
LINE
  5
3A7
  8
NOTE
  6
CONTINUOUS
 62
     4
 10
-524.0
 20
-255.0
 30
0.0
 11
-707.33887397633839
 21
-742.7289885946069
 31
0.0
  0
LINE
  5
3A9
  8
NOTE
  6
CONTINUOUS
 62
     4
 10
-248.0
 20
-153.0
 30
0.0
 11
-181.30838726639561
 21
-635.87423699999977
 31
0.0
  0
LINE
  5
3AB
  8
NOTE
  6
CONTINUOUS
 62
     4
 10
351.0
 20
-27.0
 30
0.0
 11
384.09932700000002
 21
-127.219267
 31
0.0
  0
LINE
  5
3AC
  8
NOTE
  6
CONTINUOUS
 62
     4
 10
384.09932700000002
 20
-127.219267
 30
0.0
 11
1065.8021839999999
 21
-127.219267
 31
0.0
  0
TEXT
  5
3C2
  8
NOTE
  6
CONTINUOUS
 62
     4
 10
465.29834499999941
 20
163.11093299999979
 30
0.0
 40
64.0
  1
室内ユニット側配管接続口（液）
 41
0.9
 72
     2
 11
1456.018345
 21
163.11093299999979
 31
0.0
  0
TEXT
  5
3C3
  8
NOTE
  6
CONTINUOUS
 62
     4
 10
658.98761519751577
 20
68.164147220890413
 30
0.0
 40
50.0
  1
φ9.52
 41
0.9
  0
TEXT
  5
3C4
  8
NOTE
  6
CONTINUOUS
 62
     4
 10
-134.79466061764811
 20
-610.0424082595955
 30
0.0
 40
64.0
  1
室内ユニット側配管接続口（ガス）
 41
0.9
 72
     2
 11
925.04533938235181
 21
-610.0424082595955
 31
0.0
  0
TEXT
  5
3C5
  8
NOTE
  6
CONTINUOUS
 62
     4
 10
41.87199315777525
 20
-715.25429599999995
 30
0.0
 40
50.0
  1
φ15.88
 41
0.9
  0
TEXT
  5
3CA
  8
NOTE
  6
CONTINUOUS
 62
     4
 10
-1141.0874454049101
 20
-722.7289885946069
 30
0.0
 40
64.0
  1
D　VP-25
 41
0.9
 72
     2
 11
-737.33887397633839
 21
-722.7289885946069
 31
0.0
  0
LINE
  5
3CE
  8
NOTE
  6
CONTINUOUS
 62
     4
 10
-707.33887397633839
 20
-742.7289885946069
 30
0.0
 11
-1161.776079607673
 21
-742.7289885946069
 31
0.0
  0
LINE
  5
3D1
  8
NOTE
  6
CONTINUOUS
 62
     4
 10
1486.018345
 20
143.1109329999999
 30
0.0
 11
430.189773
 21
143.1109329999999
 31
0.0
  0
LINE
  5
3D2
  8
NOTE
  6
CONTINUOUS
 62
     4
 10
1039.9444285091579
 20
-635.87423699999977
 30
0.0
 11
-181.30838726639561
 21
-635.87423699999977
 31
0.0
  0
LINE
  5
405
  8
NOTE
  6
CONTINUOUS
 62
     4
 10
-523.99999323228315
 20
-254.99998883908799
 30
0.0
 11
-529.4172165989728
 21
-262.16380639459072
 31
0.0
  0
LINE
  5
418
  8
DETAIL
  6
CONTINUOUS
 62
     5
 10
-205.0
 20
-153.0
 30
0.0
 11
-205.0
 21
-168.19999999999999
 31
0.0
  0
LINE
  5
419
  8
DETAIL
  6
CONTINUOUS
 62
     5
 10
-171.0
 20
-168.19999999999999
 30
0.0
 11
-171.0
 21
-153.0
 31
0.0
  0
LINE
  5
41A
  8
NOTE
  6
CONTINUOUS
 62
     4
 10
-188.0
 20
-138.89955800000001
 30
0.0
 11
-188.0
 21
-167.10044199999999
 31
0.0
  0
LINE
  5
41B
  8
DETAIL
  6
CONTINUOUS
 62
     5
 10
-172.899619
 20
-153.0
 30
0.0
 11
-180.44981000000001
 21
-166.077314
 31
0.0
  0
LINE
  5
41C
  8
DETAIL
  6
CONTINUOUS
 62
     5
 10
-203.100381
 20
-153.0
 30
0.0
 11
-195.55018999999999
 21
-166.077314
 31
0.0
  0
LINE
  5
41D
  8
DETAIL
  6
CONTINUOUS
 62
     5
 10
-195.55018999999999
 20
-166.077314
 30
0.0
 11
-180.44981000000001
 21
-166.077314
 31
0.0
  0
ARC
  5
41E
  8
DETAIL
  6
CONTINUOUS
 62
     5
 10
-188.0
 20
-153.0
 30
0.0
 40
17.0
 50
0.0
 51
180.0
  0
LINE
  5
41F
  8
NOTE
  6
CONTINUOUS
 62
     4
 10
-173.89955800000001
 20
-153.0
 30
0.0
 11
-202.10044199999999
 21
-153.0
 31
0.0
  0
LINE
  5
420
  8
DETAIL
  6
CONTINUOUS
 62
     5
 10
-180.44981000000001
 20
-139.922686
 30
0.0
 11
-195.55018999999999
 21
-139.922686
 31
0.0
  0
CIRCLE
  5
421
  8
DETAIL
  6
CONTINUOUS
 62
     5
 10
-188.0
 20
-153.0
 30
0.0
 40
11.100441999999999
  0
LINE
  5
422
  8
DETAIL
  6
CONTINUOUS
 62
     5
 10
-195.55018999999999
 20
-139.922686
 30
0.0
 11
-203.100381
 21
-153.0
 31
0.0
  0
LINE
  5
423
  8
DETAIL
  6
CONTINUOUS
 62
     5
 10
-172.899619
 20
-153.0
 30
0.0
 11
-180.44981000000001
 21
-139.922686
 31
0.0
  0
LINE
  5
436
  8
DETAIL
  6
CONTINUOUS
 62
     5
 10
-145.0
 20
-153.0
 30
0.0
 11
-145.0
 21
-168.19999999999999
 31
0.0
  0
LINE
  5
437
  8
DETAIL
  6
CONTINUOUS
 62
     5
 10
-111.0
 20
-168.19999999999999
 30
0.0
 11
-111.0
 21
-153.0
 31
0.0
  0
LINE
  5
438
  8
NOTE
  6
CONTINUOUS
 62
     4
 10
-128.0
 20
-138.89955800000001
 30
0.0
 11
-128.0
 21
-167.10044199999999
 31
0.0
  0
LINE
  5
439
  8
DETAIL
  6
CONTINUOUS
 62
     5
 10
-112.899619
 20
-153.0
 30
0.0
 11
-120.44981
 21
-166.077314
 31
0.0
  0
LINE
  5
43A
  8
DETAIL
  6
CONTINUOUS
 62
     5
 10
-143.100381
 20
-153.0
 30
0.0
 11
-135.55018999999999
 21
-166.077314
 31
0.0
  0
LINE
  5
43B
  8
DETAIL
  6
CONTINUOUS
 62
     5
 10
-135.55018999999999
 20
-166.077314
 30
0.0
 11
-120.44981
 21
-166.077314
 31
0.0
  0
ARC
  5
43C
  8
DETAIL
  6
CONTINUOUS
 62
     5
 10
-128.0
 20
-153.0
 30
0.0
 40
17.0
 50
0.0
 51
180.0
  0
LINE
  5
43D
  8
NOTE
  6
CONTINUOUS
 62
     4
 10
-113.899558
 20
-153.0
 30
0.0
 11
-142.10044199999999
 21
-153.0
 31
0.0
  0
LINE
  5
43E
  8
DETAIL
  6
CONTINUOUS
 62
     5
 10
-120.44981
 20
-139.922686
 30
0.0
 11
-135.55018999999999
 21
-139.922686
 31
0.0
  0
CIRCLE
  5
43F
  8
DETAIL
  6
CONTINUOUS
 62
     5
 10
-128.0
 20
-153.0
 30
0.0
 40
11.100441999999999
  0
LINE
  5
440
  8
DETAIL
  6
CONTINUOUS
 62
     5
 10
-135.55018999999999
 20
-139.922686
 30
0.0
 11
-143.100381
 21
-153.0
 31
0.0
  0
LINE
  5
441
  8
DETAIL
  6
CONTINUOUS
 62
     5
 10
-112.899619
 20
-153.0
 30
0.0
 11
-120.44981
 21
-139.922686
 31
0.0
  0
LINE
  5
454
  8
DETAIL
  6
CONTINUOUS
 62
     5
 10
-85.0
 20
-153.0
 30
0.0
 11
-85.0
 21
-168.19999999999999
 31
0.0
  0
LINE
  5
455
  8
DETAIL
  6
CONTINUOUS
 62
     5
 10
-51.0
 20
-168.19999999999999
 30
0.0
 11
-51.0
 21
-153.0
 31
0.0
  0
LINE
  5
456
  8
NOTE
  6
CONTINUOUS
 62
     4
 10
-68.0
 20
-138.89955800000001
 30
0.0
 11
-68.0
 21
-167.10044199999999
 31
0.0
  0
LINE
  5
457
  8
DETAIL
  6
CONTINUOUS
 62
     5
 10
-52.899619000000001
 20
-153.0
 30
0.0
 11
-60.449809999999992
 21
-166.077314
 31
0.0
  0
LINE
  5
458
  8
DETAIL
  6
CONTINUOUS
 62
     5
 10
-83.100381000000013
 20
-153.0
 30
0.0
 11
-75.550189999999986
 21
-166.077314
 31
0.0
  0
LINE
  5
459
  8
DETAIL
  6
CONTINUOUS
 62
     5
 10
-75.550189999999986
 20
-166.077314
 30
0.0
 11
-60.449809999999992
 21
-166.077314
 31
0.0
  0
ARC
  5
45A
  8
DETAIL
  6
CONTINUOUS
 62
     5
 10
-68.0
 20
-153.0
 30
0.0
 40
17.0
 50
0.0
 51
180.0
  0
LINE
  5
45B
  8
NOTE
  6
CONTINUOUS
 62
     4
 10
-53.899557999999999
 20
-153.0
 30
0.0
 11
-82.100441999999987
 21
-153.0
 31
0.0
  0
LINE
  5
45C
  8
DETAIL
  6
CONTINUOUS
 62
     5
 10
-60.449809999999992
 20
-139.922686
 30
0.0
 11
-75.550189999999986
 21
-139.922686
 31
0.0
  0
CIRCLE
  5
45D
  8
DETAIL
  6
CONTINUOUS
 62
     5
 10
-68.0
 20
-153.0
 30
0.0
 40
11.100441999999999
  0
LINE
  5
45E
  8
DETAIL
  6
CONTINUOUS
 62
     5
 10
-75.550189999999986
 20
-139.922686
 30
0.0
 11
-83.100381000000013
 21
-153.0
 31
0.0
  0
LINE
  5
45F
  8
DETAIL
  6
CONTINUOUS
 62
     5
 10
-52.899619000000001
 20
-153.0
 30
0.0
 11
-60.449809999999992
 21
-139.922686
 31
0.0
  0
LINE
  5
472
  8
DETAIL
  6
CONTINUOUS
 62
     5
 10
-25.0
 20
-153.0
 30
0.0
 11
-25.0
 21
-168.19999999999999
 31
0.0
  0
LINE
  5
473
  8
DETAIL
  6
CONTINUOUS
 62
     5
 10
9.0
 20
-168.19999999999999
 30
0.0
 11
9.0
 21
-153.0
 31
0.0
  0
LINE
  5
474
  8
NOTE
  6
CONTINUOUS
 62
     4
 10
-8.0
 20
-138.89955800000001
 30
0.0
 11
-8.0
 21
-167.10044199999999
 31
0.0
  0
LINE
  5
475
  8
DETAIL
  6
CONTINUOUS
 62
     5
 10
7.1003809999999961
 20
-153.0
 30
0.0
 11
-0.4498100000000136
 21
-166.077314
 31
0.0
  0
LINE
  5
476
  8
DETAIL
  6
CONTINUOUS
 62
     5
 10
-23.100381000000031
 20
-153.0
 30
0.0
 11
-15.550189999999979
 21
-166.077314
 31
0.0
  0
LINE
  5
477
  8
DETAIL
  6
CONTINUOUS
 62
     5
 10
-15.550189999999979
 20
-166.077314
 30
0.0
 11
-0.4498100000000136
 21
-166.077314
 31
0.0
  0
ARC
  5
478
  8
DETAIL
  6
CONTINUOUS
 62
     5
 10
-8.0
 20
-153.0
 30
0.0
 40
17.0
 50
0.0
 51
180.0
  0
LINE
  5
479
  8
NOTE
  6
CONTINUOUS
 62
     4
 10
6.100441999999985
 20
-153.0
 30
0.0
 11
-22.10044199999999
 21
-153.0
 31
0.0
  0
LINE
  5
47A
  8
DETAIL
  6
CONTINUOUS
 62
     5
 10
-0.4498100000000136
 20
-139.922686
 30
0.0
 11
-15.550189999999979
 21
-139.922686
 31
0.0
  0
CIRCLE
  5
47B
  8
DETAIL
  6
CONTINUOUS
 62
     5
 10
-8.0
 20
-153.0
 30
0.0
 40
11.100441999999999
  0
LINE
  5
47C
  8
DETAIL
  6
CONTINUOUS
 62
     5
 10
-15.550189999999979
 20
-139.922686
 30
0.0
 11
-23.100381000000031
 21
-153.0
 31
0.0
  0
LINE
  5
47D
  8
DETAIL
  6
CONTINUOUS
 62
     5
 10
7.1003809999999961
 20
-153.0
 30
0.0
 11
-0.4498100000000136
 21
-139.922686
 31
0.0
  0
LINE
  5
490
  8
DETAIL
  6
CONTINUOUS
 62
     5
 10
35.0
 20
-153.0
 30
0.0
 11
35.0
 21
-168.19999999999999
 31
0.0
  0
LINE
  5
491
  8
DETAIL
  6
CONTINUOUS
 62
     5
 10
69.0
 20
-168.19999999999999
 30
0.0
 11
69.0
 21
-153.0
 31
0.0
  0
LINE
  5
492
  8
NOTE
  6
CONTINUOUS
 62
     4
 10
52.0
 20
-138.89955800000001
 30
0.0
 11
52.0
 21
-167.10044199999999
 31
0.0
  0
LINE
  5
493
  8
DETAIL
  6
CONTINUOUS
 62
     5
 10
67.100380999999999
 20
-153.0
 30
0.0
 11
59.550190000000001
 21
-166.077314
 31
0.0
  0
LINE
  5
494
  8
DETAIL
  6
CONTINUOUS
 62
     5
 10
36.899618999999973
 20
-153.0
 30
0.0
 11
44.449810000000006
 21
-166.077314
 31
0.0
  0
LINE
  5
495
  8
DETAIL
  6
CONTINUOUS
 62
     5
 10
44.449810000000006
 20
-166.077314
 30
0.0
 11
59.550190000000001
 21
-166.077314
 31
0.0
  0
ARC
  5
496
  8
DETAIL
  6
CONTINUOUS
 62
     5
 10
52.0
 20
-153.0
 30
0.0
 40
17.0
 50
0.0
 51
180.0
  0
LINE
  5
497
  8
NOTE
  6
CONTINUOUS
 62
     4
 10
66.100441999999987
 20
-153.0
 30
0.0
 11
37.899558000000013
 21
-153.0
 31
0.0
  0
LINE
  5
498
  8
DETAIL
  6
CONTINUOUS
 62
     5
 10
59.550190000000001
 20
-139.922686
 30
0.0
 11
44.449810000000006
 21
-139.922686
 31
0.0
  0
CIRCLE
  5
499
  8
DETAIL
  6
CONTINUOUS
 62
     5
 10
52.0
 20
-153.0
 30
0.0
 40
11.100441999999999
  0
LINE
  5
49A
  8
DETAIL
  6
CONTINUOUS
 62
     5
 10
44.449810000000006
 20
-139.922686
 30
0.0
 11
36.899618999999973
 21
-153.0
 31
0.0
  0
LINE
  5
49B
  8
DETAIL
  6
CONTINUOUS
 62
     5
 10
67.100380999999999
 20
-153.0
 30
0.0
 11
59.550190000000001
 21
-139.922686
 31
0.0
  0
LINE
  5
4AE
  8
DETAIL
  6
CONTINUOUS
 62
     5
 10
95.0
 20
-153.0
 30
0.0
 11
95.0
 21
-168.19999999999999
 31
0.0
  0
LINE
  5
4AF
  8
DETAIL
  6
CONTINUOUS
 62
     5
 10
129.0
 20
-168.19999999999999
 30
0.0
 11
129.0
 21
-153.0
 31
0.0
  0
LINE
  5
4B0
  8
NOTE
  6
CONTINUOUS
 62
     4
 10
112.0
 20
-138.89955800000001
 30
0.0
 11
112.0
 21
-167.10044199999999
 31
0.0
  0
LINE
  5
4B1
  8
DETAIL
  6
CONTINUOUS
 62
     5
 10
127.100381
 20
-153.0
 30
0.0
 11
119.55019
 21
-166.077314
 31
0.0
  0
LINE
  5
4B2
  8
DETAIL
  6
CONTINUOUS
 62
     5
 10
96.899619000000001
 20
-153.0
 30
0.0
 11
104.44981
 21
-166.077314
 31
0.0
  0
LINE
  5
4B3
  8
DETAIL
  6
CONTINUOUS
 62
     5
 10
104.44981
 20
-166.077314
 30
0.0
 11
119.55019
 21
-166.077314
 31
0.0
  0
ARC
  5
4B4
  8
DETAIL
  6
CONTINUOUS
 62
     5
 10
112.0
 20
-153.0
 30
0.0
 40
17.0
 50
0.0
 51
180.0
  0
LINE
  5
4B5
  8
NOTE
  6
CONTINUOUS
 62
     4
 10
126.100442
 20
-153.0
 30
0.0
 11
97.899558000000013
 21
-153.0
 31
0.0
  0
LINE
  5
4B6
  8
DETAIL
  6
CONTINUOUS
 62
     5
 10
119.55019
 20
-139.922686
 30
0.0
 11
104.44981
 21
-139.922686
 31
0.0
  0
CIRCLE
  5
4B7
  8
DETAIL
  6
CONTINUOUS
 62
     5
 10
112.0
 20
-153.0
 30
0.0
 40
11.100441999999999
  0
LINE
  5
4B8
  8
DETAIL
  6
CONTINUOUS
 62
     5
 10
104.44981
 20
-139.922686
 30
0.0
 11
96.899619000000001
 21
-153.0
 31
0.0
  0
LINE
  5
4B9
  8
DETAIL
  6
CONTINUOUS
 62
     5
 10
127.100381
 20
-153.0
 30
0.0
 11
119.55019
 21
-139.922686
 31
0.0
  0
LINE
  5
4CC
  8
DETAIL
  6
CONTINUOUS
 62
     5
 10
155.0
 20
-153.0
 30
0.0
 11
155.0
 21
-168.19999999999999
 31
0.0
  0
LINE
  5
4CD
  8
DETAIL
  6
CONTINUOUS
 62
     5
 10
189.0
 20
-168.19999999999999
 30
0.0
 11
189.0
 21
-153.0
 31
0.0
  0
LINE
  5
4CE
  8
NOTE
  6
CONTINUOUS
 62
     4
 10
172.0
 20
-138.89955800000001
 30
0.0
 11
172.0
 21
-167.10044199999999
 31
0.0
  0
LINE
  5
4CF
  8
DETAIL
  6
CONTINUOUS
 62
     5
 10
187.100381
 20
-153.0
 30
0.0
 11
179.55018999999999
 21
-166.077314
 31
0.0
  0
LINE
  5
4D0
  8
DETAIL
  6
CONTINUOUS
 62
     5
 10
156.899619
 20
-153.0
 30
0.0
 11
164.44981000000001
 21
-166.077314
 31
0.0
  0
LINE
  5
4D1
  8
DETAIL
  6
CONTINUOUS
 62
     5
 10
164.44981000000001
 20
-166.077314
 30
0.0
 11
179.55018999999999
 21
-166.077314
 31
0.0
  0
ARC
  5
4D2
  8
DETAIL
  6
CONTINUOUS
 62
     5
 10
172.0
 20
-153.0
 30
0.0
 40
17.0
 50
0.0
 51
180.0
  0
LINE
  5
4D3
  8
NOTE
  6
CONTINUOUS
 62
     4
 10
186.10044199999999
 20
-153.0
 30
0.0
 11
157.89955800000001
 21
-153.0
 31
0.0
  0
LINE
  5
4D4
  8
DETAIL
  6
CONTINUOUS
 62
     5
 10
179.55018999999999
 20
-139.922686
 30
0.0
 11
164.44981000000001
 21
-139.922686
 31
0.0
  0
CIRCLE
  5
4D5
  8
DETAIL
  6
CONTINUOUS
 62
     5
 10
172.0
 20
-153.0
 30
0.0
 40
11.100441999999999
  0
LINE
  5
4D6
  8
DETAIL
  6
CONTINUOUS
 62
     5
 10
164.44981000000001
 20
-139.922686
 30
0.0
 11
156.899619
 21
-153.0
 31
0.0
  0
LINE
  5
4D7
  8
DETAIL
  6
CONTINUOUS
 62
     5
 10
187.100381
 20
-153.0
 30
0.0
 11
179.55018999999999
 21
-139.922686
 31
0.0
  0
LINE
  5
4EA
  8
DETAIL
  6
CONTINUOUS
 62
     5
 10
215.0
 20
-153.0
 30
0.0
 11
215.0
 21
-168.19999999999999
 31
0.0
  0
LINE
  5
4EB
  8
DETAIL
  6
CONTINUOUS
 62
     5
 10
249.0
 20
-168.19999999999999
 30
0.0
 11
249.0
 21
-153.0
 31
0.0
  0
LINE
  5
4EC
  8
NOTE
  6
CONTINUOUS
 62
     4
 10
232.0
 20
-138.89955800000001
 30
0.0
 11
232.0
 21
-167.10044199999999
 31
0.0
  0
LINE
  5
4ED
  8
DETAIL
  6
CONTINUOUS
 62
     5
 10
247.100381
 20
-153.0
 30
0.0
 11
239.55018999999999
 21
-166.077314
 31
0.0
  0
LINE
  5
4EE
  8
DETAIL
  6
CONTINUOUS
 62
     5
 10
216.899619
 20
-153.0
 30
0.0
 11
224.44981000000001
 21
-166.077314
 31
0.0
  0
LINE
  5
4EF
  8
DETAIL
  6
CONTINUOUS
 62
     5
 10
224.44981000000001
 20
-166.077314
 30
0.0
 11
239.55018999999999
 21
-166.077314
 31
0.0
  0
ARC
  5
4F0
  8
DETAIL
  6
CONTINUOUS
 62
     5
 10
232.0
 20
-153.0
 30
0.0
 40
17.0
 50
0.0
 51
180.0
  0
LINE
  5
4F1
  8
NOTE
  6
CONTINUOUS
 62
     4
 10
246.10044199999999
 20
-153.0
 30
0.0
 11
217.89955800000001
 21
-153.0
 31
0.0
  0
LINE
  5
4F2
  8
DETAIL
  6
CONTINUOUS
 62
     5
 10
239.55018999999999
 20
-139.922686
 30
0.0
 11
224.44981000000001
 21
-139.922686
 31
0.0
  0
CIRCLE
  5
4F3
  8
DETAIL
  6
CONTINUOUS
 62
     5
 10
232.0
 20
-153.0
 30
0.0
 40
11.100441999999999
  0
LINE
  5
4F4
  8
DETAIL
  6
CONTINUOUS
 62
     5
 10
224.44981000000001
 20
-139.922686
 30
0.0
 11
216.899619
 21
-153.0
 31
0.0
  0
LINE
  5
4F5
  8
DETAIL
  6
CONTINUOUS
 62
     5
 10
247.100381
 20
-153.0
 30
0.0
 11
239.55018999999999
 21
-139.922686
 31
0.0
  0
LINE
  5
508
  8
DETAIL
  6
CONTINUOUS
 62
     5
 10
275.0
 20
-153.0
 30
0.0
 11
275.0
 21
-168.19999999999999
 31
0.0
  0
LINE
  5
509
  8
DETAIL
  6
CONTINUOUS
 62
     5
 10
309.0
 20
-168.80000000000001
 30
0.0
 11
309.0
 21
-153.0
 31
0.0
  0
LINE
  5
50A
  8
NOTE
  6
CONTINUOUS
 62
     4
 10
292.0
 20
-138.89955800000001
 30
0.0
 11
292.0
 21
-167.10044199999999
 31
0.0
  0
LINE
  5
50B
  8
DETAIL
  6
CONTINUOUS
 62
     5
 10
307.10038100000008
 20
-153.0
 30
0.0
 11
299.55018999999999
 21
-166.077314
 31
0.0
  0
LINE
  5
50C
  8
DETAIL
  6
CONTINUOUS
 62
     5
 10
276.89961899999997
 20
-153.0
 30
0.0
 11
284.44981000000001
 21
-166.077314
 31
0.0
  0
LINE
  5
50D
  8
DETAIL
  6
CONTINUOUS
 62
     5
 10
284.44981000000001
 20
-166.077314
 30
0.0
 11
299.55018999999999
 21
-166.077314
 31
0.0
  0
ARC
  5
50E
  8
DETAIL
  6
CONTINUOUS
 62
     5
 10
292.0
 20
-153.0
 30
0.0
 40
17.0
 50
0.0
 51
180.0
  0
LINE
  5
50F
  8
NOTE
  6
CONTINUOUS
 62
     4
 10
306.10044199999999
 20
-153.0
 30
0.0
 11
277.89955800000001
 21
-153.0
 31
0.0
  0
LINE
  5
510
  8
DETAIL
  6
CONTINUOUS
 62
     5
 10
299.55018999999999
 20
-139.922686
 30
0.0
 11
284.44981000000001
 21
-139.922686
 31
0.0
  0
CIRCLE
  5
511
  8
DETAIL
  6
CONTINUOUS
 62
     5
 10
292.0
 20
-153.0
 30
0.0
 40
11.100441999999999
  0
LINE
  5
512
  8
DETAIL
  6
CONTINUOUS
 62
     5
 10
284.44981000000001
 20
-139.922686
 30
0.0
 11
276.89961899999997
 21
-153.0
 31
0.0
  0
LINE
  5
513
  8
DETAIL
  6
CONTINUOUS
 62
     5
 10
307.10038100000008
 20
-153.0
 30
0.0
 11
299.55018999999999
 21
-139.922686
 31
0.0
  0
LINE
  5
534
  8
DETAIL
  6
CONTINUOUS
 62
     5
 10
218.0
 20
-23.0
 30
0.0
 11
218.0
 21
-42.599999999999973
 31
0.0
  0
LINE
  5
535
  8
DETAIL
  6
CONTINUOUS
 62
     5
 10
246.0
 20
-23.0
 30
0.0
 11
246.0
 21
-42.599999999999973
 31
0.0
  0
LINE
  5
536
  8
DETAIL
  6
CONTINUOUS
 62
     5
 10
242.97053199999999
 20
-23.0
 30
0.0
 11
237.485266
 21
-32.500759000000009
 31
0.0
  0
LINE
  5
537
  8
DETAIL
  6
CONTINUOUS
 62
     5
 10
226.514734
 20
-32.500759000000009
 30
0.0
 11
221.02946800000001
 21
-23.0
 31
0.0
  0
CIRCLE
  5
538
  8
DETAIL
  6
CONTINUOUS
 62
     5
 10
232.0
 20
-23.0
 30
0.0
 40
8.0003159999999998
  0
LINE
  5
539
  8
NOTE
  6
CONTINUOUS
 62
     4
 10
232.0
 20
-34.000315999999998
 30
0.0
 11
232.0
 21
-11.999684
 31
0.0
  0
LINE
  5
53A
  8
DETAIL
  6
CONTINUOUS
 62
     5
 10
218.0
 20
-37.0
 30
0.0
 11
246.0
 21
-37.0
 31
0.0
  0
LINE
  5
53B
  8
DETAIL
  6
CONTINUOUS
 62
     5
 10
237.485266
 20
-32.500759000000009
 30
0.0
 11
226.514734
 21
-32.500759000000009
 31
0.0
  0
ARC
  5
53C
  8
DETAIL
  6
CONTINUOUS
 62
     5
 10
232.0
 20
-23.0
 30
0.0
 40
14.0
 50
0.0
 51
180.0
  0
LINE
  5
53D
  8
DETAIL
  6
CONTINUOUS
 62
     5
 10
221.02946800000001
 20
-23.0
 30
0.0
 11
226.514734
 21
-13.499241
 31
0.0
  0
LINE
  5
53E
  8
DETAIL
  6
CONTINUOUS
 62
     5
 10
226.514734
 20
-13.499241
 30
0.0
 11
237.485266
 21
-13.499241
 31
0.0
  0
LINE
  5
53F
  8
NOTE
  6
CONTINUOUS
 62
     4
 10
243.000316
 20
-23.0
 30
0.0
 11
220.999684
 21
-23.0
 31
0.0
  0
LINE
  5
540
  8
DETAIL
  6
CONTINUOUS
 62
     5
 10
237.485266
 20
-13.499241
 30
0.0
 11
242.97053199999999
 21
-23.0
 31
0.0
  0
POINT
  5
544
  8
DEFPOINTS
  6
CONTINUOUS
 62
     7
 10
232.0
 20
-23.0
 30
0.0
  0
LINE
  5
559
  8
DETAIL
  6
CONTINUOUS
 62
     5
 10
158.0
 20
-23.0
 30
0.0
 11
158.0
 21
-42.599999999999973
 31
0.0
  0
LINE
  5
55A
  8
DETAIL
  6
CONTINUOUS
 62
     5
 10
186.0
 20
-23.0
 30
0.0
 11
186.0
 21
-42.599999999999973
 31
0.0
  0
LINE
  5
55B
  8
DETAIL
  6
CONTINUOUS
 62
     5
 10
182.97053199999999
 20
-23.0
 30
0.0
 11
177.485266
 21
-32.500759000000009
 31
0.0
  0
LINE
  5
55C
  8
DETAIL
  6
CONTINUOUS
 62
     5
 10
166.514734
 20
-32.500759000000009
 30
0.0
 11
161.02946800000001
 21
-23.0
 31
0.0
  0
CIRCLE
  5
55D
  8
DETAIL
  6
CONTINUOUS
 62
     5
 10
172.0
 20
-23.0
 30
0.0
 40
8.0003159999999998
  0
LINE
  5
55E
  8
NOTE
  6
CONTINUOUS
 62
     4
 10
172.0
 20
-34.000315999999998
 30
0.0
 11
172.0
 21
-11.999684
 31
0.0
  0
LINE
  5
55F
  8
DETAIL
  6
CONTINUOUS
 62
     5
 10
158.0
 20
-37.0
 30
0.0
 11
186.0
 21
-37.0
 31
0.0
  0
LINE
  5
560
  8
DETAIL
  6
CONTINUOUS
 62
     5
 10
177.485266
 20
-32.500759000000009
 30
0.0
 11
166.514734
 21
-32.500759000000009
 31
0.0
  0
ARC
  5
561
  8
DETAIL
  6
CONTINUOUS
 62
     5
 10
172.0
 20
-23.0
 30
0.0
 40
14.0
 50
0.0
 51
180.0
  0
LINE
  5
562
  8
DETAIL
  6
CONTINUOUS
 62
     5
 10
161.02946800000001
 20
-23.0
 30
0.0
 11
166.514734
 21
-13.499241
 31
0.0
  0
LINE
  5
563
  8
DETAIL
  6
CONTINUOUS
 62
     5
 10
166.514734
 20
-13.499241
 30
0.0
 11
177.485266
 21
-13.499241
 31
0.0
  0
LINE
  5
564
  8
NOTE
  6
CONTINUOUS
 62
     4
 10
183.000316
 20
-23.0
 30
0.0
 11
160.999684
 21
-23.0
 31
0.0
  0
LINE
  5
565
  8
DETAIL
  6
CONTINUOUS
 62
     5
 10
177.485266
 20
-13.499241
 30
0.0
 11
182.97053199999999
 21
-23.0
 31
0.0
  0
POINT
  5
566
  8
DEFPOINTS
  6
CONTINUOUS
 62
     7
 10
172.0
 20
-23.0
 30
0.0
  0
LINE
  5
57B
  8
DETAIL
  6
CONTINUOUS
 62
     5
 10
98.0
 20
-23.0
 30
0.0
 11
98.0
 21
-42.599999999999973
 31
0.0
  0
LINE
  5
57C
  8
DETAIL
  6
CONTINUOUS
 62
     5
 10
126.0
 20
-23.0
 30
0.0
 11
126.0
 21
-42.599999999999973
 31
0.0
  0
LINE
  5
57D
  8
DETAIL
  6
CONTINUOUS
 62
     5
 10
122.97053200000001
 20
-23.0
 30
0.0
 11
117.485266
 21
-32.500759000000009
 31
0.0
  0
LINE
  5
57E
  8
DETAIL
  6
CONTINUOUS
 62
     5
 10
106.5147339999999
 20
-32.500759000000009
 30
0.0
 11
101.02946799999999
 21
-23.0
 31
0.0
  0
CIRCLE
  5
57F
  8
DETAIL
  6
CONTINUOUS
 62
     5
 10
112.0
 20
-23.0
 30
0.0
 40
8.0003159999999998
  0
LINE
  5
580
  8
NOTE
  6
CONTINUOUS
 62
     4
 10
112.0
 20
-34.000315999999998
 30
0.0
 11
112.0
 21
-11.999684
 31
0.0
  0
LINE
  5
581
  8
DETAIL
  6
CONTINUOUS
 62
     5
 10
98.0
 20
-37.0
 30
0.0
 11
126.0
 21
-37.0
 31
0.0
  0
LINE
  5
582
  8
DETAIL
  6
CONTINUOUS
 62
     5
 10
117.485266
 20
-32.500759000000009
 30
0.0
 11
106.5147339999999
 21
-32.500759000000009
 31
0.0
  0
ARC
  5
583
  8
DETAIL
  6
CONTINUOUS
 62
     5
 10
112.0
 20
-23.0
 30
0.0
 40
14.0
 50
0.0
 51
180.0
  0
LINE
  5
584
  8
DETAIL
  6
CONTINUOUS
 62
     5
 10
101.02946799999999
 20
-23.0
 30
0.0
 11
106.5147339999999
 21
-13.499241
 31
0.0
  0
LINE
  5
585
  8
DETAIL
  6
CONTINUOUS
 62
     5
 10
106.5147339999999
 20
-13.499241
 30
0.0
 11
117.485266
 21
-13.499241
 31
0.0
  0
LINE
  5
586
  8
NOTE
  6
CONTINUOUS
 62
     4
 10
123.000316
 20
-23.0
 30
0.0
 11
100.999684
 21
-23.0
 31
0.0
  0
LINE
  5
587
  8
DETAIL
  6
CONTINUOUS
 62
     5
 10
117.485266
 20
-13.499241
 30
0.0
 11
122.97053200000001
 21
-23.0
 31
0.0
  0
POINT
  5
588
  8
DEFPOINTS
  6
CONTINUOUS
 62
     7
 10
112.0
 20
-23.0
 30
0.0
  0
LINE
  5
59D
  8
DETAIL
  6
CONTINUOUS
 62
     5
 10
38.0
 20
-23.0
 30
0.0
 11
38.0
 21
-42.599999999999973
 31
0.0
  0
LINE
  5
59E
  8
DETAIL
  6
CONTINUOUS
 62
     5
 10
66.0
 20
-23.0
 30
0.0
 11
66.0
 21
-42.599999999999973
 31
0.0
  0
LINE
  5
59F
  8
DETAIL
  6
CONTINUOUS
 62
     5
 10
62.970531999999992
 20
-23.0
 30
0.0
 11
57.48526600000001
 21
-32.500759000000009
 31
0.0
  0
LINE
  5
5A0
  8
DETAIL
  6
CONTINUOUS
 62
     5
 10
46.514733999999947
 20
-32.500759000000009
 30
0.0
 11
41.029468000000001
 21
-23.0
 31
0.0
  0
CIRCLE
  5
5A1
  8
DETAIL
  6
CONTINUOUS
 62
     5
 10
52.0
 20
-23.0
 30
0.0
 40
8.0003159999999998
  0
LINE
  5
5A2
  8
NOTE
  6
CONTINUOUS
 62
     4
 10
52.0
 20
-34.000315999999998
 30
0.0
 11
52.0
 21
-11.999684
 31
0.0
  0
LINE
  5
5A3
  8
DETAIL
  6
CONTINUOUS
 62
     5
 10
38.0
 20
-37.0
 30
0.0
 11
66.0
 21
-37.0
 31
0.0
  0
LINE
  5
5A4
  8
DETAIL
  6
CONTINUOUS
 62
     5
 10
57.48526600000001
 20
-32.500759000000009
 30
0.0
 11
46.514733999999947
 21
-32.500759000000009
 31
0.0
  0
ARC
  5
5A5
  8
DETAIL
  6
CONTINUOUS
 62
     5
 10
52.0
 20
-23.0
 30
0.0
 40
14.0
 50
0.0
 51
180.0
  0
LINE
  5
5A6
  8
DETAIL
  6
CONTINUOUS
 62
     5
 10
41.029468000000001
 20
-23.0
 30
0.0
 11
46.514733999999947
 21
-13.499241
 31
0.0
  0
LINE
  5
5A7
  8
DETAIL
  6
CONTINUOUS
 62
     5
 10
46.514733999999947
 20
-13.499241
 30
0.0
 11
57.48526600000001
 21
-13.499241
 31
0.0
  0
LINE
  5
5A8
  8
NOTE
  6
CONTINUOUS
 62
     4
 10
63.000315999999998
 20
-23.0
 30
0.0
 11
40.999684000000002
 21
-23.0
 31
0.0
  0
LINE
  5
5A9
  8
DETAIL
  6
CONTINUOUS
 62
     5
 10
57.48526600000001
 20
-13.499241
 30
0.0
 11
62.970531999999992
 21
-23.0
 31
0.0
  0
POINT
  5
5AA
  8
DEFPOINTS
  6
CONTINUOUS
 62
     7
 10
52.0
 20
-23.0
 30
0.0
  0
LINE
  5
5BF
  8
DETAIL
  6
CONTINUOUS
 62
     5
 10
-22.0
 20
-23.0
 30
0.0
 11
-22.0
 21
-42.599999999999973
 31
0.0
  0
LINE
  5
5C0
  8
DETAIL
  6
CONTINUOUS
 62
     5
 10
6.0
 20
-23.0
 30
0.0
 11
6.0
 21
-42.599999999999973
 31
0.0
  0
LINE
  5
5C1
  8
DETAIL
  6
CONTINUOUS
 62
     5
 10
2.9705319999999911
 20
-23.0
 30
0.0
 11
-2.514733999999974
 21
-32.500759000000009
 31
0.0
  0
LINE
  5
5C2
  8
DETAIL
  6
CONTINUOUS
 62
     5
 10
-13.485266000000021
 20
-32.500759000000009
 30
0.0
 11
-18.970531999999992
 21
-23.0
 31
0.0
  0
CIRCLE
  5
5C3
  8
DETAIL
  6
CONTINUOUS
 62
     5
 10
-8.0
 20
-23.0
 30
0.0
 40
8.0003159999999998
  0
LINE
  5
5C4
  8
NOTE
  6
CONTINUOUS
 62
     4
 10
-8.0
 20
-34.000315999999998
 30
0.0
 11
-8.0
 21
-11.999684
 31
0.0
  0
LINE
  5
5C5
  8
DETAIL
  6
CONTINUOUS
 62
     5
 10
-22.0
 20
-37.0
 30
0.0
 11
6.0
 21
-37.0
 31
0.0
  0
LINE
  5
5C6
  8
DETAIL
  6
CONTINUOUS
 62
     5
 10
-2.514733999999974
 20
-32.500759000000009
 30
0.0
 11
-13.485266000000021
 21
-32.500759000000009
 31
0.0
  0
ARC
  5
5C7
  8
DETAIL
  6
CONTINUOUS
 62
     5
 10
-8.0
 20
-23.0
 30
0.0
 40
14.0
 50
0.0
 51
180.0
  0
LINE
  5
5C8
  8
DETAIL
  6
CONTINUOUS
 62
     5
 10
-18.970531999999992
 20
-23.0
 30
0.0
 11
-13.485266000000021
 21
-13.499241
 31
0.0
  0
LINE
  5
5C9
  8
DETAIL
  6
CONTINUOUS
 62
     5
 10
-13.485266000000021
 20
-13.499241
 30
0.0
 11
-2.514733999999974
 21
-13.499241
 31
0.0
  0
LINE
  5
5CA
  8
NOTE
  6
CONTINUOUS
 62
     4
 10
3.0003159999999962
 20
-23.0
 30
0.0
 11
-19.000316000000002
 21
-23.0
 31
0.0
  0
LINE
  5
5CB
  8
DETAIL
  6
CONTINUOUS
 62
     5
 10
-2.514733999999974
 20
-13.499241
 30
0.0
 11
2.9705319999999911
 21
-23.0
 31
0.0
  0
POINT
  5
5CC
  8
DEFPOINTS
  6
CONTINUOUS
 62
     7
 10
-8.0
 20
-23.0
 30
0.0
  0
LINE
  5
5E1
  8
DETAIL
  6
CONTINUOUS
 62
     5
 10
-82.0
 20
-23.0
 30
0.0
 11
-82.0
 21
-42.599999999999973
 31
0.0
  0
LINE
  5
5E2
  8
DETAIL
  6
CONTINUOUS
 62
     5
 10
-54.0
 20
-23.0
 30
0.0
 11
-54.0
 21
-42.599999999999973
 31
0.0
  0
LINE
  5
5E3
  8
DETAIL
  6
CONTINUOUS
 62
     5
 10
-57.029468000000008
 20
-23.0
 30
0.0
 11
-62.514733999999983
 21
-32.500759000000009
 31
0.0
  0
LINE
  5
5E4
  8
DETAIL
  6
CONTINUOUS
 62
     5
 10
-73.485266000000024
 20
-32.500759000000009
 30
0.0
 11
-78.970531999999977
 21
-23.0
 31
0.0
  0
CIRCLE
  5
5E5
  8
DETAIL
  6
CONTINUOUS
 62
     5
 10
-68.0
 20
-23.0
 30
0.0
 40
8.0003159999999998
  0
LINE
  5
5E6
  8
NOTE
  6
CONTINUOUS
 62
     4
 10
-68.0
 20
-34.000315999999998
 30
0.0
 11
-68.0
 21
-11.999684
 31
0.0
  0
LINE
  5
5E7
  8
DETAIL
  6
CONTINUOUS
 62
     5
 10
-82.0
 20
-37.0
 30
0.0
 11
-54.0
 21
-37.0
 31
0.0
  0
LINE
  5
5E8
  8
DETAIL
  6
CONTINUOUS
 62
     5
 10
-62.514733999999983
 20
-32.500759000000009
 30
0.0
 11
-73.485266000000024
 21
-32.500759000000009
 31
0.0
  0
ARC
  5
5E9
  8
DETAIL
  6
CONTINUOUS
 62
     5
 10
-68.0
 20
-23.0
 30
0.0
 40
14.0
 50
0.0
 51
180.0
  0
LINE
  5
5EA
  8
DETAIL
  6
CONTINUOUS
 62
     5
 10
-78.970531999999977
 20
-23.0
 30
0.0
 11
-73.485266000000024
 21
-13.499241
 31
0.0
  0
LINE
  5
5EB
  8
DETAIL
  6
CONTINUOUS
 62
     5
 10
-73.485266000000024
 20
-13.499241
 30
0.0
 11
-62.514733999999983
 21
-13.499241
 31
0.0
  0
LINE
  5
5EC
  8
NOTE
  6
CONTINUOUS
 62
     4
 10
-56.999684000000002
 20
-23.0
 30
0.0
 11
-79.000315999999998
 21
-23.0
 31
0.0
  0
LINE
  5
5ED
  8
DETAIL
  6
CONTINUOUS
 62
     5
 10
-62.514733999999983
 20
-13.499241
 30
0.0
 11
-57.029468000000008
 21
-23.0
 31
0.0
  0
POINT
  5
5EE
  8
DEFPOINTS
  6
CONTINUOUS
 62
     7
 10
-68.0
 20
-23.0
 30
0.0
  0
LINE
  5
603
  8
DETAIL
  6
CONTINUOUS
 62
     5
 10
-142.0
 20
-23.0
 30
0.0
 11
-142.0
 21
-42.599999999999973
 31
0.0
  0
LINE
  5
604
  8
DETAIL
  6
CONTINUOUS
 62
     5
 10
-114.0
 20
-23.0
 30
0.0
 11
-114.0
 21
-42.599999999999973
 31
0.0
  0
LINE
  5
605
  8
DETAIL
  6
CONTINUOUS
 62
     5
 10
-117.02946799999999
 20
-23.0
 30
0.0
 11
-122.5147339999999
 21
-32.500759000000009
 31
0.0
  0
LINE
  5
606
  8
DETAIL
  6
CONTINUOUS
 62
     5
 10
-133.485266
 20
-32.500759000000009
 30
0.0
 11
-138.97053199999999
 21
-23.0
 31
0.0
  0
CIRCLE
  5
607
  8
DETAIL
  6
CONTINUOUS
 62
     5
 10
-128.0
 20
-23.0
 30
0.0
 40
8.0003159999999998
  0
LINE
  5
608
  8
NOTE
  6
CONTINUOUS
 62
     4
 10
-128.0
 20
-34.000315999999998
 30
0.0
 11
-128.0
 21
-11.999684
 31
0.0
  0
LINE
  5
609
  8
DETAIL
  6
CONTINUOUS
 62
     5
 10
-142.0
 20
-37.0
 30
0.0
 11
-114.0
 21
-37.0
 31
0.0
  0
LINE
  5
60A
  8
DETAIL
  6
CONTINUOUS
 62
     5
 10
-122.5147339999999
 20
-32.500759000000009
 30
0.0
 11
-133.485266
 21
-32.500759000000009
 31
0.0
  0
ARC
  5
60B
  8
DETAIL
  6
CONTINUOUS
 62
     5
 10
-128.0
 20
-23.0
 30
0.0
 40
14.0
 50
0.0
 51
180.0
  0
LINE
  5
60C
  8
DETAIL
  6
CONTINUOUS
 62
     5
 10
-138.97053199999999
 20
-23.0
 30
0.0
 11
-133.485266
 21
-13.499241
 31
0.0
  0
LINE
  5
60D
  8
DETAIL
  6
CONTINUOUS
 62
     5
 10
-133.485266
 20
-13.499241
 30
0.0
 11
-122.5147339999999
 21
-13.499241
 31
0.0
  0
LINE
  5
60E
  8
NOTE
  6
CONTINUOUS
 62
     4
 10
-116.999684
 20
-23.0
 30
0.0
 11
-139.000316
 21
-23.0
 31
0.0
  0
LINE
  5
60F
  8
DETAIL
  6
CONTINUOUS
 62
     5
 10
-122.5147339999999
 20
-13.499241
 30
0.0
 11
-117.02946799999999
 21
-23.0
 31
0.0
  0
POINT
  5
610
  8
DEFPOINTS
  6
CONTINUOUS
 62
     7
 10
-128.0
 20
-23.0
 30
0.0
  0
LINE
  5
625
  8
DETAIL
  6
CONTINUOUS
 62
     5
 10
-202.0
 20
-23.0
 30
0.0
 11
-202.0
 21
-42.599999999999973
 31
0.0
  0
LINE
  5
626
  8
DETAIL
  6
CONTINUOUS
 62
     5
 10
-174.0
 20
-23.0
 30
0.0
 11
-174.0
 21
-42.599999999999973
 31
0.0
  0
LINE
  5
627
  8
DETAIL
  6
CONTINUOUS
 62
     5
 10
-177.02946800000001
 20
-23.0
 30
0.0
 11
-182.514734
 21
-32.500759000000009
 31
0.0
  0
LINE
  5
628
  8
DETAIL
  6
CONTINUOUS
 62
     5
 10
-193.485266
 20
-32.500759000000009
 30
0.0
 11
-198.97053199999999
 21
-23.0
 31
0.0
  0
CIRCLE
  5
629
  8
DETAIL
  6
CONTINUOUS
 62
     5
 10
-188.0
 20
-23.0
 30
0.0
 40
8.0003159999999998
  0
LINE
  5
62A
  8
NOTE
  6
CONTINUOUS
 62
     4
 10
-188.0
 20
-34.000315999999998
 30
0.0
 11
-188.0
 21
-11.999684
 31
0.0
  0
LINE
  5
62B
  8
DETAIL
  6
CONTINUOUS
 62
     5
 10
-202.0
 20
-37.0
 30
0.0
 11
-174.0
 21
-37.0
 31
0.0
  0
LINE
  5
62C
  8
DETAIL
  6
CONTINUOUS
 62
     5
 10
-182.514734
 20
-32.500759000000009
 30
0.0
 11
-193.485266
 21
-32.500759000000009
 31
0.0
  0
ARC
  5
62D
  8
DETAIL
  6
CONTINUOUS
 62
     5
 10
-188.0
 20
-23.0
 30
0.0
 40
14.0
 50
0.0
 51
180.0
  0
LINE
  5
62E
  8
DETAIL
  6
CONTINUOUS
 62
     5
 10
-198.97053199999999
 20
-23.0
 30
0.0
 11
-193.485266
 21
-13.499241
 31
0.0
  0
LINE
  5
62F
  8
DETAIL
  6
CONTINUOUS
 62
     5
 10
-193.485266
 20
-13.499241
 30
0.0
 11
-182.514734
 21
-13.499241
 31
0.0
  0
LINE
  5
630
  8
NOTE
  6
CONTINUOUS
 62
     4
 10
-176.999684
 20
-23.0
 30
0.0
 11
-199.000316
 21
-23.0
 31
0.0
  0
LINE
  5
631
  8
DETAIL
  6
CONTINUOUS
 62
     5
 10
-182.514734
 20
-13.499241
 30
0.0
 11
-177.02946800000001
 21
-23.0
 31
0.0
  0
POINT
  5
632
  8
DEFPOINTS
  6
CONTINUOUS
 62
     7
 10
-188.0
 20
-23.0
 30
0.0
  0
LINE
  5
647
  8
DETAIL
  6
CONTINUOUS
 62
     5
 10
-262.0
 20
-23.0
 30
0.0
 11
-262.0
 21
-42.599999999999973
 31
0.0
  0
LINE
  5
648
  8
DETAIL
  6
CONTINUOUS
 62
     5
 10
-234.0
 20
-23.0
 30
0.0
 11
-234.0
 21
-42.599999999999973
 31
0.0
  0
LINE
  5
649
  8
DETAIL
  6
CONTINUOUS
 62
     5
 10
-237.02946800000001
 20
-23.0
 30
0.0
 11
-242.514734
 21
-32.500759000000009
 31
0.0
  0
LINE
  5
64A
  8
DETAIL
  6
CONTINUOUS
 62
     5
 10
-253.485266
 20
-32.500759000000009
 30
0.0
 11
-258.97053199999999
 21
-23.0
 31
0.0
  0
CIRCLE
  5
64B
  8
DETAIL
  6
CONTINUOUS
 62
     5
 10
-248.0
 20
-23.0
 30
0.0
 40
8.0003159999999998
  0
LINE
  5
64C
  8
NOTE
  6
CONTINUOUS
 62
     4
 10
-248.0
 20
-34.000315999999998
 30
0.0
 11
-248.0
 21
-11.999684
 31
0.0
  0
LINE
  5
64D
  8
DETAIL
  6
CONTINUOUS
 62
     5
 10
-262.0
 20
-37.0
 30
0.0
 11
-234.0
 21
-37.0
 31
0.0
  0
LINE
  5
64E
  8
DETAIL
  6
CONTINUOUS
 62
     5
 10
-242.514734
 20
-32.500759000000009
 30
0.0
 11
-253.485266
 21
-32.500759000000009
 31
0.0
  0
ARC
  5
64F
  8
DETAIL
  6
CONTINUOUS
 62
     5
 10
-248.0
 20
-23.0
 30
0.0
 40
14.0
 50
0.0
 51
180.0
  0
LINE
  5
650
  8
DETAIL
  6
CONTINUOUS
 62
     5
 10
-258.97053199999999
 20
-23.0
 30
0.0
 11
-253.485266
 21
-13.499241
 31
0.0
  0
LINE
  5
651
  8
DETAIL
  6
CONTINUOUS
 62
     5
 10
-253.485266
 20
-13.499241
 30
0.0
 11
-242.514734
 21
-13.499241
 31
0.0
  0
LINE
  5
652
  8
NOTE
  6
CONTINUOUS
 62
     4
 10
-236.999684
 20
-23.0
 30
0.0
 11
-259.000316
 21
-23.0
 31
0.0
  0
LINE
  5
653
  8
DETAIL
  6
CONTINUOUS
 62
     5
 10
-242.514734
 20
-13.499241
 30
0.0
 11
-237.02946800000001
 21
-23.0
 31
0.0
  0
POINT
  5
654
  8
DEFPOINTS
  6
CONTINUOUS
 62
     7
 10
-248.0
 20
-23.0
 30
0.0
  0
TEXT
  5
757
  8
NOTE
  6
CONTINUOUS
 62
     4
 10
-1682.854151684726
 20
608.31699703761842
 30
0.0
 40
64.0
  1
室外ユニット側配管接続口（低圧）
 41
0.9
 72
     2
 11
-623.01415168472568
 21
608.31699703761842
 31
0.0
  0
TEXT
  5
758
  8
NOTE
  6
CONTINUOUS
 62
     4
 10
-1664.7518335778591
 20
513.10920903761826
 30
0.0
 40
50.0
  1
224形：φ25.4（付属配管を使用）
 41
0.9
  0
TEXT
  5
759
  8
NOTE
  6
CONTINUOUS
 62
     4
 10
-1666.6536214527871
 20
442.08008503761829
 30
0.0
 40
50.0
  1
280.335.400形：φ28.58（付属配管を使用）
 41
0.9
  0
TEXT
  5
75A
  8
NOTE
  6
CONTINUOUS
 62
     4
 10
-2225.5028833800379
 20
-413.96580046907508
 30
0.0
 40
64.0
  1
室外ユニット側配管接続口（高圧）
 41
0.9
 72
     2
 11
-1165.662883380038
 21
-413.96580046907508
 31
0.0
  0
TEXT
  5
75B
  8
NOTE
  6
CONTINUOUS
 62
     4
 10
-2199.8398367119298
 20
-498.97060970050347
 30
0.0
 40
50.0
  1
224.280.335.400形：φ19.05
 41
0.9
  0
LINE
  5
75C
  8
NOTE
  6
CONTINUOUS
 62
     4
 10
-811.12408243624634
 20
-433.96580046907542
 30
0.0
 11
-2225.5028833800379
 21
-433.96580046907542
 31
0.0
  0
LINE
  5
75D
  8
NOTE
  6
CONTINUOUS
 62
     4
 10
-446.05391941338161
 20
588.31699703761842
 30
0.0
 11
-1684.627906598341
 21
588.31699703761842
 31
0.0
  0
ENDSEC
  0
EOF
