  0
SECTION
  2
HEADER
  9
$ACADVER
  1
AC1009
  9
$INSBASE
 10
0.0
 20
0.0
 30
0.0
  9
$EXTMIN
 10
-2397.1865764922081
 20
-1024.9524342043001
 30
-0.0015258207003583
  9
$EXTMAX
 10
2534.404708258397
 20
778.41446325846482
 30
0.0000000349246037
  9
$LIMMIN
 10
-3837.0001750000001
 20
-3000.109539
  9
$LIMMAX
 10
7319.2568810000002
 20
4045.2230030000001
  9
$ORTHOMODE
 70
     0
  9
$REGENMODE
 70
     1
  9
$FILLMODE
 70
     1
  9
$QTEXTMODE
 70
     0
  9
$MIRRTEXT
 70
     0
  9
$DRAGMODE
 70
     2
  9
$LTSCALE
 40
20.0
  9
$OSMODE
 70
   959
  9
$ATTMODE
 70
     1
  9
$TEXTSIZE
 40
64.0
  9
$TRACEWID
 40
0.05
  9
$TEXTSTYLE
  7
STANDARD
  9
$CLAYER
  8
SYMBOLLINE
  9
$CELTYPE
  6
CONTINUOUS
  9
$CECOLOR
 62
     7
  9
$DIMSCALE
 40
1.0
  9
$DIMASZ
 40
10.0
  9
$DIMEXO
 40
20.0
  9
$DIMDLI
 40
200.0
  9
$DIMRND
 40
0.0
  9
$DIMDLE
 40
0.0
  9
$DIMEXE
 40
30.0
  9
$DIMTP
 40
0.0
  9
$DIMTM
 40
0.0
  9
$DIMTXT
 40
64.0
  9
$DIMCEN
 40
0.0
  9
$DIMTSZ
 40
0.0
  9
$DIMTOL
 70
     0
  9
$DIMLIM
 70
     0
  9
$DIMTIH
 70
     0
  9
$DIMTOH
 70
     0
  9
$DIMSE1
 70
     0
  9
$DIMSE2
 70
     0
  9
$DIMTAD
 70
     1
  9
$DIMZIN
 70
     8
  9
$DIMBLK
  1

  9
$DIMASO
 70
     1
  9
$DIMSHO
 70
     0
  9
$DIMPOST
  1

  9
$DIMAPOST
  1

  9
$DIMALT
 70
     0
  9
$DIMALTD
 70
     2
  9
$DIMALTF
 40
25.399999999999999
  9
$DIMLFAC
 40
1.0
  9
$DIMTOFL
 70
     1
  9
$DIMTVP
 40
0.0
  9
$DIMTIX
 70
     1
  9
$DIMSOXD
 70
     0
  9
$DIMSAH
 70
     1
  9
$DIMBLK1
  1
DOTBLANK
  9
$DIMBLK2
  1
DOTBLANK
  9
$DIMSTYLE
  2
STANDARD
  9
$DIMCLRD
 70
     0
  9
$DIMCLRE
 70
     0
  9
$DIMCLRT
 70
     0
  9
$DIMTFAC
 40
1.0
  9
$DIMGAP
 40
0.09
  9
$LUNITS
 70
     2
  9
$LUPREC
 70
     4
  9
$SKETCHINC
 40
0.1
  9
$FILLETRAD
 40
10.0
  9
$AUNITS
 70
     1
  9
$AUPREC
 70
     3
  9
$MENU
  1
ACAD
  9
$ELEVATION
 40
0.0
  9
$PELEVATION
 40
0.0
  9
$THICKNESS
 40
0.0
  9
$LIMCHECK
 70
     0
  9
$BLIPMODE
 70
     0
  9
$CHAMFERA
 40
0.0
  9
$CHAMFERB
 40
0.0
  9
$SKPOLY
 70
     0
  9
$TDCREATE
 40
2450330.4399309959
  9
$TDUPDATE
 40
2455470.5028528702
  9
$TDINDWG
 40
1.4170944213000001
  9
$TDUSRTIMER
 40
1.4170942476999999
  9
$USRTIMER
 70
     1
  9
$ANGBASE
 50
0.0
  9
$ANGDIR
 70
     0
  9
$PDMODE
 70
     3
  9
$PDSIZE
 40
-2.0
  9
$PLINEWID
 40
0.0
  9
$COORDS
 70
     0
  9
$SPLFRAME
 70
     0
  9
$SPLINETYPE
 70
     6
  9
$SPLINESEGS
 70
     8
  9
$ATTDIA
 70
     0
  9
$ATTREQ
 70
     1
  9
$HANDLING
 70
     1
  9
$HANDSEED
  5
50E
  9
$SURFTAB1
 70
     6
  9
$SURFTAB2
 70
     6
  9
$SURFTYPE
 70
     6
  9
$SURFU
 70
     6
  9
$SURFV
 70
     6
  9
$UCSNAME
  2

  9
$UCSORG
 10
0.0
 20
0.0
 30
0.0
  9
$UCSXDIR
 10
1.0
 20
0.0
 30
0.0
  9
$UCSYDIR
 10
0.0
 20
1.0
 30
0.0
  9
$PUCSNAME
  2

  9
$PUCSORG
 10
0.0
 20
0.0
 30
0.0
  9
$PUCSXDIR
 10
1.0
 20
0.0
 30
0.0
  9
$PUCSYDIR
 10
0.0
 20
1.0
 30
0.0
  9
$USERI1
 70
     0
  9
$USERI2
 70
     0
  9
$USERI3
 70
     0
  9
$USERI4
 70
     0
  9
$USERI5
 70
     0
  9
$USERR1
 40
20.0
  9
$USERR2
 40
0.0
  9
$USERR3
 40
0.0
  9
$USERR4
 40
0.0
  9
$USERR5
 40
0.0
  9
$WORLDVIEW
 70
     1
  9
$SHADEDGE
 70
     3
  9
$SHADEDIF
 70
    70
  9
$TILEMODE
 70
     1
  9
$MAXACTVP
 70
    48
  9
$PLIMCHECK
 70
     0
  9
$PEXTMIN
 10
1.0000000000000000E+020
 20
1.0000000000000000E+020
 30
1.0000000000000000E+020
  9
$PEXTMAX
 10
-1.0000000000000000E+020
 20
-1.0000000000000000E+020
 30
-1.0000000000000000E+020
  9
$PLIMMIN
 10
0.0
 20
0.0
  9
$PLIMMAX
 10
12.0
 20
9.0
  9
$UNITMODE
 70
     0
  9
$VISRETAIN
 70
     1
  9
$PLINEGEN
 70
     0
  9
$PSLTSCALE
 70
     1
  0
ENDSEC
  0
SECTION
  2
TABLES
  0
TABLE
  2
VPORT
 70
     1
  0
VPORT
  2
*ACTIVE
 70
     0
 10
0.0
 20
0.0
 11
1.0
 21
1.0
 12
1741.1283530000001
 22
522.55673200000001
 13
0.0
 23
0.0
 14
50.0
 24
50.0
 15
100.0
 25
100.0
 16
0.0
 26
0.0
 36
1.0
 17
0.0
 27
0.0
 37
0.0
 40
7168.3883690244638
 41
1.5639386189258311
 42
50.0
 43
0.0
 44
0.0
 50
0.0
 51
0.0
 71
     0
 72
  1000
 73
     1
 74
     0
 75
     0
 76
     0
 77
     0
 78
     0
  0
ENDTAB
  0
TABLE
  2
LTYPE
 70
     3
  0
LTYPE
  2
CONTINUOUS
 70
     0
  3
実線
 72
    65
 73
     0
 40
0.0
  0
LTYPE
  2
DASHDOT
 70
     0
  3
____ _ ____ _ ____ _ ____ _ ____ _ ____ _ ____
 72
    65
 73
     4
 40
5.5
 49
4.0
 49
-0.6
 49
0.3
 49
-0.6
  0
ENDTAB
  0
TABLE
  2
LAYER
 70
    12
  0
LAYER
  2
0
 70
     0
 62
     7
  6
CONTINUOUS
  0
LAYER
  2
SIZE
 70
     0
 62
    30
  6
CONTINUOUS
  0
LAYER
  2
OUTLINE
 70
     0
 62
     3
  6
CONTINUOUS
  0
LAYER
  2
DETAIL
 70
     0
 62
     5
  6
CONTINUOUS
  0
LAYER
  2
BASIS
 70
     0
 62
     6
  6
DASHDOT
  0
LAYER
  2
NOTE
 70
     0
 62
     4
  6
CONTINUOUS
  0
LAYER
  2
ARRANGE
 70
     0
 62
     1
  6
CONTINUOUS
  0
LAYER
  2
FIX
 70
     0
 62
    11
  6
CONTINUOUS
  0
LAYER
  2
SERVICESPACE
 70
     0
 62
     2
  6
DASHDOT
  0
LAYER
  2
ETC
 70
     0
 62
    61
  6
CONTINUOUS
  0
LAYER
  2
SYMBOLLINE
 70
     0
 62
    15
  6
CONTINUOUS
  0
LAYER
  2
DEFPOINTS
 70
     0
 62
     7
  6
CONTINUOUS
  0
ENDTAB
  0
TABLE
  2
STYLE
 70
     2
  0
STYLE
  2
STANDARD
 70
     0
 40
0.0
 41
0.9
 50
0.0
 71
     0
 42
64.0
  3
SIMPLEX
  4
BIGFONT
  0
STYLE
  2
ANNOTATIVE
 70
     0
 40
0.0
 41
1.0
 50
0.0
 71
     0
 42
0.2
  3
txt
  4

  0
ENDTAB
  0
TABLE
  2
VIEW
 70
    12
  0
VIEW
  2
ALL
 70
     0
 40
9000.0
 10
241.50664699999999
 20
0.0
 41
12483.01
 11
0.0
 21
0.0
 31
1.0
 12
0.0
 22
0.0
 32
0.0
 42
50.0
 43
0.0
 44
0.0
 50
0.0
 71
     0
  0
ENDTAB
  0
TABLE
  2
UCS
 70
     0
  0
ENDTAB
  0
TABLE
  2
APPID
 70
     4
  0
APPID
  2
ACAD
 70
     0
  0
APPID
  2
ACADANNOTATIVE
 70
     0
  0
APPID
  2
ACAD_MLEADERVER
 70
     0
  0
APPID
  2
ACAD_EXEMPT_FROM_CAD_STANDARDS
 70
     0
  0
ENDTAB
  0
TABLE
  2
DIMSTYLE
 70
     3
  0
DIMSTYLE
  2
STANDARD
 70
     0
  3

  4

  5

  6

  7

 40
1.0
 41
0.18
 42
0.0625
 43
0.38
 44
0.18
 45
0.0
 46
0.0
 47
0.0
 48
0.0
140
0.18
141
0.09
142
0.0
143
25.399999999999999
144
1.0
145
0.0
146
1.0
147
0.09
 71
     0
 72
     0
 73
     1
 74
     1
 75
     0
 76
     0
 77
     0
 78
     0
170
     0
171
     2
172
     0
173
     0
174
     0
175
     0
176
     0
177
     0
178
     0
  0
DIMSTYLE
  2
ANNOTATIVE
 70
     0
  3

  4

  5

  6

  7

 40
1.0
 41
0.18
 42
0.0625
 43
0.38
 44
0.18
 45
0.0
 46
0.0
 47
0.0
 48
0.0
140
0.18
141
0.09
142
0.0
143
25.399999999999999
144
1.0
145
0.0
146
1.0
147
0.09
 71
     0
 72
     0
 73
     1
 74
     1
 75
     0
 76
     0
 77
     0
 78
     0
170
     0
171
     2
172
     0
173
     0
174
     0
175
     0
176
     0
177
     0
178
     0
  0
ENDTAB
  0
ENDSEC
  0
SECTION
  2
BLOCKS
  0
BLOCK
  8
0
  2
$MODEL_SPACE
 70
     0
 10
0.0
 20
0.0
 30
0.0
  3
$MODEL_SPACE
  1

  0
ENDBLK
  5
3D5
  8
0
  0
BLOCK
 67
     1
  8
0
  2
$PAPER_SPACE
 70
     0
 10
0.0
 20
0.0
 30
0.0
  3
$PAPER_SPACE
  1

  0
ENDBLK
  5
3D1
 67
     1
  8
0
  0
BLOCK
  8
0
  2
_DOTBLANK
 70
     0
 10
0.0
 20
0.0
 30
0.0
  3
_DOTBLANK
  1

  0
CIRCLE
  5
30
  8
0
  6
CONTINUOUS
 62
     7
 10
0.0
 20
0.0
 30
0.0
 40
0.5
  0
LINE
  5
31
  8
0
  6
CONTINUOUS
 62
     7
 10
-0.5
 20
0.0
 30
0.0
 11
-1.0
 21
0.0
 31
0.0
  0
ENDBLK
  5
32
  8
0
  0
BLOCK
  8
0
 62
     7
  2
A$C6A410B45
 70
     0
 10
0.0
 20
0.0
 30
0.0
  3
A$C6A410B45
  1

  0
TEXT
  5
344
  8
NOTE
  6
CONTINUOUS
 62
     4
 10
0.000007
 20
0.000003
 30
0.0
 40
50.0
  1
400形：φ25.4〈ロウ付〉（付属配管を使用）
 41
0.9
  0
ENDBLK
  5
346
  8
0
 62
     7
  0
BLOCK
  8
0
 62
     7
  2
A$C5DF77392
 70
     0
 10
0.0
 20
0.0
 30
0.0
  3
A$C5DF77392
  1

  0
TEXT
  5
34B
  8
NOTE
  6
CONTINUOUS
 62
     4
 10
0.000013
 20
0.000001
 30
0.0
 40
50.0
  1
224以下：φ15.88〈ロウ付〉（子機側付属配管を使用）
 41
0.9
  0
ENDBLK
  5
34D
  8
0
 62
     7
  0
BLOCK
  8
0
 62
     7
  2
A$C3CD9692F
 70
     0
 10
0.0
 20
0.0
 30
0.0
  3
A$C3CD9692F
  1

  0
TEXT
  5
352
  8
NOTE
  6
CONTINUOUS
 62
     4
 10
0.0
 20
0.000001
 30
0.0
 40
50.0
  1
401以上：φ22.2〈ロウ付〉（分岐管<別売>付属配管を使用）
 41
0.9
  0
ENDBLK
  5
354
  8
0
 62
     7
  0
BLOCK
  8
0
 62
     7
  2
A$C185C483A
 70
     0
 10
0.0
 20
0.0
 30
0.0
  3
A$C185C483A
  1

  0
TEXT
  5
35A
  8
NOTE
  6
CONTINUOUS
 62
     4
 10
0.0
 20
0.000001
 30
0.0
 40
50.0
  1
451以上：φ15.88〈ロウ付〉（分岐管<別売>付属配管を使用）
 41
0.9
  0
ENDBLK
  5
35C
  8
0
 62
     7
  0
ENDSEC
  0
SECTION
  2
ENTITIES
  0
LINE
  5
35
  8
DETAIL
  6
CONTINUOUS
 62
     5
 10
-555.0
 20
-225.0
 30
0.0
 11
555.0
 21
-225.0
 31
0.0
  0
LINE
  5
38
  8
DETAIL
  6
CONTINUOUS
 62
     5
 10
-555.0
 20
225.0
 30
0.0
 11
555.0
 21
225.0
 31
0.0
  0
LINE
  5
39
  8
DETAIL
  6
CONTINUOUS
 62
     5
 10
555.0
 20
225.0
 30
0.0
 11
555.0
 21
-225.0
 31
0.0
  0
LINE
  5
3A
  8
DETAIL
  6
CONTINUOUS
 62
     5
 10
555.0
 20
-219.0
 30
0.0
 11
605.0
 21
-219.0
 31
0.0
  0
LINE
  5
3B
  8
DETAIL
  6
CONTINUOUS
 62
     5
 10
555.0
 20
-169.0
 30
0.0
 11
605.0
 21
-169.0
 31
0.0
  0
LINE
  5
3C
  8
DETAIL
  6
CONTINUOUS
 62
     5
 10
605.0
 20
188.0
 30
0.0
 11
605.0
 21
169.0
 31
0.0
  0
LINE
  5
3D
  8
DETAIL
  6
CONTINUOUS
 62
     5
 10
555.0
 20
169.0
 30
0.0
 11
605.0
 21
169.0
 31
0.0
  0
LINE
  5
3E
  8
DETAIL
  6
CONTINUOUS
 62
     5
 10
555.0
 20
219.0
 30
0.0
 11
605.0
 21
219.0
 31
0.0
  0
LINE
  5
3F
  8
DETAIL
  6
CONTINUOUS
 62
     5
 10
605.0
 20
219.0
 30
0.0
 11
605.0
 21
200.0
 31
0.0
  0
ARC
  5
40
  8
DETAIL
  6
CONTINUOUS
 62
     5
 10
582.00046099999997
 20
202.0
 30
0.0
 40
7.0
 50
0.0
 51
180.0
  0
LINE
  5
42
  8
DETAIL
  6
CONTINUOUS
 62
     5
 10
589.00046099999997
 20
202.0
 30
0.0
 11
589.00046099999997
 21
200.0
 31
0.0
  0
ARC
  5
43
  8
DETAIL
  6
CONTINUOUS
 62
     5
 10
582.00046099999997
 20
186.0
 30
0.0
 40
7.0
 50
180.0
 51
0.0
  0
LINE
  5
44
  8
DETAIL
  6
CONTINUOUS
 62
     5
 10
575.00046100000009
 20
186.0
 30
0.0
 11
575.00046100000009
 21
202.0
 31
0.0
  0
LINE
  5
45
  8
DETAIL
  6
CONTINUOUS
 62
     5
 10
589.00046099999997
 20
186.0
 30
0.0
 11
589.00046099999997
 21
188.0
 31
0.0
  0
LINE
  5
46
  8
DETAIL
  6
CONTINUOUS
 62
     5
 10
589.00046099999997
 20
188.0
 30
0.0
 11
605.0
 21
188.0
 31
0.0
  0
LINE
  5
47
  8
DETAIL
  6
CONTINUOUS
 62
     5
 10
605.0
 20
-200.0
 30
0.0
 11
605.0
 21
-219.0
 31
0.0
  0
ARC
  5
48
  8
DETAIL
  6
CONTINUOUS
 62
     5
 10
582.00046099999997
 20
-186.0
 30
0.0
 40
7.0
 50
0.0
 51
180.0
  0
LINE
  5
4A
  8
DETAIL
  6
CONTINUOUS
 62
     5
 10
589.00046099999997
 20
-186.0
 30
0.0
 11
589.00046099999997
 21
-188.0
 31
0.0
  0
ARC
  5
4B
  8
DETAIL
  6
CONTINUOUS
 62
     5
 10
582.00046099999997
 20
-202.0
 30
0.0
 40
7.0
 50
180.0
 51
0.0
  0
LINE
  5
4C
  8
DETAIL
  6
CONTINUOUS
 62
     5
 10
575.00046100000009
 20
-202.0
 30
0.0
 11
575.00046100000009
 21
-186.0
 31
0.0
  0
LINE
  5
4D
  8
DETAIL
  6
CONTINUOUS
 62
     5
 10
589.00046099999997
 20
-202.0
 30
0.0
 11
589.00046099999997
 21
-200.0
 31
0.0
  0
LINE
  5
4E
  8
DETAIL
  6
CONTINUOUS
 62
     5
 10
589.00046099999997
 20
-200.0
 30
0.0
 11
605.0
 21
-200.0
 31
0.0
  0
LINE
  5
4F
  8
DETAIL
  6
CONTINUOUS
 62
     5
 10
589.00046099999997
 20
200.0
 30
0.0
 11
605.0
 21
200.0
 31
0.0
  0
LINE
  5
50
  8
DETAIL
  6
CONTINUOUS
 62
     5
 10
605.0
 20
-169.0
 30
0.0
 11
605.0
 21
-188.0
 31
0.0
  0
LINE
  5
51
  8
DETAIL
  6
CONTINUOUS
 62
     5
 10
589.00046099999997
 20
-188.0
 30
0.0
 11
605.0
 21
-188.0
 31
0.0
  0
LINE
  5
53
  8
DETAIL
  6
CONTINUOUS
 62
     5
 10
-555.0
 20
225.0
 30
0.0
 11
-555.0
 21
-225.0
 31
0.0
  0
LINE
  5
54
  8
DETAIL
  6
CONTINUOUS
 62
     5
 10
-555.0
 20
-219.0
 30
0.0
 11
-605.0
 21
-219.0
 31
0.0
  0
LINE
  5
55
  8
DETAIL
  6
CONTINUOUS
 62
     5
 10
-555.0
 20
-169.0
 30
0.0
 11
-605.0
 21
-169.0
 31
0.0
  0
LINE
  5
56
  8
DETAIL
  6
CONTINUOUS
 62
     5
 10
-605.0
 20
188.0
 30
0.0
 11
-605.0
 21
169.0
 31
0.0
  0
LINE
  5
57
  8
DETAIL
  6
CONTINUOUS
 62
     5
 10
-555.0
 20
169.0
 30
0.0
 11
-605.0
 21
169.0
 31
0.0
  0
LINE
  5
58
  8
DETAIL
  6
CONTINUOUS
 62
     5
 10
-555.0
 20
219.0
 30
0.0
 11
-605.0
 21
219.0
 31
0.0
  0
LINE
  5
59
  8
DETAIL
  6
CONTINUOUS
 62
     5
 10
-605.0
 20
219.0
 30
0.0
 11
-605.0
 21
200.0
 31
0.0
  0
ARC
  5
5A
  8
DETAIL
  6
CONTINUOUS
 62
     5
 10
-581.9995389999998
 20
202.0
 30
0.0
 40
7.0
 50
0.0
 51
180.0
  0
LINE
  5
5C
  8
DETAIL
  6
CONTINUOUS
 62
     5
 10
-588.99953899999991
 20
202.0
 30
0.0
 11
-588.99953899999991
 21
200.0
 31
0.0
  0
ARC
  5
5D
  8
DETAIL
  6
CONTINUOUS
 62
     5
 10
-581.9995389999998
 20
186.0
 30
0.0
 40
7.0
 50
180.0
 51
0.0
  0
LINE
  5
5E
  8
DETAIL
  6
CONTINUOUS
 62
     5
 10
-574.99953899999991
 20
186.0
 30
0.0
 11
-574.99953899999991
 21
202.0
 31
0.0
  0
LINE
  5
5F
  8
DETAIL
  6
CONTINUOUS
 62
     5
 10
-588.99953899999991
 20
186.0
 30
0.0
 11
-588.99953899999991
 21
188.0
 31
0.0
  0
LINE
  5
60
  8
DETAIL
  6
CONTINUOUS
 62
     5
 10
-588.99953899999991
 20
188.0
 30
0.0
 11
-605.0
 21
188.0
 31
0.0
  0
LINE
  5
61
  8
DETAIL
  6
CONTINUOUS
 62
     5
 10
-605.0
 20
-200.0
 30
0.0
 11
-605.0
 21
-219.0
 31
0.0
  0
ARC
  5
62
  8
DETAIL
  6
CONTINUOUS
 62
     5
 10
-581.9995389999998
 20
-186.0
 30
0.0
 40
7.0
 50
0.0
 51
180.0
  0
LINE
  5
64
  8
DETAIL
  6
CONTINUOUS
 62
     5
 10
-588.99953899999991
 20
-186.0
 30
0.0
 11
-588.99953899999991
 21
-188.0
 31
0.0
  0
ARC
  5
65
  8
DETAIL
  6
CONTINUOUS
 62
     5
 10
-581.9995389999998
 20
-202.0
 30
0.0
 40
7.0
 50
180.0
 51
0.0
  0
LINE
  5
66
  8
DETAIL
  6
CONTINUOUS
 62
     5
 10
-574.99953899999991
 20
-202.0
 30
0.0
 11
-574.99953899999991
 21
-186.0
 31
0.0
  0
LINE
  5
67
  8
DETAIL
  6
CONTINUOUS
 62
     5
 10
-588.99953899999991
 20
-202.0
 30
0.0
 11
-588.99953899999991
 21
-200.0
 31
0.0
  0
LINE
  5
68
  8
DETAIL
  6
CONTINUOUS
 62
     5
 10
-588.99953899999991
 20
-200.0
 30
0.0
 11
-605.0
 21
-200.0
 31
0.0
  0
LINE
  5
69
  8
DETAIL
  6
CONTINUOUS
 62
     5
 10
-588.99953899999991
 20
200.0
 30
0.0
 11
-605.0
 21
200.0
 31
0.0
  0
LINE
  5
6A
  8
DETAIL
  6
CONTINUOUS
 62
     5
 10
-605.0
 20
-169.0
 30
0.0
 11
-605.0
 21
-188.0
 31
0.0
  0
LINE
  5
6B
  8
DETAIL
  6
CONTINUOUS
 62
     5
 10
-588.99953899999991
 20
-188.0
 30
0.0
 11
-605.0
 21
-188.0
 31
0.0
  0
LINE
  5
6C
  8
DETAIL
  6
CONTINUOUS
 62
     5
 10
-625.0
 20
55.700000000000003
 30
0.0
 11
-625.0
 21
30.300000000000001
 31
0.0
  0
LINE
  5
6D
  8
DETAIL
  6
CONTINUOUS
 62
     5
 10
-755.0
 20
92.5
 30
0.0
 11
-712.64705900000001
 21
92.5
 31
0.0
  0
LINE
  5
6E
  8
DETAIL
  6
CONTINUOUS
 62
     5
 10
-755.0
 20
123.5
 30
0.0
 11
-712.64705900000001
 21
123.5
 31
0.0
  0
LINE
  5
71
  8
DETAIL
  6
CONTINUOUS
 62
     5
 10
-755.0
 20
92.5
 30
0.0
 11
-755.0
 21
123.5
 31
0.0
  0
LINE
  5
73
  8
DETAIL
  6
CONTINUOUS
 62
     5
 10
-699.0190980000001
 20
93.163281000000012
 30
0.0
 11
-703.57792199999994
 21
124.163281
 31
0.0
  0
LINE
  5
74
  8
DETAIL
  6
CONTINUOUS
 62
     5
 10
-698.92207800000006
 20
91.836718999999974
 30
0.0
 11
-698.97897401462262
 21
92.223611859496216
 31
0.0
  0
LINE
  5
75
  8
DETAIL
  6
CONTINUOUS
 62
     5
 10
-689.90145099999995
 20
93.163281000000012
 30
0.0
 11
-694.46027500000002
 21
124.163281
 31
0.0
  0
LINE
  5
76
  8
DETAIL
  6
CONTINUOUS
 62
     5
 10
-689.80443099999991
 20
91.836718999999974
 30
0.0
 11
-689.8613270146227
 21
92.223611859497339
 31
0.0
  0
LINE
  5
77
  8
DETAIL
  6
CONTINUOUS
 62
     5
 10
-680.78380400000003
 20
93.163281000000012
 30
0.0
 11
-685.34262699999988
 21
124.163281
 31
0.0
  0
LINE
  5
78
  8
DETAIL
  6
CONTINUOUS
 62
     5
 10
-680.68678399999988
 20
91.836718999999974
 30
0.0
 11
-680.74368001462256
 21
92.223611859496785
 31
0.0
  0
LINE
  5
79
  8
DETAIL
  6
CONTINUOUS
 62
     5
 10
-671.666157
 20
93.163281000000012
 30
0.0
 11
-676.22497999999985
 21
124.163281
 31
0.0
  0
LINE
  5
7A
  8
DETAIL
  6
CONTINUOUS
 62
     5
 10
-671.56913699999996
 20
91.836718999999974
 30
0.0
 11
-671.62603301462264
 21
92.223611859496785
 31
0.0
  0
LINE
  5
7B
  8
DETAIL
  6
CONTINUOUS
 62
     5
 10
-662.54850999999985
 20
93.163281000000012
 30
0.0
 11
-667.10733300000004
 21
124.163281
 31
0.0
  0
LINE
  5
7C
  8
DETAIL
  6
CONTINUOUS
 62
     5
 10
-662.45149000000004
 20
91.836718999999974
 30
0.0
 11
-662.50838601462272
 21
92.223611859496785
 31
0.0
  0
LINE
  5
7D
  8
DETAIL
  6
CONTINUOUS
 62
     5
 10
-653.43086300000004
 20
93.163281000000012
 30
0.0
 11
-657.98968599999989
 21
124.163281
 31
0.0
  0
LINE
  5
7E
  8
DETAIL
  6
CONTINUOUS
 62
     5
 10
-653.333843
 20
91.836718999999974
 30
0.0
 11
-653.39073830692223
 21
92.223607047134337
 31
0.0
  0
LINE
  5
7F
  8
DETAIL
  6
CONTINUOUS
 62
     5
 10
-644.31321600000001
 20
93.163281000000012
 30
0.0
 11
-648.87203899999997
 21
124.163281
 31
0.0
  0
LINE
  5
80
  8
DETAIL
  6
CONTINUOUS
 62
     5
 10
-644.21619599999985
 20
91.836718999999974
 30
0.0
 11
-644.2730913069222
 21
92.223607047134905
 31
0.0
  0
LINE
  5
81
  8
DETAIL
  6
CONTINUOUS
 62
     5
 10
-635.19556900000009
 20
93.163281000000012
 30
0.0
 11
-639.75439199999994
 21
124.163281
 31
0.0
  0
LINE
  5
82
  8
DETAIL
  6
CONTINUOUS
 62
     5
 10
-635.09854900000005
 20
91.836718999999974
 30
0.0
 11
-635.15544430692228
 21
92.223607047134337
 31
0.0
  0
LINE
  5
83
  8
DETAIL
  6
CONTINUOUS
 62
     5
 10
-626.07792199999994
 20
93.163281000000012
 30
0.0
 11
-630.63674500000002
 21
124.163281
 31
0.0
  0
LINE
  5
84
  8
DETAIL
  6
CONTINUOUS
 62
     5
 10
-625.98090199999979
 20
91.836718999999974
 30
0.0
 11
-626.03779730327415
 21
92.223607107194695
 31
0.0
  0
LINE
  5
85
  8
DETAIL
  6
CONTINUOUS
 62
     5
 10
-616.96027500000002
 20
93.163281000000012
 30
0.0
 11
-621.51909799999999
 21
124.163281
 31
0.0
  0
LINE
  5
86
  8
DETAIL
  6
CONTINUOUS
 62
     5
 10
-607.79411800000003
 20
92.166587038307213
 30
0.0
 11
-607.80250330327419
 21
92.223607107193544
 31
0.0
  0
LINE
  5
87
  8
DETAIL
  6
CONTINUOUS
 62
     5
 10
-607.84262699999999
 20
93.163281000000012
 30
0.0
 11
-612.40145099999995
 21
124.163281
 31
0.0
  0
LINE
  5
88
  8
DETAIL
  6
CONTINUOUS
 62
     5
 10
-616.86325499999987
 20
91.836718999999974
 30
0.0
 11
-616.92015030327423
 21
92.223607107194695
 31
0.0
  0
LINE
  5
89
  8
DETAIL
  6
CONTINUOUS
 62
     5
 10
-712.64705900000001
 20
87.941175999999984
 30
0.0
 11
-712.64705900000001
 21
128.05882399999999
 31
0.0
  0
LINE
  5
8A
  8
DETAIL
  6
CONTINUOUS
 62
     5
 10
-708.08823499999994
 20
87.941175999999984
 30
0.0
 11
-708.08823499999994
 21
128.05882399999999
 31
0.0
  0
LINE
  5
8B
  8
DETAIL
  6
CONTINUOUS
 62
     5
 10
-607.79411800000003
 20
87.941175999999984
 30
0.0
 11
-607.79411800000003
 21
128.05882399999999
 31
0.0
  0
LINE
  5
8D
  8
DETAIL
  6
CONTINUOUS
 62
     5
 10
-603.23529399999995
 20
87.941175999999984
 30
0.0
 11
-603.23529399999995
 21
128.05882399999999
 31
0.0
  0
LINE
  5
8E
  8
DETAIL
  6
CONTINUOUS
 62
     5
 10
-603.23529399999995
 20
92.5
 30
0.0
 11
-555.0
 21
92.5
 31
0.0
  0
ARC
  5
8F
  8
DETAIL
  6
CONTINUOUS
 62
     5
 10
-657.94117599999993
 20
92.5
 30
0.0
 40
4.5588239999999987
 50
188.36588599999999
 51
8.3658859999999997
  0
ARC
  5
90
  8
DETAIL
  6
CONTINUOUS
 62
     5
 10
-685.29411800000003
 20
92.5
 30
0.0
 40
4.5588239999999987
 50
188.36588599999999
 51
8.3658859999999997
  0
ARC
  5
91
  8
DETAIL
  6
CONTINUOUS
 62
     5
 10
-703.52941199999987
 20
92.5
 30
0.0
 40
4.5588239999999987
 50
188.36588599999999
 51
8.3658859999999997
  0
ARC
  5
92
  8
DETAIL
  6
CONTINUOUS
 62
     5
 10
-694.41176499999995
 20
92.5
 30
0.0
 40
4.5588239999999987
 50
188.36588599999999
 51
8.3658859999999997
  0
LINE
  5
93
  8
DETAIL
  6
CONTINUOUS
 62
     5
 10
-712.64705900000001
 20
87.941175999999984
 30
0.0
 11
-708.08823499999994
 21
87.941175999999984
 31
0.0
  0
ARC
  5
94
  8
DETAIL
  6
CONTINUOUS
 62
     5
 10
-676.17647099999999
 20
92.5
 30
0.0
 40
4.5588239999999987
 50
188.36588599999999
 51
8.3658859999999997
  0
ARC
  5
95
  8
DETAIL
  6
CONTINUOUS
 62
     5
 10
-667.05882399999996
 20
92.5
 30
0.0
 40
4.5588239999999987
 50
188.36588599999999
 51
8.3658859999999997
  0
ARC
  5
96
  8
DETAIL
  6
CONTINUOUS
 62
     5
 10
-621.47058800000002
 20
92.5
 30
0.0
 40
4.5588239999999987
 50
188.36588599999999
 51
8.3658859999999997
  0
ARC
  5
97
  8
DETAIL
  6
CONTINUOUS
 62
     5
 10
-648.82352900000001
 20
92.5
 30
0.0
 40
4.5588239999999987
 50
188.36588599999999
 51
8.3658859999999997
  0
ARC
  5
98
  8
DETAIL
  6
CONTINUOUS
 62
     5
 10
-639.70588199999986
 20
92.5
 30
0.0
 40
4.5588239999999987
 50
188.36588599999999
 51
8.3658859999999997
  0
ARC
  5
99
  8
DETAIL
  6
CONTINUOUS
 62
     5
 10
-630.58823499999994
 20
92.5
 30
0.0
 40
4.5588239999999987
 50
188.36588599999999
 51
8.3658859999999997
  0
ARC
  5
9A
  8
DETAIL
  6
CONTINUOUS
 62
     5
 10
-612.35294099999987
 20
92.5
 30
0.0
 40
4.5588239999999987
 50
188.36588599999999
 51
8.3658859999999997
  0
LINE
  5
9B
  8
DETAIL
  6
CONTINUOUS
 62
     5
 10
-603.23529399999995
 20
87.941175999999984
 30
0.0
 11
-607.79411800000003
 21
87.941175999999984
 31
0.0
  0
LINE
  5
9C
  8
DETAIL
  6
CONTINUOUS
 62
     5
 10
-603.23529399999995
 20
123.5
 30
0.0
 11
-555.0
 21
123.5
 31
0.0
  0
ARC
  5
9D
  8
DETAIL
  6
CONTINUOUS
 62
     5
 10
-653.38235300000008
 20
123.5
 30
0.0
 40
4.5588239999999987
 50
8.3658859999999997
 51
176.52413341807761
  0
ARC
  5
9E
  8
DETAIL
  6
CONTINUOUS
 62
     5
 10
-680.73529400000007
 20
123.5
 30
0.0
 40
4.5588239999999987
 50
8.3658859999999997
 51
176.52413341807761
  0
ARC
  5
9F
  8
DETAIL
  6
CONTINUOUS
 62
     5
 10
-708.08823499999994
 20
123.5
 30
0.0
 40
4.5588239999999987
 50
8.3658859999999997
 51
90.0
  0
ARC
  5
A0
  8
DETAIL
  6
CONTINUOUS
 62
     5
 10
-698.97058800000002
 20
123.5
 30
0.0
 40
4.5588239999999987
 50
8.3658859999999997
 51
176.52419325559089
  0
ARC
  5
A1
  8
DETAIL
  6
CONTINUOUS
 62
     5
 10
-689.85294099999999
 20
123.5
 30
0.0
 40
4.5588239999999987
 50
8.3658859999999997
 51
176.52419325559831
  0
LINE
  5
A2
  8
DETAIL
  6
CONTINUOUS
 62
     5
 10
-712.64705900000001
 20
128.05882399999999
 30
0.0
 11
-708.08823499999994
 21
128.05882399999999
 31
0.0
  0
ARC
  5
A3
  8
DETAIL
  6
CONTINUOUS
 62
     5
 10
-671.61764699999992
 20
123.5
 30
0.0
 40
4.5588239999999987
 50
8.3658859999999997
 51
176.52413341808469
  0
ARC
  5
A4
  8
DETAIL
  6
CONTINUOUS
 62
     5
 10
-662.5
 20
123.5
 30
0.0
 40
4.5588239999999987
 50
8.3658859999999997
 51
176.52413341808489
  0
ARC
  5
A5
  8
DETAIL
  6
CONTINUOUS
 62
     5
 10
-626.02941199999998
 20
123.5
 30
0.0
 40
4.5588239999999987
 50
8.3658859999999997
 51
176.52413341808489
  0
ARC
  5
A6
  8
DETAIL
  6
CONTINUOUS
 62
     5
 10
-644.26470599999993
 20
123.5
 30
0.0
 40
4.5588239999999987
 50
8.3658859999999997
 51
176.52413341809191
  0
ARC
  5
A7
  8
DETAIL
  6
CONTINUOUS
 62
     5
 10
-635.1470589999999
 20
123.5
 30
0.0
 40
4.5588239999999987
 50
8.3658859999999997
 51
176.52413341807761
  0
ARC
  5
A8
  8
DETAIL
  6
CONTINUOUS
 62
     5
 10
-607.79411800000003
 20
123.5
 30
0.0
 40
4.5588239999999987
 50
90.0
 51
176.52413266186289
  0
ARC
  5
A9
  8
DETAIL
  6
CONTINUOUS
 62
     5
 10
-616.91176499999995
 20
123.5
 30
0.0
 40
4.5588239999999987
 50
8.3658859999999997
 51
176.52413341808489
  0
LINE
  5
AA
  8
DETAIL
  6
CONTINUOUS
 62
     5
 10
-603.23529399999995
 20
128.05882399999999
 30
0.0
 11
-607.79411800000003
 21
128.05882399999999
 31
0.0
  0
LINE
  5
AB
  8
NOTE
  6
CONTINUOUS
 62
     4
 10
-582.0
 20
174.0
 30
0.0
 11
-582.0
 21
214.0
 31
0.0
  0
LINE
  5
AC
  8
NOTE
  6
CONTINUOUS
 62
     4
 10
-562.0
 20
194.0
 30
0.0
 11
-602.0
 21
194.0
 31
0.0
  0
CIRCLE
  5
AD
  8
FIX
  6
CONTINUOUS
 62
    11
 10
-582.0
 20
194.0
 30
0.0
 40
20.0
  0
CIRCLE
  5
AE
  8
FIX
  6
CONTINUOUS
 62
    11
 10
-582.0
 20
-194.0
 30
0.0
 40
20.0
  0
LINE
  5
AF
  8
NOTE
  6
CONTINUOUS
 62
     4
 10
582.0
 20
174.0
 30
0.0
 11
582.0
 21
214.0
 31
0.0
  0
LINE
  5
B0
  8
NOTE
  6
CONTINUOUS
 62
     4
 10
602.0
 20
194.0
 30
0.0
 11
562.0
 21
194.0
 31
0.0
  0
CIRCLE
  5
B1
  8
FIX
  6
CONTINUOUS
 62
    11
 10
582.0
 20
194.0
 30
0.0
 40
20.0
  0
LINE
  5
B2
  8
NOTE
  6
CONTINUOUS
 62
     4
 10
582.0
 20
-214.0
 30
0.0
 11
582.0
 21
-174.0
 31
0.0
  0
LINE
  5
B3
  8
NOTE
  6
CONTINUOUS
 62
     4
 10
602.0
 20
-194.0
 30
0.0
 11
562.0
 21
-194.0
 31
0.0
  0
CIRCLE
  5
B4
  8
FIX
  6
CONTINUOUS
 62
    11
 10
582.0
 20
-194.0
 30
0.0
 40
20.0
  0
LINE
  5
B5
  8
NOTE
  6
CONTINUOUS
 62
     4
 10
-479.0
 20
-309.0
 30
0.0
 11
-479.0
 21
-269.0
 31
0.0
  0
LINE
  5
B6
  8
NOTE
  6
CONTINUOUS
 62
     4
 10
-459.0
 20
-289.0
 30
0.0
 11
-499.0
 21
-289.0
 31
0.0
  0
LINE
  5
B7
  8
NOTE
  6
CONTINUOUS
 62
     4
 10
-419.0
 20
-309.0
 30
0.0
 11
-419.0
 21
-269.0
 31
0.0
  0
LINE
  5
B8
  8
NOTE
  6
CONTINUOUS
 62
     4
 10
-399.0
 20
-289.0
 30
0.0
 11
-439.0
 21
-289.0
 31
0.0
  0
LINE
  5
B9
  8
NOTE
  6
CONTINUOUS
 62
     4
 10
-359.0
 20
-309.0
 30
0.0
 11
-359.0
 21
-269.0
 31
0.0
  0
LINE
  5
BA
  8
NOTE
  6
CONTINUOUS
 62
     4
 10
-339.0
 20
-289.0
 30
0.0
 11
-379.0
 21
-289.0
 31
0.0
  0
LINE
  5
BB
  8
NOTE
  6
CONTINUOUS
 62
     4
 10
-299.0
 20
-309.0
 30
0.0
 11
-299.0
 21
-269.0
 31
0.0
  0
LINE
  5
BC
  8
NOTE
  6
CONTINUOUS
 62
     4
 10
-279.0
 20
-289.0
 30
0.0
 11
-319.0
 21
-289.0
 31
0.0
  0
TEXT
  5
BD
  8
SIZE
  6
CONTINUOUS
 62
    30
 10
-127.176136
 20
-877.57819700000005
 30
0.0
 40
35.0
  1
（吊りボルトピッチ）
 41
0.9
  0
TEXT
  5
BE
  8
SIZE
  6
CONTINUOUS
 62
    30
 10
836.58402299999989
 20
-603.49349199999995
 30
0.0
 40
35.0
  1
（吊りボルトピッチ）
 50
90.0
 41
0.9
  0
LINE
  5
BF
  8
NOTE
  6
CONTINUOUS
 62
     4
 10
-645.0
 20
-142.0
 30
0.0
 11
-645.0
 21
-102.0
 31
0.0
  0
LINE
  5
C0
  8
NOTE
  6
CONTINUOUS
 62
     4
 10
-625.0
 20
-122.0
 30
0.0
 11
-665.0
 21
-122.0
 31
0.0
  0
LINE
  5
C1
  8
NOTE
  6
CONTINUOUS
 62
     4
 10
-755.0
 20
88.0
 30
0.0
 11
-755.0
 21
128.0
 31
0.0
  0
LINE
  5
C2
  8
NOTE
  6
CONTINUOUS
 62
     4
 10
-735.0
 20
108.0
 30
0.0
 11
-775.0
 21
108.0
 31
0.0
  0
LINE
  5
C3
  8
NOTE
  6
CONTINUOUS
 62
     4
 10
-625.0
 20
23.0
 30
0.0
 11
-625.0
 21
63.0
 31
0.0
  0
LINE
  5
C4
  8
NOTE
  6
CONTINUOUS
 62
     4
 10
-605.0
 20
43.0
 30
0.0
 11
-645.0
 21
43.0
 31
0.0
  0
LINE
  5
C5
  8
DETAIL
  6
CONTINUOUS
 62
     5
 10
-483.75999999999999
 20
-225.0
 30
0.0
 11
-483.75999999999999
 21
-289.0
 31
0.0
  0
LINE
  5
C6
  8
DETAIL
  6
CONTINUOUS
 62
     5
 10
-474.2399999999999
 20
-225.0
 30
0.0
 11
-474.2399999999999
 21
-289.0
 31
0.0
  0
LINE
  5
C7
  8
DETAIL
  6
CONTINUOUS
 62
     5
 10
-486.93999999999988
 20
-225.0
 30
0.0
 11
-486.93999999999988
 21
-289.0
 31
0.0
  0
LINE
  5
C8
  8
DETAIL
  6
CONTINUOUS
 62
     5
 10
-471.06
 20
-225.0
 30
0.0
 11
-471.06
 21
-289.0
 31
0.0
  0
LINE
  5
C9
  8
DETAIL
  6
CONTINUOUS
 62
     5
 10
-483.75999999999999
 20
-289.0
 30
0.0
 11
-474.2399999999999
 21
-289.0
 31
0.0
  0
LINE
  5
CA
  8
DETAIL
  6
CONTINUOUS
 62
     5
 10
-486.93999999999988
 20
-289.0
 30
0.0
 11
-471.06
 21
-289.0
 31
0.0
  0
LINE
  5
CB
  8
DETAIL
  6
CONTINUOUS
 62
     5
 10
-479.0
 20
-225.0
 30
0.0
 11
-479.0
 21
-289.0
 31
0.0
  0
LINE
  5
CC
  8
DETAIL
  6
CONTINUOUS
 62
     5
 10
-423.75999999999988
 20
-225.0
 30
0.0
 11
-423.75999999999988
 21
-289.0
 31
0.0
  0
LINE
  5
CD
  8
DETAIL
  6
CONTINUOUS
 62
     5
 10
-414.24000000000001
 20
-225.0
 30
0.0
 11
-414.24000000000001
 21
-289.0
 31
0.0
  0
LINE
  5
CE
  8
DETAIL
  6
CONTINUOUS
 62
     5
 10
-426.94
 20
-225.0
 30
0.0
 11
-426.94
 21
-289.0
 31
0.0
  0
LINE
  5
CF
  8
DETAIL
  6
CONTINUOUS
 62
     5
 10
-411.05999999999989
 20
-225.0
 30
0.0
 11
-411.05999999999989
 21
-289.0
 31
0.0
  0
LINE
  5
D0
  8
DETAIL
  6
CONTINUOUS
 62
     5
 10
-423.75999999999988
 20
-289.0
 30
0.0
 11
-414.24000000000001
 21
-289.0
 31
0.0
  0
LINE
  5
D1
  8
DETAIL
  6
CONTINUOUS
 62
     5
 10
-426.94
 20
-289.0
 30
0.0
 11
-411.05999999999989
 21
-289.0
 31
0.0
  0
LINE
  5
D2
  8
DETAIL
  6
CONTINUOUS
 62
     5
 10
-419.0
 20
-225.0
 30
0.0
 11
-419.0
 21
-289.0
 31
0.0
  0
LINE
  5
D3
  8
DETAIL
  6
CONTINUOUS
 62
     5
 10
-363.75999999999999
 20
-225.0
 30
0.0
 11
-363.75999999999999
 21
-289.0
 31
0.0
  0
LINE
  5
D4
  8
DETAIL
  6
CONTINUOUS
 62
     5
 10
-354.24000000000001
 20
-225.0
 30
0.0
 11
-354.24000000000001
 21
-289.0
 31
0.0
  0
LINE
  5
D5
  8
DETAIL
  6
CONTINUOUS
 62
     5
 10
-366.94
 20
-225.0
 30
0.0
 11
-366.94
 21
-289.0
 31
0.0
  0
LINE
  5
D6
  8
DETAIL
  6
CONTINUOUS
 62
     5
 10
-351.06
 20
-225.0
 30
0.0
 11
-351.06
 21
-289.0
 31
0.0
  0
LINE
  5
D7
  8
DETAIL
  6
CONTINUOUS
 62
     5
 10
-363.75999999999999
 20
-289.0
 30
0.0
 11
-354.24000000000001
 21
-289.0
 31
0.0
  0
LINE
  5
D8
  8
DETAIL
  6
CONTINUOUS
 62
     5
 10
-366.94
 20
-289.0
 30
0.0
 11
-351.06
 21
-289.0
 31
0.0
  0
LINE
  5
D9
  8
DETAIL
  6
CONTINUOUS
 62
     5
 10
-359.0
 20
-225.0
 30
0.0
 11
-359.0
 21
-289.0
 31
0.0
  0
LINE
  5
DA
  8
DETAIL
  6
CONTINUOUS
 62
     5
 10
-303.75999999999999
 20
-225.0
 30
0.0
 11
-303.75999999999999
 21
-289.0
 31
0.0
  0
LINE
  5
DB
  8
DETAIL
  6
CONTINUOUS
 62
     5
 10
-294.24000000000001
 20
-225.0
 30
0.0
 11
-294.24000000000001
 21
-289.0
 31
0.0
  0
LINE
  5
DC
  8
DETAIL
  6
CONTINUOUS
 62
     5
 10
-306.94
 20
-225.0
 30
0.0
 11
-306.94
 21
-289.0
 31
0.0
  0
LINE
  5
DD
  8
DETAIL
  6
CONTINUOUS
 62
     5
 10
-291.06
 20
-225.0
 30
0.0
 11
-291.06
 21
-289.0
 31
0.0
  0
LINE
  5
DE
  8
DETAIL
  6
CONTINUOUS
 62
     5
 10
-303.75999999999999
 20
-289.0
 30
0.0
 11
-294.24000000000001
 21
-289.0
 31
0.0
  0
LINE
  5
DF
  8
DETAIL
  6
CONTINUOUS
 62
     5
 10
-306.94
 20
-289.0
 30
0.0
 11
-291.06
 21
-289.0
 31
0.0
  0
LINE
  5
E0
  8
DETAIL
  6
CONTINUOUS
 62
     5
 10
-299.0
 20
-225.0
 30
0.0
 11
-299.0
 21
-289.0
 31
0.0
  0
LINE
  5
F1
  8
NOTE
  6
CONTINUOUS
 62
     4
 10
-486.21724699999987
 20
-296.42233299999998
 30
0.0
 11
-479.0
 21
-289.0
 31
0.0
  0
LINE
  5
F2
  8
NOTE
  6
CONTINUOUS
 62
     4
 10
-479.0
 20
-289.0
 30
0.0
 11
-481.539153
 21
-299.03655199999997
 31
0.0
  0
LINE
  5
106
  8
NOTE
  6
CONTINUOUS
 62
     4
 10
-655.28075235315032
 20
-123.21893927241
 30
0.0
 11
-645.0
 21
-122.0
 31
0.0
  0
LINE
  5
107
  8
NOTE
  6
CONTINUOUS
 62
     4
 10
-645.0
 20
-122.0
 30
0.0
 11
-653.29392320110878
 21
-128.1960083886766
 31
0.0
  0
LINE
  5
108
  8
NOTE
  6
CONTINUOUS
 62
     4
 10
-758.24288375784761
 20
117.48363368316301
 30
0.0
 11
-755.0
 21
108.0
 31
0.0
  0
LINE
  5
109
  8
NOTE
  6
CONTINUOUS
 62
     4
 10
-755.0
 20
108.0
 30
0.0
 11
-763.54985158557145
 21
114.6275088182371
 31
0.0
  0
LINE
  5
10A
  8
NOTE
  6
CONTINUOUS
 62
     4
 10
-633.4698578012742
 20
48.953250310070977
 30
0.0
 11
-625.0
 21
43.0
 31
0.0
  0
LINE
  5
10B
  8
NOTE
  6
CONTINUOUS
 62
     4
 10
-625.0
 20
43.0
 30
0.0
 11
-635.31173670882345
 21
43.920736433574291
 31
0.0
  0
LINE
  5
111
  8
NOTE
  6
CONTINUOUS
 62
     4
 10
586.5644880000001
 20
203.29220799999999
 30
0.0
 11
582.0
 21
194.0
 31
0.0
  0
LINE
  5
112
  8
NOTE
  6
CONTINUOUS
 62
     4
 10
582.0
 20
194.0
 30
0.0
 11
590.59906600000011
 21
199.76504399999999
 31
0.0
  0
LINE
  5
113
  8
NOTE
  6
CONTINUOUS
 62
     4
 10
-239.0
 20
-309.0
 30
0.0
 11
-239.0
 21
-269.0
 31
0.0
  0
LINE
  5
114
  8
NOTE
  6
CONTINUOUS
 62
     4
 10
-219.0
 20
-289.0
 30
0.0
 11
-259.0
 21
-289.0
 31
0.0
  0
LINE
  5
115
  8
DETAIL
  6
CONTINUOUS
 62
     5
 10
-243.75999999999999
 20
-225.0
 30
0.0
 11
-243.75999999999999
 21
-289.0
 31
0.0
  0
LINE
  5
116
  8
DETAIL
  6
CONTINUOUS
 62
     5
 10
-234.24000000000001
 20
-225.0
 30
0.0
 11
-234.24000000000001
 21
-289.0
 31
0.0
  0
LINE
  5
117
  8
DETAIL
  6
CONTINUOUS
 62
     5
 10
-246.94
 20
-225.0
 30
0.0
 11
-246.94
 21
-289.0
 31
0.0
  0
LINE
  5
118
  8
DETAIL
  6
CONTINUOUS
 62
     5
 10
-231.06
 20
-225.0
 30
0.0
 11
-231.06
 21
-289.0
 31
0.0
  0
LINE
  5
119
  8
DETAIL
  6
CONTINUOUS
 62
     5
 10
-243.75999999999999
 20
-289.0
 30
0.0
 11
-234.24000000000001
 21
-289.0
 31
0.0
  0
LINE
  5
11A
  8
DETAIL
  6
CONTINUOUS
 62
     5
 10
-246.94
 20
-289.0
 30
0.0
 11
-231.06
 21
-289.0
 31
0.0
  0
LINE
  5
11B
  8
DETAIL
  6
CONTINUOUS
 62
     5
 10
-239.0
 20
-225.0
 30
0.0
 11
-239.0
 21
-289.0
 31
0.0
  0
LINE
  5
11C
  8
NOTE
  6
CONTINUOUS
 62
     4
 10
-179.0
 20
-309.0
 30
0.0
 11
-179.0
 21
-269.0
 31
0.0
  0
LINE
  5
11D
  8
NOTE
  6
CONTINUOUS
 62
     4
 10
-159.0
 20
-289.0
 30
0.0
 11
-199.0
 21
-289.0
 31
0.0
  0
LINE
  5
11E
  8
DETAIL
  6
CONTINUOUS
 62
     5
 10
-183.75999999999999
 20
-225.0
 30
0.0
 11
-183.75999999999999
 21
-289.0
 31
0.0
  0
LINE
  5
11F
  8
DETAIL
  6
CONTINUOUS
 62
     5
 10
-174.24000000000001
 20
-225.0
 30
0.0
 11
-174.24000000000001
 21
-289.0
 31
0.0
  0
LINE
  5
120
  8
DETAIL
  6
CONTINUOUS
 62
     5
 10
-186.94
 20
-225.0
 30
0.0
 11
-186.94
 21
-289.0
 31
0.0
  0
LINE
  5
121
  8
DETAIL
  6
CONTINUOUS
 62
     5
 10
-171.06
 20
-225.0
 30
0.0
 11
-171.06
 21
-289.0
 31
0.0
  0
LINE
  5
122
  8
DETAIL
  6
CONTINUOUS
 62
     5
 10
-183.75999999999999
 20
-289.0
 30
0.0
 11
-174.24000000000001
 21
-289.0
 31
0.0
  0
LINE
  5
123
  8
DETAIL
  6
CONTINUOUS
 62
     5
 10
-186.94
 20
-289.0
 30
0.0
 11
-171.06
 21
-289.0
 31
0.0
  0
LINE
  5
124
  8
DETAIL
  6
CONTINUOUS
 62
     5
 10
-179.0
 20
-225.0
 30
0.0
 11
-179.0
 21
-289.0
 31
0.0
  0
LINE
  5
125
  8
NOTE
  6
CONTINUOUS
 62
     4
 10
-119.0
 20
-309.0
 30
0.0
 11
-119.0
 21
-269.0
 31
0.0
  0
LINE
  5
126
  8
DETAIL
  6
CONTINUOUS
 62
     5
 10
-123.76000000000001
 20
-225.0
 30
0.0
 11
-123.76000000000001
 21
-289.0
 31
0.0
  0
LINE
  5
127
  8
DETAIL
  6
CONTINUOUS
 62
     5
 10
-114.23999999999999
 20
-225.0
 30
0.0
 11
-114.23999999999999
 21
-289.0
 31
0.0
  0
LINE
  5
128
  8
DETAIL
  6
CONTINUOUS
 62
     5
 10
-126.94
 20
-225.0
 30
0.0
 11
-126.94
 21
-289.0
 31
0.0
  0
LINE
  5
129
  8
DETAIL
  6
CONTINUOUS
 62
     5
 10
-111.06
 20
-225.0
 30
0.0
 11
-111.06
 21
-289.0
 31
0.0
  0
LINE
  5
12A
  8
DETAIL
  6
CONTINUOUS
 62
     5
 10
-123.76000000000001
 20
-289.0
 30
0.0
 11
-114.23999999999999
 21
-289.0
 31
0.0
  0
LINE
  5
12B
  8
DETAIL
  6
CONTINUOUS
 62
     5
 10
-126.94
 20
-289.0
 30
0.0
 11
-111.06
 21
-289.0
 31
0.0
  0
LINE
  5
12C
  8
DETAIL
  6
CONTINUOUS
 62
     5
 10
-119.0
 20
-225.0
 30
0.0
 11
-119.0
 21
-289.0
 31
0.0
  0
LINE
  5
12D
  8
NOTE
  6
CONTINUOUS
 62
     4
 10
-59.0
 20
-309.0
 30
0.0
 11
-59.0
 21
-269.0
 31
0.0
  0
LINE
  5
12E
  8
NOTE
  6
CONTINUOUS
 62
     4
 10
-39.0
 20
-289.0
 30
0.0
 11
-79.0
 21
-289.0
 31
0.0
  0
LINE
  5
12F
  8
DETAIL
  6
CONTINUOUS
 62
     5
 10
-63.759999999999998
 20
-225.0
 30
0.0
 11
-63.759999999999998
 21
-289.0
 31
0.0
  0
LINE
  5
130
  8
DETAIL
  6
CONTINUOUS
 62
     5
 10
-54.240000000000002
 20
-225.0
 30
0.0
 11
-54.240000000000002
 21
-289.0
 31
0.0
  0
LINE
  5
131
  8
DETAIL
  6
CONTINUOUS
 62
     5
 10
-66.939999999999984
 20
-225.0
 30
0.0
 11
-66.939999999999984
 21
-289.0
 31
0.0
  0
LINE
  5
132
  8
DETAIL
  6
CONTINUOUS
 62
     5
 10
-51.060000000000002
 20
-225.0
 30
0.0
 11
-51.060000000000002
 21
-289.0
 31
0.0
  0
LINE
  5
133
  8
DETAIL
  6
CONTINUOUS
 62
     5
 10
-63.759999999999998
 20
-289.0
 30
0.0
 11
-54.240000000000002
 21
-289.0
 31
0.0
  0
LINE
  5
134
  8
DETAIL
  6
CONTINUOUS
 62
     5
 10
-66.939999999999984
 20
-289.0
 30
0.0
 11
-51.060000000000002
 21
-289.0
 31
0.0
  0
LINE
  5
135
  8
DETAIL
  6
CONTINUOUS
 62
     5
 10
-59.0
 20
-225.0
 30
0.0
 11
-59.0
 21
-289.0
 31
0.0
  0
LINE
  5
136
  8
DETAIL
  6
CONTINUOUS
 62
     5
 10
625.0
 20
-109.3
 30
0.0
 11
555.0
 21
-109.3
 31
0.0
  0
LINE
  5
137
  8
DETAIL
  6
CONTINUOUS
 62
     5
 10
625.0
 20
-134.69999999999999
 30
0.0
 11
555.0
 21
-134.69999999999999
 31
0.0
  0
LINE
  5
138
  8
DETAIL
  6
CONTINUOUS
 62
     5
 10
625.0
 20
-109.3
 30
0.0
 11
625.0
 21
-134.69999999999999
 31
0.0
  0
LINE
  5
139
  8
NOTE
  6
CONTINUOUS
 62
     4
 10
625.0
 20
-142.0
 30
0.0
 11
625.0
 21
-102.0
 31
0.0
  0
LINE
  5
13A
  8
NOTE
  6
CONTINUOUS
 62
     4
 10
605.0
 20
-122.0
 30
0.0
 11
645.0
 21
-122.0
 31
0.0
  0
LINE
  5
13F
  8
DETAIL
  6
CONTINUOUS
 62
     5
 10
625.0
 20
-8.6500000000000004
 30
0.0
 11
625.0
 21
-21.350000000000001
 31
0.0
  0
LINE
  5
140
  8
NOTE
  6
CONTINUOUS
 62
     4
 10
625.0
 20
-35.0
 30
0.0
 11
625.0
 21
5.0
 31
0.0
  0
LINE
  5
141
  8
NOTE
  6
CONTINUOUS
 62
     4
 10
605.0
 20
-15.0
 30
0.0
 11
645.0
 21
-15.0
 31
0.0
  0
LINE
  5
143
  8
DETAIL
  6
CONTINUOUS
 62
     5
 10
625.0
 20
52.524999999999999
 30
0.0
 11
625.0
 21
33.475000000000001
 31
0.0
  0
LINE
  5
144
  8
NOTE
  6
CONTINUOUS
 62
     4
 10
625.0
 20
23.0
 30
0.0
 11
625.0
 21
63.0
 31
0.0
  0
LINE
  5
145
  8
NOTE
  6
CONTINUOUS
 62
     4
 10
605.0
 20
43.0
 30
0.0
 11
645.0
 21
43.0
 31
0.0
  0
LINE
  5
146
  8
BASIS
  6
DASHDOT
 62
     6
 10
0.0
 20
285.0
 30
0.0
 11
0.0
 21
-285.0
 31
0.0
  0
LINE
  5
147
  8
BASIS
  6
DASHDOT
 62
     6
 10
-675.0
 20
0.0
 30
0.0
 11
675.0
 21
0.0
 31
0.0
  0
CIRCLE
  5
148
  8
ARRANGE
  6
CONTINUOUS
 62
     1
 10
0.0
 20
0.0
 30
0.0
 40
40.0
  0
POINT
  5
149
  8
ARRANGE
  6
CONTINUOUS
 62
     1
 10
0.0
 20
0.0
 30
0.0
  0
LINE
  5
14A
  8
DETAIL
  6
CONTINUOUS
 62
     5
 10
507.93788099999989
 20
225.0
 30
0.0
 11
507.93788099999989
 21
295.0
 31
0.0
  0
LINE
  5
14B
  8
DETAIL
  6
CONTINUOUS
 62
     5
 10
35.942619999999998
 20
295.0
 30
0.0
 11
507.93788099999989
 21
295.0
 31
0.0
  0
LINE
  5
14C
  8
DETAIL
  6
CONTINUOUS
 62
     5
 10
35.942619999999998
 20
225.0
 30
0.0
 11
35.942619999999998
 21
295.0
 31
0.0
  0
LINE
  5
14D
  8
DETAIL
  6
CONTINUOUS
 62
     5
 10
625.0
 20
-8.6500000000000004
 30
0.0
 11
555.0
 21
-8.6500000000000004
 31
0.0
  0
LINE
  5
14E
  8
DETAIL
  6
CONTINUOUS
 62
     5
 10
625.0
 20
-21.350000000000001
 30
0.0
 11
555.0
 21
-21.350000000000001
 31
0.0
  0
LINE
  5
14F
  8
DETAIL
  6
CONTINUOUS
 62
     5
 10
625.0
 20
52.524999999999999
 30
0.0
 11
555.0
 21
52.524999999999999
 31
0.0
  0
LINE
  5
150
  8
DETAIL
  6
CONTINUOUS
 62
     5
 10
625.0
 20
33.475000000000001
 30
0.0
 11
555.0
 21
33.475000000000001
 31
0.0
  0
LINE
  5
151
  8
NOTE
  6
CONTINUOUS
 62
     4
 10
-582.0
 20
-214.0
 30
0.0
 11
-582.0
 21
-174.0
 31
0.0
  0
LINE
  5
152
  8
NOTE
  6
CONTINUOUS
 62
     4
 10
-562.0
 20
-194.0
 30
0.0
 11
-602.0
 21
-194.0
 31
0.0
  0
LINE
  5
159
  8
SIZE
  6
CONTINUOUS
 62
    30
 10
-555.0
 20
-245.0
 30
0.0
 11
-555.0
 21
-590.10639100000003
 31
0.0
  0
LINE
  5
15A
  8
SIZE
  6
CONTINUOUS
 62
    30
 10
-479.0
 20
-329.0
 30
0.0
 11
-479.0
 21
-590.10639100000003
 31
0.0
  0
LINE
  5
15B
  8
SIZE
  6
CONTINUOUS
 62
    30
 10
-565.0
 20
-560.10639100000003
 30
0.0
 11
-575.0
 21
-560.10639100000003
 31
0.0
  0
LINE
  5
15C
  8
SIZE
  6
CONTINUOUS
 62
    30
 10
-469.0
 20
-560.10639100000003
 30
0.0
 11
-459.0
 21
-560.10639100000003
 31
0.0
  0
LINE
  5
15D
  8
SIZE
  6
CONTINUOUS
 62
    30
 10
-555.0
 20
-560.10639100000003
 30
0.0
 11
-479.0
 21
-560.10639100000003
 31
0.0
  0
CIRCLE
  5
15E
  8
SIZE
  6
CONTINUOUS
 62
    30
 10
-555.0
 20
-560.10639100000003
 30
0.0
 40
5.0
  0
LINE
  5
15F
  8
SIZE
  6
CONTINUOUS
 62
    30
 10
-560.0
 20
-560.10639100000003
 30
0.0
 11
-565.0
 21
-560.10639100000003
 31
0.0
  0
CIRCLE
  5
160
  8
SIZE
  6
CONTINUOUS
 62
    30
 10
-479.0
 20
-560.10639100000003
 30
0.0
 40
5.0
  0
LINE
  5
161
  8
SIZE
  6
CONTINUOUS
 62
    30
 10
-474.0
 20
-560.10639100000003
 30
0.0
 11
-469.0
 21
-560.10639100000003
 31
0.0
  0
TEXT
  5
162
  8
SIZE
  6
CONTINUOUS
 62
    30
 10
-562.25714285714275
 20
-540.10639100000003
 30
0.0
 40
64.0
  1
76
 41
0.9
 72
     1
 11
-517.0
 21
-540.10639100000003
 31
0.0
  0
POINT
  5
163
  8
DEFPOINTS
  6
CONTINUOUS
 62
     7
 10
-555.0
 20
-225.0
 30
0.0
  0
POINT
  5
164
  8
DEFPOINTS
  6
CONTINUOUS
 62
     7
 10
-479.0
 20
-289.0
 30
0.0
  0
POINT
  5
165
  8
DEFPOINTS
  6
CONTINUOUS
 62
     7
 10
-479.0
 20
-560.10639100000003
 30
0.0
  0
LINE
  5
166
  8
SIZE
  6
CONTINUOUS
 62
    30
 10
-555.0
 20
-245.0
 30
0.0
 11
-555.0
 21
-827.79476
 31
0.0
  0
LINE
  5
167
  8
SIZE
  6
CONTINUOUS
 62
    30
 10
555.0
 20
-245.0
 30
0.0
 11
555.0
 21
-827.79476
 31
0.0
  0
LINE
  5
168
  8
SIZE
  6
CONTINUOUS
 62
    30
 10
-545.0
 20
-797.79476
 30
0.0
 11
545.0
 21
-797.79476
 31
0.0
  0
CIRCLE
  5
169
  8
SIZE
  6
CONTINUOUS
 62
    30
 10
-555.0
 20
-797.79476
 30
0.0
 40
5.0
  0
LINE
  5
16A
  8
SIZE
  6
CONTINUOUS
 62
    30
 10
-550.0
 20
-797.79476
 30
0.0
 11
-545.0
 21
-797.79476
 31
0.0
  0
CIRCLE
  5
16B
  8
SIZE
  6
CONTINUOUS
 62
    30
 10
555.0
 20
-797.79476
 30
0.0
 40
5.0
  0
LINE
  5
16C
  8
SIZE
  6
CONTINUOUS
 62
    30
 10
550.0
 20
-797.79476
 30
0.0
 11
545.0
 21
-797.79476
 31
0.0
  0
TEXT
  5
16D
  8
SIZE
  6
CONTINUOUS
 62
    30
 10
-85.028571428571425
 20
-777.79476
 30
0.0
 40
64.0
  1
1110
 41
0.9
 72
     1
 11
0.0
 21
-777.79476
 31
0.0
  0
POINT
  5
16E
  8
DEFPOINTS
  6
CONTINUOUS
 62
     7
 10
-555.0
 20
-225.0
 30
0.0
  0
POINT
  5
16F
  8
DEFPOINTS
  6
CONTINUOUS
 62
     7
 10
555.0
 20
-225.0
 30
0.0
  0
POINT
  5
170
  8
DEFPOINTS
  6
CONTINUOUS
 62
     7
 10
555.0
 20
-797.79476
 30
0.0
  0
LINE
  5
171
  8
SIZE
  6
CONTINUOUS
 62
    30
 10
-581.9995389999998
 20
-243.8198301424309
 30
0.0
 11
-581.9995389999998
 21
-931.61000899999999
 31
0.0
  0
LINE
  5
172
  8
SIZE
  6
CONTINUOUS
 62
    30
 10
582.00046099999997
 20
-243.4645766078302
 30
0.0
 11
582.00046099999997
 21
-931.61000899999999
 31
0.0
  0
LINE
  5
173
  8
SIZE
  6
CONTINUOUS
 62
    30
 10
-571.99953899999991
 20
-901.61000899999999
 30
0.0
 11
572.00046100000009
 21
-901.61000899999999
 31
0.0
  0
CIRCLE
  5
174
  8
SIZE
  6
CONTINUOUS
 62
    30
 10
-581.9995389999998
 20
-901.61000899999999
 30
0.0
 40
5.0
  0
LINE
  5
175
  8
SIZE
  6
CONTINUOUS
 62
    30
 10
-576.99953899999991
 20
-901.61000899999999
 30
0.0
 11
-571.99953899999991
 21
-901.61000899999999
 31
0.0
  0
CIRCLE
  5
176
  8
SIZE
  6
CONTINUOUS
 62
    30
 10
582.00046099999997
 20
-901.61000899999999
 30
0.0
 40
5.0
  0
LINE
  5
177
  8
SIZE
  6
CONTINUOUS
 62
    30
 10
577.00046099999997
 20
-901.61000899999999
 30
0.0
 11
572.00046100000009
 21
-901.61000899999999
 31
0.0
  0
TEXT
  5
178
  8
SIZE
  6
CONTINUOUS
 62
    30
 10
-337.42615828571428
 20
-881.61000899999999
 30
0.0
 40
64.0
  1
1164
 41
0.9
 72
     1
 11
-245.54044400000001
 21
-881.61000899999999
 31
0.0
  0
POINT
  5
179
  8
DEFPOINTS
  6
CONTINUOUS
 62
     7
 10
-582.0
 20
-194.0
 30
0.0
  0
POINT
  5
17B
  8
DEFPOINTS
  6
CONTINUOUS
 62
     7
 10
582.00046099999997
 20
-901.61000899999999
 30
0.0
  0
LINE
  5
17C
  8
SIZE
  6
CONTINUOUS
 62
    30
 10
575.00046100000009
 20
214.0
 30
0.0
 11
575.00046100000009
 21
306.24402400000002
 31
0.0
  0
LINE
  5
17D
  8
SIZE
  6
CONTINUOUS
 62
    30
 10
589.00045599999999
 20
222.00806299999999
 30
0.0
 11
589.00045599999999
 21
306.24402400000002
 31
0.0
  0
LINE
  5
17E
  8
SIZE
  6
CONTINUOUS
 62
    30
 10
565.00046099999997
 20
276.24402400000002
 30
0.0
 11
555.00046100000009
 21
276.24402400000002
 31
0.0
  0
LINE
  5
17F
  8
SIZE
  6
CONTINUOUS
 62
    30
 10
599.00045599999999
 20
276.24402400000002
 30
0.0
 11
609.00045599999987
 21
276.24402400000002
 31
0.0
  0
LINE
  5
180
  8
SIZE
  6
CONTINUOUS
 62
    30
 10
575.00046100000009
 20
276.24402400000002
 30
0.0
 11
589.00045599999999
 21
276.24402400000002
 31
0.0
  0
CIRCLE
  5
181
  8
SIZE
  6
CONTINUOUS
 62
    30
 10
575.00046100000009
 20
276.24402400000002
 30
0.0
 40
5.0
  0
LINE
  5
182
  8
SIZE
  6
CONTINUOUS
 62
    30
 10
570.00046099999997
 20
276.24402400000002
 30
0.0
 11
565.00046099999997
 21
276.24402400000002
 31
0.0
  0
CIRCLE
  5
183
  8
SIZE
  6
CONTINUOUS
 62
    30
 10
589.00045599999999
 20
276.24402400000002
 30
0.0
 40
5.0
  0
LINE
  5
184
  8
SIZE
  6
CONTINUOUS
 62
    30
 10
594.00045599999999
 20
276.24402400000002
 30
0.0
 11
599.00045599999999
 21
276.24402400000002
 31
0.0
  0
TEXT
  5
185
  8
SIZE
  6
CONTINUOUS
 62
    30
 10
539.48617328571424
 20
296.24402400000002
 30
0.0
 40
64.0
  1
14
 41
0.9
 72
     1
 11
582.00045899999986
 21
296.24402400000002
 31
0.0
  0
POINT
  5
186
  8
DEFPOINTS
  6
CONTINUOUS
 62
     7
 10
575.00046100000009
 20
194.0
 30
0.0
  0
POINT
  5
187
  8
DEFPOINTS
  6
CONTINUOUS
 62
     7
 10
589.00045599999999
 20
202.00806299999999
 30
0.0
  0
POINT
  5
188
  8
DEFPOINTS
  6
CONTINUOUS
 62
     7
 10
589.00045599999999
 20
276.24402400000002
 30
0.0
  0
LINE
  5
189
  8
SIZE
  6
CONTINUOUS
 62
    30
 10
609.00046100000009
 20
200.0
 30
0.0
 11
733.46624199999985
 21
200.0
 31
0.0
  0
LINE
  5
18A
  8
SIZE
  6
CONTINUOUS
 62
    30
 10
609.00046100000009
 20
188.0
 30
0.0
 11
733.46624199999985
 21
188.0
 31
0.0
  0
LINE
  5
18B
  8
SIZE
  6
CONTINUOUS
 62
    30
 10
703.46624199999997
 20
210.0
 30
0.0
 11
703.46624199999997
 21
220.0
 31
0.0
  0
LINE
  5
18C
  8
SIZE
  6
CONTINUOUS
 62
    30
 10
703.46624199999997
 20
178.0
 30
0.0
 11
703.46624199999997
 21
168.0
 31
0.0
  0
LINE
  5
18D
  8
SIZE
  6
CONTINUOUS
 62
    30
 10
703.46624199999997
 20
200.0
 30
0.0
 11
703.46624199999997
 21
188.0
 31
0.0
  0
CIRCLE
  5
18E
  8
SIZE
  6
CONTINUOUS
 62
    30
 10
703.46624199999997
 20
200.0
 30
0.0
 40
5.0
  0
LINE
  5
18F
  8
SIZE
  6
CONTINUOUS
 62
    30
 10
703.46624199999997
 20
205.0
 30
0.0
 11
703.46624199999997
 21
210.0
 31
0.0
  0
CIRCLE
  5
190
  8
SIZE
  6
CONTINUOUS
 62
    30
 10
703.46624199999997
 20
188.0
 30
0.0
 40
5.0
  0
LINE
  5
191
  8
SIZE
  6
CONTINUOUS
 62
    30
 10
703.46624199999997
 20
183.0
 30
0.0
 11
703.46624199999997
 21
178.0
 31
0.0
  0
TEXT
  5
192
  8
SIZE
  6
CONTINUOUS
 62
    30
 10
683.46624199999985
 20
152.8571428571428
 30
0.0
 40
64.0
  1
12
 50
90.0
 41
0.9
 72
     1
 11
683.46624199999985
 21
194.0
 31
0.0
  0
POINT
  5
193
  8
DEFPOINTS
  6
CONTINUOUS
 62
     7
 10
589.00046099999997
 20
200.0
 30
0.0
  0
POINT
  5
194
  8
DEFPOINTS
  6
CONTINUOUS
 62
     7
 10
589.00046099999997
 20
188.0
 30
0.0
  0
POINT
  5
195
  8
DEFPOINTS
  6
CONTINUOUS
 62
     7
 10
703.46624199999997
 20
188.0
 30
0.0
  0
LINE
  5
196
  8
SIZE
  6
CONTINUOUS
 62
    30
 10
601.99953899999991
 20
209.0
 30
0.0
 11
848.01721799999996
 21
209.0
 31
0.0
  0
LINE
  5
197
  8
SIZE
  6
CONTINUOUS
 62
    30
 10
601.99953899999991
 20
179.0
 30
0.0
 11
848.01721799999996
 21
179.0
 31
0.0
  0
LINE
  5
198
  8
SIZE
  6
CONTINUOUS
 62
    30
 10
818.01721799999984
 20
219.0
 30
0.0
 11
818.01721799999984
 21
229.0
 31
0.0
  0
LINE
  5
199
  8
SIZE
  6
CONTINUOUS
 62
    30
 10
818.01721799999984
 20
169.0
 30
0.0
 11
818.01721799999984
 21
159.0
 31
0.0
  0
LINE
  5
19A
  8
SIZE
  6
CONTINUOUS
 62
    30
 10
818.01721799999984
 20
209.0
 30
0.0
 11
818.01721799999984
 21
179.0
 31
0.0
  0
CIRCLE
  5
19B
  8
SIZE
  6
CONTINUOUS
 62
    30
 10
818.01721799999984
 20
209.0
 30
0.0
 40
5.0
  0
LINE
  5
19C
  8
SIZE
  6
CONTINUOUS
 62
    30
 10
818.01721799999984
 20
214.0
 30
0.0
 11
818.01721799999984
 21
219.0
 31
0.0
  0
CIRCLE
  5
19D
  8
SIZE
  6
CONTINUOUS
 62
    30
 10
818.01721799999984
 20
179.0
 30
0.0
 40
5.0
  0
LINE
  5
19E
  8
SIZE
  6
CONTINUOUS
 62
    30
 10
818.01721799999984
 20
174.0
 30
0.0
 11
818.01721799999984
 21
169.0
 31
0.0
  0
TEXT
  5
19F
  8
SIZE
  6
CONTINUOUS
 62
    30
 10
798.01721799999984
 20
147.37142857142859
 30
0.0
 40
64.0
  1
30
 50
90.0
 41
0.9
 72
     1
 11
798.01721799999984
 21
194.0
 31
0.0
  0
POINT
  5
1A0
  8
DEFPOINTS
  6
CONTINUOUS
 62
     7
 10
581.9995389999998
 20
209.0
 30
0.0
  0
POINT
  5
1A1
  8
DEFPOINTS
  6
CONTINUOUS
 62
     7
 10
581.9995389999998
 20
179.0
 30
0.0
  0
POINT
  5
1A2
  8
DEFPOINTS
  6
CONTINUOUS
 62
     7
 10
818.01721799999984
 20
179.0
 30
0.0
  0
LINE
  5
1A3
  8
SIZE
  6
CONTINUOUS
 62
    30
 10
527.93788099999995
 20
295.0
 30
0.0
 11
1000.4698550000001
 21
295.0
 31
0.0
  0
LINE
  5
1A4
  8
SIZE
  6
CONTINUOUS
 62
    30
 10
575.0
 20
225.0
 30
0.0
 11
1000.4698550000001
 21
225.0
 31
0.0
  0
LINE
  5
1A5
  8
SIZE
  6
CONTINUOUS
 62
    30
 10
970.46985500000005
 20
305.0
 30
0.0
 11
970.46985500000005
 21
406.00324793646348
 31
0.0
  0
LINE
  5
1A6
  8
SIZE
  6
CONTINUOUS
 62
    30
 10
970.46985500000005
 20
215.0
 30
0.0
 11
970.46985500000005
 21
205.0
 31
0.0
  0
LINE
  5
1A7
  8
SIZE
  6
CONTINUOUS
 62
    30
 10
970.46985500000005
 20
295.0
 30
0.0
 11
970.46985500000005
 21
225.0
 31
0.0
  0
CIRCLE
  5
1A8
  8
SIZE
  6
CONTINUOUS
 62
    30
 10
970.46985500000005
 20
295.0
 30
0.0
 40
5.0
  0
LINE
  5
1A9
  8
SIZE
  6
CONTINUOUS
 62
    30
 10
970.46985500000005
 20
300.0
 30
0.0
 11
970.46985500000005
 21
305.0
 31
0.0
  0
CIRCLE
  5
1AA
  8
SIZE
  6
CONTINUOUS
 62
    30
 10
970.46985500000005
 20
225.0
 30
0.0
 40
5.0
  0
LINE
  5
1AB
  8
SIZE
  6
CONTINUOUS
 62
    30
 10
970.46985500000005
 20
220.0
 30
0.0
 11
970.46985500000005
 21
215.0
 31
0.0
  0
TEXT
  5
1AC
  8
SIZE
  6
CONTINUOUS
 62
    30
 10
950.46985500000005
 20
309.6842640765899
 30
0.0
 40
64.0
  1
70
 50
90.0
 41
0.9
 72
     1
 11
950.46985500000005
 21
356.31283550516127
 31
0.0
  0
POINT
  5
1AD
  8
DEFPOINTS
  6
CONTINUOUS
 62
     7
 10
507.93788099999989
 20
295.0
 30
0.0
  0
POINT
  5
1AE
  8
DEFPOINTS
  6
CONTINUOUS
 62
     7
 10
555.0
 20
225.0
 30
0.0
  0
POINT
  5
1AF
  8
DEFPOINTS
  6
CONTINUOUS
 62
     7
 10
970.46985500000005
 20
225.0
 30
0.0
  0
LINE
  5
1B0
  8
SIZE
  6
CONTINUOUS
 62
    30
 10
575.0
 20
225.0
 30
0.0
 11
1000.184358
 21
225.0
 31
0.0
  0
LINE
  5
1B1
  8
SIZE
  6
CONTINUOUS
 62
    30
 10
575.0
 20
-225.0
 30
0.0
 11
1000.184358
 21
-225.0
 31
0.0
  0
LINE
  5
1B2
  8
SIZE
  6
CONTINUOUS
 62
    30
 10
970.18435799999997
 20
215.0
 30
0.0
 11
970.18435799999997
 21
-215.0
 31
0.0
  0
CIRCLE
  5
1B3
  8
SIZE
  6
CONTINUOUS
 62
    30
 10
970.18435799999997
 20
225.0
 30
0.0
 40
5.0
  0
LINE
  5
1B4
  8
SIZE
  6
CONTINUOUS
 62
    30
 10
970.18435799999997
 20
220.0
 30
0.0
 11
970.18435799999997
 21
215.0
 31
0.0
  0
CIRCLE
  5
1B5
  8
SIZE
  6
CONTINUOUS
 62
    30
 10
970.18435799999997
 20
-225.0
 30
0.0
 40
5.0
  0
LINE
  5
1B6
  8
SIZE
  6
CONTINUOUS
 62
    30
 10
970.18435799999997
 20
-220.0
 30
0.0
 11
970.18435799999997
 21
-215.0
 31
0.0
  0
TEXT
  5
1B7
  8
SIZE
  6
CONTINUOUS
 62
    30
 10
950.18435799999986
 20
-74.05714285714285
 30
0.0
 40
64.0
  1
450
 50
90.0
 41
0.9
 72
     1
 11
950.18435799999986
 21
0.0
 31
0.0
  0
POINT
  5
1B8
  8
DEFPOINTS
  6
CONTINUOUS
 62
     7
 10
555.0
 20
225.0
 30
0.0
  0
POINT
  5
1B9
  8
DEFPOINTS
  6
CONTINUOUS
 62
     7
 10
555.0
 20
-225.0
 30
0.0
  0
POINT
  5
1BA
  8
DEFPOINTS
  6
CONTINUOUS
 62
     7
 10
970.18435799999997
 20
-225.0
 30
0.0
  0
LINE
  5
1BB
  8
SIZE
  6
CONTINUOUS
 62
    30
 10
608.70136078896758
 20
194.0
 30
0.0
 11
898.16157399999997
 21
194.0
 31
0.0
  0
LINE
  5
1BC
  8
SIZE
  6
CONTINUOUS
 62
    30
 10
637.72750124872255
 20
-194.0
 30
0.0
 11
898.16157399999997
 21
-194.0
 31
0.0
  0
LINE
  5
1BD
  8
SIZE
  6
CONTINUOUS
 62
    30
 10
868.16157399999986
 20
184.0
 30
0.0
 11
868.16157399999986
 21
-184.0
 31
0.0
  0
LINE
  5
1BE
  8
SIZE
  6
CONTINUOUS
 62
    30
 10
868.16157399999986
 20
-194.0
 30
0.0
 11
868.16157399999986
 21
-799.53825800000004
 31
0.0
  0
CIRCLE
  5
1BF
  8
SIZE
  6
CONTINUOUS
 62
    30
 10
868.16157399999986
 20
194.0
 30
0.0
 40
5.0
  0
LINE
  5
1C0
  8
SIZE
  6
CONTINUOUS
 62
    30
 10
868.16157399999986
 20
189.0
 30
0.0
 11
868.16157399999986
 21
184.0
 31
0.0
  0
CIRCLE
  5
1C1
  8
SIZE
  6
CONTINUOUS
 62
    30
 10
868.16157399999986
 20
-194.0
 30
0.0
 40
5.0
  0
LINE
  5
1C2
  8
SIZE
  6
CONTINUOUS
 62
    30
 10
868.16157399999986
 20
-189.0
 30
0.0
 11
868.16157399999986
 21
-184.0
 31
0.0
  0
TEXT
  5
1C3
  8
SIZE
  6
CONTINUOUS
 62
    30
 10
848.16157399999997
 20
-779.53825785714287
 30
0.0
 40
64.0
  1
388
 50
90.0
 41
0.9
 72
     1
 11
848.16157399999997
 21
-705.48111500000005
 31
0.0
  0
POINT
  5
1C4
  8
DEFPOINTS
  6
CONTINUOUS
 62
     7
 10
582.0
 20
194.0
 30
0.0
  0
POINT
  5
1C5
  8
DEFPOINTS
  6
CONTINUOUS
 62
     7
 10
582.0
 20
-194.0
 30
0.0
  0
POINT
  5
1C6
  8
DEFPOINTS
  6
CONTINUOUS
 62
     7
 10
868.16157399999986
 20
-194.0
 30
0.0
  0
LINE
  5
1C7
  8
SIZE
  6
CONTINUOUS
 62
    30
 10
-555.0
 20
-245.0
 30
0.0
 11
-555.0
 21
-384.939662
 31
0.0
  0
LINE
  5
1C8
  8
SIZE
  6
CONTINUOUS
 62
    30
 10
-645.0
 20
-154.69999999999999
 30
0.0
 11
-645.0
 21
-384.939662
 31
0.0
  0
LINE
  5
1C9
  8
SIZE
  6
CONTINUOUS
 62
    30
 10
-545.0
 20
-354.939662
 30
0.0
 11
-535.0
 21
-354.939662
 31
0.0
  0
LINE
  5
1CA
  8
SIZE
  6
CONTINUOUS
 62
    30
 10
-655.0
 20
-354.939662
 30
0.0
 11
-766.00759823317264
 21
-354.939662
 31
0.0
  0
LINE
  5
1CB
  8
SIZE
  6
CONTINUOUS
 62
    30
 10
-555.0
 20
-354.939662
 30
0.0
 11
-645.0
 21
-354.939662
 31
0.0
  0
CIRCLE
  5
1CC
  8
SIZE
  6
CONTINUOUS
 62
    30
 10
-555.0
 20
-354.939662
 30
0.0
 40
5.0
  0
LINE
  5
1CD
  8
SIZE
  6
CONTINUOUS
 62
    30
 10
-550.0
 20
-354.939662
 30
0.0
 11
-545.0
 21
-354.939662
 31
0.0
  0
CIRCLE
  5
1CE
  8
SIZE
  6
CONTINUOUS
 62
    30
 10
-645.0
 20
-354.939662
 30
0.0
 40
5.0
  0
LINE
  5
1CF
  8
SIZE
  6
CONTINUOUS
 62
    30
 10
-650.0
 20
-354.939662
 30
0.0
 11
-655.0
 21
-354.939662
 31
0.0
  0
TEXT
  5
1D0
  8
SIZE
  6
CONTINUOUS
 62
    30
 10
-753.21542790899366
 20
-334.939662
 30
0.0
 40
64.0
  1
90
 41
0.9
 72
     1
 11
-706.58685648042217
 21
-334.939662
 31
0.0
  0
POINT
  5
1D1
  8
DEFPOINTS
  6
CONTINUOUS
 62
     7
 10
-555.0
 20
-225.0
 30
0.0
  0
POINT
  5
1D2
  8
DEFPOINTS
  6
CONTINUOUS
 62
     7
 10
-645.0
 20
-142.0
 30
0.0
  0
POINT
  5
1D3
  8
DEFPOINTS
  6
CONTINUOUS
 62
     7
 10
-645.0
 20
-354.939662
 30
0.0
  0
LINE
  5
1D4
  8
SIZE
  6
CONTINUOUS
 62
    30
 10
-555.0
 20
245.0
 30
0.0
 11
-555.0
 21
356.25667800000002
 31
0.0
  0
LINE
  5
1D5
  8
SIZE
  6
CONTINUOUS
 62
    30
 10
-755.0
 20
148.0
 30
0.0
 11
-755.0
 21
356.25667800000002
 31
0.0
  0
LINE
  5
1D6
  8
SIZE
  6
CONTINUOUS
 62
    30
 10
-565.0
 20
326.25667800000002
 30
0.0
 11
-745.0
 21
326.25667800000002
 31
0.0
  0
CIRCLE
  5
1D7
  8
SIZE
  6
CONTINUOUS
 62
    30
 10
-555.0
 20
326.25667800000002
 30
0.0
 40
5.0
  0
LINE
  5
1D8
  8
SIZE
  6
CONTINUOUS
 62
    30
 10
-560.0
 20
326.25667800000002
 30
0.0
 11
-565.0
 21
326.25667800000002
 31
0.0
  0
CIRCLE
  5
1D9
  8
SIZE
  6
CONTINUOUS
 62
    30
 10
-755.0
 20
326.25667800000002
 30
0.0
 40
5.0
  0
LINE
  5
1DA
  8
SIZE
  6
CONTINUOUS
 62
    30
 10
-750.0
 20
326.25667800000002
 30
0.0
 11
-745.0
 21
326.25667800000002
 31
0.0
  0
TEXT
  5
1DB
  8
SIZE
  6
CONTINUOUS
 62
    30
 10
-721.55714285714282
 20
346.25667799999991
 30
0.0
 40
64.0
  1
200
 41
0.9
 72
     1
 11
-647.5
 21
346.25667799999991
 31
0.0
  0
POINT
  5
1DC
  8
DEFPOINTS
  6
CONTINUOUS
 62
     7
 10
-555.0
 20
225.0
 30
0.0
  0
POINT
  5
1DD
  8
DEFPOINTS
  6
CONTINUOUS
 62
     7
 10
-755.0
 20
128.0
 30
0.0
  0
POINT
  5
1DE
  8
DEFPOINTS
  6
CONTINUOUS
 62
     7
 10
-755.0
 20
326.25667800000002
 30
0.0
  0
LINE
  5
1E9
  8
SIZE
  6
CONTINUOUS
 62
    30
 10
555.0
 20
-245.0
 30
0.0
 11
555.0
 21
-368.98174599999999
 31
0.0
  0
LINE
  5
1EA
  8
SIZE
  6
CONTINUOUS
 62
    30
 10
625.0
 20
-154.69999999999999
 30
0.0
 11
625.0
 21
-368.98174599999999
 31
0.0
  0
LINE
  5
1EB
  8
SIZE
  6
CONTINUOUS
 62
    30
 10
545.0
 20
-338.98174599999999
 30
0.0
 11
535.0
 21
-338.98174599999999
 31
0.0
  0
LINE
  5
1EC
  8
SIZE
  6
CONTINUOUS
 62
    30
 10
635.0
 20
-338.98174599999999
 30
0.0
 11
744.4899248670481
 21
-338.98174599999999
 31
0.0
  0
LINE
  5
1ED
  8
SIZE
  6
CONTINUOUS
 62
    30
 10
555.0
 20
-338.98174599999999
 30
0.0
 11
625.0
 21
-338.98174599999999
 31
0.0
  0
CIRCLE
  5
1EE
  8
SIZE
  6
CONTINUOUS
 62
    30
 10
555.0
 20
-338.98174599999999
 30
0.0
 40
5.0
  0
LINE
  5
1EF
  8
SIZE
  6
CONTINUOUS
 62
    30
 10
550.0
 20
-338.98174599999999
 30
0.0
 11
545.0
 21
-338.98174599999999
 31
0.0
  0
CIRCLE
  5
1F0
  8
SIZE
  6
CONTINUOUS
 62
    30
 10
625.0
 20
-338.98174599999999
 30
0.0
 40
5.0
  0
LINE
  5
1F1
  8
SIZE
  6
CONTINUOUS
 62
    30
 10
630.0
 20
-338.98174599999999
 30
0.0
 11
635.0
 21
-338.98174599999999
 31
0.0
  0
TEXT
  5
1F2
  8
SIZE
  6
CONTINUOUS
 62
    30
 10
637.20793947769016
 20
-318.98174599999999
 30
0.0
 40
64.0
  1
70
 41
0.9
 72
     1
 11
683.83651090626154
 21
-318.98174599999999
 31
0.0
  0
POINT
  5
1F3
  8
DEFPOINTS
  6
CONTINUOUS
 62
     7
 10
555.0
 20
-225.0
 30
0.0
  0
POINT
  5
1F4
  8
DEFPOINTS
  6
CONTINUOUS
 62
     7
 10
625.0
 20
-134.69999999999999
 30
0.0
  0
POINT
  5
1F5
  8
DEFPOINTS
  6
CONTINUOUS
 62
     7
 10
625.0
 20
-338.98174599999999
 30
0.0
  0
POINT
  5
1FF
  8
DEFPOINTS
  6
CONTINUOUS
 62
     7
 10
555.0
 20
-21.350000000000001
 30
0.0
  0
POINT
  5
200
  8
DEFPOINTS
  6
CONTINUOUS
 62
     7
 10
625.0
 20
-21.350000000000001
 30
0.0
  0
POINT
  5
20C
  8
DEFPOINTS
  6
CONTINUOUS
 62
     7
 10
555.0
 20
52.524999999999999
 30
0.0
  0
POINT
  5
20D
  8
DEFPOINTS
  6
CONTINUOUS
 62
     7
 10
625.0
 20
52.524999999999999
 30
0.0
  0
LINE
  5
219
  8
NOTE
  6
CONTINUOUS
 62
     4
 10
634.58646599999997
 20
-125.90888
 30
0.0
 11
625.0
 21
-122.0
 31
0.0
  0
LINE
  5
21A
  8
NOTE
  6
CONTINUOUS
 62
     4
 10
625.0
 20
-122.0
 30
0.0
 11
631.34768299999985
 21
-130.17842200000001
 31
0.0
  0
LINE
  5
21B
  8
NOTE
  6
CONTINUOUS
 62
     4
 10
634.05952600000001
 20
-20.010456000000001
 30
0.0
 11
625.0
 21
-15.0
 31
0.0
  0
LINE
  5
21C
  8
NOTE
  6
CONTINUOUS
 62
     4
 10
625.0
 20
-15.0
 30
0.0
 11
635.35100699999987
 21
-14.809419
 31
0.0
  0
LINE
  5
222
  8
NOTE
  6
CONTINUOUS
 62
     4
 10
632.20468600000004
 20
50.434525000000001
 30
0.0
 11
625.0
 21
43.0
 31
0.0
  0
LINE
  5
223
  8
NOTE
  6
CONTINUOUS
 62
     4
 10
625.0
 20
43.0
 30
0.0
 11
634.95670400000006
 21
45.836145000000002
 31
0.0
  0
LINE
  5
224
  8
OUTLINE
  6
CONTINUOUS
 62
     3
 10
-555.0
 20
225.0
 30
0.0
 11
-555.0
 21
-225.0
 31
0.0
  0
LINE
  5
225
  8
OUTLINE
  6
CONTINUOUS
 62
     3
 10
-555.0
 20
-225.0
 30
0.0
 11
555.0
 21
-225.0
 31
0.0
  0
LINE
  5
226
  8
OUTLINE
  6
CONTINUOUS
 62
     3
 10
555.0
 20
-225.0
 30
0.0
 11
555.0
 21
225.0
 31
0.0
  0
LINE
  5
227
  8
SIZE
  6
CONTINUOUS
 62
    30
 10
-625.0
 20
3.0
 30
0.0
 11
-625.0
 21
-105.06770299999999
 31
0.0
  0
LINE
  5
228
  8
SIZE
  6
CONTINUOUS
 62
    30
 10
-555.0
 20
13.475
 30
0.0
 11
-555.0
 21
-105.06770299999999
 31
0.0
  0
LINE
  5
229
  8
SIZE
  6
CONTINUOUS
 62
    30
 10
-635.0
 20
-75.067703000000009
 30
0.0
 11
-797.36853593084561
 21
-75.067703000000009
 31
0.0
  0
LINE
  5
22A
  8
SIZE
  6
CONTINUOUS
 62
    30
 10
-545.0
 20
-75.067703000000009
 30
0.0
 11
-535.0
 21
-75.067703000000009
 31
0.0
  0
LINE
  5
22B
  8
SIZE
  6
CONTINUOUS
 62
    30
 10
-625.0
 20
-75.067703000000009
 30
0.0
 11
-555.0
 21
-75.067703000000009
 31
0.0
  0
CIRCLE
  5
22C
  8
SIZE
  6
CONTINUOUS
 62
    30
 10
-625.0
 20
-75.067703000000009
 30
0.0
 40
5.0
  0
LINE
  5
22D
  8
SIZE
  6
CONTINUOUS
 62
    30
 10
-630.0
 20
-75.067703000000009
 30
0.0
 11
-635.0
 21
-75.067703000000009
 31
0.0
  0
CIRCLE
  5
22E
  8
SIZE
  6
CONTINUOUS
 62
    30
 10
-555.0
 20
-75.067703000000009
 30
0.0
 40
5.0
  0
LINE
  5
22F
  8
SIZE
  6
CONTINUOUS
 62
    30
 10
-550.0
 20
-75.067703000000009
 30
0.0
 11
-545.0
 21
-75.067703000000009
 31
0.0
  0
TEXT
  5
230
  8
SIZE
  6
CONTINUOUS
 62
    30
 10
-777.97406775910895
 20
-55.067703000000002
 30
0.0
 40
64.0
  1
70
 41
0.9
 72
     1
 11
-731.34549633053757
 21
-55.067703000000002
 31
0.0
  0
POINT
  5
231
  8
DEFPOINTS
  6
CONTINUOUS
 62
     7
 10
-625.0
 20
23.0
 30
0.0
  0
POINT
  5
233
  8
DEFPOINTS
  6
CONTINUOUS
 62
     7
 10
-555.0
 20
-75.067703000000009
 30
0.0
  0
LINE
  5
234
  8
SIZE
  6
CONTINUOUS
 62
    30
 10
-479.0
 20
-329.0
 30
0.0
 11
-479.0
 21
-451.60206699999992
 31
0.0
  0
LINE
  5
235
  8
SIZE
  6
CONTINUOUS
 62
    30
 10
-419.0
 20
-329.0
 30
0.0
 11
-419.0
 21
-451.60206699999992
 31
0.0
  0
LINE
  5
236
  8
SIZE
  6
CONTINUOUS
 62
    30
 10
-489.0
 20
-421.60206699999992
 30
0.0
 11
-499.0
 21
-421.60206699999992
 31
0.0
  0
LINE
  5
237
  8
SIZE
  6
CONTINUOUS
 62
    30
 10
-409.0
 20
-421.60206699999992
 30
0.0
 11
-298.0799193782932
 21
-421.60206699999992
 31
0.0
  0
LINE
  5
238
  8
SIZE
  6
CONTINUOUS
 62
    30
 10
-479.0
 20
-421.60206699999992
 30
0.0
 11
-419.0
 21
-421.60206699999992
 31
0.0
  0
CIRCLE
  5
239
  8
SIZE
  6
CONTINUOUS
 62
    30
 10
-479.0
 20
-421.60206699999992
 30
0.0
 40
5.0
  0
LINE
  5
23A
  8
SIZE
  6
CONTINUOUS
 62
    30
 10
-484.0
 20
-421.60206699999992
 30
0.0
 11
-489.0
 21
-421.60206699999992
 31
0.0
  0
CIRCLE
  5
23B
  8
SIZE
  6
CONTINUOUS
 62
    30
 10
-419.0
 20
-421.60206699999992
 30
0.0
 40
5.0
  0
LINE
  5
23C
  8
SIZE
  6
CONTINUOUS
 62
    30
 10
-414.0
 20
-421.60206699999992
 30
0.0
 11
-409.0
 21
-421.60206699999992
 31
0.0
  0
TEXT
  5
23D
  8
SIZE
  6
CONTINUOUS
 62
    30
 10
-404.02606926806232
 20
-401.60206699999992
 30
0.0
 40
64.0
  1
60
 41
0.9
 72
     1
 11
-357.39749783949082
 21
-401.60206699999992
 31
0.0
  0
POINT
  5
23E
  8
DEFPOINTS
  6
CONTINUOUS
 62
     7
 10
-479.0
 20
-309.0
 30
0.0
  0
POINT
  5
23F
  8
DEFPOINTS
  6
CONTINUOUS
 62
     7
 10
-419.0
 20
-309.0
 30
0.0
  0
POINT
  5
240
  8
DEFPOINTS
  6
CONTINUOUS
 62
     7
 10
-419.0
 20
-421.60206699999992
 30
0.0
  0
LINE
  5
241
  8
OUTLINE
  6
CONTINUOUS
 62
     3
 10
-555.0
 20
225.0
 30
0.0
 11
555.0
 21
225.0
 31
0.0
  0
LINE
  5
246
  8
DETAIL
  6
CONTINUOUS
 62
     5
 10
-625.0
 20
55.700000000000003
 30
0.0
 11
-555.0
 21
55.700000000000003
 31
0.0
  0
LINE
  5
247
  8
DETAIL
  6
CONTINUOUS
 62
     5
 10
-625.0
 20
30.300000000000001
 30
0.0
 11
-555.0
 21
30.300000000000001
 31
0.0
  0
LINE
  5
248
  8
DETAIL
  6
CONTINUOUS
 62
     5
 10
-625.0
 20
55.700000000000003
 30
0.0
 11
-625.0
 21
30.300000000000001
 31
0.0
  0
LINE
  5
249
  8
DETAIL
  6
CONTINUOUS
 62
     5
 10
-645.0
 20
-107.70999999999999
 30
0.0
 11
-555.0
 21
-107.70999999999999
 31
0.0
  0
LINE
  5
24A
  8
DETAIL
  6
CONTINUOUS
 62
     5
 10
-645.0
 20
-136.28999999999999
 30
0.0
 11
-555.0
 21
-136.28999999999999
 31
0.0
  0
LINE
  5
24B
  8
DETAIL
  6
CONTINUOUS
 62
     5
 10
-645.0
 20
-107.70999999999999
 30
0.0
 11
-645.0
 21
-136.28999999999999
 31
0.0
  0
LINE
  5
24C
  8
NOTE
  6
CONTINUOUS
 62
     4
 10
-99.0
 20
-289.0
 30
0.0
 11
-139.0
 21
-289.0
 31
0.0
  0
LINE
  5
24D
  8
NOTE
  6
CONTINUOUS
 62
     4
 10
1.0
 20
-309.0
 30
0.0
 11
1.0
 21
-269.0
 31
0.0
  0
LINE
  5
24E
  8
DETAIL
  6
CONTINUOUS
 62
     5
 10
-3.7599999999999989
 20
-225.0
 30
0.0
 11
-3.7599999999999989
 21
-289.0
 31
0.0
  0
LINE
  5
24F
  8
DETAIL
  6
CONTINUOUS
 62
     5
 10
5.7599999999999989
 20
-225.0
 30
0.0
 11
5.7599999999999989
 21
-289.0
 31
0.0
  0
LINE
  5
250
  8
DETAIL
  6
CONTINUOUS
 62
     5
 10
-6.9400000000000004
 20
-225.0
 30
0.0
 11
-6.9400000000000004
 21
-289.0
 31
0.0
  0
LINE
  5
251
  8
DETAIL
  6
CONTINUOUS
 62
     5
 10
8.9399999999999995
 20
-225.0
 30
0.0
 11
8.9399999999999995
 21
-289.0
 31
0.0
  0
LINE
  5
252
  8
DETAIL
  6
CONTINUOUS
 62
     5
 10
-3.7599999999999989
 20
-289.0
 30
0.0
 11
5.7599999999999989
 21
-289.0
 31
0.0
  0
LINE
  5
253
  8
DETAIL
  6
CONTINUOUS
 62
     5
 10
-6.9400000000000004
 20
-289.0
 30
0.0
 11
8.9399999999999995
 21
-289.0
 31
0.0
  0
LINE
  5
254
  8
DETAIL
  6
CONTINUOUS
 62
     5
 10
1.0
 20
-225.0
 30
0.0
 11
1.0
 21
-289.0
 31
0.0
  0
LINE
  5
255
  8
NOTE
  6
CONTINUOUS
 62
     4
 10
61.0
 20
-309.0
 30
0.0
 11
61.0
 21
-269.0
 31
0.0
  0
LINE
  5
256
  8
NOTE
  6
CONTINUOUS
 62
     4
 10
81.0
 20
-289.0
 30
0.0
 11
41.0
 21
-289.0
 31
0.0
  0
LINE
  5
257
  8
DETAIL
  6
CONTINUOUS
 62
     5
 10
56.240000000000002
 20
-225.0
 30
0.0
 11
56.240000000000002
 21
-289.0
 31
0.0
  0
LINE
  5
258
  8
DETAIL
  6
CONTINUOUS
 62
     5
 10
65.760000000000005
 20
-225.0
 30
0.0
 11
65.760000000000005
 21
-289.0
 31
0.0
  0
LINE
  5
259
  8
DETAIL
  6
CONTINUOUS
 62
     5
 10
53.060000000000002
 20
-225.0
 30
0.0
 11
53.060000000000002
 21
-289.0
 31
0.0
  0
LINE
  5
25A
  8
DETAIL
  6
CONTINUOUS
 62
     5
 10
68.939999999999998
 20
-225.0
 30
0.0
 11
68.939999999999998
 21
-289.0
 31
0.0
  0
LINE
  5
25B
  8
DETAIL
  6
CONTINUOUS
 62
     5
 10
56.240000000000002
 20
-289.0
 30
0.0
 11
65.760000000000005
 21
-289.0
 31
0.0
  0
LINE
  5
25C
  8
DETAIL
  6
CONTINUOUS
 62
     5
 10
53.060000000000002
 20
-289.0
 30
0.0
 11
68.939999999999998
 21
-289.0
 31
0.0
  0
LINE
  5
25D
  8
DETAIL
  6
CONTINUOUS
 62
     5
 10
61.0
 20
-225.0
 30
0.0
 11
61.0
 21
-289.0
 31
0.0
  0
LINE
  5
25E
  8
NOTE
  6
CONTINUOUS
 62
     4
 10
21.0
 20
-289.0
 30
0.0
 11
-19.0
 21
-289.0
 31
0.0
  0
LINE
  5
25F
  8
SIZE
  6
CONTINUOUS
 62
    30
 10
-479.0
 20
-329.52627481276789
 30
0.0
 11
-479.0
 21
-590.52961500000004
 31
0.0
  0
LINE
  5
260
  8
SIZE
  6
CONTINUOUS
 62
    30
 10
61.0
 20
-336.1596665455981
 30
0.0
 11
61.0
 21
-590.52961500000004
 31
0.0
  0
LINE
  5
261
  8
SIZE
  6
CONTINUOUS
 62
    30
 10
-469.0
 20
-560.52961500000004
 30
0.0
 11
51.0
 21
-560.52961500000004
 31
0.0
  0
CIRCLE
  5
262
  8
SIZE
  6
CONTINUOUS
 62
    30
 10
-479.0
 20
-560.52961500000004
 30
0.0
 40
5.0
  0
LINE
  5
263
  8
SIZE
  6
CONTINUOUS
 62
    30
 10
-474.0
 20
-560.52961500000004
 30
0.0
 11
-469.0
 21
-560.52961500000004
 31
0.0
  0
CIRCLE
  5
264
  8
SIZE
  6
CONTINUOUS
 62
    30
 10
61.0
 20
-560.52961500000004
 30
0.0
 40
5.0
  0
LINE
  5
265
  8
SIZE
  6
CONTINUOUS
 62
    30
 10
56.0
 20
-560.52961500000004
 30
0.0
 11
51.0
 21
-560.52961500000004
 31
0.0
  0
TEXT
  5
266
  8
SIZE
  6
CONTINUOUS
 62
    30
 10
-434.4628571428571
 20
-540.52961500000004
 30
0.0
 40
64.0
  1
60×9＝540
 41
0.9
 72
     1
 11
-209.0
 21
-540.52961500000004
 31
0.0
  0
POINT
  5
267
  8
DEFPOINTS
  6
CONTINUOUS
 62
     7
 10
-479.0
 20
-289.0
 30
0.0
  0
POINT
  5
268
  8
DEFPOINTS
  6
CONTINUOUS
 62
     7
 10
61.0
 20
-289.0
 30
0.0
  0
POINT
  5
269
  8
DEFPOINTS
  6
CONTINUOUS
 62
     7
 10
61.0
 20
-560.52961500000004
 30
0.0
  0
TEXT
  5
425
  8
NOTE
  6
CONTINUOUS
 62
     4
 10
893.18120999999996
 20
536.63220899999976
 30
0.0
 40
64.0
  1
AH4-12×14長穴
 41
0.9
  0
TEXT
  5
426
  8
NOTE
  6
CONTINUOUS
 62
     4
 10
-2304.4304663228181
 20
-199.68019919493599
 30
0.0
 40
64.0
  1
室外ユニット側配管接続口（低圧）
 41
0.9
 72
     2
 11
-1244.590466322818
 21
-199.68019919493599
 31
0.0
  0
TEXT
  5
427
  8
NOTE
  6
CONTINUOUS
 62
     4
 10
-2392.2829522844008
 20
225.45351029020051
 30
0.0
 40
64.0
  1
室外ユニット側配管接続口（高圧）
 41
0.9
 72
     2
 11
-1332.4429522844009
 21
225.45351029020051
 31
0.0
  0
TEXT
  5
428
  8
NOTE
  6
CONTINUOUS
 62
     4
 10
1177.5986579999999
 20
242.7169670000001
 30
0.0
 40
50.0
  1
子機側室内ユニット合計容量
 41
0.9
  0
TEXT
  5
429
  8
NOTE
  6
CONTINUOUS
 62
     4
 10
1179.365452
 20
173.13170099999999
 30
0.0
 40
50.0
  1
224以下：φ15.88（子機側付属配管を使用）
 41
0.9
  0
TEXT
  5
42A
  8
NOTE
  6
CONTINUOUS
 62
     4
 10
1106.9431959999999
 20
99.732825999999932
 30
0.0
 40
50.0
  1
225～400：φ19.05
 41
0.9
  0
TEXT
  5
42B
  8
NOTE
  6
CONTINUOUS
 62
     4
 10
-2140.6567354701078
 20
-285.07242219493628
 30
0.0
 40
50.0
  1
280,335,400形：φ28.58
 41
0.9
  0
TEXT
  5
42C
  8
NOTE
  6
CONTINUOUS
 62
     4
 10
-2374.7994011052911
 20
127.95736729020059
 30
0.0
 40
50.0
  1
280,335,400形：φ19.05（付属配管を使用）
 41
0.9
  0
TEXT
  5
42D
  8
NOTE
  6
CONTINUOUS
 62
     4
 10
-2375.1350370447672
 20
56.928243290200498
 30
0.0
 40
50.0
  1
450.500.560
 41
0.9
  0
TEXT
  5
42E
  8
NOTE
  6
CONTINUOUS
 62
     4
 10
-2375.1350370447672
 20
-15.026774709799611
 30
0.0
 40
50.0
  1
630.674.730形：φ25.4（付属配管を使用）
 41
0.9
  0
TEXT
  5
42F
  8
NOTE
  6
CONTINUOUS
 62
     4
 10
1089.0486350000001
 20
322.76743099999999
 30
0.0
 40
64.0
  1
分流コントローラ子機配管接続口（高圧）
 41
0.9
  0
TEXT
  5
430
  8
NOTE
  6
CONTINUOUS
 62
     4
 10
1102.412089663153
 20
-175.20152877547929
 30
0.0
 40
64.0
  1
分流コントローラ子機配管接続口（液）
 41
0.9
  0
TEXT
  5
431
  8
NOTE
  6
CONTINUOUS
 62
     4
 10
1125.311587663153
 20
-260.4131317754796
 30
0.0
 40
50.0
  1
子機側室内ユニット合計容量
 41
0.9
  0
TEXT
  5
432
  8
NOTE
  6
CONTINUOUS
 62
     4
 10
1197.8822396631531
 20
-329.99839877547947
 30
0.0
 40
50.0
  1
335以下：φ9.52
 41
0.9
  0
TEXT
  5
433
  8
NOTE
  6
CONTINUOUS
 62
     4
 10
1124.075288111726
 20
-397.71070392988258
 30
0.0
 40
50.0
  1
336～450：φ12.7（子機側付属配管を使用）
 41
0.9
  0
TEXT
  5
434
  8
NOTE
  6
CONTINUOUS
 62
     4
 10
1093.8112785670669
 20
-635.00647807004316
 30
0.0
 40
64.0
  1
分流コントローラ子機配管接続口（低圧）
 41
0.9
  0
TEXT
  5
435
  8
NOTE
  6
CONTINUOUS
 62
     4
 10
1100.392382567067
 20
-717.34917907004308
 30
0.0
 40
50.0
  1
子機側室内ユニット合計容量
 41
0.9
  0
TEXT
  5
436
  8
NOTE
  6
CONTINUOUS
 62
     4
 10
1182.223473567067
 20
-789.39903807004293
 30
0.0
 40
50.0
  1
224以下：φ19.05（子機側付属配管を使用）
 41
0.9
  0
TEXT
  5
437
  8
NOTE
  6
CONTINUOUS
 62
     4
 10
1107.959253786629
 20
-850.20773980901913
 30
0.0
 40
50.0
  1
225～335：φ22.2
 41
0.9
  0
TEXT
  5
438
  8
NOTE
  6
CONTINUOUS
 62
     4
 10
1108.394603567067
 20
-918.05950207004298
 30
0.0
 40
50.0
  1
336～400：φ25.4（子機側付属配管を使用）
 41
0.9
  0
TEXT
  5
439
  8
NOTE
  6
CONTINUOUS
 62
     4
 10
1191.0738080000001
 20
23.209507999999911
 30
0.0
 40
50.0
  1
401以上：φ22.2（分岐管<別売>付属配管を使用）
 41
0.9
  0
TEXT
  5
43A
  8
NOTE
  6
CONTINUOUS
 62
     4
 10
-1839.4552835167749
 20
-358.47529119493629
 30
0.0
 40
50.0
  1
450形：φ31.75（付属配管を使用）
 41
0.9
  0
TEXT
  5
43B
  8
NOTE
  6
CONTINUOUS
 62
     4
 10
1208.1839466631529
 20
-463.322704775479
 30
0.0
 40
50.0
  1
451以上：φ15.88（分岐管<別売>付属配管を使用）
 41
0.9
  0
TEXT
  5
43C
  8
NOTE
  6
CONTINUOUS
 62
     4
 10
1191.594137974191
 20
-985.55576325492063
 30
0.0
 40
50.0
  1
401以上：φ28.58（分岐管<別売>付属配管を使用）
 41
0.9
  0
TEXT
  5
441
  8
NOTE
  6
CONTINUOUS
 62
     4
 10
-1428.9779342323859
 20
461.09103989137998
 30
0.0
 40
64.0
  1
D　VP-25
 41
0.9
 72
     2
 11
-1025.229362803814
 21
461.09103989137998
 31
0.0
  0
LINE
  5
442
  8
NOTE
  6
CONTINUOUS
 62
     4
 10
-995.22936280381464
 20
441.09103989138009
 30
0.0
 11
-1449.666568435149
 21
441.09103989138009
 31
0.0
  0
LINE
  5
445
  8
NOTE
  6
CONTINUOUS
 62
     4
 10
1059.0486350000001
 20
302.76743099999999
 30
0.0
 11
2391.357206000001
 21
302.76743099999999
 31
0.0
  0
LINE
  5
446
  8
NOTE
  6
CONTINUOUS
 62
     4
 10
1082.412089663153
 20
-195.20152877547929
 30
0.0
 11
2335.6006606631531
 21
-195.20152877547929
 31
0.0
  0
LINE
  5
447
  8
NOTE
  6
CONTINUOUS
 62
     4
 10
1063.8112785670669
 20
-653.87668007004322
 30
0.0
 11
2396.1198495670678
 21
-653.87668007004322
 31
0.0
  0
LINE
  5
448
  8
NOTE
  6
CONTINUOUS
 62
     4
 10
863.18120999999985
 20
515.63220899999976
 30
0.0
 11
1544.884067
 21
515.63220899999976
 31
0.0
  0
LINE
  5
44A
  8
NOTE
  6
CONTINUOUS
 62
     4
 10
-1107.8205878781209
 20
205.45351029020051
 30
0.0
 11
-2396.6538475871398
 21
205.45351029020051
 31
0.0
  0
LINE
  5
44B
  8
NOTE
  6
CONTINUOUS
 62
     4
 10
-880.20049180354908
 20
-219.68019919493599
 30
0.0
 11
-2304.430466322819
 21
-219.68019919493599
 31
0.0
  0
TEXT
  5
44C
  8
NOTE
  6
CONTINUOUS
 62
     4
 10
-2288.8280801054939
 20
-432.86151730053462
 30
0.0
 40
50.0
  1
500,560,630,690形：φ38.1（付属配管を使用）
 41
0.9
  0
TEXT
  5
44D
  8
NOTE
  6
CONTINUOUS
 62
     4
 10
-1837.31737628167
 20
-507.11191707010221
 30
0.0
 40
50.0
  1
730形：φ44.45（付属配管を使用）
 41
0.9
  0
TEXT
  5
456
  8
ETC
  6
CONTINUOUS
 62
    61
 10
598.90611718667424
 20
714.29177324571958
 30
0.0
 40
64.0
  1
CMB-RP1010GA_1
 41
0.9
  0
LINE
  5
457
  8
NOTE
  6
CONTINUOUS
 62
     4
 10
625.0
 20
43.0
 30
0.0
 11
1059.0486350000001
 21
302.76743099999999
 31
0.0
  0
LINE
  5
45B
  8
NOTE
  6
CONTINUOUS
 62
     4
 10
625.0
 20
-15.0
 30
0.0
 11
1079.0375610000001
 21
-127.74312500000001
 31
0.0
  0
LINE
  5
45D
  8
NOTE
  6
CONTINUOUS
 62
     4
 10
625.0
 20
-122.0
 30
0.0
 11
1088.1141749999999
 21
-526.87743399999999
 31
0.0
  0
LINE
  5
45F
  8
NOTE
  6
CONTINUOUS
 62
     4
 10
582.0
 20
194.0
 30
0.0
 11
863.18120999999985
 21
515.63220899999988
 31
0.0
  0
LINE
  5
461
  8
NOTE
  6
CONTINUOUS
 62
     4
 10
-625.0
 20
43.0
 30
0.0
 11
-1107.8205878781209
 21
205.45351029020051
 31
0.0
  0
LINE
  5
463
  8
NOTE
  6
CONTINUOUS
 62
     4
 10
-755.0
 20
108.0
 30
0.0
 11
-995.22936280381464
 21
441.09103989138009
 31
0.0
  0
LINE
  5
465
  8
NOTE
  6
CONTINUOUS
 62
     4
 10
-645.0
 20
-122.0
 30
0.0
 11
-880.20049180354908
 21
-219.68019919493599
 31
0.0
  0
TEXT
  5
486
  8
NOTE
  6
CONTINUOUS
 62
     4
 10
-1905.9809411983911
 20
-929.52213107348359
 30
0.0
 40
64.0
  1
室内ユニット側配管接続口（液）
 41
0.9
 72
     2
 11
-915.26094119839024
 21
-929.52213107348359
 31
0.0
  0
TEXT
  5
487
  8
NOTE
  6
CONTINUOUS
 62
     4
 10
-1712.2916710008751
 20
-1024.4689168525931
 30
0.0
 40
50.0
  1
φ9.52
 41
0.9
  0
TEXT
  5
488
  8
NOTE
  6
CONTINUOUS
 62
     4
 10
-1885.2430987291079
 20
-736.34300256150789
 30
0.0
 40
64.0
  1
室内ユニット側配管接続口（ガス）
 41
0.9
 72
     2
 11
-825.40309872910814
 21
-736.34300256150789
 31
0.0
  0
TEXT
  5
489
  8
NOTE
  6
CONTINUOUS
 62
     4
 10
-1708.5764449536839
 20
-841.55489030191245
 30
0.0
 40
50.0
  1
φ15.88
 41
0.9
  0
LINE
  5
48A
  8
NOTE
  6
CONTINUOUS
 62
     4
 10
-885.26094119839036
 20
-949.52213107348325
 30
0.0
 11
-1941.0895131983909
 21
-949.52213107348325
 31
0.0
  0
LINE
  5
48B
  8
NOTE
  6
CONTINUOUS
 62
     4
 10
-770.03105448365159
 20
-762.17483130191204
 30
0.0
 11
-1931.756825377855
 21
-762.17483130191204
 31
0.0
  0
LINE
  5
48C
  8
NOTE
  6
CONTINUOUS
 62
     4
 10
-479.0
 20
-289.0
 30
0.0
 11
-885.26094119839036
 21
-949.52213107348325
 31
0.0
  0
ENDSEC
  0
EOF
