  0
SECTION
  2
HEADER
  9
$ACADVER
  1
AC1009
  9
$INSBASE
 10
0.0
 20
0.0
 30
0.0
  9
$EXTMIN
 10
-1807.3362538597321
 20
-1176.5320071990591
 30
-0.0000000349181948
  9
$EXTMAX
 10
1885.8246998226859
 20
661.23592810648915
 30
0.0000000814935747
  9
$LIMMIN
 10
-3837.0001750000001
 20
-3000.109539
  9
$LIMMAX
 10
7319.2568810000002
 20
4045.2230030000001
  9
$ORTHOMODE
 70
     0
  9
$REGENMODE
 70
     1
  9
$FILLMODE
 70
     1
  9
$QTEXTMODE
 70
     0
  9
$MIRRTEXT
 70
     0
  9
$DRAGMODE
 70
     2
  9
$LTSCALE
 40
20.0
  9
$OSMODE
 70
   959
  9
$ATTMODE
 70
     1
  9
$TEXTSIZE
 40
64.0
  9
$TRACEWID
 40
0.05
  9
$TEXTSTYLE
  7
STANDARD
  9
$CLAYER
  8
SYMBOLLINE
  9
$CELTYPE
  6
CONTINUOUS
  9
$CECOLOR
 62
     7
  9
$DIMSCALE
 40
1.0
  9
$DIMASZ
 40
10.0
  9
$DIMEXO
 40
20.0
  9
$DIMDLI
 40
200.0
  9
$DIMRND
 40
0.0
  9
$DIMDLE
 40
0.0
  9
$DIMEXE
 40
30.0
  9
$DIMTP
 40
0.0
  9
$DIMTM
 40
0.0
  9
$DIMTXT
 40
64.0
  9
$DIMCEN
 40
0.0
  9
$DIMTSZ
 40
0.0
  9
$DIMTOL
 70
     0
  9
$DIMLIM
 70
     0
  9
$DIMTIH
 70
     0
  9
$DIMTOH
 70
     0
  9
$DIMSE1
 70
     0
  9
$DIMSE2
 70
     0
  9
$DIMTAD
 70
     1
  9
$DIMZIN
 70
     8
  9
$DIMBLK
  1

  9
$DIMASO
 70
     1
  9
$DIMSHO
 70
     0
  9
$DIMPOST
  1

  9
$DIMAPOST
  1

  9
$DIMALT
 70
     0
  9
$DIMALTD
 70
     2
  9
$DIMALTF
 40
25.399999999999999
  9
$DIMLFAC
 40
1.0
  9
$DIMTOFL
 70
     1
  9
$DIMTVP
 40
0.0
  9
$DIMTIX
 70
     1
  9
$DIMSOXD
 70
     0
  9
$DIMSAH
 70
     1
  9
$DIMBLK1
  1
DOTBLANK
  9
$DIMBLK2
  1
DOTBLANK
  9
$DIMSTYLE
  2
STANDARD
  9
$DIMCLRD
 70
     0
  9
$DIMCLRE
 70
     0
  9
$DIMCLRT
 70
     0
  9
$DIMTFAC
 40
1.0
  9
$DIMGAP
 40
0.09
  9
$LUNITS
 70
     2
  9
$LUPREC
 70
     4
  9
$SKETCHINC
 40
0.1
  9
$FILLETRAD
 40
10.0
  9
$AUNITS
 70
     1
  9
$AUPREC
 70
     3
  9
$MENU
  1
ACAD
  9
$ELEVATION
 40
0.0
  9
$PELEVATION
 40
0.0
  9
$THICKNESS
 40
0.0
  9
$LIMCHECK
 70
     0
  9
$BLIPMODE
 70
     0
  9
$CHAMFERA
 40
0.0
  9
$CHAMFERB
 40
0.0
  9
$SKPOLY
 70
     0
  9
$TDCREATE
 40
2450330.4399309959
  9
$TDUPDATE
 40
2455470.4614534611
  9
$TDINDWG
 40
1.5404838426
  9
$TDUSRTIMER
 40
1.5404834722
  9
$USRTIMER
 70
     1
  9
$ANGBASE
 50
0.0
  9
$ANGDIR
 70
     0
  9
$PDMODE
 70
     3
  9
$PDSIZE
 40
-2.0
  9
$PLINEWID
 40
0.0
  9
$COORDS
 70
     0
  9
$SPLFRAME
 70
     0
  9
$SPLINETYPE
 70
     6
  9
$SPLINESEGS
 70
     8
  9
$ATTDIA
 70
     0
  9
$ATTREQ
 70
     1
  9
$HANDLING
 70
     1
  9
$HANDSEED
  5
575
  9
$SURFTAB1
 70
     6
  9
$SURFTAB2
 70
     6
  9
$SURFTYPE
 70
     6
  9
$SURFU
 70
     6
  9
$SURFV
 70
     6
  9
$UCSNAME
  2

  9
$UCSORG
 10
0.0
 20
0.0
 30
0.0
  9
$UCSXDIR
 10
1.0
 20
0.0
 30
0.0
  9
$UCSYDIR
 10
0.0
 20
1.0
 30
0.0
  9
$PUCSNAME
  2

  9
$PUCSORG
 10
0.0
 20
0.0
 30
0.0
  9
$PUCSXDIR
 10
1.0
 20
0.0
 30
0.0
  9
$PUCSYDIR
 10
0.0
 20
1.0
 30
0.0
  9
$USERI1
 70
     0
  9
$USERI2
 70
     0
  9
$USERI3
 70
     0
  9
$USERI4
 70
     0
  9
$USERI5
 70
     0
  9
$USERR1
 40
20.0
  9
$USERR2
 40
0.0
  9
$USERR3
 40
0.0
  9
$USERR4
 40
0.0
  9
$USERR5
 40
0.0
  9
$WORLDVIEW
 70
     1
  9
$SHADEDGE
 70
     3
  9
$SHADEDIF
 70
    70
  9
$TILEMODE
 70
     1
  9
$MAXACTVP
 70
    48
  9
$PLIMCHECK
 70
     0
  9
$PEXTMIN
 10
1.0000000000000000E+020
 20
1.0000000000000000E+020
 30
1.0000000000000000E+020
  9
$PEXTMAX
 10
-1.0000000000000000E+020
 20
-1.0000000000000000E+020
 30
-1.0000000000000000E+020
  9
$PLIMMIN
 10
0.0
 20
0.0
  9
$PLIMMAX
 10
12.0
 20
9.0
  9
$UNITMODE
 70
     0
  9
$VISRETAIN
 70
     1
  9
$PLINEGEN
 70
     0
  9
$PSLTSCALE
 70
     1
  0
ENDSEC
  0
SECTION
  2
TABLES
  0
TABLE
  2
VPORT
 70
     1
  0
VPORT
  2
*ACTIVE
 70
     0
 10
0.0
 20
0.0
 11
1.0
 21
1.0
 12
1741.1283530000001
 22
522.55673200000001
 13
0.0
 23
0.0
 14
50.0
 24
50.0
 15
100.0
 25
100.0
 16
0.0
 26
0.0
 36
1.0
 17
0.0
 27
0.0
 37
0.0
 40
7168.3883690244638
 41
1.5639386189258311
 42
50.0
 43
0.0
 44
0.0
 50
0.0
 51
0.0
 71
     0
 72
  1000
 73
     1
 74
     0
 75
     0
 76
     0
 77
     0
 78
     0
  0
ENDTAB
  0
TABLE
  2
LTYPE
 70
     3
  0
LTYPE
  2
CONTINUOUS
 70
     0
  3
実線
 72
    65
 73
     0
 40
0.0
  0
LTYPE
  2
DASHDOT
 70
     0
  3
____ _ ____ _ ____ _ ____ _ ____ _ ____ _ ____
 72
    65
 73
     4
 40
5.5
 49
4.0
 49
-0.6
 49
0.3
 49
-0.6
  0
LTYPE
  2
DASHDOT1
 70
     0
  3
____ _ ____ _ ____ _ ____ _ ____ _ ____ _ ____
 72
    65
 73
     4
 40
2.0
 49
1.5
 49
-0.2
 49
0.1
 49
-0.2
  0
ENDTAB
  0
TABLE
  2
LAYER
 70
    12
  0
LAYER
  2
0
 70
     0
 62
     7
  6
CONTINUOUS
  0
LAYER
  2
SYMBOLLINE
 70
     0
 62
    15
  6
CONTINUOUS
  0
LAYER
  2
DETAIL
 70
     0
 62
     5
  6
CONTINUOUS
  0
LAYER
  2
OUTLINE
 70
     0
 62
     3
  6
CONTINUOUS
  0
LAYER
  2
BASIS
 70
     0
 62
     6
  6
DASHDOT
  0
LAYER
  2
SIZE
 70
     0
 62
    30
  6
CONTINUOUS
  0
LAYER
  2
NOTE
 70
     0
 62
     4
  6
CONTINUOUS
  0
LAYER
  2
ARRANGE
 70
     0
 62
     1
  6
CONTINUOUS
  0
LAYER
  2
FIX
 70
     0
 62
    11
  6
CONTINUOUS
  0
LAYER
  2
SERVICESPACE
 70
     0
 62
     2
  6
DASHDOT
  0
LAYER
  2
ETC
 70
     0
 62
    61
  6
CONTINUOUS
  0
LAYER
  2
DEFPOINTS
 70
     0
 62
     7
  6
CONTINUOUS
  0
ENDTAB
  0
TABLE
  2
STYLE
 70
     2
  0
STYLE
  2
STANDARD
 70
     0
 40
0.0
 41
0.9
 50
0.0
 71
     0
 42
64.0
  3
SIMPLEX
  4
BIGFONT
  0
STYLE
  2
ANNOTATIVE
 70
     0
 40
0.0
 41
1.0
 50
0.0
 71
     0
 42
0.2
  3
txt
  4

  0
ENDTAB
  0
TABLE
  2
VIEW
 70
     3
  0
VIEW
  2
ALL
 70
     0
 40
9000.0
 10
241.50664699999999
 20
0.0
 41
12483.01
 11
0.0
 21
0.0
 31
1.0
 12
0.0
 22
0.0
 32
0.0
 42
50.0
 43
0.0
 44
0.0
 50
0.0
 71
     0
  0
ENDTAB
  0
TABLE
  2
UCS
 70
     0
  0
ENDTAB
  0
TABLE
  2
APPID
 70
     4
  0
APPID
  2
ACAD
 70
     0
  0
APPID
  2
ACADANNOTATIVE
 70
     0
  0
APPID
  2
ACAD_MLEADERVER
 70
     0
  0
APPID
  2
ACAD_EXEMPT_FROM_CAD_STANDARDS
 70
     0
  0
ENDTAB
  0
TABLE
  2
DIMSTYLE
 70
     2
  0
DIMSTYLE
  2
STANDARD
 70
     0
  3

  4

  5

  6

  7

 40
1.0
 41
0.18
 42
0.0625
 43
0.38
 44
0.18
 45
0.0
 46
0.0
 47
0.0
 48
0.0
140
0.18
141
0.09
142
0.0
143
25.399999999999999
144
1.0
145
0.0
146
1.0
147
0.09
 71
     0
 72
     0
 73
     1
 74
     1
 75
     0
 76
     0
 77
     0
 78
     0
170
     0
171
     2
172
     0
173
     0
174
     0
175
     0
176
     0
177
     0
178
     0
  0
DIMSTYLE
  2
ANNOTATIVE
 70
     0
  3

  4

  5

  6

  7

 40
1.0
 41
0.18
 42
0.0625
 43
0.38
 44
0.18
 45
0.0
 46
0.0
 47
0.0
 48
0.0
140
0.18
141
0.09
142
0.0
143
25.399999999999999
144
1.0
145
0.0
146
1.0
147
0.09
 71
     0
 72
     0
 73
     1
 74
     1
 75
     0
 76
     0
 77
     0
 78
     0
170
     0
171
     2
172
     0
173
     0
174
     0
175
     0
176
     0
177
     0
178
     0
  0
ENDTAB
  0
ENDSEC
  0
SECTION
  2
BLOCKS
  0
BLOCK
  8
0
  2
$MODEL_SPACE
 70
     0
 10
0.0
 20
0.0
 30
0.0
  3
$MODEL_SPACE
  1

  0
ENDBLK
  5
51F
  8
0
  0
BLOCK
 67
     1
  8
0
  2
$PAPER_SPACE
 70
     0
 10
0.0
 20
0.0
 30
0.0
  3
$PAPER_SPACE
  1

  0
ENDBLK
  5
51B
 67
     1
  8
0
  0
BLOCK
  8
0
  2
_DOTBLANK
 70
     0
 10
0.0
 20
0.0
 30
0.0
  3
_DOTBLANK
  1

  0
CIRCLE
  5
31
  8
0
  6
CONTINUOUS
 62
     7
 10
0.0
 20
0.0
 30
0.0
 40
0.5
  0
LINE
  5
32
  8
0
  6
CONTINUOUS
 62
     7
 10
-0.5
 20
0.0
 30
0.0
 11
-1.0
 21
0.0
 31
0.0
  0
ENDBLK
  5
33
  8
0
  0
BLOCK
  8
0
 62
     7
  2
A$C7E192D23
 70
     0
 10
0.0
 20
0.0
 30
0.0
  3
A$C7E192D23
  1

  0
TEXT
  5
1EF
  8
NOTE
  6
CONTINUOUS
 62
     4
 10
-0.000001
 20
-0.000002
 30
0.0
 40
50.0
  1
336以上：φ25.4〈ロウ付〉（子機側付属配管を使用）
 41
0.9
  0
ENDBLK
  5
1F1
  8
0
 62
     7
  0
BLOCK
  8
0
 62
     7
  2
A$C73220AC2
 70
     0
 10
0.0
 20
0.0
 30
0.0
  3
A$C73220AC2
  1

  0
TEXT
  5
1F6
  8
NOTE
  6
CONTINUOUS
 62
     4
 10
0.000015
 20
0.000004
 30
0.0
 40
50.0
  1
224以下：φ15.88〈ロウ付〉（子機側付属配管を使用）
 41
0.9
  0
ENDBLK
  5
1F8
  8
0
 62
     7
  0
BLOCK
  8
0
 62
     7
  2
A$C1E3E4F25
 70
     0
 10
0.0
 20
0.0
 30
0.0
  3
A$C1E3E4F25
  1

  0
TEXT
  5
1FD
  8
NOTE
  6
CONTINUOUS
 62
     4
 10
0.0
 20
0.000004
 30
0.0
 40
50.0
  1
401以上：φ22.2〈ロウ付〉（分岐管<別売>付属配管を使用）
 41
0.9
  0
ENDBLK
  5
1FF
  8
0
 62
     7
  0
BLOCK
  8
0
 62
     7
  2
A$C714B46C5
 70
     0
 10
0.0
 20
0.0
 30
0.0
  3
A$C714B46C5
  1

  0
LINE
  5
303
  8
SIZE
  6
CONTINUOUS
 62
    30
 10
0.0000034507252167
 20
-0.0000012178907127
 30
0.0
 11
0.0000034507252167
 21
108.50386075794719
 31
0.0
  0
ENDBLK
  5
307
  8
0
 62
     7
  0
ENDSEC
  0
SECTION
  2
ENTITIES
  0
TEXT
  5
34
  8
NOTE
  6
CONTINUOUS
 62
     4
 10
-3842.1758479999999
 20
553.00055999999995
 30
0.0
 40
50.0
  1
 
 41
0.9
  0
LINE
  5
35
  8
DETAIL
  6
CONTINUOUS
 62
     5
 10
-225.0
 20
-289.0
 30
0.0
 11
225.0
 21
-289.0
 31
0.0
  0
LINE
  5
36
  8
DETAIL
  6
CONTINUOUS
 62
     5
 10
222.19
 20
-280.692182
 30
0.0
 11
-222.186814
 21
-280.692182
 31
0.0
  0
LINE
  5
37
  8
DETAIL
  6
CONTINUOUS
 62
     5
 10
-225.0
 20
0.0
 30
0.0
 11
225.0
 21
0.0
 31
0.0
  0
LINE
  5
38
  8
DETAIL
  6
CONTINUOUS
 62
     5
 10
-222.186814
 20
-280.692182
 30
0.0
 11
-222.186814
 21
-289.0
 31
0.0
  0
LINE
  5
39
  8
DETAIL
  6
CONTINUOUS
 62
     5
 10
-225.0
 20
0.0
 30
0.0
 11
-225.0
 21
-289.0
 31
0.0
  0
LINE
  5
3A
  8
DETAIL
  6
CONTINUOUS
 62
     5
 10
-203.915559
 20
-70.202492000000007
 30
0.0
 11
-183.82137599999999
 21
-70.202492000000007
 31
0.0
  0
LINE
  5
3B
  8
DETAIL
  6
CONTINUOUS
 62
     5
 10
-218.98619500000001
 20
-27.0
 30
0.0
 11
-168.75073900000001
 21
-27.0
 31
0.0
  0
LINE
  5
3C
  8
DETAIL
  6
CONTINUOUS
 62
     5
 10
-199.86672200000001
 20
-29.310831
 30
0.0
 11
-187.87021299999989
 21
-29.310831
 31
0.0
  0
CIRCLE
  5
3D
  8
DETAIL
  6
CONTINUOUS
 62
     5
 10
-194.0
 20
-47.094182000000004
 30
0.0
 40
3.5164819999999981
  0
LINE
  5
3E
  8
DETAIL
  6
CONTINUOUS
 62
     5
 10
-204.417913
 20
-70.202492000000007
 30
0.0
 11
-183.31902199999999
 21
-70.202492000000007
 31
0.0
  0
LINE
  5
3F
  8
DETAIL
  6
CONTINUOUS
 62
     5
 10
-218.98619500000001
 20
-65.178946999999994
 30
0.0
 11
-218.98619500000001
 21
-27.0
 31
0.0
  0
LINE
  5
40
  8
DETAIL
  6
CONTINUOUS
 62
     5
 10
-203.915559
 20
-65.178946999999994
 30
0.0
 11
-203.915559
 21
-70.202492000000007
 31
0.0
  0
LINE
  5
41
  8
DETAIL
  6
CONTINUOUS
 62
     5
 10
-203.915559
 20
-65.178946999999994
 30
0.0
 11
-218.98619500000001
 21
-65.178946999999994
 31
0.0
  0
LINE
  5
42
  8
DETAIL
  6
CONTINUOUS
 62
     5
 10
-204.417913
 20
-66.183655999999999
 30
0.0
 11
-204.417913
 21
-70.202492000000007
 31
0.0
  0
LINE
  5
43
  8
DETAIL
  6
CONTINUOUS
 62
     5
 10
-204.417913
 20
-66.183655999999999
 30
0.0
 11
-203.915559
 21
-66.183655999999999
 31
0.0
  0
LINE
  5
44
  8
DETAIL
  6
CONTINUOUS
 62
     5
 10
-215.97206800000001
 20
-39.056509000000013
 30
0.0
 11
-202.91085000000001
 21
-39.056509000000013
 31
0.0
  0
ARC
  5
45
  8
DETAIL
  6
CONTINUOUS
 62
     5
 10
-202.93232060000929
 20
-35.990547386265128
 30
0.0
 40
3.066036790966562
 50
270.4012296337188
 51
359.0313077453842
  0
ARC
  5
46
  8
DETAIL
  6
CONTINUOUS
 62
     5
 10
-215.97206800000001
 20
-36.042382000000011
 30
0.0
 40
3.014126999999998
 50
180.0
 51
270.0
  0
LINE
  5
47
  8
DETAIL
  6
CONTINUOUS
 62
     5
 10
-168.75073900000001
 20
-65.178946999999994
 30
0.0
 11
-168.75073900000001
 21
-27.0
 31
0.0
  0
LINE
  5
48
  8
DETAIL
  6
CONTINUOUS
 62
     5
 10
-168.75073900000001
 20
-65.178946999999994
 30
0.0
 11
-183.82137599999999
 21
-65.178946999999994
 31
0.0
  0
LINE
  5
49
  8
DETAIL
  6
CONTINUOUS
 62
     5
 10
-183.82137599999999
 20
-65.178946999999994
 30
0.0
 11
-183.82137599999999
 21
-70.202492000000007
 31
0.0
  0
LINE
  5
4A
  8
DETAIL
  6
CONTINUOUS
 62
     5
 10
-183.31902199999999
 20
-66.183655999999999
 30
0.0
 11
-183.31902199999999
 21
-70.202492000000007
 31
0.0
  0
LINE
  5
4B
  8
DETAIL
  6
CONTINUOUS
 62
     5
 10
-183.82137599999999
 20
-66.183655999999999
 30
0.0
 11
-183.31902199999999
 21
-66.183655999999999
 31
0.0
  0
LINE
  5
4C
  8
DETAIL
  6
CONTINUOUS
 62
     5
 10
-171.7648669999999
 20
-39.056509000000013
 30
0.0
 11
-184.82608500000001
 21
-39.056509000000013
 31
0.0
  0
ARC
  5
4D
  8
DETAIL
  6
CONTINUOUS
 62
     5
 10
-184.8046143999907
 20
-35.990547386265384
 30
0.0
 40
3.066036790966312
 50
180.9686922546112
 51
269.59877036628222
  0
ARC
  5
4E
  8
DETAIL
  6
CONTINUOUS
 62
     5
 10
-171.7648669999999
 20
-36.042382000000011
 30
0.0
 40
3.014126999999998
 50
270.0
 51
0.0
  0
LINE
  5
4F
  8
DETAIL
  6
CONTINUOUS
 62
     5
 10
171.7648669999999
 20
-39.056509000000013
 30
0.0
 11
184.82608500000001
 21
-39.056509000000013
 31
0.0
  0
LINE
  5
50
  8
DETAIL
  6
CONTINUOUS
 62
     5
 10
168.75073900000001
 20
-65.178946999999994
 30
0.0
 11
183.82137599999999
 21
-65.178946999999994
 31
0.0
  0
LINE
  5
51
  8
DETAIL
  6
CONTINUOUS
 62
     5
 10
218.98619500000001
 20
-27.0
 30
0.0
 11
168.75073900000001
 21
-27.0
 31
0.0
  0
LINE
  5
52
  8
DETAIL
  6
CONTINUOUS
 62
     5
 10
168.75073900000001
 20
-65.178946999999994
 30
0.0
 11
168.75073900000001
 21
-27.0
 31
0.0
  0
ARC
  5
53
  8
DETAIL
  6
CONTINUOUS
 62
     5
 10
171.7648669999999
 20
-36.042382000000011
 30
0.0
 40
3.014126999999998
 50
180.0
 51
270.0
  0
LINE
  5
54
  8
DETAIL
  6
CONTINUOUS
 62
     5
 10
218.98619500000001
 20
-65.178946999999994
 30
0.0
 11
218.98619500000001
 21
-27.0
 31
0.0
  0
LINE
  5
55
  8
DETAIL
  6
CONTINUOUS
 62
     5
 10
203.915559
 20
-65.178946999999994
 30
0.0
 11
218.98619500000001
 21
-65.178946999999994
 31
0.0
  0
LINE
  5
56
  8
DETAIL
  6
CONTINUOUS
 62
     5
 10
203.915559
 20
-65.178946999999994
 30
0.0
 11
203.915559
 21
-70.202492000000007
 31
0.0
  0
LINE
  5
57
  8
DETAIL
  6
CONTINUOUS
 62
     5
 10
183.82137599999999
 20
-65.178946999999994
 30
0.0
 11
183.82137599999999
 21
-70.202492000000007
 31
0.0
  0
LINE
  5
58
  8
DETAIL
  6
CONTINUOUS
 62
     5
 10
203.915559
 20
-70.202492000000007
 30
0.0
 11
183.82137599999999
 21
-70.202492000000007
 31
0.0
  0
LINE
  5
59
  8
DETAIL
  6
CONTINUOUS
 62
     5
 10
204.417913
 20
-66.183655999999999
 30
0.0
 11
204.417913
 21
-70.202492000000007
 31
0.0
  0
LINE
  5
5A
  8
DETAIL
  6
CONTINUOUS
 62
     5
 10
183.31902199999999
 20
-66.183655999999999
 30
0.0
 11
183.31902199999999
 21
-70.202492000000007
 31
0.0
  0
LINE
  5
5B
  8
DETAIL
  6
CONTINUOUS
 62
     5
 10
204.417913
 20
-70.202492000000007
 30
0.0
 11
183.31902199999999
 21
-70.202492000000007
 31
0.0
  0
LINE
  5
5C
  8
DETAIL
  6
CONTINUOUS
 62
     5
 10
204.417913
 20
-66.183655999999999
 30
0.0
 11
203.915559
 21
-66.183655999999999
 31
0.0
  0
LINE
  5
5D
  8
DETAIL
  6
CONTINUOUS
 62
     5
 10
183.82137599999999
 20
-66.183655999999999
 30
0.0
 11
183.31902199999999
 21
-66.183655999999999
 31
0.0
  0
CIRCLE
  5
5E
  8
DETAIL
  6
CONTINUOUS
 62
     5
 10
194.0
 20
-47.094182000000004
 30
0.0
 40
3.5164819999999981
  0
ARC
  5
5F
  8
DETAIL
  6
CONTINUOUS
 62
     5
 10
215.97206800000001
 20
-36.042382000000011
 30
0.0
 40
3.014126999999998
 50
270.0
 51
0.0
  0
LINE
  5
60
  8
DETAIL
  6
CONTINUOUS
 62
     5
 10
215.97206800000001
 20
-39.056509000000013
 30
0.0
 11
202.91085000000001
 21
-39.056509000000013
 31
0.0
  0
ARC
  5
61
  8
DETAIL
  6
CONTINUOUS
 62
     5
 10
184.8046143999907
 20
-35.990547386265384
 30
0.0
 40
3.0660367909663191
 50
270.40122963371772
 51
359.03130774538869
  0
ARC
  5
62
  8
DETAIL
  6
CONTINUOUS
 62
     5
 10
202.93232060000929
 20
-35.990547386265128
 30
0.0
 40
3.066036790966487
 50
180.9686922546156
 51
269.5987703662812
  0
LINE
  5
63
  8
DETAIL
  6
CONTINUOUS
 62
     5
 10
199.86672200000001
 20
-29.310831
 30
0.0
 11
187.84021299999989
 21
-29.310831
 31
0.0
  0
LINE
  5
64
  8
DETAIL
  6
CONTINUOUS
 62
     5
 10
225.0
 20
0.0
 30
0.0
 11
225.0
 21
-289.0
 31
0.0
  0
LINE
  5
65
  8
DETAIL
  6
CONTINUOUS
 62
     5
 10
222.19
 20
-280.692182
 30
0.0
 11
222.19
 21
-289.0
 31
0.0
  0
LINE
  5
66
  8
SIZE
  6
CONTINUOUS
 62
    30
 10
-225.0
 20
20.0
 30
0.0
 11
-225.0
 21
132.27037899999999
 31
0.0
  0
LINE
  5
67
  8
SIZE
  6
CONTINUOUS
 62
    30
 10
-289.0
 20
19.147610464739039
 30
0.0
 11
-289.0
 21
132.27037899999999
 31
0.0
  0
LINE
  5
68
  8
SIZE
  6
CONTINUOUS
 62
    30
 10
-235.0
 20
102.27037900000001
 30
0.0
 11
-279.0
 21
102.27037900000001
 31
0.0
  0
LINE
  5
69
  8
SIZE
  6
CONTINUOUS
 62
    30
 10
-289.0
 20
102.27037900000001
 30
0.0
 11
-435.0
 21
102.27037900000001
 31
0.0
  0
CIRCLE
  5
6A
  8
SIZE
  6
CONTINUOUS
 62
    30
 10
-225.0
 20
102.27037900000001
 30
0.0
 40
5.0
  0
LINE
  5
6B
  8
SIZE
  6
CONTINUOUS
 62
    30
 10
-230.0
 20
102.27037900000001
 30
0.0
 11
-235.0
 21
102.27037900000001
 31
0.0
  0
CIRCLE
  5
6C
  8
SIZE
  6
CONTINUOUS
 62
    30
 10
-289.0
 20
102.27037900000001
 30
0.0
 40
5.0
  0
LINE
  5
6D
  8
SIZE
  6
CONTINUOUS
 62
    30
 10
-284.0
 20
102.27037900000001
 30
0.0
 11
-279.0
 21
102.27037900000001
 31
0.0
  0
TEXT
  5
6E
  8
SIZE
  6
CONTINUOUS
 62
    30
 10
-415.0
 20
122.27037900000001
 30
0.0
 40
64.0
  1
64
 41
0.9
 72
     1
 11
-367.0
 21
122.27037900000001
 31
0.0
  0
POINT
  5
70
  8
DEFPOINTS
  6
CONTINUOUS
 62
     7
 10
-289.0
 20
-22.907018999999998
 30
0.0
  0
POINT
  5
71
  8
DEFPOINTS
  6
CONTINUOUS
 62
     7
 10
-289.0
 20
102.27037900000001
 30
0.0
  0
LINE
  5
72
  8
SIZE
  6
CONTINUOUS
 62
    30
 10
-245.0
 20
0.0
 30
0.0
 11
-443.44730499999997
 21
0.0
 31
0.0
  0
LINE
  5
73
  8
SIZE
  6
CONTINUOUS
 62
    30
 10
-326.53928675472338
 20
-23.0
 30
0.0
 11
-443.44730499999997
 21
-23.0
 31
0.0
  0
LINE
  5
74
  8
SIZE
  6
CONTINUOUS
 62
    30
 10
-413.44730499999991
 20
10.0
 30
0.0
 11
-413.44730499999991
 21
20.0
 31
0.0
  0
LINE
  5
75
  8
SIZE
  6
CONTINUOUS
 62
    30
 10
-413.44730499999991
 20
-33.0
 30
0.0
 11
-413.44730499999991
 21
-43.0
 31
0.0
  0
LINE
  5
76
  8
SIZE
  6
CONTINUOUS
 62
    30
 10
-413.44730499999991
 20
0.0
 30
0.0
 11
-413.44730499999991
 21
-23.0
 31
0.0
  0
CIRCLE
  5
77
  8
SIZE
  6
CONTINUOUS
 62
    30
 10
-413.44730499999991
 20
0.0
 30
0.0
 40
5.0
  0
LINE
  5
78
  8
SIZE
  6
CONTINUOUS
 62
    30
 10
-413.44730499999991
 20
5.0
 30
0.0
 11
-413.44730499999991
 21
10.0
 31
0.0
  0
CIRCLE
  5
79
  8
SIZE
  6
CONTINUOUS
 62
    30
 10
-413.44730499999991
 20
-23.0
 30
0.0
 40
5.0
  0
LINE
  5
7A
  8
SIZE
  6
CONTINUOUS
 62
    30
 10
-413.44730499999991
 20
-28.0
 30
0.0
 11
-413.44730499999991
 21
-33.0
 31
0.0
  0
TEXT
  5
7B
  8
SIZE
  6
CONTINUOUS
 62
    30
 10
-433.4473049999998
 20
-58.128571428571433
 30
0.0
 40
64.0
  1
23
 50
90.0
 41
0.9
 72
     1
 11
-433.4473049999998
 21
-11.5
 31
0.0
  0
POINT
  5
7C
  8
DEFPOINTS
  6
CONTINUOUS
 62
     7
 10
-225.0
 20
0.0
 30
0.0
  0
POINT
  5
7D
  8
DEFPOINTS
  6
CONTINUOUS
 62
     7
 10
-289.0
 20
-23.0
 30
0.0
  0
POINT
  5
7E
  8
DEFPOINTS
  6
CONTINUOUS
 62
     7
 10
-413.44730499999991
 20
-23.0
 30
0.0
  0
LINE
  5
7F
  8
SIZE
  6
CONTINUOUS
 62
    30
 10
-326.53928675472338
 20
-22.999666999999999
 30
0.0
 11
-442.80449700000003
 21
-22.999666999999999
 31
0.0
  0
LINE
  5
80
  8
SIZE
  6
CONTINUOUS
 62
    30
 10
-328.82212586561951
 20
-153.0
 30
0.0
 11
-442.80449700000003
 21
-153.0
 31
0.0
  0
LINE
  5
81
  8
SIZE
  6
CONTINUOUS
 62
    30
 10
-412.80449700000003
 20
-32.999667000000009
 30
0.0
 11
-412.80449700000003
 21
-143.0
 31
0.0
  0
LINE
  5
82
  8
SIZE
  6
CONTINUOUS
 62
    30
 10
-412.80449700000003
 20
-153.0
 30
0.0
 11
-412.80449700000003
 21
-340.14285699999999
 31
0.0
  0
CIRCLE
  5
83
  8
SIZE
  6
CONTINUOUS
 62
    30
 10
-412.80449700000003
 20
-22.999666999999999
 30
0.0
 40
5.0
  0
LINE
  5
84
  8
SIZE
  6
CONTINUOUS
 62
    30
 10
-412.80449700000003
 20
-27.999666999999999
 30
0.0
 11
-412.80449700000003
 21
-32.999667000000009
 31
0.0
  0
CIRCLE
  5
85
  8
SIZE
  6
CONTINUOUS
 62
    30
 10
-412.80449700000003
 20
-153.0
 30
0.0
 40
5.0
  0
LINE
  5
86
  8
SIZE
  6
CONTINUOUS
 62
    30
 10
-412.80449700000003
 20
-148.0
 30
0.0
 11
-412.80449700000003
 21
-143.0
 31
0.0
  0
TEXT
  5
87
  8
SIZE
  6
CONTINUOUS
 62
    30
 10
-432.80449699999991
 20
-320.14285757142858
 30
0.0
 40
64.0
  1
130
 50
90.0
 41
0.9
 72
     1
 11
-432.80449699999991
 21
-251.57142899999999
 31
0.0
  0
POINT
  5
88
  8
DEFPOINTS
  6
CONTINUOUS
 62
     7
 10
-287.40506099999999
 20
-22.999666999999999
 30
0.0
  0
POINT
  5
89
  8
DEFPOINTS
  6
CONTINUOUS
 62
     7
 10
-289.0
 20
-153.0
 30
0.0
  0
POINT
  5
8A
  8
DEFPOINTS
  6
CONTINUOUS
 62
     7
 10
-412.80449700000003
 20
-153.0
 30
0.0
  0
LINE
  5
8B
  8
DETAIL
  6
CONTINUOUS
 62
     5
 10
295.0
 20
-13.0
 30
0.0
 11
295.0
 21
-276.0
 31
0.0
  0
LINE
  5
8C
  8
SIZE
  6
CONTINUOUS
 62
    30
 10
-225.0
 20
20.0
 30
0.0
 11
-225.0
 21
131.69518600000001
 31
0.0
  0
LINE
  5
8D
  8
SIZE
  6
CONTINUOUS
 62
    30
 10
-122.0
 20
-37.927813
 30
0.0
 11
-122.0
 21
131.69518600000001
 31
0.0
  0
LINE
  5
8E
  8
SIZE
  6
CONTINUOUS
 62
    30
 10
-235.0
 20
101.69518600000001
 30
0.0
 11
-245.0
 21
101.69518600000001
 31
0.0
  0
LINE
  5
8F
  8
SIZE
  6
CONTINUOUS
 62
    30
 10
-112.0
 20
101.69518600000001
 30
0.0
 11
-102.0
 21
101.69518600000001
 31
0.0
  0
LINE
  5
90
  8
SIZE
  6
CONTINUOUS
 62
    30
 10
-225.0
 20
101.69518600000001
 30
0.0
 11
-122.0
 21
101.69518600000001
 31
0.0
  0
CIRCLE
  5
91
  8
SIZE
  6
CONTINUOUS
 62
    30
 10
-225.0
 20
101.69518600000001
 30
0.0
 40
5.0
  0
LINE
  5
92
  8
SIZE
  6
CONTINUOUS
 62
    30
 10
-230.0
 20
101.69518600000001
 30
0.0
 11
-235.0
 21
101.69518600000001
 31
0.0
  0
CIRCLE
  5
93
  8
SIZE
  6
CONTINUOUS
 62
    30
 10
-122.0
 20
101.69518600000001
 30
0.0
 40
5.0
  0
LINE
  5
94
  8
SIZE
  6
CONTINUOUS
 62
    30
 10
-117.0
 20
101.69518600000001
 30
0.0
 11
-112.0
 21
101.69518600000001
 31
0.0
  0
TEXT
  5
95
  8
SIZE
  6
CONTINUOUS
 62
    30
 10
-242.07142857142861
 20
121.69518600000001
 30
0.0
 40
64.0
  1
103
 41
0.9
 72
     1
 11
-173.5
 21
121.69518600000001
 31
0.0
  0
POINT
  5
96
  8
DEFPOINTS
  6
CONTINUOUS
 62
     7
 10
-225.0
 20
0.0
 30
0.0
  0
POINT
  5
97
  8
DEFPOINTS
  6
CONTINUOUS
 62
     7
 10
-122.0
 20
-57.927813
 30
0.0
  0
POINT
  5
98
  8
DEFPOINTS
  6
CONTINUOUS
 62
     7
 10
-122.0
 20
101.69518600000001
 30
0.0
  0
LINE
  5
99
  8
NOTE
  6
CONTINUOUS
 62
     4
 10
-309.0
 20
-23.0
 30
0.0
 11
-269.0
 21
-23.0
 31
0.0
  0
LINE
  5
9A
  8
NOTE
  6
CONTINUOUS
 62
     4
 10
-289.0
 20
-2.9999999999999991
 30
0.0
 11
-289.0
 21
-43.0
 31
0.0
  0
LINE
  5
9B
  8
NOTE
  6
CONTINUOUS
 62
     4
 10
-309.0
 20
-153.0
 30
0.0
 11
-269.0
 21
-153.0
 31
0.0
  0
LINE
  5
9C
  8
NOTE
  6
CONTINUOUS
 62
     4
 10
-289.0
 20
-133.0
 30
0.0
 11
-289.0
 21
-173.0
 31
0.0
  0
LINE
  5
9D
  8
NOTE
  6
CONTINUOUS
 62
     4
 10
-142.0
 20
-74.0
 30
0.0
 11
-102.0
 21
-74.0
 31
0.0
  0
LINE
  5
9E
  8
NOTE
  6
CONTINUOUS
 62
     4
 10
-122.0
 20
-54.000000000000021
 30
0.0
 11
-122.0
 21
-94.0
 31
0.0
  0
TEXT
  5
A0
  8
ETC
  6
CONTINUOUS
 62
    61
 10
641.45226285714273
 20
596.73831800000005
 30
0.0
 40
64.0
  1
CMB-RP1010GA_4
 41
0.9
 72
     2
 11
1431.3951199999999
 21
596.73831800000005
 31
0.0
  0
LINE
  5
A1
  8
DETAIL
  6
CONTINUOUS
 62
     5
 10
225.0
 20
-13.0
 30
0.0
 11
295.0
 21
-13.0
 31
0.0
  0
LINE
  5
A2
  8
DETAIL
  6
CONTINUOUS
 62
     5
 10
225.0
 20
-276.0
 30
0.0
 11
295.0
 21
-276.0
 31
0.0
  0
CIRCLE
  5
A3
  8
DETAIL
  6
CONTINUOUS
 62
     5
 10
-122.0
 20
-74.0
 30
0.0
 40
12.699999999999999
  0
LINE
  5
A4
  8
DETAIL
  6
CONTINUOUS
 62
     5
 10
-289.0
 20
-160.94
 30
0.0
 11
-225.0
 21
-160.94
 31
0.0
  0
LINE
  5
A5
  8
DETAIL
  6
CONTINUOUS
 62
     5
 10
-289.0
 20
-145.06
 30
0.0
 11
-225.0
 21
-145.06
 31
0.0
  0
LINE
  5
A6
  8
DETAIL
  6
CONTINUOUS
 62
     5
 10
-289.0
 20
-160.94
 30
0.0
 11
-289.0
 21
-145.06
 31
0.0
  0
LINE
  5
A7
  8
DETAIL
  6
CONTINUOUS
 62
     5
 10
-289.0
 20
-27.760000000000002
 30
0.0
 11
-225.0
 21
-27.760000000000002
 31
0.0
  0
LINE
  5
A8
  8
DETAIL
  6
CONTINUOUS
 62
     5
 10
-289.0
 20
-18.239999999999998
 30
0.0
 11
-225.0
 21
-18.239999999999998
 31
0.0
  0
LINE
  5
A9
  8
DETAIL
  6
CONTINUOUS
 62
     5
 10
-289.0
 20
-27.760000000000002
 30
0.0
 11
-289.0
 21
-18.239999999999998
 31
0.0
  0
LINE
  5
AA
  8
DETAIL
  6
CONTINUOUS
 62
     5
 10
199.86672200000001
 20
-27.0
 30
0.0
 11
199.86672200000001
 21
-36.042382000000011
 31
0.0
  0
LINE
  5
AB
  8
DETAIL
  6
CONTINUOUS
 62
     5
 10
187.87021299999989
 20
-27.0
 30
0.0
 11
187.87021299999989
 21
-36.042382000000011
 31
0.0
  0
LINE
  5
AC
  8
DETAIL
  6
CONTINUOUS
 62
     5
 10
-187.87021299999989
 20
-27.0
 30
0.0
 11
-187.87021299999989
 21
-36.042382000000011
 31
0.0
  0
LINE
  5
AD
  8
DETAIL
  6
CONTINUOUS
 62
     5
 10
-199.86672200000001
 20
-27.0
 30
0.0
 11
-199.86672200000001
 21
-36.042382000000011
 31
0.0
  0
LINE
  5
AE
  8
NOTE
  6
CONTINUOUS
 62
     4
 10
174.0
 20
-47.094182000000004
 30
0.0
 11
214.0
 21
-47.094182000000004
 31
0.0
  0
LINE
  5
AF
  8
NOTE
  6
CONTINUOUS
 62
     4
 10
194.0
 20
-27.094182
 30
0.0
 11
194.0
 21
-67.094181999999989
 31
0.0
  0
LINE
  5
B0
  8
NOTE
  6
CONTINUOUS
 62
     4
 10
-214.0
 20
-47.094182000000004
 30
0.0
 11
-174.0
 21
-47.094182000000004
 31
0.0
  0
LINE
  5
B1
  8
NOTE
  6
CONTINUOUS
 62
     4
 10
-194.0
 20
-27.094182
 30
0.0
 11
-194.0
 21
-67.094181999999989
 31
0.0
  0
CIRCLE
  5
B2
  8
ARRANGE
  6
CONTINUOUS
 62
     1
 10
0.0
 20
0.0
 30
0.0
 40
40.0
  0
POINT
  5
B3
  8
ARRANGE
  6
CONTINUOUS
 62
     1
 10
0.0
 20
0.0
 30
0.0
  0
LINE
  5
B4
  8
BASIS
  6
DASHDOT1
 62
     6
 10
0.0
 20
50.0
 30
0.0
 11
0.0
 21
-339.0
 31
0.0
  0
LINE
  5
B5
  8
SIZE
  6
CONTINUOUS
 62
    30
 10
246.99877272713999
 20
0.0
 30
0.0
 11
401.63270899999981
 21
0.0
 31
0.0
  0
LINE
  5
B6
  8
SIZE
  6
CONTINUOUS
 62
    30
 10
238.98619500000001
 20
-27.0
 30
0.0
 11
480.32489848458312
 21
-27.0
 31
0.0
  0
LINE
  5
B7
  8
SIZE
  6
CONTINUOUS
 62
    30
 10
442.5371438269961
 20
10.0
 30
0.0
 11
442.5371438269961
 21
118.50386197583791
 31
0.0
  0
LINE
  5
B8
  8
SIZE
  6
CONTINUOUS
 62
    30
 10
442.5371438269961
 20
-37.0
 30
0.0
 11
442.5371438269961
 21
-47.0
 31
0.0
  0
LINE
  5
B9
  8
SIZE
  6
CONTINUOUS
 62
    30
 10
442.5371438269961
 20
0.0
 30
0.0
 11
442.5371438269961
 21
-27.0
 31
0.0
  0
CIRCLE
  5
BA
  8
SIZE
  6
CONTINUOUS
 62
    30
 10
442.5371438269961
 20
0.0
 30
0.0
 40
5.0
  0
LINE
  5
BB
  8
SIZE
  6
CONTINUOUS
 62
    30
 10
442.5371438269961
 20
5.0
 30
0.0
 11
442.5371438269961
 21
10.0
 31
0.0
  0
CIRCLE
  5
BC
  8
SIZE
  6
CONTINUOUS
 62
    30
 10
442.5371438269961
 20
-27.0
 30
0.0
 40
5.0
  0
LINE
  5
BD
  8
SIZE
  6
CONTINUOUS
 62
    30
 10
442.5371438269961
 20
-32.0
 30
0.0
 11
442.5371438269961
 21
-37.0
 31
0.0
  0
TEXT
  5
BE
  8
SIZE
  6
CONTINUOUS
 62
    30
 10
422.5371438269961
 20
20.28821032920035
 30
0.0
 40
64.0
  1
27
 50
90.0
 41
0.9
 72
     1
 11
422.5371438269961
 21
66.916781757771773
 31
0.0
  0
POINT
  5
BF
  8
DEFPOINTS
  6
CONTINUOUS
 62
     7
 10
225.0
 20
0.0
 30
0.0
  0
POINT
  5
C0
  8
DEFPOINTS
  6
CONTINUOUS
 62
     7
 10
218.98619500000001
 20
-27.0
 30
0.0
  0
POINT
  5
C1
  8
DEFPOINTS
  6
CONTINUOUS
 62
     7
 10
442.5371438269961
 20
-27.0
 30
0.0
  0
LINE
  5
C2
  8
SIZE
  6
CONTINUOUS
 62
    30
 10
246.99877272713999
 20
0.0
 30
0.0
 11
978.64295567942804
 21
0.0
 31
0.0
  0
LINE
  5
C3
  8
SIZE
  6
CONTINUOUS
 62
    30
 10
242.19
 20
-289.0
 30
0.0
 11
976.52456782370405
 21
-289.0
 31
0.0
  0
LINE
  5
C4
  8
SIZE
  6
CONTINUOUS
 62
    30
 10
944.32781342586566
 20
-10.0
 30
0.0
 11
944.32781342586566
 21
-279.0
 31
0.0
  0
CIRCLE
  5
C5
  8
SIZE
  6
CONTINUOUS
 62
    30
 10
944.32781342586566
 20
0.0
 30
0.0
 40
5.0
  0
LINE
  5
C6
  8
SIZE
  6
CONTINUOUS
 62
    30
 10
944.32781342586566
 20
-5.0
 30
0.0
 11
944.32781342586566
 21
-10.0
 31
0.0
  0
CIRCLE
  5
C7
  8
SIZE
  6
CONTINUOUS
 62
    30
 10
944.32781342586566
 20
-289.0
 30
0.0
 40
5.0
  0
LINE
  5
C8
  8
SIZE
  6
CONTINUOUS
 62
    30
 10
944.32781342586566
 20
-284.0
 30
0.0
 11
944.32781342586566
 21
-279.0
 31
0.0
  0
TEXT
  5
C9
  8
SIZE
  6
CONTINUOUS
 62
    30
 10
924.32781342586588
 20
-222.00056928571431
 30
0.0
 40
64.0
  1
289
 50
90.0
 41
0.9
 72
     1
 11
924.32781342586588
 21
-149.31485499999999
 31
0.0
  0
POINT
  5
CA
  8
DEFPOINTS
  6
CONTINUOUS
 62
     7
 10
225.0
 20
0.0
 30
0.0
  0
POINT
  5
CB
  8
DEFPOINTS
  6
CONTINUOUS
 62
     7
 10
222.19
 20
-289.0
 30
0.0
  0
POINT
  5
CC
  8
DEFPOINTS
  6
CONTINUOUS
 62
     7
 10
944.32781342586566
 20
-289.0
 30
0.0
  0
LINE
  5
CD
  8
SIZE
  6
CONTINUOUS
 62
    30
 10
-194.0
 20
-12.796845346554621
 30
0.0
 11
-194.0
 21
337.698643
 31
0.0
  0
LINE
  5
CE
  8
SIZE
  6
CONTINUOUS
 62
    30
 10
194.0
 20
-10.475152686180991
 30
0.0
 11
194.0
 21
337.698643
 31
0.0
  0
LINE
  5
CF
  8
SIZE
  6
CONTINUOUS
 62
    30
 10
184.0
 20
307.698643
 30
0.0
 11
-184.0
 21
307.698643
 31
0.0
  0
LINE
  5
D0
  8
SIZE
  6
CONTINUOUS
 62
    30
 10
-194.0
 20
307.698643
 30
0.0
 11
-392.11428599999999
 21
307.698643
 31
0.0
  0
CIRCLE
  5
D1
  8
SIZE
  6
CONTINUOUS
 62
    30
 10
194.0
 20
307.698643
 30
0.0
 40
5.0
  0
LINE
  5
D2
  8
SIZE
  6
CONTINUOUS
 62
    30
 10
189.0
 20
307.698643
 30
0.0
 11
184.0
 21
307.698643
 31
0.0
  0
CIRCLE
  5
D3
  8
SIZE
  6
CONTINUOUS
 62
    30
 10
-194.0
 20
307.698643
 30
0.0
 40
5.0
  0
LINE
  5
D4
  8
SIZE
  6
CONTINUOUS
 62
    30
 10
-189.0
 20
307.698643
 30
0.0
 11
-184.0
 21
307.698643
 31
0.0
  0
TEXT
  5
D5
  8
SIZE
  6
CONTINUOUS
 62
    30
 10
-392.0644929504324
 20
327.698643
 30
0.0
 40
64.0
  1
388
 41
0.9
 72
     1
 11
-318.00735009328957
 21
327.698643
 31
0.0
  0
POINT
  5
D6
  8
DEFPOINTS
  6
CONTINUOUS
 62
     7
 10
-194.0
 20
-47.094182000000004
 30
0.0
  0
POINT
  5
D7
  8
DEFPOINTS
  6
CONTINUOUS
 62
     7
 10
194.0
 20
-47.094182000000004
 30
0.0
  0
POINT
  5
D8
  8
DEFPOINTS
  6
CONTINUOUS
 62
     7
 10
194.0
 20
307.698643
 30
0.0
  0
LINE
  5
D9
  8
SIZE
  6
CONTINUOUS
 62
    30
 10
-225.0
 20
20.0
 30
0.0
 11
-225.0
 21
447.72420099999999
 31
0.0
  0
LINE
  5
DA
  8
SIZE
  6
CONTINUOUS
 62
    30
 10
225.0
 20
20.0
 30
0.0
 11
225.0
 21
447.72420099999999
 31
0.0
  0
LINE
  5
DB
  8
SIZE
  6
CONTINUOUS
 62
    30
 10
-215.0
 20
417.72420099999988
 30
0.0
 11
215.0
 21
417.72420099999988
 31
0.0
  0
CIRCLE
  5
DC
  8
SIZE
  6
CONTINUOUS
 62
    30
 10
-225.0
 20
417.72420099999988
 30
0.0
 40
5.0
  0
LINE
  5
DD
  8
SIZE
  6
CONTINUOUS
 62
    30
 10
-220.0
 20
417.72420099999988
 30
0.0
 11
-215.0
 21
417.72420099999988
 31
0.0
  0
CIRCLE
  5
DE
  8
SIZE
  6
CONTINUOUS
 62
    30
 10
225.0
 20
417.72420099999988
 30
0.0
 40
5.0
  0
LINE
  5
DF
  8
SIZE
  6
CONTINUOUS
 62
    30
 10
220.0
 20
417.72420099999988
 30
0.0
 11
215.0
 21
417.72420099999988
 31
0.0
  0
TEXT
  5
E0
  8
SIZE
  6
CONTINUOUS
 62
    30
 10
-74.05714285714285
 20
437.72420099999988
 30
0.0
 40
64.0
  1
450
 41
0.9
 72
     1
 11
0.0
 21
437.72420099999988
 31
0.0
  0
POINT
  5
E1
  8
DEFPOINTS
  6
CONTINUOUS
 62
     7
 10
-225.0
 20
0.0
 30
0.0
  0
POINT
  5
E2
  8
DEFPOINTS
  6
CONTINUOUS
 62
     7
 10
225.0
 20
0.0
 30
0.0
  0
POINT
  5
E3
  8
DEFPOINTS
  6
CONTINUOUS
 62
     7
 10
225.0
 20
417.72420099999988
 30
0.0
  0
LINE
  5
E4
  8
SIZE
  6
CONTINUOUS
 62
    30
 10
295.0
 20
9.5
 30
0.0
 11
295.0
 21
448.98881599999987
 31
0.0
  0
LINE
  5
E5
  8
SIZE
  6
CONTINUOUS
 62
    30
 10
225.0
 20
9.5
 30
0.0
 11
225.0
 21
448.98881599999987
 31
0.0
  0
LINE
  5
E6
  8
SIZE
  6
CONTINUOUS
 62
    30
 10
285.0
 20
418.98881599999987
 30
0.0
 11
235.0
 21
418.98881599999987
 31
0.0
  0
CIRCLE
  5
E7
  8
SIZE
  6
CONTINUOUS
 62
    30
 10
295.0
 20
418.98881599999987
 30
0.0
 40
5.0
  0
LINE
  5
E8
  8
SIZE
  6
CONTINUOUS
 62
    30
 10
290.0
 20
418.98881599999987
 30
0.0
 11
285.0
 21
418.98881599999987
 31
0.0
  0
CIRCLE
  5
E9
  8
SIZE
  6
CONTINUOUS
 62
    30
 10
225.0
 20
418.98881599999987
 30
0.0
 40
5.0
  0
LINE
  5
EA
  8
SIZE
  6
CONTINUOUS
 62
    30
 10
230.0
 20
418.98881599999987
 30
0.0
 11
235.0
 21
418.98881599999987
 31
0.0
  0
TEXT
  5
EB
  8
SIZE
  6
CONTINUOUS
 62
    30
 10
213.37142857142859
 20
438.98881599999987
 30
0.0
 40
64.0
  1
70
 41
0.9
 72
     1
 11
260.0
 21
438.98881599999987
 31
0.0
  0
POINT
  5
EC
  8
DEFPOINTS
  6
CONTINUOUS
 62
     7
 10
295.0
 20
-13.0
 30
0.0
  0
POINT
  5
ED
  8
DEFPOINTS
  6
CONTINUOUS
 62
     7
 10
225.0
 20
0.0
 30
0.0
  0
POINT
  5
EE
  8
DEFPOINTS
  6
CONTINUOUS
 62
     7
 10
225.0
 20
418.98881599999987
 30
0.0
  0
TEXT
  5
EF
  8
SIZE
  6
CONTINUOUS
 62
    30
 10
-179.545714
 20
333.59183200000001
 30
0.0
 40
35.0
  1
（吊りボルトピッチ）
 41
0.9
  0
CIRCLE
  5
F0
  8
DETAIL
  6
CONTINUOUS
 62
     5
 10
-15.0
 20
-66.0
 30
0.0
 40
6.349999999999997
  0
CIRCLE
  5
F1
  8
DETAIL
  6
CONTINUOUS
 62
     5
 10
43.0
 20
-128.0
 30
0.0
 40
9.5250000000000004
  0
LINE
  5
F2
  8
NOTE
  6
CONTINUOUS
 62
     4
 10
-35.0
 20
-66.0
 30
0.0
 11
5.0
 21
-66.0
 31
0.0
  0
LINE
  5
F3
  8
NOTE
  6
CONTINUOUS
 62
     4
 10
-15.0
 20
-45.999999999999993
 30
0.0
 11
-15.0
 21
-86.0
 31
0.0
  0
LINE
  5
F4
  8
SIZE
  6
CONTINUOUS
 62
    30
 10
246.99877272713999
 20
0.0
 30
0.0
 11
611.10389350000003
 21
0.0
 31
0.0
  0
LINE
  5
F5
  8
SIZE
  6
CONTINUOUS
 62
    30
 10
12.53332157748264
 20
-66.0
 30
0.0
 11
604.70514492125767
 21
-66.0
 31
0.0
  0
LINE
  5
F6
  8
SIZE
  6
CONTINUOUS
 62
    30
 10
568.11222182699635
 20
0.0
 30
0.0
 11
568.11222182699635
 21
-66.0
 31
0.0
  0
CIRCLE
  5
F7
  8
SIZE
  6
CONTINUOUS
 62
    30
 10
568.11222182699635
 20
0.0
 30
0.0
 40
5.0
  0
CIRCLE
  5
F9
  8
SIZE
  6
CONTINUOUS
 62
    30
 10
568.11222182699635
 20
-66.0
 30
0.0
 40
5.0
  0
TEXT
  5
FB
  8
SIZE
  6
CONTINUOUS
 62
    30
 10
548.11222182699635
 20
19.67081563155886
 30
0.0
 40
64.0
  1
66
 50
90.0
 41
0.9
 72
     1
 11
548.11222182699635
 21
64.927958488701719
 31
0.0
  0
POINT
  5
FC
  8
DEFPOINTS
  6
CONTINUOUS
 62
     7
 10
-225.0
 20
0.0
 30
0.0
  0
POINT
  5
FD
  8
DEFPOINTS
  6
CONTINUOUS
 62
     7
 10
-15.0
 20
-45.999999999999993
 30
0.0
  0
POINT
  5
FE
  8
DEFPOINTS
  6
CONTINUOUS
 62
     7
 10
568.11222182699635
 20
-66.0
 30
0.0
  0
LINE
  5
FF
  8
SIZE
  6
CONTINUOUS
 62
    30
 10
246.99877272713999
 20
0.0
 30
0.0
 11
765.39784199999986
 21
0.0
 31
0.0
  0
LINE
  5
100
  8
SIZE
  6
CONTINUOUS
 62
    30
 10
79.915840230822141
 20
-128.0
 30
0.0
 11
842.69253967902648
 21
-128.0
 31
0.0
  0
LINE
  5
101
  8
SIZE
  6
CONTINUOUS
 62
    30
 10
806.30227682699615
 20
0.0
 30
0.0
 11
806.30227682699615
 21
-128.0
 31
0.0
  0
CIRCLE
  5
102
  8
SIZE
  6
CONTINUOUS
 62
    30
 10
806.30227682699615
 20
0.0
 30
0.0
 40
5.0
  0
CIRCLE
  5
104
  8
SIZE
  6
CONTINUOUS
 62
    30
 10
806.30227682699615
 20
-128.0
 30
0.0
 40
5.0
  0
TEXT
  5
106
  8
SIZE
  6
CONTINUOUS
 62
    30
 10
786.30227682699615
 20
20.222386719713409
 30
0.0
 40
64.0
  1
128
 50
90.0
 41
0.9
 72
     1
 11
786.30227682699615
 21
88.793815291141982
 31
0.0
  0
POINT
  5
107
  8
DEFPOINTS
  6
CONTINUOUS
 62
     7
 10
-225.0
 20
0.0
 30
0.0
  0
POINT
  5
108
  8
DEFPOINTS
  6
CONTINUOUS
 62
     7
 10
43.0
 20
-128.0
 30
0.0
  0
POINT
  5
109
  8
DEFPOINTS
  6
CONTINUOUS
 62
     7
 10
806.30227682699615
 20
-128.0
 30
0.0
  0
LINE
  5
10A
  8
SIZE
  6
CONTINUOUS
 62
    30
 10
-225.0
 20
20.0
 30
0.0
 11
-225.0
 21
227.90121300000001
 31
0.0
  0
LINE
  5
10B
  8
SIZE
  6
CONTINUOUS
 62
    30
 10
-15.0
 20
-39.649999999999999
 30
0.0
 11
-15.0
 21
227.90121300000001
 31
0.0
  0
LINE
  5
10C
  8
SIZE
  6
CONTINUOUS
 62
    30
 10
-215.0
 20
197.90121300000001
 30
0.0
 11
-25.0
 21
197.90121300000001
 31
0.0
  0
CIRCLE
  5
10D
  8
SIZE
  6
CONTINUOUS
 62
    30
 10
-225.0
 20
197.90121300000001
 30
0.0
 40
5.0
  0
LINE
  5
10E
  8
SIZE
  6
CONTINUOUS
 62
    30
 10
-220.0
 20
197.90121300000001
 30
0.0
 11
-215.0
 21
197.90121300000001
 31
0.0
  0
CIRCLE
  5
10F
  8
SIZE
  6
CONTINUOUS
 62
    30
 10
-15.0
 20
197.90121300000001
 30
0.0
 40
5.0
  0
LINE
  5
110
  8
SIZE
  6
CONTINUOUS
 62
    30
 10
-20.0
 20
197.90121300000001
 30
0.0
 11
-25.0
 21
197.90121300000001
 31
0.0
  0
TEXT
  5
111
  8
SIZE
  6
CONTINUOUS
 62
    30
 10
-188.5714285714285
 20
217.90121300000001
 30
0.0
 40
64.0
  1
210
 41
0.9
 72
     1
 11
-120.0
 21
217.90121300000001
 31
0.0
  0
POINT
  5
112
  8
DEFPOINTS
  6
CONTINUOUS
 62
     7
 10
-225.0
 20
0.0
 30
0.0
  0
POINT
  5
113
  8
DEFPOINTS
  6
CONTINUOUS
 62
     7
 10
-15.0
 20
-66.0
 30
0.0
  0
POINT
  5
114
  8
DEFPOINTS
  6
CONTINUOUS
 62
     7
 10
-15.0
 20
197.90121300000001
 30
0.0
  0
LINE
  5
115
  8
SIZE
  6
CONTINUOUS
 62
    30
 10
43.0
 20
-164.1331660284759
 30
0.0
 11
43.0
 21
-443.12367
 31
0.0
  0
LINE
  5
116
  8
SIZE
  6
CONTINUOUS
 62
    30
 10
-225.0
 20
-309.0
 30
0.0
 11
-225.0
 21
-443.12367
 31
0.0
  0
LINE
  5
117
  8
SIZE
  6
CONTINUOUS
 62
    30
 10
33.0
 20
-413.12367
 30
0.0
 11
-215.0
 21
-413.12367
 31
0.0
  0
CIRCLE
  5
118
  8
SIZE
  6
CONTINUOUS
 62
    30
 10
43.0
 20
-413.12367
 30
0.0
 40
5.0
  0
LINE
  5
119
  8
SIZE
  6
CONTINUOUS
 62
    30
 10
38.0
 20
-413.12367
 30
0.0
 11
33.0
 21
-413.12367
 31
0.0
  0
CIRCLE
  5
11A
  8
SIZE
  6
CONTINUOUS
 62
    30
 10
-225.0
 20
-413.12367
 30
0.0
 40
5.0
  0
LINE
  5
11B
  8
SIZE
  6
CONTINUOUS
 62
    30
 10
-220.0
 20
-413.12367
 30
0.0
 11
-215.0
 21
-413.12367
 31
0.0
  0
TEXT
  5
11C
  8
SIZE
  6
CONTINUOUS
 62
    30
 10
-176.47728585714279
 20
-393.12367
 30
0.0
 40
64.0
  1
268
 41
0.9
 72
     1
 11
-102.420143
 21
-393.12367
 31
0.0
  0
POINT
  5
11D
  8
DEFPOINTS
  6
CONTINUOUS
 62
     7
 10
43.0
 20
-128.0
 30
0.0
  0
POINT
  5
11E
  8
DEFPOINTS
  6
CONTINUOUS
 62
     7
 10
-225.0
 20
-289.0
 30
0.0
  0
POINT
  5
11F
  8
DEFPOINTS
  6
CONTINUOUS
 62
     7
 10
-225.0
 20
-413.12367
 30
0.0
  0
LINE
  5
120
  8
OUTLINE
  6
CONTINUOUS
 62
     3
 10
225.0
 20
-289.0
 30
0.0
 11
-225.0
 21
-289.0
 31
0.0
  0
LINE
  5
121
  8
OUTLINE
  6
CONTINUOUS
 62
     3
 10
-225.0
 20
-289.0
 30
0.0
 11
-225.0
 21
0.0
 31
0.0
  0
LINE
  5
122
  8
OUTLINE
  6
CONTINUOUS
 62
     3
 10
-225.0
 20
0.0
 30
0.0
 11
225.0
 21
0.0
 31
0.0
  0
LINE
  5
123
  8
NOTE
  6
CONTINUOUS
 62
     4
 10
23.0
 20
-128.0
 30
0.0
 11
63.0
 21
-128.0
 31
0.0
  0
LINE
  5
124
  8
NOTE
  6
CONTINUOUS
 62
     4
 10
43.0
 20
-108.0
 30
0.0
 11
43.0
 21
-148.0
 31
0.0
  0
POINT
  5
12F
  8
DEFPOINTS
  6
CONTINUOUS
 62
     7
 10
-289.0
 20
-153.0
 30
0.0
  0
POINT
  5
130
  8
DEFPOINTS
  6
CONTINUOUS
 62
     7
 10
-289.0
 20
-153.0
 30
0.0
  0
LINE
  5
132
  8
SIZE
  6
CONTINUOUS
 62
    30
 10
246.99877272713999
 20
0.0
 30
0.0
 11
651.27448400000003
 21
0.0
 31
0.0
  0
LINE
  5
133
  8
SIZE
  6
CONTINUOUS
 62
    30
 10
-85.296126595167166
 20
-74.0
 30
0.0
 11
728.10601797062179
 21
-74.0
 31
0.0
  0
LINE
  5
134
  8
SIZE
  6
CONTINUOUS
 62
    30
 10
692.17891882699632
 20
10.0
 30
0.0
 11
692.17891882699632
 21
119.7365064132664
 31
0.0
  0
LINE
  5
135
  8
SIZE
  6
CONTINUOUS
 62
    30
 10
692.17891882699632
 20
-84.0
 30
0.0
 11
692.17891882699632
 21
-94.0
 31
0.0
  0
LINE
  5
136
  8
SIZE
  6
CONTINUOUS
 62
    30
 10
692.17891882699632
 20
0.0
 30
0.0
 11
692.17891882699632
 21
-74.0
 31
0.0
  0
CIRCLE
  5
137
  8
SIZE
  6
CONTINUOUS
 62
    30
 10
692.17891882699632
 20
0.0
 30
0.0
 40
5.0
  0
LINE
  5
138
  8
SIZE
  6
CONTINUOUS
 62
    30
 10
692.17891882699632
 20
5.0
 30
0.0
 11
692.17891882699632
 21
10.0
 31
0.0
  0
CIRCLE
  5
139
  8
SIZE
  6
CONTINUOUS
 62
    30
 10
692.17891882699632
 20
-74.0
 30
0.0
 40
5.0
  0
LINE
  5
13A
  8
SIZE
  6
CONTINUOUS
 62
    30
 10
692.17891882699632
 20
-79.0
 30
0.0
 11
692.17891882699632
 21
-84.0
 31
0.0
  0
TEXT
  5
13B
  8
SIZE
  6
CONTINUOUS
 62
    30
 10
672.17891882699655
 20
18.916781757771769
 30
0.0
 40
64.0
  1
74
 50
90.0
 41
0.9
 72
     1
 11
672.17891882699655
 21
66.916781757771773
 31
0.0
  0
POINT
  5
13C
  8
DEFPOINTS
  6
CONTINUOUS
 62
     7
 10
225.0
 20
0.0
 30
0.0
  0
POINT
  5
13D
  8
DEFPOINTS
  6
CONTINUOUS
 62
     7
 10
-122.0
 20
-74.0
 30
0.0
  0
POINT
  5
13E
  8
DEFPOINTS
  6
CONTINUOUS
 62
     7
 10
692.17891882699632
 20
-74.0
 30
0.0
  0
TEXT
  5
14C
  8
NOTE
  6
CONTINUOUS
 62
     4
 10
514.43551385714341
 20
286.26675612141838
 30
0.0
 40
64.0
  1
AH4-12×14長穴
 41
0.9
 72
     2
 11
1150.7783710000001
 21
286.26675612141838
 31
0.0
  0
LINE
  5
151
  8
OUTLINE
  6
CONTINUOUS
 62
     3
 10
225.0
 20
0.0
 30
0.0
 11
225.0
 21
-289.0
 31
0.0
  0
LINE
  5
174
  8
NOTE
  6
CONTINUOUS
 62
     4
 10
-295.59569199999999
 20
-15.020243000000001
 30
0.0
 11
-289.0
 21
-23.0
 31
0.0
  0
LINE
  5
175
  8
NOTE
  6
CONTINUOUS
 62
     4
 10
-289.0
 20
-23.0
 30
0.0
 11
-298.70191499999999
 21
-19.387174000000002
 31
0.0
  0
LINE
  5
176
  8
NOTE
  6
CONTINUOUS
 62
     4
 10
-297.24689899999998
 20
-159.25846100000001
 30
0.0
 11
-289.0
 21
-153.0
 31
0.0
  0
LINE
  5
177
  8
NOTE
  6
CONTINUOUS
 62
     4
 10
-289.0
 20
-153.0
 30
0.0
 11
-293.0127930000001
 21
-162.54343600000001
 31
0.0
  0
LINE
  5
178
  8
NOTE
  6
CONTINUOUS
 62
     4
 10
-129.65694099999999
 20
-80.967849999999999
 30
0.0
 11
-122.0
 21
-74.0
 31
0.0
  0
LINE
  5
179
  8
NOTE
  6
CONTINUOUS
 62
     4
 10
-122.0
 20
-74.0
 30
0.0
 11
-125.147181
 21
-83.862805000000023
 31
0.0
  0
LINE
  5
17A
  8
NOTE
  6
CONTINUOUS
 62
     4
 10
-12.655545
 20
-76.083809000000002
 30
0.0
 11
-15.0
 21
-66.0
 31
0.0
  0
LINE
  5
17B
  8
NOTE
  6
CONTINUOUS
 62
     4
 10
-15.0
 20
-66.0
 30
0.0
 11
-7.9277379999999971
 21
-73.560606999999976
 31
0.0
  0
LINE
  5
17C
  8
NOTE
  6
CONTINUOUS
 62
     4
 10
49.302258000000002
 20
-136.21347800000001
 30
0.0
 11
43.0
 21
-128.0
 31
0.0
  0
LINE
  5
17D
  8
NOTE
  6
CONTINUOUS
 62
     4
 10
43.0
 20
-128.0
 30
0.0
 11
52.564655000000002
 21
-131.961951
 31
0.0
  0
LINE
  5
17E
  8
NOTE
  6
CONTINUOUS
 62
     4
 10
197.61395411323511
 20
-37.392687058289297
 30
0.0
 11
194.0
 21
-47.094182000000004
 31
0.0
  0
LINE
  5
17F
  8
NOTE
  6
CONTINUOUS
 62
     4
 10
194.0
 20
-47.094182000000004
 30
0.0
 11
201.98052434272731
 21
-40.499417808119162
 31
0.0
  0
LINE
  5
297
  8
NOTE
  6
CONTINUOUS
 62
     4
 10
-289.0
 20
-153.0
 30
0.0
 11
-484.090687
 21
-404.45789999999988
 31
0.0
  0
LINE
  5
29B
  8
NOTE
  6
CONTINUOUS
 62
     4
 10
-289.0
 20
-23.0
 30
0.0
 11
-486.54696999999999
 21
117.516662
 31
0.0
  0
LINE
  5
29D
  8
NOTE
  6
CONTINUOUS
 62
     4
 10
-122.0
 20
-74.0
 30
0.0
 11
-473.76410999999968
 21
-621.97793300000001
 31
0.0
  0
LINE
  5
29F
  8
NOTE
  6
CONTINUOUS
 62
     4
 10
194.0
 20
-47.094182000000004
 30
0.0
 11
410.98362399999991
 21
255.85482412141849
 31
0.0
  0
LINE
  5
2A0
  8
NOTE
  6
CONTINUOUS
 62
     4
 10
410.98362399999991
 20
255.85482412141849
 30
0.0
 11
1231.9850630000001
 21
255.85482412141849
 31
0.0
  0
LINE
  5
2A1
  8
NOTE
  6
CONTINUOUS
 62
     4
 10
43.0
 20
-128.0
 30
0.0
 11
410.59573799999993
 21
-410.07349699999992
 31
0.0
  0
LINE
  5
2A3
  8
NOTE
  6
CONTINUOUS
 62
     4
 10
-15.0
 20
-66.0
 30
0.0
 11
433.95919266315281
 21
-908.04245677547954
 31
0.0
  0
TEXT
  5
2D1
  8
NOTE
  6
CONTINUOUS
 62
     4
 10
529.14576099999965
 20
-470.12396100000001
 30
0.0
 40
50.0
  1
子機側室内ユニット合計容量
 41
0.9
  0
TEXT
  5
2D2
  8
NOTE
  6
CONTINUOUS
 62
     4
 10
530.91255499999988
 20
-539.70922700000006
 30
0.0
 40
50.0
  1
224以下：φ15.88（子機側付属配管を使用）
 41
0.9
  0
TEXT
  5
2D3
  8
NOTE
  6
CONTINUOUS
 62
     4
 10
458.49029899999988
 20
-613.10810200000014
 30
0.0
 40
50.0
  1
225～400：φ19.05
 41
0.9
  0
TEXT
  5
2D8
  8
NOTE
  6
CONTINUOUS
 62
     4
 10
440.59573799999998
 20
-390.07349700000009
 30
0.0
 40
64.0
  1
分流コントローラ子機配管接続口（高圧）
 41
0.9
  0
TEXT
  5
2D9
  8
NOTE
  6
CONTINUOUS
 62
     4
 10
453.95919266315281
 20
-888.04245677547931
 30
0.0
 40
64.0
  1
分流コントローラ子機配管接続口（液）
 41
0.9
  0
TEXT
  5
2DA
  8
NOTE
  6
CONTINUOUS
 62
     4
 10
476.8586906631524
 20
-973.25405977547962
 30
0.0
 40
50.0
  1
子機側室内ユニット合計容量
 41
0.9
  0
TEXT
  5
2DB
  8
NOTE
  6
CONTINUOUS
 62
     4
 10
549.42934266315285
 20
-1042.8393267754791
 30
0.0
 40
50.0
  1
335以下：φ9.52
 41
0.9
  0
TEXT
  5
2DC
  8
NOTE
  6
CONTINUOUS
 62
     4
 10
475.62239111172579
 20
-1110.551631929882
 30
0.0
 40
50.0
  1
336～450：φ12.7（子機側付属配管を使用）
 41
0.9
  0
TEXT
  5
2DD
  8
NOTE
  6
CONTINUOUS
 62
     4
 10
-1776.7981254269041
 20
-603.10773099999994
 30
0.0
 40
64.0
  1
分流コントローラ子機配管接続口（低圧）
 41
0.9
  0
TEXT
  5
2DE
  8
NOTE
  6
CONTINUOUS
 62
     4
 10
-1770.2170214269031
 20
-685.45043200000009
 30
0.0
 40
50.0
  1
子機側室内ユニット合計容量
 41
0.9
  0
TEXT
  5
2DF
  8
NOTE
  6
CONTINUOUS
 62
     4
 10
-1688.3859304269031
 20
-757.50029099999983
 30
0.0
 40
50.0
  1
224以下：φ19.05（子機側付属配管を使用）
 41
0.9
  0
TEXT
  5
2E0
  8
NOTE
  6
CONTINUOUS
 62
     4
 10
-1762.6501502073411
 20
-818.30899273897603
 30
0.0
 40
50.0
  1
225～335：φ22.2
 41
0.9
  0
TEXT
  5
2E1
  8
NOTE
  6
CONTINUOUS
 62
     4
 10
-1762.214800426904
 20
-886.16075499999965
 30
0.0
 40
50.0
  1
336～400：φ25.4（子機側付属配管を使用）
 41
0.9
  0
TEXT
  5
2E2
  8
NOTE
  6
CONTINUOUS
 62
     4
 10
542.62091099999998
 20
-689.63142000000005
 30
0.0
 40
50.0
  1
401以上：φ22.2（分岐管<別売>付属配管を使用）
 41
0.9
  0
TEXT
  5
2E4
  8
NOTE
  6
CONTINUOUS
 62
     4
 10
559.73104966315259
 20
-1176.1636327754791
 30
0.0
 40
50.0
  1
451以上：φ15.88（分岐管<別売>付属配管を使用）
 41
0.9
  0
TEXT
  5
2E5
  8
NOTE
  6
CONTINUOUS
 62
     4
 10
-1679.01526601978
 20
-953.65701618487765
 30
0.0
 40
50.0
  1
401以上：φ28.58（分岐管<別売>付属配管を使用）
 41
0.9
  0
TEXT
  5
2E6
  8
NOTE
  6
CONTINUOUS
 62
     4
 10
-1507.2669699999999
 20
137.51666199999951
 30
0.0
 40
64.0
  1
室内ユニット側配管接続口（液）
 41
0.9
 72
     2
 11
-516.54696999999999
 21
137.51666199999951
 31
0.0
  0
TEXT
  5
2E7
  8
NOTE
  6
CONTINUOUS
 62
     4
 10
-1313.5776998024851
 20
42.56987622088991
 30
0.0
 40
50.0
  1
φ9.52
 41
0.9
  0
TEXT
  5
2E8
  8
NOTE
  6
CONTINUOUS
 62
     4
 10
-1599.302731245456
 20
-378.6260712595959
 30
0.0
 40
64.0
  1
室内ユニット側配管接続口（ガス）
 41
0.9
 72
     2
 11
-539.46273124545644
 21
-378.6260712595959
 31
0.0
  0
TEXT
  5
2E9
  8
NOTE
  6
CONTINUOUS
 62
     4
 10
-1422.636077470032
 20
-483.8379590000003
 30
0.0
 40
50.0
  1
φ15.88
 41
0.9
  0
LINE
  5
2EC
  8
NOTE
  6
CONTINUOUS
 62
     4
 10
-486.54696999999999
 20
117.516662
 30
0.0
 11
-1542.375542
 21
117.516662
 31
0.0
  0
LINE
  5
2ED
  8
NOTE
  6
CONTINUOUS
 62
     4
 10
-484.090687
 20
-404.45789999999971
 30
0.0
 11
-1645.816457894203
 21
-404.45789999999971
 31
0.0
  0
LINE
  5
2EE
  8
NOTE
  6
CONTINUOUS
 62
     4
 10
410.59573799999993
 20
-410.07349700000009
 30
0.0
 11
1742.904309
 21
-410.07349700000009
 31
0.0
  0
LINE
  5
2EF
  8
NOTE
  6
CONTINUOUS
 62
     4
 10
433.95919266315281
 20
-908.04245677547954
 30
0.0
 11
1687.147763663151
 21
-908.04245677547954
 31
0.0
  0
LINE
  5
2F0
  8
NOTE
  6
CONTINUOUS
 62
     4
 10
-1806.7981254269041
 20
-621.97793300000012
 30
0.0
 11
-474.48955442690283
 21
-621.97793300000012
 31
0.0
  0
LINE
  5
310
  8
SIZE
  6
CONTINUOUS
 62
    30
 10
568.11222527772145
 20
9.9999974410739014
 30
0.0
 11
568.11222527772145
 21
118.50385941691179
 31
0.0
  0
LINE
  5
311
  8
SIZE
  6
CONTINUOUS
 62
    30
 10
568.11222527772145
 20
4.9999974410738988
 30
0.0
 11
568.11222527772145
 21
9.9999974410739014
 31
0.0
  0
LINE
  5
31A
  8
SIZE
  6
CONTINUOUS
 62
    30
 10
568.1449448758176
 20
-75.99989291906094
 30
0.0
 11
568.1449448758176
 21
-85.99989291906094
 31
0.0
  0
LINE
  5
31B
  8
SIZE
  6
CONTINUOUS
 62
    30
 10
568.1449448758176
 20
-70.999892919060954
 30
0.0
 11
568.1449448758176
 21
-75.99989291906094
 31
0.0
  0
LINE
  5
324
  8
SIZE
  6
CONTINUOUS
 62
    30
 10
806.30227682699615
 20
-138.0
 30
0.0
 11
806.30227682699615
 21
-148.0
 31
0.0
  0
LINE
  5
325
  8
SIZE
  6
CONTINUOUS
 62
    30
 10
806.30227682699615
 20
-133.0
 30
0.0
 11
806.30227682699615
 21
-138.0
 31
0.0
  0
LINE
  5
32E
  8
SIZE
  6
CONTINUOUS
 62
    30
 10
806.30227633080551
 20
9.9999974410739014
 30
0.0
 11
806.30227633080551
 21
158.24517398128231
 31
0.0
  0
LINE
  5
32F
  8
SIZE
  6
CONTINUOUS
 62
    30
 10
806.30227633080551
 20
4.9999974410738988
 30
0.0
 11
806.30227633080551
 21
9.9999974410739014
 31
0.0
  0
ENDSEC
  0
EOF
