  0
SECTION
  2
HEADER
  9
$ACADVER
  1
AC1009
  9
$INSBASE
 10
0.0
 20
0.0
 30
0.0
  9
$EXTMIN
 10
-2358.033452623386
 20
-915.83664229672456
 30
-0.0000000000000015
  9
$EXTMAX
 10
1325.7647975251821
 20
896.13051462673695
 30
0.0000000000000148
  9
$LIMMIN
 10
-3837.0001750000001
 20
-3000.109539
  9
$LIMMAX
 10
7319.2568810000002
 20
4045.2230030000001
  9
$ORTHOMODE
 70
     0
  9
$REGENMODE
 70
     1
  9
$FILLMODE
 70
     1
  9
$QTEXTMODE
 70
     0
  9
$MIRRTEXT
 70
     0
  9
$DRAGMODE
 70
     2
  9
$LTSCALE
 40
20.0
  9
$OSMODE
 70
   959
  9
$ATTMODE
 70
     1
  9
$TEXTSIZE
 40
64.0
  9
$TRACEWID
 40
0.05
  9
$TEXTSTYLE
  7
STANDARD
  9
$CLAYER
  8
SYMBOLLINE
  9
$CELTYPE
  6
CONTINUOUS
  9
$CECOLOR
 62
     7
  9
$DIMSCALE
 40
1.0
  9
$DIMASZ
 40
10.0
  9
$DIMEXO
 40
20.0
  9
$DIMDLI
 40
200.0
  9
$DIMRND
 40
0.0
  9
$DIMDLE
 40
0.0
  9
$DIMEXE
 40
30.0
  9
$DIMTP
 40
0.0
  9
$DIMTM
 40
0.0
  9
$DIMTXT
 40
64.0
  9
$DIMCEN
 40
0.0
  9
$DIMTSZ
 40
0.0
  9
$DIMTOL
 70
     0
  9
$DIMLIM
 70
     0
  9
$DIMTIH
 70
     0
  9
$DIMTOH
 70
     0
  9
$DIMSE1
 70
     0
  9
$DIMSE2
 70
     0
  9
$DIMTAD
 70
     1
  9
$DIMZIN
 70
     8
  9
$DIMBLK
  1

  9
$DIMASO
 70
     1
  9
$DIMSHO
 70
     0
  9
$DIMPOST
  1

  9
$DIMAPOST
  1

  9
$DIMALT
 70
     0
  9
$DIMALTD
 70
     2
  9
$DIMALTF
 40
25.399999999999999
  9
$DIMLFAC
 40
1.0
  9
$DIMTOFL
 70
     1
  9
$DIMTVP
 40
0.0
  9
$DIMTIX
 70
     1
  9
$DIMSOXD
 70
     0
  9
$DIMSAH
 70
     1
  9
$DIMBLK1
  1
DOTBLANK
  9
$DIMBLK2
  1
DOTBLANK
  9
$DIMSTYLE
  2
STANDARD
  9
$DIMCLRD
 70
     0
  9
$DIMCLRE
 70
     0
  9
$DIMCLRT
 70
     0
  9
$DIMTFAC
 40
1.0
  9
$DIMGAP
 40
0.09
  9
$LUNITS
 70
     2
  9
$LUPREC
 70
     4
  9
$SKETCHINC
 40
0.1
  9
$FILLETRAD
 40
10.0
  9
$AUNITS
 70
     1
  9
$AUPREC
 70
     3
  9
$MENU
  1
ACAD
  9
$ELEVATION
 40
0.0
  9
$PELEVATION
 40
0.0
  9
$THICKNESS
 40
0.0
  9
$LIMCHECK
 70
     0
  9
$BLIPMODE
 70
     0
  9
$CHAMFERA
 40
0.0
  9
$CHAMFERB
 40
0.0
  9
$SKPOLY
 70
     0
  9
$TDCREATE
 40
2450330.4399309959
  9
$TDUPDATE
 40
2455450.6622809959
  9
$TDINDWG
 40
1.3977764583000001
  9
$TDUSRTIMER
 40
1.3977759028000001
  9
$USRTIMER
 70
     1
  9
$ANGBASE
 50
0.0
  9
$ANGDIR
 70
     0
  9
$PDMODE
 70
     3
  9
$PDSIZE
 40
-2.0
  9
$PLINEWID
 40
0.0
  9
$COORDS
 70
     0
  9
$SPLFRAME
 70
     0
  9
$SPLINETYPE
 70
     6
  9
$SPLINESEGS
 70
     8
  9
$ATTDIA
 70
     0
  9
$ATTREQ
 70
     1
  9
$HANDLING
 70
     1
  9
$HANDSEED
  5
5B7
  9
$SURFTAB1
 70
     6
  9
$SURFTAB2
 70
     6
  9
$SURFTYPE
 70
     6
  9
$SURFU
 70
     6
  9
$SURFV
 70
     6
  9
$UCSNAME
  2

  9
$UCSORG
 10
0.0
 20
0.0
 30
0.0
  9
$UCSXDIR
 10
1.0
 20
0.0
 30
0.0
  9
$UCSYDIR
 10
0.0
 20
1.0
 30
0.0
  9
$PUCSNAME
  2

  9
$PUCSORG
 10
0.0
 20
0.0
 30
0.0
  9
$PUCSXDIR
 10
1.0
 20
0.0
 30
0.0
  9
$PUCSYDIR
 10
0.0
 20
1.0
 30
0.0
  9
$USERI1
 70
     0
  9
$USERI2
 70
     0
  9
$USERI3
 70
     0
  9
$USERI4
 70
     0
  9
$USERI5
 70
     0
  9
$USERR1
 40
20.0
  9
$USERR2
 40
0.0
  9
$USERR3
 40
0.0
  9
$USERR4
 40
0.0
  9
$USERR5
 40
0.0
  9
$WORLDVIEW
 70
     1
  9
$SHADEDGE
 70
     3
  9
$SHADEDIF
 70
    70
  9
$TILEMODE
 70
     1
  9
$MAXACTVP
 70
    48
  9
$PLIMCHECK
 70
     0
  9
$PEXTMIN
 10
1.0000000000000000E+020
 20
1.0000000000000000E+020
 30
1.0000000000000000E+020
  9
$PEXTMAX
 10
-1.0000000000000000E+020
 20
-1.0000000000000000E+020
 30
-1.0000000000000000E+020
  9
$PLIMMIN
 10
0.0
 20
0.0
  9
$PLIMMAX
 10
12.0
 20
9.0
  9
$UNITMODE
 70
     0
  9
$VISRETAIN
 70
     1
  9
$PLINEGEN
 70
     0
  9
$PSLTSCALE
 70
     1
  0
ENDSEC
  0
SECTION
  2
TABLES
  0
TABLE
  2
VPORT
 70
     1
  0
VPORT
  2
*ACTIVE
 70
     0
 10
0.0
 20
0.0
 11
1.0
 21
1.0
 12
1741.1283530000001
 22
522.55673200000001
 13
0.0
 23
0.0
 14
50.0
 24
50.0
 15
100.0
 25
100.0
 16
0.0
 26
0.0
 36
1.0
 17
0.0
 27
0.0
 37
0.0
 40
7168.3883690244638
 41
1.5639386189258311
 42
50.0
 43
0.0
 44
0.0
 50
0.0
 51
0.0
 71
     0
 72
  1000
 73
     1
 74
     0
 75
     0
 76
     0
 77
     0
 78
     0
  0
ENDTAB
  0
TABLE
  2
LTYPE
 70
     2
  0
LTYPE
  2
CONTINUOUS
 70
     0
  3
実線
 72
    65
 73
     0
 40
0.0
  0
LTYPE
  2
DASHDOT
 70
     0
  3
____ _ ____ _ ____ _ ____ _ ____ _ ____ _ ____
 72
    65
 73
     4
 40
5.5
 49
4.0
 49
-0.6
 49
0.3
 49
-0.6
  0
ENDTAB
  0
TABLE
  2
LAYER
 70
    12
  0
LAYER
  2
0
 70
     0
 62
     7
  6
CONTINUOUS
  0
LAYER
  2
SYMBOLLINE
 70
     0
 62
    15
  6
CONTINUOUS
  0
LAYER
  2
SIZE
 70
     0
 62
    30
  6
CONTINUOUS
  0
LAYER
  2
OUTLINE
 70
     0
 62
     3
  6
CONTINUOUS
  0
LAYER
  2
DETAIL
 70
     0
 62
     5
  6
CONTINUOUS
  0
LAYER
  2
BASIS
 70
     0
 62
     6
  6
DASHDOT
  0
LAYER
  2
NOTE
 70
     0
 62
     4
  6
CONTINUOUS
  0
LAYER
  2
ARRANGE
 70
     0
 62
     1
  6
CONTINUOUS
  0
LAYER
  2
FIX
 70
     0
 62
    11
  6
CONTINUOUS
  0
LAYER
  2
SERVICESPACE
 70
     0
 62
     2
  6
DASHDOT
  0
LAYER
  2
ETC
 70
     0
 62
    61
  6
CONTINUOUS
  0
LAYER
  2
DEFPOINTS
 70
     0
 62
     7
  6
CONTINUOUS
  0
ENDTAB
  0
TABLE
  2
STYLE
 70
     2
  0
STYLE
  2
STANDARD
 70
     0
 40
0.0
 41
0.9
 50
0.0
 71
     0
 42
64.0
  3
SIMPLEX
  4
BIGFONT
  0
STYLE
  2
ANNOTATIVE
 70
     0
 40
0.0
 41
1.0
 50
0.0
 71
     0
 42
0.2
  3
txt
  4

  0
ENDTAB
  0
TABLE
  2
VIEW
 70
     2
  0
VIEW
  2
ALL
 70
     0
 40
9000.0
 10
241.50664699999999
 20
0.0
 41
12483.01
 11
0.0
 21
0.0
 31
1.0
 12
0.0
 22
0.0
 32
0.0
 42
50.0
 43
0.0
 44
0.0
 50
0.0
 71
     0
  0
ENDTAB
  0
TABLE
  2
UCS
 70
     0
  0
ENDTAB
  0
TABLE
  2
APPID
 70
     4
  0
APPID
  2
ACAD
 70
     0
  0
APPID
  2
ACADANNOTATIVE
 70
     0
  0
APPID
  2
ACAD_MLEADERVER
 70
     0
  0
APPID
  2
ACAD_EXEMPT_FROM_CAD_STANDARDS
 70
     0
  0
ENDTAB
  0
TABLE
  2
DIMSTYLE
 70
     2
  0
DIMSTYLE
  2
STANDARD
 70
     0
  3

  4

  5

  6

  7

 40
1.0
 41
0.18
 42
0.0625
 43
0.38
 44
0.18
 45
0.0
 46
0.0
 47
0.0
 48
0.0
140
0.18
141
0.09
142
0.0
143
25.399999999999999
144
1.0
145
0.0
146
1.0
147
0.09
 71
     0
 72
     0
 73
     1
 74
     1
 75
     0
 76
     0
 77
     0
 78
     0
170
     0
171
     2
172
     0
173
     0
174
     0
175
     0
176
     0
177
     0
178
     0
  0
DIMSTYLE
  2
ANNOTATIVE
 70
     0
  3

  4

  5

  6

  7

 40
1.0
 41
0.18
 42
0.0625
 43
0.38
 44
0.18
 45
0.0
 46
0.0
 47
0.0
 48
0.0
140
0.18
141
0.09
142
0.0
143
25.399999999999999
144
1.0
145
0.0
146
1.0
147
0.09
 71
     0
 72
     0
 73
     1
 74
     1
 75
     0
 76
     0
 77
     0
 78
     0
170
     0
171
     2
172
     0
173
     0
174
     0
175
     0
176
     0
177
     0
178
     0
  0
ENDTAB
  0
ENDSEC
  0
SECTION
  2
BLOCKS
  0
BLOCK
  8
0
  2
$MODEL_SPACE
 70
     0
 10
0.0
 20
0.0
 30
0.0
  3
$MODEL_SPACE
  1

  0
ENDBLK
  5
569
  8
0
  0
BLOCK
 67
     1
  8
0
  2
$PAPER_SPACE
 70
     0
 10
0.0
 20
0.0
 30
0.0
  3
$PAPER_SPACE
  1

  0
ENDBLK
  5
565
 67
     1
  8
0
  0
BLOCK
  8
0
  2
_DOTBLANK
 70
     0
 10
0.0
 20
0.0
 30
0.0
  3
_DOTBLANK
  1

  0
CIRCLE
  5
30
  8
0
  6
CONTINUOUS
 62
     7
 10
0.0
 20
0.0
 30
0.0
 40
0.5
  0
LINE
  5
31
  8
0
  6
CONTINUOUS
 62
     7
 10
-0.5
 20
0.0
 30
0.0
 11
-1.0
 21
0.0
 31
0.0
  0
ENDBLK
  5
32
  8
0
  0
BLOCK
  8
0
 62
     7
  2
*D3
 70
     1
 10
0.0
 20
0.0
 30
0.0
  3
*D3
  1

  0
LINE
  5
382
  8
SIZE
  6
CONTINUOUS
 62
     0
 10
-776.0
 20
40.0
 30
0.0
 11
-776.0
 21
272.34782088700013
 31
0.0
  0
LINE
  5
383
  8
SIZE
  6
CONTINUOUS
 62
     0
 10
-576.0
 20
201.0
 30
0.0
 11
-576.0
 21
272.34782088700013
 31
0.0
  0
LINE
  5
384
  8
SIZE
  6
CONTINUOUS
 62
     0
 10
-766.0
 20
242.3478208870001
 30
0.0
 11
-586.0
 21
242.3478208870001
 31
0.0
  0
INSERT
  5
385
  8
SIZE
  6
CONTINUOUS
 62
     0
  2
_DOTBLANK
 10
-776.0
 20
242.3478208870001
 30
0.0
 41
10.0
 42
10.0
 43
10.0
 50
180.0
  0
INSERT
  5
386
  8
SIZE
  6
CONTINUOUS
 62
     0
  2
_DOTBLANK
 10
-576.0
 20
242.3478208870001
 30
0.0
 41
10.0
 42
10.0
 43
10.0
  0
INSERT
  5
387
  8
SYMBOLLINE
  6
CONTINUOUS
 62
     7
  2
*U4
 10
0.0
 20
0.0
 30
0.0
  0
POINT
  5
388
  8
DEFPOINTS
  6
CONTINUOUS
 62
     0
 10
-776.0
 20
20.0
 30
0.0
  0
POINT
  5
389
  8
DEFPOINTS
  6
CONTINUOUS
 62
     0
 10
-576.0
 20
181.0
 30
0.0
  0
POINT
  5
38A
  8
DEFPOINTS
  6
CONTINUOUS
 62
     0
 10
-576.0
 20
242.3478208870001
 30
0.0
  0
ENDBLK
  5
378
  8
0
 62
     7
  0
BLOCK
  8
0
 62
     7
  2
*U4
 70
     1
 10
0.0
 20
0.0
 30
0.0
  3
*U4
  1

  0
TEXT
  5
41C
  8
SIZE
  6
CONTINUOUS
 62
     0
 10
-750.05714285714282
 20
242.43782088700021
 30
0.0
 40
64.0
  1
200
 41
0.9
  0
ENDBLK
  5
41E
  8
0
 62
     7
  0
ENDSEC
  0
SECTION
  2
ENTITIES
  0
TEXT
  5
34
  8
ETC
  6
CONTINUOUS
 62
    61
 10
315.138373
 20
831.67045700000006
 30
0.0
 40
64.0
  1
CMB-RP1016G_1
 41
0.9
  0
LINE
  5
35
  8
DETAIL
  6
CONTINUOUS
 62
     5
 10
-549.0
 20
-181.0
 30
0.0
 11
549.0
 21
-181.0
 31
0.0
  0
LINE
  5
38
  8
DETAIL
  6
CONTINUOUS
 62
     5
 10
-549.0
 20
181.0
 30
0.0
 11
549.0
 21
181.0
 31
0.0
  0
LINE
  5
39
  8
BASIS
  6
DASHDOT
 62
     6
 10
0.0
 20
300.0
 30
0.0
 11
0.0
 21
-300.0
 31
0.0
  0
LINE
  5
3A
  8
BASIS
  6
DASHDOT
 62
     6
 10
-800.0
 20
0.0
 30
0.0
 11
800.0
 21
0.0
 31
0.0
  0
LINE
  5
3B
  8
DETAIL
  6
CONTINUOUS
 62
     5
 10
501.93788099999989
 20
181.0
 30
0.0
 11
501.93788099999989
 21
251.0
 31
0.0
  0
LINE
  5
3C
  8
DETAIL
  6
CONTINUOUS
 62
     5
 10
549.0
 20
181.0
 30
0.0
 11
549.0
 21
-181.0
 31
0.0
  0
LINE
  5
3D
  8
DETAIL
  6
CONTINUOUS
 62
     5
 10
549.0
 20
-174.0
 30
0.0
 11
599.0
 21
-174.0
 31
0.0
  0
LINE
  5
3E
  8
DETAIL
  6
CONTINUOUS
 62
     5
 10
549.0
 20
-124.0
 30
0.0
 11
599.0
 21
-124.0
 31
0.0
  0
LINE
  5
3F
  8
DETAIL
  6
CONTINUOUS
 62
     5
 10
599.0
 20
143.0
 30
0.0
 11
599.0
 21
124.0
 31
0.0
  0
LINE
  5
40
  8
DETAIL
  6
CONTINUOUS
 62
     5
 10
549.0
 20
124.0
 30
0.0
 11
599.0
 21
124.0
 31
0.0
  0
LINE
  5
41
  8
DETAIL
  6
CONTINUOUS
 62
     5
 10
549.0
 20
174.0
 30
0.0
 11
599.0
 21
174.0
 31
0.0
  0
LINE
  5
42
  8
DETAIL
  6
CONTINUOUS
 62
     5
 10
599.0
 20
174.0
 30
0.0
 11
599.0
 21
155.0
 31
0.0
  0
ARC
  5
43
  8
DETAIL
  6
CONTINUOUS
 62
     5
 10
575.9995389999998
 20
157.0
 30
0.0
 40
7.0
 50
0.0
 51
180.0
  0
LINE
  5
45
  8
DETAIL
  6
CONTINUOUS
 62
     5
 10
582.99953899999957
 20
157.0
 30
0.0
 11
582.99953899999957
 21
155.0
 31
0.0
  0
ARC
  5
46
  8
DETAIL
  6
CONTINUOUS
 62
     5
 10
575.9995389999998
 20
141.0
 30
0.0
 40
7.0
 50
180.0
 51
0.0
  0
LINE
  5
47
  8
DETAIL
  6
CONTINUOUS
 62
     5
 10
568.9995389999998
 20
141.0
 30
0.0
 11
568.9995389999998
 21
157.0
 31
0.0
  0
LINE
  5
48
  8
DETAIL
  6
CONTINUOUS
 62
     5
 10
582.99953899999957
 20
141.0
 30
0.0
 11
582.99953899999957
 21
143.0
 31
0.0
  0
LINE
  5
49
  8
DETAIL
  6
CONTINUOUS
 62
     5
 10
583.0
 20
143.0
 30
0.0
 11
599.0
 21
143.0
 31
0.0
  0
LINE
  5
4A
  8
DETAIL
  6
CONTINUOUS
 62
     5
 10
599.0
 20
-155.0
 30
0.0
 11
599.0
 21
-174.0
 31
0.0
  0
ARC
  5
4B
  8
DETAIL
  6
CONTINUOUS
 62
     5
 10
575.9995389999998
 20
-141.0
 30
0.0
 40
7.0
 50
0.0
 51
180.0
  0
LINE
  5
4D
  8
DETAIL
  6
CONTINUOUS
 62
     5
 10
582.99953899999957
 20
-141.0
 30
0.0
 11
582.99953899999957
 21
-143.0
 31
0.0
  0
ARC
  5
4E
  8
DETAIL
  6
CONTINUOUS
 62
     5
 10
575.9995389999998
 20
-157.0
 30
0.0
 40
7.0
 50
180.0
 51
0.0
  0
LINE
  5
4F
  8
DETAIL
  6
CONTINUOUS
 62
     5
 10
568.9995389999998
 20
-157.0
 30
0.0
 11
568.9995389999998
 21
-141.0
 31
0.0
  0
LINE
  5
50
  8
DETAIL
  6
CONTINUOUS
 62
     5
 10
582.99953899999957
 20
-157.0
 30
0.0
 11
582.99953899999957
 21
-155.0
 31
0.0
  0
LINE
  5
51
  8
DETAIL
  6
CONTINUOUS
 62
     5
 10
583.0
 20
-155.0
 30
0.0
 11
599.0
 21
-155.0
 31
0.0
  0
LINE
  5
52
  8
DETAIL
  6
CONTINUOUS
 62
     5
 10
41.942620000000012
 20
251.0
 30
0.0
 11
501.93788099999989
 21
251.0
 31
0.0
  0
LINE
  5
53
  8
SIZE
  6
CONTINUOUS
 62
    30
 10
569.0
 20
-180.600221
 30
0.0
 11
1136.530886
 21
-180.600221
 31
0.0
  0
LINE
  5
54
  8
SIZE
  6
CONTINUOUS
 62
    30
 10
569.0
 20
181.399779
 30
0.0
 11
1136.530886
 21
181.399779
 31
0.0
  0
LINE
  5
55
  8
SIZE
  6
CONTINUOUS
 62
    30
 10
1106.530886
 20
-170.600221
 30
0.0
 11
1106.530886
 21
171.399779
 31
0.0
  0
CIRCLE
  5
56
  8
SIZE
  6
CONTINUOUS
 62
    30
 10
1106.530886
 20
-180.600221
 30
0.0
 40
5.0
  0
LINE
  5
57
  8
SIZE
  6
CONTINUOUS
 62
    30
 10
1106.530886
 20
-175.600221
 30
0.0
 11
1106.530886
 21
-170.600221
 31
0.0
  0
CIRCLE
  5
58
  8
SIZE
  6
CONTINUOUS
 62
    30
 10
1106.530886
 20
181.399779
 30
0.0
 40
5.0
  0
LINE
  5
59
  8
SIZE
  6
CONTINUOUS
 62
    30
 10
1106.530886
 20
176.399779
 30
0.0
 11
1106.530886
 21
171.399779
 31
0.0
  0
TEXT
  5
5A
  8
SIZE
  6
CONTINUOUS
 62
    30
 10
1086.530886
 20
-73.65736385714284
 30
0.0
 40
64.0
  1
362
 50
90.0
 41
0.9
 72
     1
 11
1086.530886
 21
0.399779
 31
0.0
  0
POINT
  5
5B
  8
DEFPOINTS
  6
CONTINUOUS
 62
     7
 10
549.0
 20
-181.0
 30
0.0
  0
POINT
  5
5C
  8
DEFPOINTS
  6
CONTINUOUS
 62
     7
 10
549.0
 20
181.0
 30
0.0
  0
POINT
  5
5D
  8
DEFPOINTS
  6
CONTINUOUS
 62
     7
 10
1106.530886
 20
181.399779
 30
0.0
  0
LINE
  5
5E
  8
SIZE
  6
CONTINUOUS
 62
    30
 10
568.9995389999998
 20
177.399779
 30
0.0
 11
568.9995389999998
 21
312.34666399999998
 31
0.0
  0
LINE
  5
5F
  8
SIZE
  6
CONTINUOUS
 62
    30
 10
582.99953899999957
 20
177.399779
 30
0.0
 11
582.99953899999957
 21
312.34666399999998
 31
0.0
  0
LINE
  5
60
  8
SIZE
  6
CONTINUOUS
 62
    30
 10
558.99953899999991
 20
282.34666399999998
 30
0.0
 11
548.9995389999998
 21
282.34666399999998
 31
0.0
  0
LINE
  5
61
  8
SIZE
  6
CONTINUOUS
 62
    30
 10
592.9995389999998
 20
282.34666399999998
 30
0.0
 11
728.02810999999986
 21
282.34666399999998
 31
0.0
  0
LINE
  5
62
  8
SIZE
  6
CONTINUOUS
 62
    30
 10
568.9995389999998
 20
282.34666399999998
 30
0.0
 11
582.99953899999957
 21
282.34666399999998
 31
0.0
  0
CIRCLE
  5
63
  8
SIZE
  6
CONTINUOUS
 62
    30
 10
568.9995389999998
 20
282.34666399999998
 30
0.0
 40
5.0
  0
LINE
  5
64
  8
SIZE
  6
CONTINUOUS
 62
    30
 10
563.9995389999998
 20
282.34666399999998
 30
0.0
 11
558.99953899999991
 21
282.34666399999998
 31
0.0
  0
CIRCLE
  5
65
  8
SIZE
  6
CONTINUOUS
 62
    30
 10
582.99953899999957
 20
282.34666399999998
 30
0.0
 40
5.0
  0
LINE
  5
66
  8
SIZE
  6
CONTINUOUS
 62
    30
 10
587.99953899999946
 20
282.34666399999998
 30
0.0
 11
592.9995389999998
 21
282.34666399999998
 31
0.0
  0
TEXT
  5
67
  8
SIZE
  6
CONTINUOUS
 62
    30
 10
634.93942962676715
 20
302.34666399999998
 30
0.0
 40
64.0
  1
14
 41
0.9
 72
     1
 11
677.45371534105288
 21
302.34666399999998
 31
0.0
  0
POINT
  5
68
  8
DEFPOINTS
  6
CONTINUOUS
 62
     7
 10
568.9995389999998
 20
157.0
 30
0.0
  0
POINT
  5
69
  8
DEFPOINTS
  6
CONTINUOUS
 62
     7
 10
582.99953899999957
 20
157.0
 30
0.0
  0
POINT
  5
6A
  8
DEFPOINTS
  6
CONTINUOUS
 62
     7
 10
582.99953899999957
 20
282.34666399999998
 30
0.0
  0
LINE
  5
6B
  8
DETAIL
  6
CONTINUOUS
 62
     5
 10
583.0
 20
155.0
 30
0.0
 11
599.0
 21
155.0
 31
0.0
  0
LINE
  5
6C
  8
DETAIL
  6
CONTINUOUS
 62
     5
 10
599.0
 20
-124.0
 30
0.0
 11
599.0
 21
-143.0
 31
0.0
  0
LINE
  5
6D
  8
DETAIL
  6
CONTINUOUS
 62
     5
 10
583.0
 20
-143.0
 30
0.0
 11
599.0
 21
-143.0
 31
0.0
  0
LINE
  5
6F
  8
DETAIL
  6
CONTINUOUS
 62
     5
 10
-549.0
 20
181.0
 30
0.0
 11
-549.0
 21
-181.0
 31
0.0
  0
LINE
  5
70
  8
DETAIL
  6
CONTINUOUS
 62
     5
 10
-549.0
 20
-174.0
 30
0.0
 11
-599.0
 21
-174.0
 31
0.0
  0
LINE
  5
71
  8
DETAIL
  6
CONTINUOUS
 62
     5
 10
-549.0
 20
-124.0
 30
0.0
 11
-599.0
 21
-124.0
 31
0.0
  0
LINE
  5
72
  8
DETAIL
  6
CONTINUOUS
 62
     5
 10
-599.0
 20
143.0
 30
0.0
 11
-599.0
 21
124.0
 31
0.0
  0
LINE
  5
73
  8
DETAIL
  6
CONTINUOUS
 62
     5
 10
-549.0
 20
124.0
 30
0.0
 11
-599.0
 21
124.0
 31
0.0
  0
LINE
  5
74
  8
DETAIL
  6
CONTINUOUS
 62
     5
 10
-549.0
 20
174.0
 30
0.0
 11
-599.0
 21
174.0
 31
0.0
  0
LINE
  5
75
  8
DETAIL
  6
CONTINUOUS
 62
     5
 10
-599.0
 20
174.0
 30
0.0
 11
-599.0
 21
155.0
 31
0.0
  0
ARC
  5
76
  8
DETAIL
  6
CONTINUOUS
 62
     5
 10
-575.9995389999998
 20
157.0
 30
0.0
 40
7.0
 50
0.0
 51
180.0
  0
LINE
  5
78
  8
DETAIL
  6
CONTINUOUS
 62
     5
 10
-582.99953899999957
 20
157.0
 30
0.0
 11
-582.99953899999957
 21
155.0
 31
0.0
  0
ARC
  5
79
  8
DETAIL
  6
CONTINUOUS
 62
     5
 10
-575.9995389999998
 20
141.0
 30
0.0
 40
7.0
 50
180.0
 51
0.0
  0
LINE
  5
7A
  8
DETAIL
  6
CONTINUOUS
 62
     5
 10
-568.9995389999998
 20
141.0
 30
0.0
 11
-568.9995389999998
 21
157.0
 31
0.0
  0
LINE
  5
7B
  8
DETAIL
  6
CONTINUOUS
 62
     5
 10
-582.99953899999957
 20
141.0
 30
0.0
 11
-582.99953899999957
 21
143.0
 31
0.0
  0
LINE
  5
7C
  8
DETAIL
  6
CONTINUOUS
 62
     5
 10
-583.0
 20
143.0
 30
0.0
 11
-599.0
 21
143.0
 31
0.0
  0
LINE
  5
7D
  8
DETAIL
  6
CONTINUOUS
 62
     5
 10
-599.0
 20
-155.0
 30
0.0
 11
-599.0
 21
-174.0
 31
0.0
  0
ARC
  5
7E
  8
DETAIL
  6
CONTINUOUS
 62
     5
 10
-575.9995389999998
 20
-141.0
 30
0.0
 40
7.0
 50
0.0
 51
180.0
  0
LINE
  5
80
  8
DETAIL
  6
CONTINUOUS
 62
     5
 10
-582.99953899999957
 20
-141.0
 30
0.0
 11
-582.99953899999957
 21
-143.0
 31
0.0
  0
ARC
  5
81
  8
DETAIL
  6
CONTINUOUS
 62
     5
 10
-575.9995389999998
 20
-157.0
 30
0.0
 40
7.0
 50
180.0
 51
0.0
  0
LINE
  5
82
  8
DETAIL
  6
CONTINUOUS
 62
     5
 10
-568.9995389999998
 20
-157.0
 30
0.0
 11
-568.9995389999998
 21
-141.0
 31
0.0
  0
LINE
  5
83
  8
DETAIL
  6
CONTINUOUS
 62
     5
 10
-582.99953899999957
 20
-157.0
 30
0.0
 11
-582.99953899999957
 21
-155.0
 31
0.0
  0
LINE
  5
84
  8
DETAIL
  6
CONTINUOUS
 62
     5
 10
-583.0
 20
-155.0
 30
0.0
 11
-599.0
 21
-155.0
 31
0.0
  0
LINE
  5
85
  8
DETAIL
  6
CONTINUOUS
 62
     5
 10
-583.0
 20
155.0
 30
0.0
 11
-599.0
 21
155.0
 31
0.0
  0
LINE
  5
86
  8
DETAIL
  6
CONTINUOUS
 62
     5
 10
-599.0
 20
-124.0
 30
0.0
 11
-599.0
 21
-143.0
 31
0.0
  0
LINE
  5
87
  8
DETAIL
  6
CONTINUOUS
 62
     5
 10
-583.0
 20
-143.0
 30
0.0
 11
-599.0
 21
-143.0
 31
0.0
  0
LINE
  5
88
  8
DETAIL
  6
CONTINUOUS
 62
     5
 10
-619.0
 20
76.525000000000006
 30
0.0
 11
-619.0
 21
57.475000000000001
 31
0.0
  0
LINE
  5
89
  8
DETAIL
  6
CONTINUOUS
 62
     5
 10
-619.0
 20
57.475000000000001
 30
0.0
 11
-549.0
 21
57.475000000000001
 31
0.0
  0
LINE
  5
8A
  8
DETAIL
  6
CONTINUOUS
 62
     5
 10
-619.0
 20
76.525000000000006
 30
0.0
 11
-549.0
 21
76.525000000000006
 31
0.0
  0
LINE
  5
8B
  8
DETAIL
  6
CONTINUOUS
 62
     5
 10
-619.0
 20
-65.299999999999997
 30
0.0
 11
-549.0
 21
-65.299999999999997
 31
0.0
  0
LINE
  5
8C
  8
DETAIL
  6
CONTINUOUS
 62
     5
 10
-619.0
 20
-90.700000000000003
 30
0.0
 11
-549.0
 21
-90.700000000000003
 31
0.0
  0
LINE
  5
8D
  8
DETAIL
  6
CONTINUOUS
 62
     5
 10
-619.0
 20
-65.299999999999997
 30
0.0
 11
-619.0
 21
-90.700000000000003
 31
0.0
  0
LINE
  5
8E
  8
DETAIL
  6
CONTINUOUS
 62
     5
 10
-749.0
 20
-15.5
 30
0.0
 11
-706.64705900000001
 21
-15.5
 31
0.0
  0
LINE
  5
8F
  8
DETAIL
  6
CONTINUOUS
 62
     5
 10
-749.0
 20
15.5
 30
0.0
 11
-706.64705900000001
 21
15.5
 31
0.0
  0
LINE
  5
92
  8
DETAIL
  6
CONTINUOUS
 62
     5
 10
-749.0
 20
-15.5
 30
0.0
 11
-749.0
 21
15.5
 31
0.0
  0
LINE
  5
94
  8
DETAIL
  6
CONTINUOUS
 62
     5
 10
-693.01909799999987
 20
-14.836719
 30
0.0
 11
-697.57792199999994
 21
16.163281000000001
 31
0.0
  0
LINE
  5
95
  8
DETAIL
  6
CONTINUOUS
 62
     5
 10
-692.92207800000006
 20
-16.163281000000001
 30
0.0
 11
-692.97897401462251
 21
-15.776388140503791
 31
0.0
  0
LINE
  5
96
  8
DETAIL
  6
CONTINUOUS
 62
     5
 10
-683.90145099999995
 20
-14.836719
 30
0.0
 11
-688.46027499999968
 21
16.163281000000001
 31
0.0
  0
LINE
  5
97
  8
DETAIL
  6
CONTINUOUS
 62
     5
 10
-683.80443099999979
 20
-16.163281000000001
 30
0.0
 11
-683.86132701462236
 21
-15.77638814050265
 31
0.0
  0
LINE
  5
98
  8
DETAIL
  6
CONTINUOUS
 62
     5
 10
-674.78380400000003
 20
-14.836719
 30
0.0
 11
-679.34262699999999
 21
16.163281000000001
 31
0.0
  0
LINE
  5
99
  8
DETAIL
  6
CONTINUOUS
 62
     5
 10
-674.68678399999999
 20
-16.163281000000001
 30
0.0
 11
-674.74368001462267
 21
-15.77638814050322
 31
0.0
  0
LINE
  5
9A
  8
DETAIL
  6
CONTINUOUS
 62
     5
 10
-665.66615699999977
 20
-14.836719
 30
0.0
 11
-670.22497999999985
 21
16.163281000000001
 31
0.0
  0
LINE
  5
9B
  8
DETAIL
  6
CONTINUOUS
 62
     5
 10
-665.56913699999996
 20
-16.163281000000001
 30
0.0
 11
-665.62603301462252
 21
-15.77638814050322
 31
0.0
  0
LINE
  5
9C
  8
DETAIL
  6
CONTINUOUS
 62
     5
 10
-656.54850999999996
 20
-14.836719
 30
0.0
 11
-661.10733300000004
 21
16.163281000000001
 31
0.0
  0
LINE
  5
9D
  8
DETAIL
  6
CONTINUOUS
 62
     5
 10
-656.45149000000004
 20
-16.163281000000001
 30
0.0
 11
-656.50838601462272
 21
-15.77638814050322
 31
0.0
  0
LINE
  5
9E
  8
DETAIL
  6
CONTINUOUS
 62
     5
 10
-647.43086300000004
 20
-14.836719
 30
0.0
 11
-651.98968600000001
 21
16.163281000000001
 31
0.0
  0
LINE
  5
9F
  8
DETAIL
  6
CONTINUOUS
 62
     5
 10
-647.333843
 20
-16.163281000000001
 30
0.0
 11
-647.39073830692223
 21
-15.77639295286567
 31
0.0
  0
LINE
  5
A0
  8
DETAIL
  6
CONTINUOUS
 62
     5
 10
-638.31321600000001
 20
-14.836719
 30
0.0
 11
-642.87203899999975
 21
16.163281000000001
 31
0.0
  0
LINE
  5
A1
  8
DETAIL
  6
CONTINUOUS
 62
     5
 10
-638.21619599999985
 20
-16.163281000000001
 30
0.0
 11
-638.27309130692242
 21
-15.7763929528651
 31
0.0
  0
LINE
  5
A2
  8
DETAIL
  6
CONTINUOUS
 62
     5
 10
-629.19556899999986
 20
-14.836719
 30
0.0
 11
-633.75439200000005
 21
16.163281000000001
 31
0.0
  0
LINE
  5
A3
  8
DETAIL
  6
CONTINUOUS
 62
     5
 10
-629.09854900000005
 20
-16.163281000000001
 30
0.0
 11
-629.15544430692205
 21
-15.77639295286567
 31
0.0
  0
LINE
  5
A4
  8
DETAIL
  6
CONTINUOUS
 62
     5
 10
-620.07792199999994
 20
-14.836719
 30
0.0
 11
-624.63674500000002
 21
16.163281000000001
 31
0.0
  0
LINE
  5
A5
  8
DETAIL
  6
CONTINUOUS
 62
     5
 10
-619.9809019999999
 20
-16.163281000000001
 30
0.0
 11
-620.03779730327415
 21
-15.77639289280588
 31
0.0
  0
LINE
  5
A6
  8
DETAIL
  6
CONTINUOUS
 62
     5
 10
-610.96027500000002
 20
-14.836719
 30
0.0
 11
-615.5190980000001
 21
16.163281000000001
 31
0.0
  0
LINE
  5
A7
  8
DETAIL
  6
CONTINUOUS
 62
     5
 10
-601.79411800000003
 20
-15.833412961692829
 30
0.0
 11
-601.80250330327442
 21
-15.776392892806451
 31
0.0
  0
LINE
  5
A8
  8
DETAIL
  6
CONTINUOUS
 62
     5
 10
-601.84262699999988
 20
-14.836719
 30
0.0
 11
-606.40145099999995
 21
16.163281000000001
 31
0.0
  0
LINE
  5
A9
  8
DETAIL
  6
CONTINUOUS
 62
     5
 10
-610.86325499999998
 20
-16.163281000000001
 30
0.0
 11
-610.92015030327434
 21
-15.77639289280588
 31
0.0
  0
LINE
  5
AA
  8
DETAIL
  6
CONTINUOUS
 62
     5
 10
-706.64705900000001
 20
-20.058824000000001
 30
0.0
 11
-706.64705900000001
 21
20.058824000000001
 31
0.0
  0
LINE
  5
AB
  8
DETAIL
  6
CONTINUOUS
 62
     5
 10
-702.08823500000005
 20
-20.058824000000001
 30
0.0
 11
-702.08823500000005
 21
20.058824000000001
 31
0.0
  0
LINE
  5
AC
  8
DETAIL
  6
CONTINUOUS
 62
     5
 10
-601.79411800000003
 20
-20.058824000000001
 30
0.0
 11
-601.79411800000003
 21
20.058824000000001
 31
0.0
  0
LINE
  5
AE
  8
DETAIL
  6
CONTINUOUS
 62
     5
 10
-597.23529399999995
 20
-20.058824000000001
 30
0.0
 11
-597.23529399999995
 21
20.058824000000001
 31
0.0
  0
LINE
  5
AF
  8
DETAIL
  6
CONTINUOUS
 62
     5
 10
-597.23529399999995
 20
-15.5
 30
0.0
 11
-549.0
 21
-15.5
 31
0.0
  0
ARC
  5
B0
  8
DETAIL
  6
CONTINUOUS
 62
     5
 10
-651.9411759999997
 20
-15.5
 30
0.0
 40
4.5588239999999987
 50
188.36588599999999
 51
8.3658859999999908
  0
ARC
  5
B1
  8
DETAIL
  6
CONTINUOUS
 62
     5
 10
-679.29411800000003
 20
-15.5
 30
0.0
 40
4.5588239999999987
 50
188.36588599999999
 51
8.3658859999999908
  0
ARC
  5
B2
  8
DETAIL
  6
CONTINUOUS
 62
     5
 10
-697.52941199999998
 20
-15.5
 30
0.0
 40
4.5588239999999987
 50
188.36588599999999
 51
8.3658859999999908
  0
ARC
  5
B3
  8
DETAIL
  6
CONTINUOUS
 62
     5
 10
-688.41176499999995
 20
-15.5
 30
0.0
 40
4.5588239999999987
 50
188.36588599999999
 51
8.3658859999999908
  0
LINE
  5
B4
  8
DETAIL
  6
CONTINUOUS
 62
     5
 10
-706.64705900000001
 20
-20.058824000000001
 30
0.0
 11
-702.08823500000005
 21
-20.058824000000001
 31
0.0
  0
ARC
  5
B5
  8
DETAIL
  6
CONTINUOUS
 62
     5
 10
-670.17647099999988
 20
-15.5
 30
0.0
 40
4.5588239999999987
 50
188.36588599999999
 51
8.3658859999999908
  0
ARC
  5
B6
  8
DETAIL
  6
CONTINUOUS
 62
     5
 10
-661.05882400000019
 20
-15.5
 30
0.0
 40
4.5588239999999987
 50
188.36588599999999
 51
8.3658859999999908
  0
ARC
  5
B7
  8
DETAIL
  6
CONTINUOUS
 62
     5
 10
-615.47058800000002
 20
-15.5
 30
0.0
 40
4.5588239999999987
 50
188.36588599999999
 51
8.3658859999999908
  0
ARC
  5
B8
  8
DETAIL
  6
CONTINUOUS
 62
     5
 10
-642.82352899999989
 20
-15.5
 30
0.0
 40
4.5588239999999987
 50
188.36588599999999
 51
8.3658859999999908
  0
ARC
  5
B9
  8
DETAIL
  6
CONTINUOUS
 62
     5
 10
-633.70588199999997
 20
-15.5
 30
0.0
 40
4.5588239999999987
 50
188.36588599999999
 51
8.3658859999999908
  0
ARC
  5
BA
  8
DETAIL
  6
CONTINUOUS
 62
     5
 10
-624.58823500000017
 20
-15.5
 30
0.0
 40
4.5588239999999987
 50
188.36588599999999
 51
8.3658859999999908
  0
ARC
  5
BB
  8
DETAIL
  6
CONTINUOUS
 62
     5
 10
-606.35294099999999
 20
-15.5
 30
0.0
 40
4.5588239999999987
 50
188.36588599999999
 51
8.3658859999999908
  0
LINE
  5
BC
  8
DETAIL
  6
CONTINUOUS
 62
     5
 10
-597.23529399999995
 20
-20.058824000000001
 30
0.0
 11
-601.79411800000003
 21
-20.058824000000001
 31
0.0
  0
LINE
  5
BD
  8
DETAIL
  6
CONTINUOUS
 62
     5
 10
-597.23529399999995
 20
15.5
 30
0.0
 11
-549.0
 21
15.5
 31
0.0
  0
ARC
  5
BE
  8
DETAIL
  6
CONTINUOUS
 62
     5
 10
-647.38235299999985
 20
15.5
 30
0.0
 40
4.5588239999999987
 50
8.3658859999999908
 51
176.52413341807761
  0
ARC
  5
BF
  8
DETAIL
  6
CONTINUOUS
 62
     5
 10
-674.73529399999995
 20
15.5
 30
0.0
 40
4.5588239999999987
 50
8.3658859999999908
 51
176.52413341807761
  0
ARC
  5
C0
  8
DETAIL
  6
CONTINUOUS
 62
     5
 10
-702.08823500000005
 20
15.5
 30
0.0
 40
4.5588239999999987
 50
8.3658859999999908
 51
90.0
  0
ARC
  5
C1
  8
DETAIL
  6
CONTINUOUS
 62
     5
 10
-692.97058800000002
 20
15.5
 30
0.0
 40
4.5588239999999987
 50
8.3658859999999908
 51
176.524193255591
  0
ARC
  5
C2
  8
DETAIL
  6
CONTINUOUS
 62
     5
 10
-683.85294099999965
 20
15.5
 30
0.0
 40
4.5588239999999987
 50
8.3658859999999908
 51
176.52419325559819
  0
LINE
  5
C3
  8
DETAIL
  6
CONTINUOUS
 62
     5
 10
-706.64705900000001
 20
20.058824000000001
 30
0.0
 11
-702.08823500000005
 21
20.058824000000001
 31
0.0
  0
ARC
  5
C4
  8
DETAIL
  6
CONTINUOUS
 62
     5
 10
-665.61764699999981
 20
15.5
 30
0.0
 40
4.5588239999999987
 50
8.3658859999999908
 51
176.52413341808469
  0
ARC
  5
C5
  8
DETAIL
  6
CONTINUOUS
 62
     5
 10
-656.5
 20
15.5
 30
0.0
 40
4.5588239999999987
 50
8.3658859999999908
 51
176.5241334180848
  0
ARC
  5
C6
  8
DETAIL
  6
CONTINUOUS
 62
     5
 10
-620.02941199999975
 20
15.5
 30
0.0
 40
4.5588239999999987
 50
8.3658859999999908
 51
176.5241334180848
  0
ARC
  5
C7
  8
DETAIL
  6
CONTINUOUS
 62
     5
 10
-638.26470599999982
 20
15.5
 30
0.0
 40
4.5588239999999987
 50
8.3658859999999908
 51
176.52413341809179
  0
ARC
  5
C8
  8
DETAIL
  6
CONTINUOUS
 62
     5
 10
-629.14705900000001
 20
15.5
 30
0.0
 40
4.5588239999999987
 50
8.3658859999999908
 51
176.52413341807761
  0
ARC
  5
C9
  8
DETAIL
  6
CONTINUOUS
 62
     5
 10
-601.79411800000003
 20
15.5
 30
0.0
 40
4.5588239999999987
 50
90.0
 51
176.52413266186281
  0
ARC
  5
CA
  8
DETAIL
  6
CONTINUOUS
 62
     5
 10
-610.91176499999995
 20
15.5
 30
0.0
 40
4.5588239999999987
 50
8.3658859999999908
 51
176.5241334180848
  0
LINE
  5
CB
  8
DETAIL
  6
CONTINUOUS
 62
     5
 10
-597.23529399999995
 20
20.058824000000001
 30
0.0
 11
-601.79411800000003
 21
20.058824000000001
 31
0.0
  0
CIRCLE
  5
CC
  8
ARRANGE
  6
CONTINUOUS
 62
     1
 10
0.0
 20
0.0
 30
0.0
 40
40.0
  0
POINT
  5
CD
  8
ARRANGE
  6
CONTINUOUS
 62
     1
 10
0.0
 20
0.0
 30
0.0
  0
LINE
  5
CE
  8
NOTE
  6
CONTINUOUS
 62
     4
 10
-576.0
 20
129.0
 30
0.0
 11
-576.0
 21
169.0
 31
0.0
  0
LINE
  5
CF
  8
NOTE
  6
CONTINUOUS
 62
     4
 10
-556.0
 20
149.0
 30
0.0
 11
-596.0
 21
149.0
 31
0.0
  0
CIRCLE
  5
D0
  8
FIX
  6
CONTINUOUS
 62
    11
 10
-576.0
 20
149.0
 30
0.0
 40
20.0
  0
LINE
  5
D1
  8
NOTE
  6
CONTINUOUS
 62
     4
 10
-576.0
 20
-169.0
 30
0.0
 11
-576.0
 21
-129.0
 31
0.0
  0
LINE
  5
D2
  8
NOTE
  6
CONTINUOUS
 62
     4
 10
-556.0
 20
-149.0
 30
0.0
 11
-596.0
 21
-149.0
 31
0.0
  0
CIRCLE
  5
D3
  8
FIX
  6
CONTINUOUS
 62
    11
 10
-576.0
 20
-149.0
 30
0.0
 40
20.0
  0
LINE
  5
D4
  8
NOTE
  6
CONTINUOUS
 62
     4
 10
576.0
 20
129.0
 30
0.0
 11
576.0
 21
169.0
 31
0.0
  0
LINE
  5
D5
  8
NOTE
  6
CONTINUOUS
 62
     4
 10
596.0
 20
149.0
 30
0.0
 11
556.0
 21
149.0
 31
0.0
  0
CIRCLE
  5
D6
  8
FIX
  6
CONTINUOUS
 62
    11
 10
576.0
 20
149.0
 30
0.0
 40
20.0
  0
LINE
  5
D7
  8
NOTE
  6
CONTINUOUS
 62
     4
 10
576.0
 20
-169.0
 30
0.0
 11
576.0
 21
-129.0
 31
0.0
  0
LINE
  5
D8
  8
NOTE
  6
CONTINUOUS
 62
     4
 10
596.0
 20
-149.0
 30
0.0
 11
556.0
 21
-149.0
 31
0.0
  0
CIRCLE
  5
D9
  8
FIX
  6
CONTINUOUS
 62
    11
 10
576.0
 20
-149.0
 30
0.0
 40
20.0
  0
LINE
  5
DA
  8
NOTE
  6
CONTINUOUS
 62
     4
 10
-473.0
 20
-265.0
 30
0.0
 11
-473.0
 21
-225.0
 31
0.0
  0
LINE
  5
DB
  8
NOTE
  6
CONTINUOUS
 62
     4
 10
-453.0
 20
-245.0
 30
0.0
 11
-493.0
 21
-245.0
 31
0.0
  0
LINE
  5
DC
  8
NOTE
  6
CONTINUOUS
 62
     4
 10
-413.0
 20
-265.0
 30
0.0
 11
-413.0
 21
-225.0
 31
0.0
  0
LINE
  5
DD
  8
NOTE
  6
CONTINUOUS
 62
     4
 10
-393.0
 20
-245.0
 30
0.0
 11
-433.0
 21
-245.0
 31
0.0
  0
LINE
  5
DE
  8
NOTE
  6
CONTINUOUS
 62
     4
 10
-353.0
 20
-265.0
 30
0.0
 11
-353.0
 21
-225.0
 31
0.0
  0
LINE
  5
DF
  8
NOTE
  6
CONTINUOUS
 62
     4
 10
-333.0
 20
-245.0
 30
0.0
 11
-373.0
 21
-245.0
 31
0.0
  0
LINE
  5
E0
  8
NOTE
  6
CONTINUOUS
 62
     4
 10
-293.0
 20
-265.0
 30
0.0
 11
-293.0
 21
-225.0
 31
0.0
  0
LINE
  5
E1
  8
NOTE
  6
CONTINUOUS
 62
     4
 10
-273.0
 20
-245.0
 30
0.0
 11
-313.0
 21
-245.0
 31
0.0
  0
LINE
  5
E2
  8
SIZE
  6
CONTINUOUS
 62
    30
 10
-619.0
 20
-110.7
 30
0.0
 11
-619.0
 21
-418.38819699999988
 31
0.0
  0
LINE
  5
E3
  8
SIZE
  6
CONTINUOUS
 62
    30
 10
-549.0
 20
-201.0
 30
0.0
 11
-549.0
 21
-418.38819699999988
 31
0.0
  0
LINE
  5
E4
  8
SIZE
  6
CONTINUOUS
 62
    30
 10
-559.0
 20
-388.38819699999999
 30
0.0
 11
-609.0
 21
-388.38819699999999
 31
0.0
  0
LINE
  5
E5
  8
SIZE
  6
CONTINUOUS
 62
    30
 10
-619.0
 20
-388.38819699999999
 30
0.0
 11
-762.25714299999981
 21
-388.38819699999999
 31
0.0
  0
CIRCLE
  5
E6
  8
SIZE
  6
CONTINUOUS
 62
    30
 10
-549.0
 20
-388.38819699999999
 30
0.0
 40
5.0
  0
LINE
  5
E7
  8
SIZE
  6
CONTINUOUS
 62
    30
 10
-554.0
 20
-388.38819699999999
 30
0.0
 11
-559.0
 21
-388.38819699999999
 31
0.0
  0
CIRCLE
  5
E8
  8
SIZE
  6
CONTINUOUS
 62
    30
 10
-619.0
 20
-388.38819699999999
 30
0.0
 40
5.0
  0
LINE
  5
E9
  8
SIZE
  6
CONTINUOUS
 62
    30
 10
-614.0
 20
-388.38819699999999
 30
0.0
 11
-609.0
 21
-388.38819699999999
 31
0.0
  0
TEXT
  5
EA
  8
SIZE
  6
CONTINUOUS
 62
    30
 10
-742.25714242857123
 20
-368.38819700000022
 30
0.0
 40
64.0
  1
70
 41
0.9
 72
     1
 11
-695.62857099999985
 21
-368.38819700000022
 31
0.0
  0
POINT
  5
EB
  8
DEFPOINTS
  6
CONTINUOUS
 62
     7
 10
-619.0
 20
-90.700000000000003
 30
0.0
  0
POINT
  5
EC
  8
DEFPOINTS
  6
CONTINUOUS
 62
     7
 10
-549.0
 20
-181.0
 30
0.0
  0
POINT
  5
ED
  8
DEFPOINTS
  6
CONTINUOUS
 62
     7
 10
-549.0
 20
-388.38819699999999
 30
0.0
  0
LINE
  5
EE
  8
SIZE
  6
CONTINUOUS
 62
    30
 10
-549.0
 20
-201.0
 30
0.0
 11
-549.0
 21
-418.48992599999991
 31
0.0
  0
LINE
  5
EF
  8
SIZE
  6
CONTINUOUS
 62
    30
 10
-473.0
 20
-284.20796899999999
 30
0.0
 11
-473.0
 21
-418.48992599999991
 31
0.0
  0
LINE
  5
F0
  8
SIZE
  6
CONTINUOUS
 62
    30
 10
-539.0
 20
-388.48992600000003
 30
0.0
 11
-483.0
 21
-388.48992600000003
 31
0.0
  0
LINE
  5
F1
  8
SIZE
  6
CONTINUOUS
 62
    30
 10
-511.0
 20
-388.48992600000003
 30
0.0
 11
-475.3969228916971
 21
-518.74612643922671
 31
0.0
  0
LINE
  5
F2
  8
SIZE
  6
CONTINUOUS
 62
    30
 10
-344.88263689169747
 20
-518.74612643922671
 30
0.0
 11
-475.3969228916971
 21
-518.74612643922671
 31
0.0
  0
TEXT
  5
F3
  8
SIZE
  6
CONTINUOUS
 62
    30
 10
-455.39692274883998
 20
-498.74612643922683
 30
0.0
 40
64.0
  1
76
 41
0.9
 72
     1
 11
-410.13977989169717
 21
-498.74612643922683
 31
0.0
  0
CIRCLE
  5
F4
  8
SIZE
  6
CONTINUOUS
 62
    30
 10
-549.0
 20
-388.48992600000003
 30
0.0
 40
5.0
  0
LINE
  5
F5
  8
SIZE
  6
CONTINUOUS
 62
    30
 10
-544.0
 20
-388.48992600000003
 30
0.0
 11
-539.0
 21
-388.48992600000003
 31
0.0
  0
CIRCLE
  5
F6
  8
SIZE
  6
CONTINUOUS
 62
    30
 10
-473.0
 20
-388.48992600000003
 30
0.0
 40
5.0
  0
LINE
  5
F7
  8
SIZE
  6
CONTINUOUS
 62
    30
 10
-478.0
 20
-388.48992600000003
 30
0.0
 11
-483.0
 21
-388.48992600000003
 31
0.0
  0
POINT
  5
F8
  8
DEFPOINTS
  6
CONTINUOUS
 62
     7
 10
-549.0
 20
-181.0
 30
0.0
  0
POINT
  5
F9
  8
DEFPOINTS
  6
CONTINUOUS
 62
     7
 10
-473.0
 20
-264.20796899999999
 30
0.0
  0
POINT
  5
FA
  8
DEFPOINTS
  6
CONTINUOUS
 62
     7
 10
-473.0
 20
-388.48992600000003
 30
0.0
  0
POINT
  5
103
  8
DEFPOINTS
  6
CONTINUOUS
 62
     7
 10
-549.0
 20
-181.0
 30
0.0
  0
POINT
  5
104
  8
DEFPOINTS
  6
CONTINUOUS
 62
     7
 10
-749.0
 20
-15.5
 30
0.0
  0
TEXT
  5
106
  8
SIZE
  6
CONTINUOUS
 62
    30
 10
-93.663402000000005
 20
-659.02504199999998
 30
0.0
 40
35.0
  1
（吊りボルトピッチ）
 41
0.9
  0
TEXT
  5
107
  8
SIZE
  6
CONTINUOUS
 62
    30
 10
866.38429299999984
 20
-548.29319099999987
 30
0.0
 40
35.0
  1
（吊りボルトピッチ）
 50
90.0
 41
0.9
  0
LINE
  5
108
  8
NOTE
  6
CONTINUOUS
 62
     4
 10
-619.0
 20
-98.0
 30
0.0
 11
-619.0
 21
-58.0
 31
0.0
  0
LINE
  5
109
  8
NOTE
  6
CONTINUOUS
 62
     4
 10
-599.0
 20
-78.0
 30
0.0
 11
-639.0
 21
-78.0
 31
0.0
  0
LINE
  5
10A
  8
NOTE
  6
CONTINUOUS
 62
     4
 10
-749.0
 20
-20.0
 30
0.0
 11
-749.0
 21
20.0
 31
0.0
  0
LINE
  5
10B
  8
NOTE
  6
CONTINUOUS
 62
     4
 10
-729.0
 20
0.0
 30
0.0
 11
-769.0
 21
0.0
 31
0.0
  0
LINE
  5
10C
  8
NOTE
  6
CONTINUOUS
 62
     4
 10
-619.0
 20
47.0
 30
0.0
 11
-619.0
 21
87.0
 31
0.0
  0
LINE
  5
10D
  8
NOTE
  6
CONTINUOUS
 62
     4
 10
-599.0
 20
67.0
 30
0.0
 11
-639.0
 21
67.0
 31
0.0
  0
LINE
  5
10E
  8
OUTLINE
  6
CONTINUOUS
 62
     3
 10
549.0
 20
181.0
 30
0.0
 11
549.0
 21
-181.0
 31
0.0
  0
LINE
  5
10F
  8
OUTLINE
  6
CONTINUOUS
 62
     3
 10
99.0
 20
-181.0
 30
0.0
 11
-549.0
 21
-181.0
 31
0.0
  0
LINE
  5
110
  8
OUTLINE
  6
CONTINUOUS
 62
     3
 10
-549.0
 20
-181.0
 30
0.0
 11
-549.0
 21
181.0
 31
0.0
  0
LINE
  5
111
  8
DETAIL
  6
CONTINUOUS
 62
     5
 10
-477.75999999999988
 20
-181.0
 30
0.0
 11
-477.75999999999988
 21
-245.0
 31
0.0
  0
LINE
  5
112
  8
DETAIL
  6
CONTINUOUS
 62
     5
 10
-468.24000000000001
 20
-181.0
 30
0.0
 11
-468.24000000000001
 21
-245.0
 31
0.0
  0
LINE
  5
113
  8
DETAIL
  6
CONTINUOUS
 62
     5
 10
-480.94
 20
-181.0
 30
0.0
 11
-480.94
 21
-245.0
 31
0.0
  0
LINE
  5
114
  8
DETAIL
  6
CONTINUOUS
 62
     5
 10
-465.05999999999989
 20
-181.0
 30
0.0
 11
-465.05999999999989
 21
-245.0
 31
0.0
  0
LINE
  5
115
  8
DETAIL
  6
CONTINUOUS
 62
     5
 10
-477.75999999999988
 20
-245.0
 30
0.0
 11
-468.24000000000001
 21
-245.0
 31
0.0
  0
LINE
  5
116
  8
DETAIL
  6
CONTINUOUS
 62
     5
 10
-480.94
 20
-245.0
 30
0.0
 11
-465.05999999999989
 21
-245.0
 31
0.0
  0
LINE
  5
117
  8
DETAIL
  6
CONTINUOUS
 62
     5
 10
-473.0
 20
-181.0
 30
0.0
 11
-473.0
 21
-245.0
 31
0.0
  0
LINE
  5
118
  8
DETAIL
  6
CONTINUOUS
 62
     5
 10
-417.75999999999988
 20
-181.0
 30
0.0
 11
-417.75999999999988
 21
-245.0
 31
0.0
  0
LINE
  5
119
  8
DETAIL
  6
CONTINUOUS
 62
     5
 10
-408.23999999999978
 20
-181.0
 30
0.0
 11
-408.23999999999978
 21
-245.0
 31
0.0
  0
LINE
  5
11A
  8
DETAIL
  6
CONTINUOUS
 62
     5
 10
-420.94
 20
-181.0
 30
0.0
 11
-420.94
 21
-245.0
 31
0.0
  0
LINE
  5
11B
  8
DETAIL
  6
CONTINUOUS
 62
     5
 10
-405.06
 20
-181.0
 30
0.0
 11
-405.06
 21
-245.0
 31
0.0
  0
LINE
  5
11C
  8
DETAIL
  6
CONTINUOUS
 62
     5
 10
-417.75999999999988
 20
-245.0
 30
0.0
 11
-408.23999999999978
 21
-245.0
 31
0.0
  0
LINE
  5
11D
  8
DETAIL
  6
CONTINUOUS
 62
     5
 10
-420.94
 20
-245.0
 30
0.0
 11
-405.06
 21
-245.0
 31
0.0
  0
LINE
  5
11E
  8
DETAIL
  6
CONTINUOUS
 62
     5
 10
-413.0
 20
-181.0
 30
0.0
 11
-413.0
 21
-245.0
 31
0.0
  0
LINE
  5
11F
  8
DETAIL
  6
CONTINUOUS
 62
     5
 10
-357.75999999999999
 20
-181.0
 30
0.0
 11
-357.75999999999999
 21
-245.0
 31
0.0
  0
LINE
  5
120
  8
DETAIL
  6
CONTINUOUS
 62
     5
 10
-348.24000000000001
 20
-181.0
 30
0.0
 11
-348.24000000000001
 21
-245.0
 31
0.0
  0
LINE
  5
121
  8
DETAIL
  6
CONTINUOUS
 62
     5
 10
-360.94
 20
-181.0
 30
0.0
 11
-360.94
 21
-245.0
 31
0.0
  0
LINE
  5
122
  8
DETAIL
  6
CONTINUOUS
 62
     5
 10
-345.06
 20
-181.0
 30
0.0
 11
-345.06
 21
-245.0
 31
0.0
  0
LINE
  5
123
  8
DETAIL
  6
CONTINUOUS
 62
     5
 10
-357.75999999999999
 20
-245.0
 30
0.0
 11
-348.24000000000001
 21
-245.0
 31
0.0
  0
LINE
  5
124
  8
DETAIL
  6
CONTINUOUS
 62
     5
 10
-360.94
 20
-245.0
 30
0.0
 11
-345.06
 21
-245.0
 31
0.0
  0
LINE
  5
125
  8
DETAIL
  6
CONTINUOUS
 62
     5
 10
-353.0
 20
-181.0
 30
0.0
 11
-353.0
 21
-245.0
 31
0.0
  0
LINE
  5
126
  8
DETAIL
  6
CONTINUOUS
 62
     5
 10
-297.75999999999999
 20
-181.0
 30
0.0
 11
-297.75999999999999
 21
-245.0
 31
0.0
  0
LINE
  5
127
  8
DETAIL
  6
CONTINUOUS
 62
     5
 10
-288.24000000000001
 20
-181.0
 30
0.0
 11
-288.24000000000001
 21
-245.0
 31
0.0
  0
LINE
  5
128
  8
DETAIL
  6
CONTINUOUS
 62
     5
 10
-300.94
 20
-181.0
 30
0.0
 11
-300.94
 21
-245.0
 31
0.0
  0
LINE
  5
129
  8
DETAIL
  6
CONTINUOUS
 62
     5
 10
-285.06
 20
-181.0
 30
0.0
 11
-285.06
 21
-245.0
 31
0.0
  0
LINE
  5
12A
  8
DETAIL
  6
CONTINUOUS
 62
     5
 10
-297.75999999999999
 20
-245.0
 30
0.0
 11
-288.24000000000001
 21
-245.0
 31
0.0
  0
LINE
  5
12B
  8
DETAIL
  6
CONTINUOUS
 62
     5
 10
-300.94
 20
-245.0
 30
0.0
 11
-285.06
 21
-245.0
 31
0.0
  0
LINE
  5
12C
  8
DETAIL
  6
CONTINUOUS
 62
     5
 10
-293.0
 20
-181.0
 30
0.0
 11
-293.0
 21
-245.0
 31
0.0
  0
LINE
  5
13D
  8
NOTE
  6
CONTINUOUS
 62
     4
 10
-480.21724699999999
 20
-252.42233300000001
 30
0.0
 11
-473.0
 21
-245.0
 31
0.0
  0
LINE
  5
13E
  8
NOTE
  6
CONTINUOUS
 62
     4
 10
-473.0
 20
-245.0
 30
0.0
 11
-475.53915299999989
 21
-255.036552
 31
0.0
  0
TEXT
  5
13F
  8
NOTE
  6
CONTINUOUS
 62
     4
 10
673.30368828144117
 20
492.80065273177439
 30
0.0
 40
64.0
  1
AH4-12×14長穴
 41
0.9
  0
LINE
  5
157
  8
NOTE
  6
CONTINUOUS
 62
     4
 10
-629.2972699999998
 20
-76.929526999999979
 30
0.0
 11
-619.0
 21
-78.0
 31
0.0
  0
LINE
  5
158
  8
NOTE
  6
CONTINUOUS
 62
     4
 10
-619.0
 20
-78.0
 30
0.0
 11
-628.45293400000003
 21
-82.221577999999965
 31
0.0
  0
LINE
  5
15A
  8
NOTE
  6
CONTINUOUS
 62
     4
 10
-749.0
 20
0.0
 30
0.0
 11
-770.34166040483035
 21
10.40823030763576
 31
0.0
  0
LINE
  5
15B
  8
NOTE
  6
CONTINUOUS
 62
     4
 10
-621.59770199999946
 20
77.021557999999985
 30
0.0
 11
-619.0
 21
67.0
 31
0.0
  0
LINE
  5
15C
  8
NOTE
  6
CONTINUOUS
 62
     4
 10
-619.0
 20
67.0
 30
0.0
 11
-626.26045499999975
 21
74.380071999999998
 31
0.0
  0
LINE
  5
162
  8
NOTE
  6
CONTINUOUS
 62
     4
 10
574.61682754293565
 20
159.25994708424111
 30
0.0
 11
576.0
 21
149.0
 31
0.0
  0
LINE
  5
163
  8
NOTE
  6
CONTINUOUS
 62
     4
 10
576.0
 20
149.0
 30
0.0
 11
579.93211069179097
 21
158.57696057743789
 31
0.0
  0
LINE
  5
164
  8
DETAIL
  6
CONTINUOUS
 62
     5
 10
41.942620000000012
 20
181.0
 30
0.0
 11
41.942620000000012
 21
251.0
 31
0.0
  0
LINE
  5
167
  8
SIZE
  6
CONTINUOUS
 62
    30
 10
-473.0
 20
-274.46002010450047
 30
0.0
 11
-473.0
 21
-381.22849600000001
 31
0.0
  0
LINE
  5
168
  8
SIZE
  6
CONTINUOUS
 62
    30
 10
-413.0
 20
-275.2818755298112
 30
0.0
 11
-413.0
 21
-381.22849600000001
 31
0.0
  0
LINE
  5
16B
  8
SIZE
  6
CONTINUOUS
 62
    30
 10
-473.0
 20
-351.22849600000001
 30
0.0
 11
-413.0
 21
-351.22849600000001
 31
0.0
  0
CIRCLE
  5
16C
  8
SIZE
  6
CONTINUOUS
 62
    30
 10
-473.0
 20
-351.22849600000001
 30
0.0
 40
5.0
  0
CIRCLE
  5
16E
  8
SIZE
  6
CONTINUOUS
 62
    30
 10
-413.0
 20
-351.22849600000001
 30
0.0
 40
5.0
  0
LINE
  5
16F
  8
SIZE
  6
CONTINUOUS
 62
    30
 10
-408.0
 20
-351.22849600000001
 30
0.0
 11
-294.30093775944988
 21
-351.22849600000001
 31
0.0
  0
TEXT
  5
170
  8
SIZE
  6
CONTINUOUS
 62
    30
 10
-396.89505391681638
 20
-333.08405559668608
 30
0.0
 40
64.0
  1
60
 41
0.9
 72
     1
 11
-350.266482488245
 21
-333.08405559668608
 31
0.0
  0
POINT
  5
171
  8
DEFPOINTS
  6
CONTINUOUS
 62
     7
 10
-473.0
 20
-245.0
 30
0.0
  0
POINT
  5
172
  8
DEFPOINTS
  6
CONTINUOUS
 62
     7
 10
-413.0
 20
-245.0
 30
0.0
  0
POINT
  5
173
  8
DEFPOINTS
  6
CONTINUOUS
 62
     7
 10
-413.0
 20
-351.22849600000001
 30
0.0
  0
LINE
  5
174
  8
NOTE
  6
CONTINUOUS
 62
     4
 10
-233.0
 20
-265.0
 30
0.0
 11
-233.0
 21
-225.0
 31
0.0
  0
LINE
  5
175
  8
NOTE
  6
CONTINUOUS
 62
     4
 10
-213.0
 20
-245.0
 30
0.0
 11
-253.0
 21
-245.0
 31
0.0
  0
LINE
  5
176
  8
DETAIL
  6
CONTINUOUS
 62
     5
 10
-237.75999999999999
 20
-181.0
 30
0.0
 11
-237.75999999999999
 21
-245.0
 31
0.0
  0
LINE
  5
177
  8
DETAIL
  6
CONTINUOUS
 62
     5
 10
-228.24000000000001
 20
-181.0
 30
0.0
 11
-228.24000000000001
 21
-245.0
 31
0.0
  0
LINE
  5
178
  8
DETAIL
  6
CONTINUOUS
 62
     5
 10
-240.94
 20
-181.0
 30
0.0
 11
-240.94
 21
-245.0
 31
0.0
  0
LINE
  5
179
  8
DETAIL
  6
CONTINUOUS
 62
     5
 10
-225.06
 20
-181.0
 30
0.0
 11
-225.06
 21
-245.0
 31
0.0
  0
LINE
  5
17A
  8
DETAIL
  6
CONTINUOUS
 62
     5
 10
-237.75999999999999
 20
-245.0
 30
0.0
 11
-228.24000000000001
 21
-245.0
 31
0.0
  0
LINE
  5
17B
  8
DETAIL
  6
CONTINUOUS
 62
     5
 10
-240.94
 20
-245.0
 30
0.0
 11
-225.06
 21
-245.0
 31
0.0
  0
LINE
  5
17C
  8
DETAIL
  6
CONTINUOUS
 62
     5
 10
-233.0
 20
-181.0
 30
0.0
 11
-233.0
 21
-245.0
 31
0.0
  0
LINE
  5
17D
  8
NOTE
  6
CONTINUOUS
 62
     4
 10
-173.0
 20
-265.0
 30
0.0
 11
-173.0
 21
-225.0
 31
0.0
  0
LINE
  5
17E
  8
NOTE
  6
CONTINUOUS
 62
     4
 10
-153.0
 20
-245.0
 30
0.0
 11
-193.0
 21
-245.0
 31
0.0
  0
LINE
  5
17F
  8
DETAIL
  6
CONTINUOUS
 62
     5
 10
-177.75999999999999
 20
-181.0
 30
0.0
 11
-177.75999999999999
 21
-245.0
 31
0.0
  0
LINE
  5
180
  8
DETAIL
  6
CONTINUOUS
 62
     5
 10
-168.24000000000001
 20
-181.0
 30
0.0
 11
-168.24000000000001
 21
-245.0
 31
0.0
  0
LINE
  5
181
  8
DETAIL
  6
CONTINUOUS
 62
     5
 10
-180.94
 20
-181.0
 30
0.0
 11
-180.94
 21
-245.0
 31
0.0
  0
LINE
  5
182
  8
DETAIL
  6
CONTINUOUS
 62
     5
 10
-165.06
 20
-181.0
 30
0.0
 11
-165.06
 21
-245.0
 31
0.0
  0
LINE
  5
183
  8
DETAIL
  6
CONTINUOUS
 62
     5
 10
-177.75999999999999
 20
-245.0
 30
0.0
 11
-168.24000000000001
 21
-245.0
 31
0.0
  0
LINE
  5
184
  8
DETAIL
  6
CONTINUOUS
 62
     5
 10
-180.94
 20
-245.0
 30
0.0
 11
-165.06
 21
-245.0
 31
0.0
  0
LINE
  5
185
  8
DETAIL
  6
CONTINUOUS
 62
     5
 10
-173.0
 20
-181.0
 30
0.0
 11
-173.0
 21
-245.0
 31
0.0
  0
LINE
  5
186
  8
NOTE
  6
CONTINUOUS
 62
     4
 10
-113.0
 20
-265.0
 30
0.0
 11
-113.0
 21
-225.0
 31
0.0
  0
LINE
  5
187
  8
NOTE
  6
CONTINUOUS
 62
     4
 10
-93.0
 20
-245.0
 30
0.0
 11
-133.0
 21
-245.0
 31
0.0
  0
LINE
  5
188
  8
DETAIL
  6
CONTINUOUS
 62
     5
 10
-117.76000000000001
 20
-181.0
 30
0.0
 11
-117.76000000000001
 21
-245.0
 31
0.0
  0
LINE
  5
189
  8
DETAIL
  6
CONTINUOUS
 62
     5
 10
-108.23999999999999
 20
-181.0
 30
0.0
 11
-108.23999999999999
 21
-245.0
 31
0.0
  0
LINE
  5
18A
  8
DETAIL
  6
CONTINUOUS
 62
     5
 10
-120.94
 20
-181.0
 30
0.0
 11
-120.94
 21
-245.0
 31
0.0
  0
LINE
  5
18B
  8
DETAIL
  6
CONTINUOUS
 62
     5
 10
-105.06
 20
-181.0
 30
0.0
 11
-105.06
 21
-245.0
 31
0.0
  0
LINE
  5
18C
  8
DETAIL
  6
CONTINUOUS
 62
     5
 10
-117.76000000000001
 20
-245.0
 30
0.0
 11
-108.23999999999999
 21
-245.0
 31
0.0
  0
LINE
  5
18D
  8
DETAIL
  6
CONTINUOUS
 62
     5
 10
-120.94
 20
-245.0
 30
0.0
 11
-105.06
 21
-245.0
 31
0.0
  0
LINE
  5
18E
  8
DETAIL
  6
CONTINUOUS
 62
     5
 10
-113.0
 20
-181.0
 30
0.0
 11
-113.0
 21
-245.0
 31
0.0
  0
LINE
  5
18F
  8
NOTE
  6
CONTINUOUS
 62
     4
 10
-53.0
 20
-265.0
 30
0.0
 11
-53.0
 21
-225.0
 31
0.0
  0
LINE
  5
190
  8
NOTE
  6
CONTINUOUS
 62
     4
 10
-33.0
 20
-245.0
 30
0.0
 11
-73.0
 21
-245.0
 31
0.0
  0
LINE
  5
191
  8
DETAIL
  6
CONTINUOUS
 62
     5
 10
-57.759999999999991
 20
-181.0
 30
0.0
 11
-57.759999999999991
 21
-245.0
 31
0.0
  0
LINE
  5
192
  8
DETAIL
  6
CONTINUOUS
 62
     5
 10
-48.239999999999981
 20
-181.0
 30
0.0
 11
-48.239999999999981
 21
-245.0
 31
0.0
  0
LINE
  5
193
  8
DETAIL
  6
CONTINUOUS
 62
     5
 10
-60.939999999999998
 20
-181.0
 30
0.0
 11
-60.939999999999998
 21
-245.0
 31
0.0
  0
LINE
  5
194
  8
DETAIL
  6
CONTINUOUS
 62
     5
 10
-45.060000000000002
 20
-181.0
 30
0.0
 11
-45.060000000000002
 21
-245.0
 31
0.0
  0
LINE
  5
195
  8
DETAIL
  6
CONTINUOUS
 62
     5
 10
-57.759999999999991
 20
-245.0
 30
0.0
 11
-48.239999999999981
 21
-245.0
 31
0.0
  0
LINE
  5
196
  8
DETAIL
  6
CONTINUOUS
 62
     5
 10
-60.939999999999998
 20
-245.0
 30
0.0
 11
-45.060000000000002
 21
-245.0
 31
0.0
  0
LINE
  5
197
  8
DETAIL
  6
CONTINUOUS
 62
     5
 10
-53.0
 20
-181.0
 30
0.0
 11
-53.0
 21
-245.0
 31
0.0
  0
LINE
  5
198
  8
NOTE
  6
CONTINUOUS
 62
     4
 10
7.0
 20
-265.0
 30
0.0
 11
7.0
 21
-225.0
 31
0.0
  0
LINE
  5
199
  8
NOTE
  6
CONTINUOUS
 62
     4
 10
27.0
 20
-245.0
 30
0.0
 11
-13.0
 21
-245.0
 31
0.0
  0
LINE
  5
19A
  8
DETAIL
  6
CONTINUOUS
 62
     5
 10
2.2399999999999962
 20
-181.0
 30
0.0
 11
2.2399999999999962
 21
-245.0
 31
0.0
  0
LINE
  5
19B
  8
DETAIL
  6
CONTINUOUS
 62
     5
 10
11.76
 20
-181.0
 30
0.0
 11
11.76
 21
-245.0
 31
0.0
  0
LINE
  5
19C
  8
DETAIL
  6
CONTINUOUS
 62
     5
 10
-0.9400000000000011
 20
-181.0
 30
0.0
 11
-0.9400000000000011
 21
-245.0
 31
0.0
  0
LINE
  5
19D
  8
DETAIL
  6
CONTINUOUS
 62
     5
 10
14.94
 20
-181.0
 30
0.0
 11
14.94
 21
-245.0
 31
0.0
  0
LINE
  5
19E
  8
DETAIL
  6
CONTINUOUS
 62
     5
 10
2.2399999999999962
 20
-245.0
 30
0.0
 11
11.76
 21
-245.0
 31
0.0
  0
LINE
  5
19F
  8
DETAIL
  6
CONTINUOUS
 62
     5
 10
-0.9400000000000011
 20
-245.0
 30
0.0
 11
14.94
 21
-245.0
 31
0.0
  0
LINE
  5
1A0
  8
DETAIL
  6
CONTINUOUS
 62
     5
 10
7.0
 20
-181.0
 30
0.0
 11
7.0
 21
-245.0
 31
0.0
  0
LINE
  5
1A1
  8
NOTE
  6
CONTINUOUS
 62
     4
 10
67.0
 20
-265.0
 30
0.0
 11
67.0
 21
-225.0
 31
0.0
  0
LINE
  5
1A2
  8
NOTE
  6
CONTINUOUS
 62
     4
 10
87.0
 20
-245.0
 30
0.0
 11
47.0
 21
-245.0
 31
0.0
  0
LINE
  5
1A3
  8
DETAIL
  6
CONTINUOUS
 62
     5
 10
62.240000000000002
 20
-181.0
 30
0.0
 11
62.240000000000002
 21
-245.0
 31
0.0
  0
LINE
  5
1A4
  8
DETAIL
  6
CONTINUOUS
 62
     5
 10
71.759999999999977
 20
-181.0
 30
0.0
 11
71.759999999999977
 21
-245.0
 31
0.0
  0
LINE
  5
1A5
  8
DETAIL
  6
CONTINUOUS
 62
     5
 10
59.060000000000002
 20
-181.0
 30
0.0
 11
59.060000000000002
 21
-245.0
 31
0.0
  0
LINE
  5
1A6
  8
DETAIL
  6
CONTINUOUS
 62
     5
 10
74.939999999999984
 20
-181.0
 30
0.0
 11
74.939999999999984
 21
-245.0
 31
0.0
  0
LINE
  5
1A7
  8
DETAIL
  6
CONTINUOUS
 62
     5
 10
62.240000000000002
 20
-245.0
 30
0.0
 11
71.759999999999977
 21
-245.0
 31
0.0
  0
LINE
  5
1A8
  8
DETAIL
  6
CONTINUOUS
 62
     5
 10
59.060000000000002
 20
-245.0
 30
0.0
 11
74.939999999999984
 21
-245.0
 31
0.0
  0
LINE
  5
1A9
  8
DETAIL
  6
CONTINUOUS
 62
     5
 10
67.0
 20
-181.0
 30
0.0
 11
67.0
 21
-245.0
 31
0.0
  0
LINE
  5
1AA
  8
SIZE
  6
CONTINUOUS
 62
    30
 10
-549.0
 20
-201.0
 30
0.0
 11
-549.0
 21
-597.20625035333046
 31
0.0
  0
LINE
  5
1AB
  8
SIZE
  6
CONTINUOUS
 62
    30
 10
549.0
 20
-201.0
 30
0.0
 11
549.0
 21
-599.74588652591774
 31
0.0
  0
LINE
  5
1AC
  8
SIZE
  6
CONTINUOUS
 62
    30
 10
-539.0
 20
-564.3585982545427
 30
0.0
 11
539.0
 21
-564.3585982545427
 31
0.0
  0
CIRCLE
  5
1AD
  8
SIZE
  6
CONTINUOUS
 62
    30
 10
-549.0
 20
-564.3585982545427
 30
0.0
 40
5.0
  0
LINE
  5
1AE
  8
SIZE
  6
CONTINUOUS
 62
    30
 10
-544.0
 20
-564.3585982545427
 30
0.0
 11
-539.0
 21
-564.3585982545427
 31
0.0
  0
CIRCLE
  5
1AF
  8
SIZE
  6
CONTINUOUS
 62
    30
 10
549.0
 20
-564.3585982545427
 30
0.0
 40
5.0
  0
LINE
  5
1B0
  8
SIZE
  6
CONTINUOUS
 62
    30
 10
544.0
 20
-564.3585982545427
 30
0.0
 11
539.0
 21
-564.3585982545427
 31
0.0
  0
TEXT
  5
1B1
  8
SIZE
  6
CONTINUOUS
 62
    30
 10
-96.0
 20
-544.35859825454258
 30
0.0
 40
64.0
  1
1098
 41
0.9
 72
     1
 11
0.0
 21
-544.35859825454258
 31
0.0
  0
POINT
  5
1B2
  8
DEFPOINTS
  6
CONTINUOUS
 62
     7
 10
-549.0
 20
-181.0
 30
0.0
  0
POINT
  5
1B3
  8
DEFPOINTS
  6
CONTINUOUS
 62
     7
 10
549.0
 20
-181.0
 30
0.0
  0
POINT
  5
1B4
  8
DEFPOINTS
  6
CONTINUOUS
 62
     7
 10
549.0
 20
-564.3585982545427
 30
0.0
  0
LINE
  5
1B5
  8
SIZE
  6
CONTINUOUS
 62
    30
 10
-575.9995389999998
 20
-175.4909164658074
 30
0.0
 11
-575.9995389999998
 21
-713.80000399999994
 31
0.0
  0
LINE
  5
1B6
  8
SIZE
  6
CONTINUOUS
 62
    30
 10
575.9995389999998
 20
-185.6419746533202
 30
0.0
 11
575.9995389999998
 21
-713.80000399999994
 31
0.0
  0
LINE
  5
1B7
  8
SIZE
  6
CONTINUOUS
 62
    30
 10
-565.99953899999957
 20
-683.80000399999994
 30
0.0
 11
565.99953899999957
 21
-683.80000399999994
 31
0.0
  0
CIRCLE
  5
1B8
  8
SIZE
  6
CONTINUOUS
 62
    30
 10
-575.9995389999998
 20
-683.80000399999994
 30
0.0
 40
5.0
  0
LINE
  5
1B9
  8
SIZE
  6
CONTINUOUS
 62
    30
 10
-570.99953899999957
 20
-683.80000399999994
 30
0.0
 11
-565.99953899999957
 21
-683.80000399999994
 31
0.0
  0
CIRCLE
  5
1BA
  8
SIZE
  6
CONTINUOUS
 62
    30
 10
575.9995389999998
 20
-683.80000399999994
 30
0.0
 40
5.0
  0
LINE
  5
1BB
  8
SIZE
  6
CONTINUOUS
 62
    30
 10
570.99953899999957
 20
-683.80000399999994
 30
0.0
 11
565.99953899999957
 21
-683.80000399999994
 31
0.0
  0
TEXT
  5
1BC
  8
SIZE
  6
CONTINUOUS
 62
    30
 10
-299.22324271428567
 20
-663.80000399999994
 30
0.0
 40
64.0
  1
1152
 41
0.9
 72
     1
 11
-208.708957
 21
-663.80000399999994
 31
0.0
  0
POINT
  5
1BD
  8
DEFPOINTS
  6
CONTINUOUS
 62
     7
 10
-576.0
 20
-149.0
 30
0.0
  0
POINT
  5
1BE
  8
DEFPOINTS
  6
CONTINUOUS
 62
     7
 10
576.0
 20
-149.0
 30
0.0
  0
POINT
  5
1BF
  8
DEFPOINTS
  6
CONTINUOUS
 62
     7
 10
575.9995389999998
 20
-683.80000399999994
 30
0.0
  0
LINE
  5
1C2
  8
NOTE
  6
CONTINUOUS
 62
     4
 10
127.0
 20
-265.0
 30
0.0
 11
127.0
 21
-225.0
 31
0.0
  0
LINE
  5
1C3
  8
NOTE
  6
CONTINUOUS
 62
     4
 10
147.0
 20
-245.0
 30
0.0
 11
107.0
 21
-245.0
 31
0.0
  0
LINE
  5
1C4
  8
DETAIL
  6
CONTINUOUS
 62
     5
 10
122.23999999999999
 20
-181.0
 30
0.0
 11
122.23999999999999
 21
-245.0
 31
0.0
  0
LINE
  5
1C5
  8
DETAIL
  6
CONTINUOUS
 62
     5
 10
131.75999999999999
 20
-181.0
 30
0.0
 11
131.75999999999999
 21
-245.0
 31
0.0
  0
LINE
  5
1C6
  8
DETAIL
  6
CONTINUOUS
 62
     5
 10
119.06
 20
-181.0
 30
0.0
 11
119.06
 21
-245.0
 31
0.0
  0
LINE
  5
1C7
  8
DETAIL
  6
CONTINUOUS
 62
     5
 10
134.94
 20
-181.0
 30
0.0
 11
134.94
 21
-245.0
 31
0.0
  0
LINE
  5
1C8
  8
DETAIL
  6
CONTINUOUS
 62
     5
 10
122.23999999999999
 20
-245.0
 30
0.0
 11
131.75999999999999
 21
-245.0
 31
0.0
  0
LINE
  5
1C9
  8
DETAIL
  6
CONTINUOUS
 62
     5
 10
119.06
 20
-245.0
 30
0.0
 11
134.94
 21
-245.0
 31
0.0
  0
LINE
  5
1CA
  8
DETAIL
  6
CONTINUOUS
 62
     5
 10
127.0
 20
-181.0
 30
0.0
 11
127.0
 21
-245.0
 31
0.0
  0
LINE
  5
1CB
  8
NOTE
  6
CONTINUOUS
 62
     4
 10
187.0
 20
-265.0
 30
0.0
 11
187.0
 21
-225.0
 31
0.0
  0
LINE
  5
1CC
  8
NOTE
  6
CONTINUOUS
 62
     4
 10
207.0
 20
-245.0
 30
0.0
 11
167.0
 21
-245.0
 31
0.0
  0
LINE
  5
1CD
  8
DETAIL
  6
CONTINUOUS
 62
     5
 10
182.24000000000001
 20
-181.0
 30
0.0
 11
182.24000000000001
 21
-245.0
 31
0.0
  0
LINE
  5
1CE
  8
DETAIL
  6
CONTINUOUS
 62
     5
 10
191.75999999999999
 20
-181.0
 30
0.0
 11
191.75999999999999
 21
-245.0
 31
0.0
  0
LINE
  5
1CF
  8
DETAIL
  6
CONTINUOUS
 62
     5
 10
179.06
 20
-181.0
 30
0.0
 11
179.06
 21
-245.0
 31
0.0
  0
LINE
  5
1D0
  8
DETAIL
  6
CONTINUOUS
 62
     5
 10
194.94
 20
-181.0
 30
0.0
 11
194.94
 21
-245.0
 31
0.0
  0
LINE
  5
1D1
  8
DETAIL
  6
CONTINUOUS
 62
     5
 10
182.24000000000001
 20
-245.0
 30
0.0
 11
191.75999999999999
 21
-245.0
 31
0.0
  0
LINE
  5
1D2
  8
DETAIL
  6
CONTINUOUS
 62
     5
 10
179.06
 20
-245.0
 30
0.0
 11
194.94
 21
-245.0
 31
0.0
  0
LINE
  5
1D3
  8
DETAIL
  6
CONTINUOUS
 62
     5
 10
187.0
 20
-181.0
 30
0.0
 11
187.0
 21
-245.0
 31
0.0
  0
LINE
  5
1D4
  8
NOTE
  6
CONTINUOUS
 62
     4
 10
247.0
 20
-265.0
 30
0.0
 11
247.0
 21
-225.0
 31
0.0
  0
LINE
  5
1D5
  8
NOTE
  6
CONTINUOUS
 62
     4
 10
267.0
 20
-245.0
 30
0.0
 11
227.0
 21
-245.0
 31
0.0
  0
LINE
  5
1D6
  8
DETAIL
  6
CONTINUOUS
 62
     5
 10
242.24000000000001
 20
-181.0
 30
0.0
 11
242.24000000000001
 21
-245.0
 31
0.0
  0
LINE
  5
1D7
  8
DETAIL
  6
CONTINUOUS
 62
     5
 10
251.75999999999999
 20
-181.0
 30
0.0
 11
251.75999999999999
 21
-245.0
 31
0.0
  0
LINE
  5
1D8
  8
DETAIL
  6
CONTINUOUS
 62
     5
 10
239.06
 20
-181.0
 30
0.0
 11
239.06
 21
-245.0
 31
0.0
  0
LINE
  5
1D9
  8
DETAIL
  6
CONTINUOUS
 62
     5
 10
254.94
 20
-181.0
 30
0.0
 11
254.94
 21
-245.0
 31
0.0
  0
LINE
  5
1DA
  8
DETAIL
  6
CONTINUOUS
 62
     5
 10
242.24000000000001
 20
-245.0
 30
0.0
 11
251.75999999999999
 21
-245.0
 31
0.0
  0
LINE
  5
1DB
  8
DETAIL
  6
CONTINUOUS
 62
     5
 10
239.06
 20
-245.0
 30
0.0
 11
254.94
 21
-245.0
 31
0.0
  0
LINE
  5
1DC
  8
DETAIL
  6
CONTINUOUS
 62
     5
 10
247.0
 20
-181.0
 30
0.0
 11
247.0
 21
-245.0
 31
0.0
  0
LINE
  5
1DD
  8
OUTLINE
  6
CONTINUOUS
 62
     3
 10
-548.99999999999989
 20
181.0
 30
0.0
 11
549.0
 21
181.0
 31
0.0
  0
LINE
  5
1DE
  8
OUTLINE
  6
CONTINUOUS
 62
     3
 10
549.0
 20
-181.0
 30
0.0
 11
-549.0
 21
-181.0
 31
0.0
  0
LINE
  5
1DF
  8
NOTE
  6
CONTINUOUS
 62
     4
 10
307.0
 20
-265.0
 30
0.0
 11
307.0
 21
-225.0
 31
0.0
  0
LINE
  5
1E0
  8
NOTE
  6
CONTINUOUS
 62
     4
 10
327.0
 20
-245.0
 30
0.0
 11
287.0
 21
-245.0
 31
0.0
  0
LINE
  5
1E1
  8
DETAIL
  6
CONTINUOUS
 62
     5
 10
302.24000000000001
 20
-181.0
 30
0.0
 11
302.24000000000001
 21
-245.0
 31
0.0
  0
LINE
  5
1E2
  8
DETAIL
  6
CONTINUOUS
 62
     5
 10
311.75999999999999
 20
-181.0
 30
0.0
 11
311.75999999999999
 21
-245.0
 31
0.0
  0
LINE
  5
1E3
  8
DETAIL
  6
CONTINUOUS
 62
     5
 10
299.06
 20
-181.0
 30
0.0
 11
299.06
 21
-245.0
 31
0.0
  0
LINE
  5
1E4
  8
DETAIL
  6
CONTINUOUS
 62
     5
 10
314.94
 20
-181.0
 30
0.0
 11
314.94
 21
-245.0
 31
0.0
  0
LINE
  5
1E5
  8
DETAIL
  6
CONTINUOUS
 62
     5
 10
302.24000000000001
 20
-245.0
 30
0.0
 11
311.75999999999999
 21
-245.0
 31
0.0
  0
LINE
  5
1E6
  8
DETAIL
  6
CONTINUOUS
 62
     5
 10
299.06
 20
-245.0
 30
0.0
 11
314.94
 21
-245.0
 31
0.0
  0
LINE
  5
1E7
  8
DETAIL
  6
CONTINUOUS
 62
     5
 10
307.0
 20
-181.0
 30
0.0
 11
307.0
 21
-245.0
 31
0.0
  0
LINE
  5
1E8
  8
NOTE
  6
CONTINUOUS
 62
     4
 10
367.0
 20
-265.0
 30
0.0
 11
367.0
 21
-225.0
 31
0.0
  0
LINE
  5
1E9
  8
NOTE
  6
CONTINUOUS
 62
     4
 10
387.0
 20
-245.0
 30
0.0
 11
347.0
 21
-245.0
 31
0.0
  0
LINE
  5
1EA
  8
DETAIL
  6
CONTINUOUS
 62
     5
 10
362.24000000000001
 20
-181.0
 30
0.0
 11
362.24000000000001
 21
-245.0
 31
0.0
  0
LINE
  5
1EB
  8
DETAIL
  6
CONTINUOUS
 62
     5
 10
371.75999999999999
 20
-181.0
 30
0.0
 11
371.75999999999999
 21
-245.0
 31
0.0
  0
LINE
  5
1EC
  8
DETAIL
  6
CONTINUOUS
 62
     5
 10
359.06
 20
-181.0
 30
0.0
 11
359.06
 21
-245.0
 31
0.0
  0
LINE
  5
1ED
  8
DETAIL
  6
CONTINUOUS
 62
     5
 10
374.94
 20
-181.0
 30
0.0
 11
374.94
 21
-245.0
 31
0.0
  0
LINE
  5
1EE
  8
DETAIL
  6
CONTINUOUS
 62
     5
 10
362.24000000000001
 20
-245.0
 30
0.0
 11
371.75999999999999
 21
-245.0
 31
0.0
  0
LINE
  5
1EF
  8
DETAIL
  6
CONTINUOUS
 62
     5
 10
359.06
 20
-245.0
 30
0.0
 11
374.94
 21
-245.0
 31
0.0
  0
LINE
  5
1F0
  8
DETAIL
  6
CONTINUOUS
 62
     5
 10
367.0
 20
-181.0
 30
0.0
 11
367.0
 21
-245.0
 31
0.0
  0
LINE
  5
1F1
  8
NOTE
  6
CONTINUOUS
 62
     4
 10
427.0
 20
-265.0
 30
0.0
 11
427.0
 21
-225.0
 31
0.0
  0
LINE
  5
1F2
  8
NOTE
  6
CONTINUOUS
 62
     4
 10
447.0
 20
-245.0
 30
0.0
 11
407.0
 21
-245.0
 31
0.0
  0
LINE
  5
1F3
  8
DETAIL
  6
CONTINUOUS
 62
     5
 10
422.24000000000001
 20
-181.0
 30
0.0
 11
422.24000000000001
 21
-245.0
 31
0.0
  0
LINE
  5
1F4
  8
DETAIL
  6
CONTINUOUS
 62
     5
 10
431.75999999999988
 20
-181.0
 30
0.0
 11
431.75999999999988
 21
-245.0
 31
0.0
  0
LINE
  5
1F5
  8
DETAIL
  6
CONTINUOUS
 62
     5
 10
419.05999999999989
 20
-181.0
 30
0.0
 11
419.05999999999989
 21
-245.0
 31
0.0
  0
LINE
  5
1F6
  8
DETAIL
  6
CONTINUOUS
 62
     5
 10
434.94
 20
-181.0
 30
0.0
 11
434.94
 21
-245.0
 31
0.0
  0
LINE
  5
1F7
  8
DETAIL
  6
CONTINUOUS
 62
     5
 10
422.24000000000001
 20
-245.0
 30
0.0
 11
431.75999999999988
 21
-245.0
 31
0.0
  0
LINE
  5
1F8
  8
DETAIL
  6
CONTINUOUS
 62
     5
 10
419.05999999999989
 20
-245.0
 30
0.0
 11
434.94
 21
-245.0
 31
0.0
  0
LINE
  5
1F9
  8
DETAIL
  6
CONTINUOUS
 62
     5
 10
427.0
 20
-181.0
 30
0.0
 11
427.0
 21
-245.0
 31
0.0
  0
LINE
  5
1FA
  8
SIZE
  6
CONTINUOUS
 62
    30
 10
-473.0
 20
-274.46002010450047
 30
0.0
 11
-473.0
 21
-418.46390600000001
 31
0.0
  0
LINE
  5
1FB
  8
SIZE
  6
CONTINUOUS
 62
    30
 10
427.0
 20
-278.04786892583428
 30
0.0
 11
427.0
 21
-418.46390600000001
 31
0.0
  0
LINE
  5
1FC
  8
SIZE
  6
CONTINUOUS
 62
    30
 10
-463.0
 20
-388.46390600000001
 30
0.0
 11
417.0
 21
-388.46390600000001
 31
0.0
  0
CIRCLE
  5
1FD
  8
SIZE
  6
CONTINUOUS
 62
    30
 10
-473.0
 20
-388.46390600000001
 30
0.0
 40
5.0
  0
LINE
  5
1FE
  8
SIZE
  6
CONTINUOUS
 62
    30
 10
-468.0
 20
-388.46390600000001
 30
0.0
 11
-463.0
 21
-388.46390600000001
 31
0.0
  0
CIRCLE
  5
1FF
  8
SIZE
  6
CONTINUOUS
 62
    30
 10
427.0
 20
-388.46390600000001
 30
0.0
 40
5.0
  0
LINE
  5
200
  8
SIZE
  6
CONTINUOUS
 62
    30
 10
422.0
 20
-388.46390600000001
 30
0.0
 11
417.0
 21
-388.46390600000001
 31
0.0
  0
TEXT
  5
201
  8
SIZE
  6
CONTINUOUS
 62
    30
 10
-229.25523681198101
 20
-372.44840806996939
 30
0.0
 40
64.0
  1
60×15＝900
 41
0.9
 72
     1
 11
18.15047747373319
 21
-372.44840806996939
 31
0.0
  0
POINT
  5
202
  8
DEFPOINTS
  6
CONTINUOUS
 62
     7
 10
-473.0
 20
-245.0
 30
0.0
  0
POINT
  5
203
  8
DEFPOINTS
  6
CONTINUOUS
 62
     7
 10
427.0
 20
-245.0
 30
0.0
  0
POINT
  5
204
  8
DEFPOINTS
  6
CONTINUOUS
 62
     7
 10
427.0
 20
-388.46390600000001
 30
0.0
  0
LINE
  5
205
  8
SIZE
  6
CONTINUOUS
 62
    30
 10
521.93788099999995
 20
251.0
 30
0.0
 11
1136.530886
 21
251.0
 31
0.0
  0
LINE
  5
206
  8
SIZE
  6
CONTINUOUS
 62
    30
 10
559.26819691099263
 20
181.0
 30
0.0
 11
1136.530886
 21
181.0
 31
0.0
  0
LINE
  5
207
  8
SIZE
  6
CONTINUOUS
 62
    30
 10
1106.530886
 20
261.0
 30
0.0
 11
1106.530886
 21
366.4230458295969
 31
0.0
  0
LINE
  5
208
  8
SIZE
  6
CONTINUOUS
 62
    30
 10
1106.530886
 20
171.0
 30
0.0
 11
1106.530886
 21
161.0
 31
0.0
  0
LINE
  5
209
  8
SIZE
  6
CONTINUOUS
 62
    30
 10
1106.530886
 20
251.0
 30
0.0
 11
1106.530886
 21
181.0
 31
0.0
  0
CIRCLE
  5
20A
  8
SIZE
  6
CONTINUOUS
 62
    30
 10
1106.530886
 20
251.0
 30
0.0
 40
5.0
  0
LINE
  5
20B
  8
SIZE
  6
CONTINUOUS
 62
    30
 10
1106.530886
 20
256.0
 30
0.0
 11
1106.530886
 21
261.0
 31
0.0
  0
CIRCLE
  5
20C
  8
SIZE
  6
CONTINUOUS
 62
    30
 10
1106.530886
 20
181.0
 30
0.0
 40
5.0
  0
LINE
  5
20D
  8
SIZE
  6
CONTINUOUS
 62
    30
 10
1106.530886
 20
176.0
 30
0.0
 11
1106.530886
 21
171.0
 31
0.0
  0
TEXT
  5
20E
  8
SIZE
  6
CONTINUOUS
 62
    30
 10
1086.530886
 20
265.55298204148312
 30
0.0
 40
64.0
  1
70
 50
90.0
 41
0.9
 72
     1
 11
1086.530886
 21
312.1815534700545
 31
0.0
  0
POINT
  5
20F
  8
DEFPOINTS
  6
CONTINUOUS
 62
     7
 10
501.93788099999989
 20
251.0
 30
0.0
  0
POINT
  5
210
  8
DEFPOINTS
  6
CONTINUOUS
 62
     7
 10
549.0
 20
181.0
 30
0.0
  0
POINT
  5
211
  8
DEFPOINTS
  6
CONTINUOUS
 62
     7
 10
1106.530886
 20
181.0
 30
0.0
  0
LINE
  5
212
  8
SIZE
  6
CONTINUOUS
 62
    30
 10
603.63469925896243
 20
149.0
 30
0.0
 11
920.73181599999964
 21
149.0
 31
0.0
  0
LINE
  5
213
  8
SIZE
  6
CONTINUOUS
 62
    30
 10
614.71485121405738
 20
-149.0
 30
0.0
 11
920.73181599999964
 21
-149.0
 31
0.0
  0
LINE
  5
214
  8
SIZE
  6
CONTINUOUS
 62
    30
 10
890.73181599999998
 20
139.0
 30
0.0
 11
890.73181599999998
 21
-139.0
 31
0.0
  0
LINE
  5
215
  8
SIZE
  6
CONTINUOUS
 62
    30
 10
890.73181599999998
 20
-149.0
 30
0.0
 11
890.73181599999998
 21
-725.10139900000001
 31
0.0
  0
CIRCLE
  5
216
  8
SIZE
  6
CONTINUOUS
 62
    30
 10
890.73181599999998
 20
149.0
 30
0.0
 40
5.0
  0
LINE
  5
217
  8
SIZE
  6
CONTINUOUS
 62
    30
 10
890.73181599999998
 20
144.0
 30
0.0
 11
890.73181599999998
 21
139.0
 31
0.0
  0
CIRCLE
  5
218
  8
SIZE
  6
CONTINUOUS
 62
    30
 10
890.73181599999998
 20
-149.0
 30
0.0
 40
5.0
  0
LINE
  5
219
  8
SIZE
  6
CONTINUOUS
 62
    30
 10
890.73181599999998
 20
-144.0
 30
0.0
 11
890.73181599999998
 21
-139.0
 31
0.0
  0
TEXT
  5
21A
  8
SIZE
  6
CONTINUOUS
 62
    30
 10
870.73181599999964
 20
-705.10139885714261
 30
0.0
 40
64.0
  1
298
 50
90.0
 41
0.9
 72
     1
 11
870.73181599999964
 21
-631.04425599999979
 31
0.0
  0
POINT
  5
21B
  8
DEFPOINTS
  6
CONTINUOUS
 62
     7
 10
576.0
 20
149.0
 30
0.0
  0
POINT
  5
21C
  8
DEFPOINTS
  6
CONTINUOUS
 62
     7
 10
576.0
 20
-149.0
 30
0.0
  0
POINT
  5
21D
  8
DEFPOINTS
  6
CONTINUOUS
 62
     7
 10
890.73181599999998
 20
-149.0
 30
0.0
  0
LINE
  5
21E
  8
SIZE
  6
CONTINUOUS
 62
    30
 10
602.9995389999998
 20
155.0
 30
0.0
 11
709.12915999999996
 21
155.0
 31
0.0
  0
LINE
  5
21F
  8
SIZE
  6
CONTINUOUS
 62
    30
 10
602.9995389999998
 20
143.0
 30
0.0
 11
709.12915999999996
 21
143.0
 31
0.0
  0
LINE
  5
220
  8
SIZE
  6
CONTINUOUS
 62
    30
 10
679.12915999999996
 20
165.0
 30
0.0
 11
679.12915999999996
 21
175.0
 31
0.0
  0
LINE
  5
221
  8
SIZE
  6
CONTINUOUS
 62
    30
 10
679.12915999999996
 20
133.0
 30
0.0
 11
679.12915999999996
 21
8.6227034988396536
 31
0.0
  0
LINE
  5
222
  8
SIZE
  6
CONTINUOUS
 62
    30
 10
679.12915999999996
 20
155.0
 30
0.0
 11
679.12915999999996
 21
143.0
 31
0.0
  0
CIRCLE
  5
223
  8
SIZE
  6
CONTINUOUS
 62
    30
 10
679.12915999999996
 20
155.0
 30
0.0
 40
5.0
  0
LINE
  5
224
  8
SIZE
  6
CONTINUOUS
 62
    30
 10
679.12915999999996
 20
160.0
 30
0.0
 11
679.12915999999996
 21
165.0
 31
0.0
  0
CIRCLE
  5
225
  8
SIZE
  6
CONTINUOUS
 62
    30
 10
679.12915999999996
 20
143.0
 30
0.0
 40
5.0
  0
LINE
  5
226
  8
SIZE
  6
CONTINUOUS
 62
    30
 10
679.12915999999996
 20
138.0
 30
0.0
 11
679.12915999999996
 21
133.0
 31
0.0
  0
TEXT
  5
227
  8
SIZE
  6
CONTINUOUS
 62
    30
 10
659.12915999999996
 20
30.164094651363229
 30
0.0
 40
64.0
  1
12
 50
90.0
 41
0.9
 72
     1
 11
659.12915999999996
 21
71.306951794220367
 31
0.0
  0
POINT
  5
228
  8
DEFPOINTS
  6
CONTINUOUS
 62
     7
 10
582.99953899999957
 20
155.0
 30
0.0
  0
POINT
  5
229
  8
DEFPOINTS
  6
CONTINUOUS
 62
     7
 10
582.99953899999957
 20
143.0
 30
0.0
  0
POINT
  5
22A
  8
DEFPOINTS
  6
CONTINUOUS
 62
     7
 10
679.12915999999996
 20
143.0
 30
0.0
  0
LINE
  5
22B
  8
SIZE
  6
CONTINUOUS
 62
    30
 10
595.99953899999957
 20
164.0
 30
0.0
 11
813.70747100000006
 21
164.0
 31
0.0
  0
LINE
  5
22C
  8
SIZE
  6
CONTINUOUS
 62
    30
 10
595.99953899999957
 20
134.0
 30
0.0
 11
813.70747100000006
 21
134.0
 31
0.0
  0
LINE
  5
22D
  8
SIZE
  6
CONTINUOUS
 62
    30
 10
783.70747099999983
 20
174.0
 30
0.0
 11
783.70747099999983
 21
184.0
 31
0.0
  0
LINE
  5
22E
  8
SIZE
  6
CONTINUOUS
 62
    30
 10
783.70747099999983
 20
124.0
 30
0.0
 11
783.70747099999983
 21
8.6227034988396536
 31
0.0
  0
LINE
  5
22F
  8
SIZE
  6
CONTINUOUS
 62
    30
 10
783.70747099999983
 20
164.0
 30
0.0
 11
783.70747099999983
 21
134.0
 31
0.0
  0
CIRCLE
  5
230
  8
SIZE
  6
CONTINUOUS
 62
    30
 10
783.70747099999983
 20
164.0
 30
0.0
 40
5.0
  0
LINE
  5
231
  8
SIZE
  6
CONTINUOUS
 62
    30
 10
783.70747099999983
 20
169.0
 30
0.0
 11
783.70747099999983
 21
174.0
 31
0.0
  0
CIRCLE
  5
232
  8
SIZE
  6
CONTINUOUS
 62
    30
 10
783.70747099999983
 20
134.0
 30
0.0
 40
5.0
  0
LINE
  5
233
  8
SIZE
  6
CONTINUOUS
 62
    30
 10
783.70747099999983
 20
129.0
 30
0.0
 11
783.70747099999983
 21
124.0
 31
0.0
  0
TEXT
  5
234
  8
SIZE
  6
CONTINUOUS
 62
    30
 10
763.70747099999983
 20
23.344672847532781
 30
0.0
 40
64.0
  1
30
 50
90.0
 41
0.9
 72
     1
 11
763.70747099999983
 21
69.973244276104197
 31
0.0
  0
POINT
  5
235
  8
DEFPOINTS
  6
CONTINUOUS
 62
     7
 10
575.9995389999998
 20
164.0
 30
0.0
  0
POINT
  5
236
  8
DEFPOINTS
  6
CONTINUOUS
 62
     7
 10
575.9995389999998
 20
134.0
 30
0.0
  0
POINT
  5
237
  8
DEFPOINTS
  6
CONTINUOUS
 62
     7
 10
783.70747099999983
 20
134.0
 30
0.0
  0
LINE
  5
334
  8
NOTE
  6
CONTINUOUS
 62
     4
 10
576.0
 20
149.0
 30
0.0
 11
643.30368828144128
 21
472.40087373177448
 31
0.0
  0
LINE
  5
335
  8
NOTE
  6
CONTINUOUS
 62
     4
 10
643.30368828144128
 20
472.40087373177448
 30
0.0
 11
1325.006545281441
 21
472.40087373177448
 31
0.0
  0
LINE
  5
338
  8
NOTE
  6
CONTINUOUS
 62
     4
 10
-619.0
 20
67.0
 30
0.0
 11
-943.41132800000003
 21
639.65122499999995
 31
0.0
  0
LINE
  5
33A
  8
NOTE
  6
CONTINUOUS
 62
     4
 10
-749.0
 20
0.0
 30
0.0
 11
-919.55572299999994
 21
135.03624500000001
 31
0.0
  0
LINE
  5
33C
  8
NOTE
  6
CONTINUOUS
 62
     4
 10
-619.0
 20
-78.0
 30
0.0
 11
-843.66969499999982
 21
-113.845598
 31
0.0
  0
LINE
  5
33E
  8
NOTE
  6
CONTINUOUS
 62
     4
 10
-473.0
 20
-245.0
 30
0.0
 11
-793.36086473827527
 21
-840.39318138266754
 31
0.0
  0
TEXT
  5
357
  8
NOTE
  6
CONTINUOUS
 62
     4
 10
-1814.0808647382751
 20
-820.39318138266788
 30
0.0
 40
64.0
  1
室内ユニット側配管接続口（液）
 41
0.9
 72
     2
 11
-823.36086473827504
 21
-820.39318138266788
 31
0.0
  0
TEXT
  5
358
  8
NOTE
  6
CONTINUOUS
 62
     4
 10
-1620.39159454076
 20
-915.33996716177705
 30
0.0
 40
50.0
  1
φ9.52
 41
0.9
  0
TEXT
  5
359
  8
NOTE
  6
CONTINUOUS
 62
     4
 10
-1789.3525354558251
 20
-585.71582559153205
 30
0.0
 40
64.0
  1
室内ユニット側配管接続口（ガス）
 41
0.9
 72
     2
 11
-729.51253545582586
 21
-585.71582559153205
 31
0.0
  0
TEXT
  5
35A
  8
NOTE
  6
CONTINUOUS
 62
     4
 10
-1612.685881680402
 20
-690.92771333193696
 30
0.0
 40
50.0
  1
φ15.88
 41
0.9
  0
TEXT
  5
35F
  8
NOTE
  6
CONTINUOUS
 62
     4
 10
-1353.304294428571
 20
155.03624500000009
 30
0.0
 40
64.0
  1
D　VP-25
 41
0.9
 72
     2
 11
-949.55572299999994
 21
155.03624500000009
 31
0.0
  0
LINE
  5
363
  8
NOTE
  6
CONTINUOUS
 62
     4
 10
-919.55572299999994
 20
135.03624500000021
 30
0.0
 11
-1373.9929286313341
 21
135.03624500000021
 31
0.0
  0
LINE
  5
366
  8
NOTE
  6
CONTINUOUS
 62
     4
 10
-793.36086473827527
 20
-840.39318138266754
 30
0.0
 11
-1849.1894367382749
 21
-840.39318138266754
 31
0.0
  0
LINE
  5
367
  8
NOTE
  6
CONTINUOUS
 62
     4
 10
-670.22685308028974
 20
-611.54765433193666
 30
0.0
 11
-1835.866262104573
 21
-611.54765433193688
 31
0.0
  0
LINE
  5
38B
  8
SIZE
  6
CONTINUOUS
 62
    30
 10
-749.0
 20
40.0
 30
0.0
 11
-749.0
 21
272.34782088700013
 31
0.0
  0
LINE
  5
38C
  8
SIZE
  6
CONTINUOUS
 62
    30
 10
-549.0
 20
201.0
 30
0.0
 11
-549.0
 21
272.34782088700013
 31
0.0
  0
LINE
  5
38D
  8
SIZE
  6
CONTINUOUS
 62
    30
 10
-739.0
 20
242.3478208870001
 30
0.0
 11
-559.0
 21
242.3478208870001
 31
0.0
  0
TEXT
  5
391
  8
SIZE
  6
CONTINUOUS
 62
    30
 10
-714.35947162545995
 20
254.60060867434001
 30
0.0
 40
64.0
  1
200
 41
0.9
 72
     1
 11
-640.30232876831724
 21
254.60060867434001
 31
0.0
  0
CIRCLE
  5
392
  8
SIZE
  6
CONTINUOUS
 62
    30
 10
-549.0
 20
242.3478208870001
 30
0.0
 40
5.0
  0
LINE
  5
393
  8
SIZE
  6
CONTINUOUS
 62
    30
 10
-554.0
 20
242.3478208870001
 30
0.0
 11
-559.0
 21
242.3478208870001
 31
0.0
  0
CIRCLE
  5
394
  8
SIZE
  6
CONTINUOUS
 62
    30
 10
-749.0
 20
242.3478208870001
 30
0.0
 40
5.0
  0
LINE
  5
395
  8
SIZE
  6
CONTINUOUS
 62
    30
 10
-744.0
 20
242.3478208870001
 30
0.0
 11
-739.0
 21
242.3478208870001
 31
0.0
  0
LINE
  5
3A6
  8
NOTE
  6
CONTINUOUS
 62
     4
 10
-761.64139973390104
 20
20.099570635702921
 30
0.0
 11
-749.0
 21
-0.0000000000000284
 31
0.0
  0
TEXT
  5
4BD
  8
NOTE
  6
CONTINUOUS
 62
     4
 10
-2080.4699272713442
 20
-93.845597999999868
 30
0.0
 40
64.0
  1
室外ユニット側配管接続口（低圧）
 41
0.9
 72
     2
 11
-1020.6299272713439
 21
-93.845597999999868
 31
0.0
  0
TEXT
  5
4BE
  8
NOTE
  6
CONTINUOUS
 62
     4
 10
-2062.3676091644779
 20
-189.05338599999999
 30
0.0
 40
50.0
  1
224形：φ25.4（付属配管を使用）
 41
0.9
  0
TEXT
  5
4BF
  8
NOTE
  6
CONTINUOUS
 62
     4
 10
-2064.2693970394048
 20
-260.08251000000001
 30
0.0
 40
50.0
  1
280.335.400形：φ28.58（付属配管を使用）
 41
0.9
  0
TEXT
  5
4C0
  8
NOTE
  6
CONTINUOUS
 62
     4
 10
-2357.7901289437918
 20
659.65122499999995
 30
0.0
 40
64.0
  1
室外ユニット側配管接続口（高圧）
 41
0.9
 72
     2
 11
-1297.9501289437919
 21
659.65122499999995
 31
0.0
  0
TEXT
  5
4C1
  8
NOTE
  6
CONTINUOUS
 62
     4
 10
-2332.1270822756828
 20
574.64641576857184
 30
0.0
 40
50.0
  1
224.280.335.400形：φ19.05
 41
0.9
  0
LINE
  5
4C2
  8
NOTE
  6
CONTINUOUS
 62
     4
 10
-943.41132800000003
 20
639.65122499999984
 30
0.0
 11
-2357.7901289437932
 21
639.65122499999984
 31
0.0
  0
LINE
  5
4C3
  8
NOTE
  6
CONTINUOUS
 62
     4
 10
-843.66969499999982
 20
-113.8455979999999
 30
0.0
 11
-2082.2436821849592
 21
-113.8455979999999
 31
0.0
  0
ENDSEC
  0
EOF
