  0
SECTION
  2
HEADER
  9
$ACADVER
  1
AC1009
  9
$INSBASE
 10
0.0
 20
0.0
 30
0.0
  9
$EXTMIN
 10
-1065.9803649522471
 20
-702.98022064450925
 30
-0.0000000349181948
  9
$EXTMAX
 10
2212.6681686406851
 20
819.80321191306211
 30
0.0000000814935747
  9
$LIMMIN
 10
-3837.0001750000001
 20
-3000.109539
  9
$LIMMAX
 10
7319.2568810000002
 20
4045.2230030000001
  9
$ORTHOMODE
 70
     0
  9
$REGENMODE
 70
     1
  9
$FILLMODE
 70
     1
  9
$QTEXTMODE
 70
     0
  9
$MIRRTEXT
 70
     0
  9
$DRAGMODE
 70
     2
  9
$LTSCALE
 40
20.0
  9
$OSMODE
 70
   959
  9
$ATTMODE
 70
     1
  9
$TEXTSIZE
 40
64.0
  9
$TRACEWID
 40
0.05
  9
$TEXTSTYLE
  7
STANDARD
  9
$CLAYER
  8
SYMBOLLINE
  9
$CELTYPE
  6
CONTINUOUS
  9
$CECOLOR
 62
     7
  9
$DIMSCALE
 40
1.0
  9
$DIMASZ
 40
10.0
  9
$DIMEXO
 40
20.0
  9
$DIMDLI
 40
200.0
  9
$DIMRND
 40
0.0
  9
$DIMDLE
 40
0.0
  9
$DIMEXE
 40
30.0
  9
$DIMTP
 40
0.0
  9
$DIMTM
 40
0.0
  9
$DIMTXT
 40
64.0
  9
$DIMCEN
 40
0.0
  9
$DIMTSZ
 40
0.0
  9
$DIMTOL
 70
     0
  9
$DIMLIM
 70
     0
  9
$DIMTIH
 70
     0
  9
$DIMTOH
 70
     0
  9
$DIMSE1
 70
     0
  9
$DIMSE2
 70
     0
  9
$DIMTAD
 70
     1
  9
$DIMZIN
 70
     8
  9
$DIMBLK
  1

  9
$DIMASO
 70
     1
  9
$DIMSHO
 70
     0
  9
$DIMPOST
  1

  9
$DIMAPOST
  1

  9
$DIMALT
 70
     0
  9
$DIMALTD
 70
     2
  9
$DIMALTF
 40
25.399999999999999
  9
$DIMLFAC
 40
1.0
  9
$DIMTOFL
 70
     1
  9
$DIMTVP
 40
0.0
  9
$DIMTIX
 70
     1
  9
$DIMSOXD
 70
     0
  9
$DIMSAH
 70
     1
  9
$DIMBLK1
  1
DOTBLANK
  9
$DIMBLK2
  1
DOTBLANK
  9
$DIMSTYLE
  2
STANDARD
  9
$DIMCLRD
 70
     0
  9
$DIMCLRE
 70
     0
  9
$DIMCLRT
 70
     0
  9
$DIMTFAC
 40
1.0
  9
$DIMGAP
 40
0.09
  9
$LUNITS
 70
     2
  9
$LUPREC
 70
     4
  9
$SKETCHINC
 40
0.1
  9
$FILLETRAD
 40
10.0
  9
$AUNITS
 70
     1
  9
$AUPREC
 70
     3
  9
$MENU
  1
ACAD
  9
$ELEVATION
 40
0.0
  9
$PELEVATION
 40
0.0
  9
$THICKNESS
 40
0.0
  9
$LIMCHECK
 70
     0
  9
$BLIPMODE
 70
     0
  9
$CHAMFERA
 40
0.0
  9
$CHAMFERB
 40
0.0
  9
$SKPOLY
 70
     0
  9
$TDCREATE
 40
2450330.4399309959
  9
$TDUPDATE
 40
2455450.659382523
  9
$TDINDWG
 40
1.3922260301
  9
$TDUSRTIMER
 40
1.3922258565000001
  9
$USRTIMER
 70
     1
  9
$ANGBASE
 50
0.0
  9
$ANGDIR
 70
     0
  9
$PDMODE
 70
     3
  9
$PDSIZE
 40
-2.0
  9
$PLINEWID
 40
0.0
  9
$COORDS
 70
     0
  9
$SPLFRAME
 70
     0
  9
$SPLINETYPE
 70
     6
  9
$SPLINESEGS
 70
     8
  9
$ATTDIA
 70
     0
  9
$ATTREQ
 70
     1
  9
$HANDLING
 70
     1
  9
$HANDSEED
  5
478
  9
$SURFTAB1
 70
     6
  9
$SURFTAB2
 70
     6
  9
$SURFTYPE
 70
     6
  9
$SURFU
 70
     6
  9
$SURFV
 70
     6
  9
$UCSNAME
  2

  9
$UCSORG
 10
0.0
 20
0.0
 30
0.0
  9
$UCSXDIR
 10
1.0
 20
0.0
 30
0.0
  9
$UCSYDIR
 10
0.0
 20
1.0
 30
0.0
  9
$PUCSNAME
  2

  9
$PUCSORG
 10
0.0
 20
0.0
 30
0.0
  9
$PUCSXDIR
 10
1.0
 20
0.0
 30
0.0
  9
$PUCSYDIR
 10
0.0
 20
1.0
 30
0.0
  9
$USERI1
 70
     0
  9
$USERI2
 70
     0
  9
$USERI3
 70
     0
  9
$USERI4
 70
     0
  9
$USERI5
 70
     0
  9
$USERR1
 40
20.0
  9
$USERR2
 40
0.0
  9
$USERR3
 40
0.0
  9
$USERR4
 40
0.0
  9
$USERR5
 40
0.0
  9
$WORLDVIEW
 70
     1
  9
$SHADEDGE
 70
     3
  9
$SHADEDIF
 70
    70
  9
$TILEMODE
 70
     1
  9
$MAXACTVP
 70
    48
  9
$PLIMCHECK
 70
     0
  9
$PEXTMIN
 10
1.0000000000000000E+020
 20
1.0000000000000000E+020
 30
1.0000000000000000E+020
  9
$PEXTMAX
 10
-1.0000000000000000E+020
 20
-1.0000000000000000E+020
 30
-1.0000000000000000E+020
  9
$PLIMMIN
 10
0.0
 20
0.0
  9
$PLIMMAX
 10
12.0
 20
9.0
  9
$UNITMODE
 70
     0
  9
$VISRETAIN
 70
     1
  9
$PLINEGEN
 70
     0
  9
$PSLTSCALE
 70
     1
  0
ENDSEC
  0
SECTION
  2
TABLES
  0
TABLE
  2
VPORT
 70
     1
  0
VPORT
  2
*ACTIVE
 70
     0
 10
0.0
 20
0.0
 11
1.0
 21
1.0
 12
1741.1283530000001
 22
522.55673200000001
 13
0.0
 23
0.0
 14
50.0
 24
50.0
 15
100.0
 25
100.0
 16
0.0
 26
0.0
 36
1.0
 17
0.0
 27
0.0
 37
0.0
 40
7168.3883690244638
 41
1.5639386189258311
 42
50.0
 43
0.0
 44
0.0
 50
0.0
 51
0.0
 71
     0
 72
  1000
 73
     1
 74
     0
 75
     0
 76
     0
 77
     0
 78
     0
  0
ENDTAB
  0
TABLE
  2
LTYPE
 70
     2
  0
LTYPE
  2
CONTINUOUS
 70
     0
  3
実線
 72
    65
 73
     0
 40
0.0
  0
LTYPE
  2
DASHDOT
 70
     0
  3
____ _ ____ _ ____ _ ____ _ ____ _ ____ _ ____
 72
    65
 73
     4
 40
5.5
 49
4.0
 49
-0.6
 49
0.3
 49
-0.6
  0
ENDTAB
  0
TABLE
  2
LAYER
 70
    12
  0
LAYER
  2
0
 70
     0
 62
     7
  6
CONTINUOUS
  0
LAYER
  2
SYMBOLLINE
 70
     0
 62
    15
  6
CONTINUOUS
  0
LAYER
  2
SIZE
 70
     0
 62
    30
  6
CONTINUOUS
  0
LAYER
  2
OUTLINE
 70
     0
 62
     3
  6
CONTINUOUS
  0
LAYER
  2
DETAIL
 70
     0
 62
     5
  6
CONTINUOUS
  0
LAYER
  2
BASIS
 70
     0
 62
     6
  6
DASHDOT
  0
LAYER
  2
NOTE
 70
     0
 62
     4
  6
CONTINUOUS
  0
LAYER
  2
ARRANGE
 70
     0
 62
     1
  6
CONTINUOUS
  0
LAYER
  2
FIX
 70
     0
 62
    11
  6
CONTINUOUS
  0
LAYER
  2
SERVICESPACE
 70
     0
 62
     2
  6
DASHDOT
  0
LAYER
  2
ETC
 70
     0
 62
    61
  6
CONTINUOUS
  0
LAYER
  2
DEFPOINTS
 70
     0
 62
     7
  6
CONTINUOUS
  0
ENDTAB
  0
TABLE
  2
STYLE
 70
     2
  0
STYLE
  2
STANDARD
 70
     0
 40
0.0
 41
0.9
 50
0.0
 71
     0
 42
64.0
  3
SIMPLEX
  4
BIGFONT
  0
STYLE
  2
ANNOTATIVE
 70
     0
 40
0.0
 41
1.0
 50
0.0
 71
     0
 42
0.2
  3
txt
  4

  0
ENDTAB
  0
TABLE
  2
VIEW
 70
     2
  0
VIEW
  2
ALL
 70
     0
 40
9000.0
 10
241.50664699999999
 20
0.0
 41
12483.01
 11
0.0
 21
0.0
 31
1.0
 12
0.0
 22
0.0
 32
0.0
 42
50.0
 43
0.0
 44
0.0
 50
0.0
 71
     0
  0
ENDTAB
  0
TABLE
  2
UCS
 70
     0
  0
ENDTAB
  0
TABLE
  2
APPID
 70
     4
  0
APPID
  2
ACAD
 70
     0
  0
APPID
  2
ACADANNOTATIVE
 70
     0
  0
APPID
  2
ACAD_MLEADERVER
 70
     0
  0
APPID
  2
ACAD_EXEMPT_FROM_CAD_STANDARDS
 70
     0
  0
ENDTAB
  0
TABLE
  2
DIMSTYLE
 70
     2
  0
DIMSTYLE
  2
STANDARD
 70
     0
  3

  4

  5

  6

  7

 40
1.0
 41
0.18
 42
0.0625
 43
0.38
 44
0.18
 45
0.0
 46
0.0
 47
0.0
 48
0.0
140
0.18
141
0.09
142
0.0
143
25.399999999999999
144
1.0
145
0.0
146
1.0
147
0.09
 71
     0
 72
     0
 73
     1
 74
     1
 75
     0
 76
     0
 77
     0
 78
     0
170
     0
171
     2
172
     0
173
     0
174
     0
175
     0
176
     0
177
     0
178
     0
  0
DIMSTYLE
  2
ANNOTATIVE
 70
     0
  3

  4

  5

  6

  7

 40
1.0
 41
0.18
 42
0.0625
 43
0.38
 44
0.18
 45
0.0
 46
0.0
 47
0.0
 48
0.0
140
0.18
141
0.09
142
0.0
143
25.399999999999999
144
1.0
145
0.0
146
1.0
147
0.09
 71
     0
 72
     0
 73
     1
 74
     1
 75
     0
 76
     0
 77
     0
 78
     0
170
     0
171
     2
172
     0
173
     0
174
     0
175
     0
176
     0
177
     0
178
     0
  0
ENDTAB
  0
ENDSEC
  0
SECTION
  2
BLOCKS
  0
BLOCK
  8
0
  2
$MODEL_SPACE
 70
     0
 10
0.0
 20
0.0
 30
0.0
  3
$MODEL_SPACE
  1

  0
ENDBLK
  5
42E
  8
0
  0
BLOCK
 67
     1
  8
0
  2
$PAPER_SPACE
 70
     0
 10
0.0
 20
0.0
 30
0.0
  3
$PAPER_SPACE
  1

  0
ENDBLK
  5
42A
 67
     1
  8
0
  0
BLOCK
  8
0
  2
_DOTBLANK
 70
     0
 10
0.0
 20
0.0
 30
0.0
  3
_DOTBLANK
  1

  0
CIRCLE
  5
30
  8
0
  6
CONTINUOUS
 62
     7
 10
0.0
 20
0.0
 30
0.0
 40
0.5
  0
LINE
  5
31
  8
0
  6
CONTINUOUS
 62
     7
 10
-0.5
 20
0.0
 30
0.0
 11
-1.0
 21
0.0
 31
0.0
  0
ENDBLK
  5
32
  8
0
  0
ENDSEC
  0
SECTION
  2
ENTITIES
  0
LINE
  5
33
  8
DETAIL
  6
CONTINUOUS
 62
     5
 10
-324.0
 20
0.0
 30
0.0
 11
324.0
 21
0.0
 31
0.0
  0
LINE
  5
34
  8
DETAIL
  6
CONTINUOUS
 62
     5
 10
524.0
 20
-272.0
 30
0.0
 11
479.0
 21
-272.0
 31
0.0
  0
LINE
  5
35
  8
DETAIL
  6
CONTINUOUS
 62
     5
 10
524.0
 20
-238.0
 30
0.0
 11
479.0
 21
-238.0
 31
0.0
  0
LINE
  5
38
  8
DETAIL
  6
CONTINUOUS
 62
     5
 10
524.0
 20
-272.0
 30
0.0
 11
524.0
 21
-238.0
 31
0.0
  0
LINE
  5
3A
  8
DETAIL
  6
CONTINUOUS
 62
     5
 10
324.0
 20
0.0
 30
0.0
 11
324.0
 21
-284.0
 31
0.0
  0
LINE
  5
3B
  8
DETAIL
  6
CONTINUOUS
 62
     5
 10
359.0
 20
-238.0
 30
0.0
 11
324.0
 21
-238.0
 31
0.0
  0
LINE
  5
3C
  8
DETAIL
  6
CONTINUOUS
 62
     5
 10
359.0
 20
-272.0
 30
0.0
 11
324.0
 21
-272.0
 31
0.0
  0
LINE
  5
3D
  8
DETAIL
  6
CONTINUOUS
 62
     5
 10
364.0
 20
-277.0
 30
0.0
 11
364.0
 21
-233.0
 31
0.0
  0
LINE
  5
3F
  8
DETAIL
  6
CONTINUOUS
 62
     5
 10
479.0
 20
-277.0
 30
0.0
 11
479.0
 21
-233.0
 31
0.0
  0
LINE
  5
40
  8
DETAIL
  6
CONTINUOUS
 62
     5
 10
474.0
 20
-277.0
 30
0.0
 11
474.0
 21
-233.0
 31
0.0
  0
LINE
  5
41
  8
DETAIL
  6
CONTINUOUS
 62
     5
 10
373.94679600000001
 20
-272.7274700000001
 30
0.0
 11
374.00919773626492
 21
-272.30313819339869
 31
0.0
  0
LINE
  5
42
  8
DETAIL
  6
CONTINUOUS
 62
     5
 10
364.05320399999999
 20
-271.27253000000002
 30
0.0
 11
369.05320399999999
 21
-237.27252999999999
 31
0.0
  0
LINE
  5
43
  8
DETAIL
  6
CONTINUOUS
 62
     5
 10
364.0
 20
-272.36568279999972
 30
0.0
 11
364.00919773626492
 21
-272.30313819339852
 31
0.0
  0
LINE
  5
44
  8
DETAIL
  6
CONTINUOUS
 62
     5
 10
383.94679600000001
 20
-272.7274700000001
 30
0.0
 11
384.00919773626492
 21
-272.30313819339869
 31
0.0
  0
LINE
  5
45
  8
DETAIL
  6
CONTINUOUS
 62
     5
 10
374.05320399999999
 20
-271.27253000000002
 30
0.0
 11
379.05320399999999
 21
-237.27252999999999
 31
0.0
  0
LINE
  5
46
  8
DETAIL
  6
CONTINUOUS
 62
     5
 10
393.94679600000001
 20
-272.7274700000001
 30
0.0
 11
394.00919773626492
 21
-272.30313819339869
 31
0.0
  0
LINE
  5
47
  8
DETAIL
  6
CONTINUOUS
 62
     5
 10
384.05320399999999
 20
-271.27253000000002
 30
0.0
 11
389.05320399999999
 21
-237.27252999999999
 31
0.0
  0
LINE
  5
48
  8
DETAIL
  6
CONTINUOUS
 62
     5
 10
403.94679600000001
 20
-272.7274700000001
 30
0.0
 11
404.00919773626481
 21
-272.30313819339869
 31
0.0
  0
LINE
  5
49
  8
DETAIL
  6
CONTINUOUS
 62
     5
 10
394.05320399999999
 20
-271.27253000000002
 30
0.0
 11
399.05320399999999
 21
-237.27252999999999
 31
0.0
  0
LINE
  5
4A
  8
DETAIL
  6
CONTINUOUS
 62
     5
 10
413.94679600000001
 20
-272.7274700000001
 30
0.0
 11
414.00919773626481
 21
-272.30313819339852
 31
0.0
  0
LINE
  5
4B
  8
DETAIL
  6
CONTINUOUS
 62
     5
 10
404.05320399999999
 20
-271.27253000000002
 30
0.0
 11
409.05320399999999
 21
-237.27252999999999
 31
0.0
  0
LINE
  5
4C
  8
DETAIL
  6
CONTINUOUS
 62
     5
 10
423.94679599999989
 20
-272.7274700000001
 30
0.0
 11
424.00919773626492
 21
-272.30313819339852
 31
0.0
  0
LINE
  5
4D
  8
DETAIL
  6
CONTINUOUS
 62
     5
 10
414.05320399999999
 20
-271.27253000000002
 30
0.0
 11
419.05320399999988
 21
-237.27252999999999
 31
0.0
  0
LINE
  5
4E
  8
DETAIL
  6
CONTINUOUS
 62
     5
 10
433.94679600000001
 20
-272.7274700000001
 30
0.0
 11
434.0091977362647
 21
-272.30313819339869
 31
0.0
  0
LINE
  5
4F
  8
DETAIL
  6
CONTINUOUS
 62
     5
 10
424.05320399999988
 20
-271.27253000000002
 30
0.0
 11
429.05320399999999
 21
-237.27252999999999
 31
0.0
  0
LINE
  5
50
  8
DETAIL
  6
CONTINUOUS
 62
     5
 10
443.94679599999989
 20
-272.7274700000001
 30
0.0
 11
444.00919773626481
 21
-272.30313819339852
 31
0.0
  0
LINE
  5
51
  8
DETAIL
  6
CONTINUOUS
 62
     5
 10
438.99080226373491
 20
-237.69686180660131
 30
0.0
 11
439.05320399999999
 21
-237.27252999999999
 31
0.0
  0
LINE
  5
52
  8
DETAIL
  6
CONTINUOUS
 62
     5
 10
453.94679600000001
 20
-272.7274700000001
 30
0.0
 11
454.00919773626481
 21
-272.30313819339852
 31
0.0
  0
LINE
  5
53
  8
DETAIL
  6
CONTINUOUS
 62
     5
 10
444.05320399999988
 20
-271.27253000000002
 30
0.0
 11
449.05320399999988
 21
-237.27252999999999
 31
0.0
  0
LINE
  5
54
  8
DETAIL
  6
CONTINUOUS
 62
     5
 10
463.94679600000001
 20
-272.7274700000001
 30
0.0
 11
464.00919773626481
 21
-272.30313819339852
 31
0.0
  0
LINE
  5
55
  8
DETAIL
  6
CONTINUOUS
 62
     5
 10
454.05320399999999
 20
-271.27253000000002
 30
0.0
 11
459.05320399999999
 21
-237.27252999999999
 31
0.0
  0
LINE
  5
56
  8
DETAIL
  6
CONTINUOUS
 62
     5
 10
464.05320399999999
 20
-271.27253000000002
 30
0.0
 11
469.05320399999988
 21
-237.27252999999999
 31
0.0
  0
LINE
  5
57
  8
DETAIL
  6
CONTINUOUS
 62
     5
 10
359.0
 20
-277.0
 30
0.0
 11
359.0
 21
-233.0
 31
0.0
  0
ARC
  5
58
  8
DETAIL
  6
CONTINUOUS
 62
     5
 10
419.0
 20
-272.0
 30
0.0
 40
5.0
 50
171.63411400000001
 51
351.63411400000001
  0
ARC
  5
59
  8
DETAIL
  6
CONTINUOUS
 62
     5
 10
449.0
 20
-272.0
 30
0.0
 40
5.0
 50
171.63411400000001
 51
351.63411400000001
  0
LINE
  5
5A
  8
DETAIL
  6
CONTINUOUS
 62
     5
 10
479.0
 20
-277.0
 30
0.0
 11
474.0
 21
-277.0
 31
0.0
  0
ARC
  5
5B
  8
DETAIL
  6
CONTINUOUS
 62
     5
 10
459.0
 20
-272.0
 30
0.0
 40
5.0
 50
171.63411400000001
 51
351.63411400000001
  0
ARC
  5
5C
  8
DETAIL
  6
CONTINUOUS
 62
     5
 10
469.0
 20
-272.0
 30
0.0
 40
5.0
 50
171.63411400000001
 51
351.63411400000001
  0
ARC
  5
5D
  8
DETAIL
  6
CONTINUOUS
 62
     5
 10
429.0
 20
-272.0
 30
0.0
 40
5.0
 50
171.63411400000001
 51
351.63411400000001
  0
ARC
  5
5E
  8
DETAIL
  6
CONTINUOUS
 62
     5
 10
439.0
 20
-272.0
 30
0.0
 40
5.0
 50
171.63411400000001
 51
351.63411400000001
  0
ARC
  5
5F
  8
DETAIL
  6
CONTINUOUS
 62
     5
 10
379.0
 20
-272.0
 30
0.0
 40
5.0
 50
171.63411400000001
 51
351.63411400000001
  0
ARC
  5
60
  8
DETAIL
  6
CONTINUOUS
 62
     5
 10
389.0
 20
-272.0
 30
0.0
 40
5.0
 50
171.63411400000001
 51
351.63411400000001
  0
ARC
  5
61
  8
DETAIL
  6
CONTINUOUS
 62
     5
 10
399.0
 20
-272.0
 30
0.0
 40
5.0
 50
171.63411400000001
 51
351.63411400000001
  0
ARC
  5
62
  8
DETAIL
  6
CONTINUOUS
 62
     5
 10
409.0
 20
-272.0
 30
0.0
 40
5.0
 50
171.63411400000001
 51
351.63411400000001
  0
LINE
  5
63
  8
DETAIL
  6
CONTINUOUS
 62
     5
 10
359.0
 20
-277.0
 30
0.0
 11
364.0
 21
-277.0
 31
0.0
  0
ARC
  5
64
  8
DETAIL
  6
CONTINUOUS
 62
     5
 10
369.0
 20
-272.0
 30
0.0
 40
5.0
 50
171.63411400000001
 51
351.63411400000001
  0
ARC
  5
65
  8
DETAIL
  6
CONTINUOUS
 62
     5
 10
414.0
 20
-238.0
 30
0.0
 40
5.0
 50
3.475839403294104
 51
171.63411400000001
  0
ARC
  5
66
  8
DETAIL
  6
CONTINUOUS
 62
     5
 10
444.0
 20
-238.0
 30
0.0
 40
5.0
 50
3.475839403294104
 51
171.63411400000001
  0
LINE
  5
67
  8
DETAIL
  6
CONTINUOUS
 62
     5
 10
479.0
 20
-233.0
 30
0.0
 11
474.0
 21
-233.0
 31
0.0
  0
ARC
  5
68
  8
DETAIL
  6
CONTINUOUS
 62
     5
 10
454.0
 20
-238.0
 30
0.0
 40
5.0
 50
3.4758394032911801
 51
171.63411400000001
  0
ARC
  5
69
  8
DETAIL
  6
CONTINUOUS
 62
     5
 10
464.0
 20
-238.0
 30
0.0
 40
5.0
 50
3.4758394032911801
 51
171.63411400000001
  0
ARC
  5
6A
  8
DETAIL
  6
CONTINUOUS
 62
     5
 10
474.0
 20
-238.0
 30
0.0
 40
5.0
 50
90.0
 51
171.63411400000001
  0
ARC
  5
6B
  8
DETAIL
  6
CONTINUOUS
 62
     5
 10
424.0
 20
-238.0
 30
0.0
 40
5.0
 50
3.4758394032911801
 51
171.63411400000001
  0
ARC
  5
6C
  8
DETAIL
  6
CONTINUOUS
 62
     5
 10
434.0
 20
-238.0
 30
0.0
 40
5.0
 50
3.475839403294104
 51
171.63411400000001
  0
ARC
  5
6D
  8
DETAIL
  6
CONTINUOUS
 62
     5
 10
384.0
 20
-238.0
 30
0.0
 40
5.0
 50
3.475839403294104
 51
171.63411400000001
  0
ARC
  5
6E
  8
DETAIL
  6
CONTINUOUS
 62
     5
 10
394.0
 20
-238.0
 30
0.0
 40
5.0
 50
3.475839403294104
 51
171.63411400000001
  0
ARC
  5
6F
  8
DETAIL
  6
CONTINUOUS
 62
     5
 10
404.0
 20
-238.0
 30
0.0
 40
5.0
 50
3.475839403294104
 51
171.63411400000001
  0
LINE
  5
70
  8
DETAIL
  6
CONTINUOUS
 62
     5
 10
359.0
 20
-233.0
 30
0.0
 11
364.0
 21
-233.0
 31
0.0
  0
ARC
  5
71
  8
DETAIL
  6
CONTINUOUS
 62
     5
 10
374.0
 20
-238.0
 30
0.0
 40
5.0
 50
3.475839403294104
 51
171.63411400000001
  0
ARC
  5
72
  8
DETAIL
  6
CONTINUOUS
 62
     5
 10
364.0
 20
-238.0
 30
0.0
 40
5.0
 50
3.475839403294104
 51
90.0
  0
LINE
  5
73
  8
DETAIL
  6
CONTINUOUS
 62
     5
 10
374.0
 20
-27.0
 30
0.0
 11
374.0
 21
-37.0
 31
0.0
  0
LINE
  5
74
  8
DETAIL
  6
CONTINUOUS
 62
     5
 10
-324.0
 20
-27.0
 30
0.0
 11
-374.0
 21
-27.0
 31
0.0
  0
LINE
  5
75
  8
DETAIL
  6
CONTINUOUS
 62
     5
 10
-324.0
 20
0.0
 30
0.0
 11
-324.0
 21
-284.0
 31
0.0
  0
LINE
  5
76
  8
DETAIL
  6
CONTINUOUS
 62
     5
 10
-374.0
 20
-27.0
 30
0.0
 11
-374.0
 21
-37.0
 31
0.0
  0
LINE
  5
77
  8
SIZE
  6
CONTINUOUS
 62
    30
 10
324.0
 20
19.399999999999999
 30
0.0
 11
324.0
 21
161.838086
 31
0.0
  0
LINE
  5
78
  8
SIZE
  6
CONTINUOUS
 62
    30
 10
394.0
 20
-24.77831657600473
 30
0.0
 11
394.0
 21
161.838086
 31
0.0
  0
LINE
  5
79
  8
SIZE
  6
CONTINUOUS
 62
    30
 10
334.0
 20
131.838086
 30
0.0
 11
384.0
 21
131.838086
 31
0.0
  0
LINE
  5
7A
  8
SIZE
  6
CONTINUOUS
 62
    30
 10
394.0
 20
131.838086
 30
0.0
 11
537.25714299999993
 21
131.838086
 31
0.0
  0
CIRCLE
  5
7B
  8
SIZE
  6
CONTINUOUS
 62
    30
 10
324.0
 20
131.838086
 30
0.0
 40
5.0
  0
LINE
  5
7C
  8
SIZE
  6
CONTINUOUS
 62
    30
 10
329.0
 20
131.838086
 30
0.0
 11
334.0
 21
131.838086
 31
0.0
  0
CIRCLE
  5
7D
  8
SIZE
  6
CONTINUOUS
 62
    30
 10
394.0
 20
131.838086
 30
0.0
 40
5.0
  0
LINE
  5
7E
  8
SIZE
  6
CONTINUOUS
 62
    30
 10
389.0
 20
131.838086
 30
0.0
 11
384.0
 21
131.838086
 31
0.0
  0
TEXT
  5
7F
  8
SIZE
  6
CONTINUOUS
 62
    30
 10
436.19571943638738
 20
151.838086
 30
0.0
 40
64.0
  1
70
 41
0.9
 72
     1
 11
482.82429086495881
 21
151.838086
 31
0.0
  0
POINT
  5
80
  8
DEFPOINTS
  6
CONTINUOUS
 62
     7
 10
324.0
 20
0.0
 30
0.0
  0
POINT
  5
81
  8
DEFPOINTS
  6
CONTINUOUS
 62
     7
 10
394.0
 20
-58.0
 30
0.0
  0
POINT
  5
82
  8
DEFPOINTS
  6
CONTINUOUS
 62
     7
 10
394.0
 20
131.838086
 30
0.0
  0
LINE
  5
83
  8
DETAIL
  6
CONTINUOUS
 62
     5
 10
374.0
 20
-27.0
 30
0.0
 11
324.0
 21
-27.0
 31
0.0
  0
LINE
  5
84
  8
DETAIL
  6
CONTINUOUS
 62
     5
 10
-324.0
 20
-284.0
 30
0.0
 11
324.0
 21
-284.0
 31
0.0
  0
LINE
  5
85
  8
SIZE
  6
CONTINUOUS
 62
    30
 10
344.0
 20
0.0
 30
0.0
 11
1025.017621
 21
0.0
 31
0.0
  0
LINE
  5
86
  8
SIZE
  6
CONTINUOUS
 62
    30
 10
344.0
 20
-284.0
 30
0.0
 11
1025.017621
 21
-284.0
 31
0.0
  0
LINE
  5
87
  8
SIZE
  6
CONTINUOUS
 62
    30
 10
995.01762099999996
 20
-10.0
 30
0.0
 11
995.01762099999996
 21
-274.0
 31
0.0
  0
CIRCLE
  5
88
  8
SIZE
  6
CONTINUOUS
 62
    30
 10
995.01762099999996
 20
0.0
 30
0.0
 40
5.0
  0
LINE
  5
89
  8
SIZE
  6
CONTINUOUS
 62
    30
 10
995.01762099999996
 20
-5.0
 30
0.0
 11
995.01762099999996
 21
-10.0
 31
0.0
  0
CIRCLE
  5
8A
  8
SIZE
  6
CONTINUOUS
 62
    30
 10
995.01762099999996
 20
-284.0
 30
0.0
 40
5.0
  0
LINE
  5
8B
  8
SIZE
  6
CONTINUOUS
 62
    30
 10
995.01762099999996
 20
-279.0
 30
0.0
 11
995.01762099999996
 21
-274.0
 31
0.0
  0
TEXT
  5
8C
  8
SIZE
  6
CONTINUOUS
 62
    30
 10
975.01762099999985
 20
-210.98701742857139
 30
0.0
 40
64.0
  1
284
 50
90.0
 41
0.9
 72
     1
 11
975.01762099999985
 21
-135.558446
 31
0.0
  0
POINT
  5
8D
  8
DEFPOINTS
  6
CONTINUOUS
 62
     7
 10
324.0
 20
0.0
 30
0.0
  0
POINT
  5
8E
  8
DEFPOINTS
  6
CONTINUOUS
 62
     7
 10
324.0
 20
-284.0
 30
0.0
  0
POINT
  5
8F
  8
DEFPOINTS
  6
CONTINUOUS
 62
     7
 10
995.01762099999996
 20
-284.0
 30
0.0
  0
LINE
  5
90
  8
NOTE
  6
CONTINUOUS
 62
     4
 10
524.0
 20
-275.0
 30
0.0
 11
524.0
 21
-235.0
 31
0.0
  0
LINE
  5
91
  8
NOTE
  6
CONTINUOUS
 62
     4
 10
504.0
 20
-255.0
 30
0.0
 11
544.0
 21
-255.0
 31
0.0
  0
LINE
  5
92
  8
NOTE
  6
CONTINUOUS
 62
     4
 10
394.0
 20
-148.0
 30
0.0
 11
394.0
 21
-108.0
 31
0.0
  0
LINE
  5
93
  8
NOTE
  6
CONTINUOUS
 62
     4
 10
374.0
 20
-128.0
 30
0.0
 11
414.0
 21
-128.0
 31
0.0
  0
LINE
  5
94
  8
NOTE
  6
CONTINUOUS
 62
     4
 10
394.0
 20
-78.0
 30
0.0
 11
394.0
 21
-38.0
 31
0.0
  0
LINE
  5
95
  8
NOTE
  6
CONTINUOUS
 62
     4
 10
374.0
 20
-58.0
 30
0.0
 11
414.0
 21
-58.0
 31
0.0
  0
LINE
  5
96
  8
NOTE
  6
CONTINUOUS
 62
     4
 10
351.0
 20
-7.175453000000001
 30
0.0
 11
351.0
 21
-46.824547000000003
 31
0.0
  0
LINE
  5
97
  8
NOTE
  6
CONTINUOUS
 62
     4
 10
331.0
 20
-27.0
 30
0.0
 11
371.0
 21
-27.0
 31
0.0
  0
CIRCLE
  5
98
  8
FIX
  6
CONTINUOUS
 62
    11
 10
351.0
 20
-27.0
 30
0.0
 40
20.0
  0
LINE
  5
99
  8
NOTE
  6
CONTINUOUS
 62
     4
 10
-351.0
 20
-7.1754530000000001
 30
0.0
 11
-351.0
 21
-46.824547000000003
 31
0.0
  0
CIRCLE
  5
9A
  8
FIX
  6
CONTINUOUS
 62
    11
 10
-351.0
 20
-27.0
 30
0.0
 40
20.0
  0
TEXT
  5
9C
  8
ETC
  6
CONTINUOUS
 62
    61
 10
960.50246410829845
 20
755.67766094507533
 30
0.0
 40
64.0
  1
CMB-RP108G_3
 41
0.9
 72
     2
 11
1643.473892679727
 21
755.67766094507533
 31
0.0
  0
LINE
  5
9D
  8
SIZE
  6
CONTINUOUS
 62
    30
 10
351.0
 20
-4.599999999999997
 30
0.0
 11
351.0
 21
257.84540299999998
 31
0.0
  0
LINE
  5
9E
  8
SIZE
  6
CONTINUOUS
 62
    30
 10
-351.0
 20
-4.599999999999997
 30
0.0
 11
-351.0
 21
257.84540299999998
 31
0.0
  0
LINE
  5
9F
  8
SIZE
  6
CONTINUOUS
 62
    30
 10
341.0
 20
227.845403
 30
0.0
 11
-341.0
 21
227.845403
 31
0.0
  0
CIRCLE
  5
A0
  8
SIZE
  6
CONTINUOUS
 62
    30
 10
351.0
 20
227.845403
 30
0.0
 40
5.0
  0
LINE
  5
A1
  8
SIZE
  6
CONTINUOUS
 62
    30
 10
346.0
 20
227.845403
 30
0.0
 11
341.0
 21
227.845403
 31
0.0
  0
CIRCLE
  5
A2
  8
SIZE
  6
CONTINUOUS
 62
    30
 10
-351.0
 20
227.845403
 30
0.0
 40
5.0
  0
LINE
  5
A3
  8
SIZE
  6
CONTINUOUS
 62
    30
 10
-346.0
 20
227.845403
 30
0.0
 11
-341.0
 21
227.845403
 31
0.0
  0
TEXT
  5
A4
  8
SIZE
  6
CONTINUOUS
 62
    30
 10
-219.04487285714279
 20
247.845403
 30
0.0
 40
64.0
  1
702
 41
0.9
 72
     1
 11
-144.98773
 21
247.845403
 31
0.0
  0
POINT
  5
A5
  8
DEFPOINTS
  6
CONTINUOUS
 62
     7
 10
351.0
 20
-27.0
 30
0.0
  0
POINT
  5
A6
  8
DEFPOINTS
  6
CONTINUOUS
 62
     7
 10
-351.0
 20
-27.0
 30
0.0
  0
POINT
  5
A7
  8
DEFPOINTS
  6
CONTINUOUS
 62
     7
 10
-351.0
 20
227.845403
 30
0.0
  0
LINE
  5
A8
  8
NOTE
  6
CONTINUOUS
 62
     4
 10
-331.0
 20
-27.0
 30
0.0
 11
-371.0
 21
-27.0
 31
0.0
  0
LINE
  5
A9
  8
SIZE
  6
CONTINUOUS
 62
    30
 10
344.0
 20
0.0
 30
0.0
 11
537.96838200000002
 21
0.0
 31
0.0
  0
LINE
  5
AA
  8
SIZE
  6
CONTINUOUS
 62
    30
 10
384.7839324448687
 20
-27.0
 30
0.0
 11
537.96838200000002
 21
-27.0
 31
0.0
  0
LINE
  5
AC
  8
SIZE
  6
CONTINUOUS
 62
    30
 10
507.96838200000002
 20
-37.0
 30
0.0
 11
507.96838200000002
 21
-47.0
 31
0.0
  0
LINE
  5
AD
  8
SIZE
  6
CONTINUOUS
 62
    30
 10
507.96838200000002
 20
0.0
 30
0.0
 11
507.96838200000002
 21
-27.0
 31
0.0
  0
CIRCLE
  5
AE
  8
SIZE
  6
CONTINUOUS
 62
    30
 10
507.96838200000002
 20
0.0
 30
0.0
 40
5.0
  0
LINE
  5
AF
  8
SIZE
  6
CONTINUOUS
 62
    30
 10
507.96838200000002
 20
5.0
 30
0.0
 11
507.96838200000002
 21
113.50527573213181
 31
0.0
  0
CIRCLE
  5
B0
  8
SIZE
  6
CONTINUOUS
 62
    30
 10
507.96838200000002
 20
-27.0
 30
0.0
 40
5.0
  0
LINE
  5
B1
  8
SIZE
  6
CONTINUOUS
 62
    30
 10
507.96838200000002
 20
-32.0
 30
0.0
 11
507.96838200000002
 21
-37.0
 31
0.0
  0
TEXT
  5
B2
  8
SIZE
  6
CONTINUOUS
 62
    30
 10
487.96838200000002
 20
15.13507641584687
 30
0.0
 40
64.0
  1
27
 50
90.0
 41
0.9
 72
     1
 11
487.96838200000002
 21
61.763647844418301
 31
0.0
  0
POINT
  5
B3
  8
DEFPOINTS
  6
CONTINUOUS
 62
     7
 10
324.0
 20
0.0
 30
0.0
  0
POINT
  5
B4
  8
DEFPOINTS
  6
CONTINUOUS
 62
     7
 10
351.0
 20
-27.0
 30
0.0
  0
POINT
  5
B5
  8
DEFPOINTS
  6
CONTINUOUS
 62
     7
 10
507.96838200000002
 20
-27.0
 30
0.0
  0
LINE
  5
B6
  8
SIZE
  6
CONTINUOUS
 62
    30
 10
324.0
 20
-304.0
 30
0.0
 11
324.0
 21
-488.419713
 31
0.0
  0
LINE
  5
B7
  8
SIZE
  6
CONTINUOUS
 62
    30
 10
-324.0
 20
-304.0
 30
0.0
 11
-324.0
 21
-488.419713
 31
0.0
  0
LINE
  5
B8
  8
SIZE
  6
CONTINUOUS
 62
    30
 10
314.0
 20
-458.41971299999989
 30
0.0
 11
-314.0
 21
-458.41971299999989
 31
0.0
  0
CIRCLE
  5
B9
  8
SIZE
  6
CONTINUOUS
 62
    30
 10
324.0
 20
-458.41971299999989
 30
0.0
 40
5.0
  0
LINE
  5
BA
  8
SIZE
  6
CONTINUOUS
 62
    30
 10
319.0
 20
-458.41971299999989
 30
0.0
 11
314.0
 21
-458.41971299999989
 31
0.0
  0
CIRCLE
  5
BB
  8
SIZE
  6
CONTINUOUS
 62
    30
 10
-324.0
 20
-458.41971299999989
 30
0.0
 40
5.0
  0
LINE
  5
BC
  8
SIZE
  6
CONTINUOUS
 62
    30
 10
-319.0
 20
-458.41971299999989
 30
0.0
 11
-314.0
 21
-458.41971299999989
 31
0.0
  0
TEXT
  5
BD
  8
SIZE
  6
CONTINUOUS
 62
    30
 10
-67.109649857142855
 20
-438.419713
 30
0.0
 40
64.0
  1
648
 41
0.9
 72
     1
 11
6.947492999999997
 21
-438.419713
 31
0.0
  0
POINT
  5
BE
  8
DEFPOINTS
  6
CONTINUOUS
 62
     7
 10
324.0
 20
-284.0
 30
0.0
  0
POINT
  5
BF
  8
DEFPOINTS
  6
CONTINUOUS
 62
     7
 10
-324.0
 20
-284.0
 30
0.0
  0
POINT
  5
C0
  8
DEFPOINTS
  6
CONTINUOUS
 62
     7
 10
-324.0
 20
-458.41971299999989
 30
0.0
  0
TEXT
  5
C1
  8
SIZE
  6
CONTINUOUS
 62
    30
 10
-43.169445999999994
 20
255.12240800000001
 30
0.0
 40
35.0
  1
（吊りボルトピッチ）
 41
0.9
 72
     2
 11
309.63055400000002
 21
255.12240800000001
 31
0.0
  0
LINE
  5
C2
  8
BASIS
  6
DASHDOT
 62
     6
 10
0.0
 20
75.0
 30
0.0
 11
0.0
 21
-344.0
 31
0.0
  0
CIRCLE
  5
C3
  8
ARRANGE
  6
CONTINUOUS
 62
     1
 10
0.0
 20
0.0
 30
0.0
 40
40.0
  0
POINT
  5
C4
  8
ARRANGE
  6
CONTINUOUS
 62
     1
 10
0.0
 20
0.0
 30
0.0
  0
TEXT
  5
C5
  8
NOTE
  6
CONTINUOUS
 62
     4
 10
-1050.4421841428559
 20
-107.219267
 30
0.0
 40
64.0
  1
AH4-12×14長穴
 41
0.9
 72
     2
 11
-414.09932700000002
 21
-107.219267
 31
0.0
  0
LINE
  5
CB
  8
NOTE
  6
CONTINUOUS
 62
     4
 10
-351.58869199999998
 20
-37.336010999999999
 30
0.0
 11
-351.0
 21
-27.0
 31
0.0
  0
LINE
  5
CC
  8
NOTE
  6
CONTINUOUS
 62
     4
 10
-351.0
 20
-27.0
 30
0.0
 11
-356.67782699999998
 21
-35.656902000000009
 31
0.0
  0
LINE
  5
CD
  8
OUTLINE
  6
CONTINUOUS
 62
     3
 10
324.0
 20
0.0
 30
0.0
 11
-324.0
 21
0.0
 31
0.0
  0
LINE
  5
CE
  8
OUTLINE
  6
CONTINUOUS
 62
     3
 10
-324.0
 20
0.0
 30
0.0
 11
-324.0
 21
-284.0
 31
0.0
  0
LINE
  5
CF
  8
OUTLINE
  6
CONTINUOUS
 62
     3
 10
-324.0
 20
-284.0
 30
0.0
 11
324.0
 21
-284.0
 31
0.0
  0
LINE
  5
D0
  8
OUTLINE
  6
CONTINUOUS
 62
     3
 10
324.0
 20
-284.0
 30
0.0
 11
324.0
 21
0.0
 31
0.0
  0
LINE
  5
D4
  8
DETAIL
  6
CONTINUOUS
 62
     5
 10
394.0
 20
-45.299999999999997
 30
0.0
 11
324.0
 21
-45.299999999999997
 31
0.0
  0
LINE
  5
D5
  8
DETAIL
  6
CONTINUOUS
 62
     5
 10
394.0
 20
-70.700000000000003
 30
0.0
 11
324.0
 21
-70.700000000000003
 31
0.0
  0
LINE
  5
D6
  8
DETAIL
  6
CONTINUOUS
 62
     5
 10
394.0
 20
-118.47499999999999
 30
0.0
 11
324.0
 21
-118.47499999999999
 31
0.0
  0
LINE
  5
D7
  8
DETAIL
  6
CONTINUOUS
 62
     5
 10
394.0
 20
-137.52500000000001
 30
0.0
 11
324.0
 21
-137.52500000000001
 31
0.0
  0
LINE
  5
D8
  8
DETAIL
  6
CONTINUOUS
 62
     5
 10
394.0
 20
-45.299999999999997
 30
0.0
 11
394.0
 21
-70.700000000000003
 31
0.0
  0
LINE
  5
D9
  8
DETAIL
  6
CONTINUOUS
 62
     5
 10
394.0
 20
-118.47499999999999
 30
0.0
 11
394.0
 21
-137.52500000000001
 31
0.0
  0
LINE
  5
EB
  8
NOTE
  6
CONTINUOUS
 62
     4
 10
523.35705528566882
 20
-265.079992733067
 30
0.0
 11
524.0
 21
-255.0
 31
0.0
  0
LINE
  5
ED
  8
NOTE
  6
CONTINUOUS
 62
     4
 10
403.75015872388508
 20
-131.4805294752733
 30
0.0
 11
394.0
 21
-128.0
 31
0.0
  0
LINE
  5
EE
  8
NOTE
  6
CONTINUOUS
 62
     4
 10
394.0
 20
-128.0
 30
0.0
 11
400.7036207049112
 21
-135.8893065462569
 31
0.0
  0
LINE
  5
F1
  8
NOTE
  6
CONTINUOUS
 62
     4
 10
392.24665605405892
 20
-47.796791399289653
 30
0.0
 11
394.0
 21
-58.0
 31
0.0
  0
LINE
  5
F2
  8
NOTE
  6
CONTINUOUS
 62
     4
 10
394.0
 20
-58.0
 30
0.0
 11
397.58316354034559
 21
-48.287089872460307
 31
0.0
  0
LINE
  5
F3
  8
DETAIL
  6
CONTINUOUS
 62
     5
 10
-276.937881
 20
-273.5
 30
0.0
 11
-276.937881
 21
-10.5
 31
0.0
  0
LINE
  5
F4
  8
DETAIL
  6
CONTINUOUS
 62
     5
 10
15.05738
 20
-10.5
 30
0.0
 11
-276.937881
 21
-10.5
 31
0.0
  0
LINE
  5
F5
  8
DETAIL
  6
CONTINUOUS
 62
     5
 10
-276.937881
 20
-273.5
 30
0.0
 11
15.05738
 21
-273.5
 31
0.0
  0
LINE
  5
F6
  8
DETAIL
  6
CONTINUOUS
 62
     5
 10
15.05738
 20
-10.5
 30
0.0
 11
15.05738
 21
-273.5
 31
0.0
  0
LINE
  5
F7
  8
SIZE
  6
CONTINUOUS
 62
    30
 10
344.0
 20
0.0
 30
0.0
 11
658.86067400000002
 21
0.0
 31
0.0
  0
LINE
  5
F8
  8
SIZE
  6
CONTINUOUS
 62
    30
 10
424.55823293799762
 20
-58.0
 30
0.0
 11
658.86067400000002
 21
-58.0
 31
0.0
  0
LINE
  5
FA
  8
SIZE
  6
CONTINUOUS
 62
    30
 10
628.86067400000002
 20
-68.0
 30
0.0
 11
628.86067400000002
 21
-78.0
 31
0.0
  0
LINE
  5
FB
  8
SIZE
  6
CONTINUOUS
 62
    30
 10
628.86067400000002
 20
0.0
 30
0.0
 11
628.86067400000002
 21
-58.0
 31
0.0
  0
CIRCLE
  5
FC
  8
SIZE
  6
CONTINUOUS
 62
    30
 10
628.86067400000002
 20
0.0
 30
0.0
 40
5.0
  0
LINE
  5
FD
  8
SIZE
  6
CONTINUOUS
 62
    30
 10
628.86067400000002
 20
5.0
 30
0.0
 11
628.86067400000002
 21
114.327281198086
 31
0.0
  0
CIRCLE
  5
FE
  8
SIZE
  6
CONTINUOUS
 62
    30
 10
628.86067400000002
 20
-58.0
 30
0.0
 40
5.0
  0
LINE
  5
FF
  8
SIZE
  6
CONTINUOUS
 62
    30
 10
628.86067400000002
 20
-63.0
 30
0.0
 11
628.86067400000002
 21
-68.0
 31
0.0
  0
TEXT
  5
100
  8
SIZE
  6
CONTINUOUS
 62
    30
 10
608.86067400000002
 20
12.7464198347388
 30
0.0
 40
64.0
  1
58
 50
90.0
 41
0.9
 72
     1
 11
608.86067400000002
 21
59.374991263310221
 31
0.0
  0
POINT
  5
101
  8
DEFPOINTS
  6
CONTINUOUS
 62
     7
 10
324.0
 20
0.0
 30
0.0
  0
POINT
  5
102
  8
DEFPOINTS
  6
CONTINUOUS
 62
     7
 10
394.0
 20
-58.0
 30
0.0
  0
POINT
  5
103
  8
DEFPOINTS
  6
CONTINUOUS
 62
     7
 10
628.86067400000002
 20
-58.0
 30
0.0
  0
LINE
  5
104
  8
SIZE
  6
CONTINUOUS
 62
    30
 10
344.0
 20
0.0
 30
0.0
 11
783.89410899999984
 21
0.0
 31
0.0
  0
LINE
  5
105
  8
SIZE
  6
CONTINUOUS
 62
    30
 10
426.84068600254608
 20
-128.0
 30
0.0
 11
783.89410899999984
 21
-128.0
 31
0.0
  0
LINE
  5
107
  8
SIZE
  6
CONTINUOUS
 62
    30
 10
753.89410899999984
 20
-138.0
 30
0.0
 11
753.89410899999984
 21
-148.0
 31
0.0
  0
LINE
  5
108
  8
SIZE
  6
CONTINUOUS
 62
    30
 10
753.89410899999984
 20
0.0
 30
0.0
 11
753.89410899999984
 21
-128.0
 31
0.0
  0
CIRCLE
  5
109
  8
SIZE
  6
CONTINUOUS
 62
    30
 10
753.89410899999984
 20
0.0
 30
0.0
 40
5.0
  0
LINE
  5
10A
  8
SIZE
  6
CONTINUOUS
 62
    30
 10
753.89410899999984
 20
5.0
 30
0.0
 11
753.89410899999984
 21
159.94888802690909
 31
0.0
  0
CIRCLE
  5
10B
  8
SIZE
  6
CONTINUOUS
 62
    30
 10
753.89410899999984
 20
-128.0
 30
0.0
 40
5.0
  0
LINE
  5
10C
  8
SIZE
  6
CONTINUOUS
 62
    30
 10
753.89410899999984
 20
-133.0
 30
0.0
 11
753.89410899999984
 21
-138.0
 31
0.0
  0
TEXT
  5
10D
  8
SIZE
  6
CONTINUOUS
 62
    30
 10
733.89410899999984
 20
14.69025973251598
 30
0.0
 40
64.0
  1
128
 50
90.0
 41
0.9
 72
     1
 11
733.89410899999984
 21
83.261688303944567
 31
0.0
  0
POINT
  5
10E
  8
DEFPOINTS
  6
CONTINUOUS
 62
     7
 10
324.0
 20
0.0
 30
0.0
  0
POINT
  5
10F
  8
DEFPOINTS
  6
CONTINUOUS
 62
     7
 10
394.0
 20
-128.0
 30
0.0
  0
POINT
  5
110
  8
DEFPOINTS
  6
CONTINUOUS
 62
     7
 10
753.89410899999984
 20
-128.0
 30
0.0
  0
LINE
  5
111
  8
SIZE
  6
CONTINUOUS
 62
    30
 10
344.0
 20
0.0
 30
0.0
 11
908.92754300000001
 21
0.0
 31
0.0
  0
LINE
  5
112
  8
SIZE
  6
CONTINUOUS
 62
    30
 10
560.44891237216871
 20
-255.0
 30
0.0
 11
908.92754300000001
 21
-255.0
 31
0.0
  0
LINE
  5
113
  8
SIZE
  6
CONTINUOUS
 62
    30
 10
878.92754300000001
 20
-10.0
 30
0.0
 11
878.92754300000001
 21
-245.0
 31
0.0
  0
CIRCLE
  5
114
  8
SIZE
  6
CONTINUOUS
 62
    30
 10
878.92754300000001
 20
0.0
 30
0.0
 40
5.0
  0
LINE
  5
115
  8
SIZE
  6
CONTINUOUS
 62
    30
 10
878.92754300000001
 20
-5.0
 30
0.0
 11
878.92754300000001
 21
-10.0
 31
0.0
  0
CIRCLE
  5
116
  8
SIZE
  6
CONTINUOUS
 62
    30
 10
878.92754300000001
 20
-255.0
 30
0.0
 40
5.0
  0
LINE
  5
117
  8
SIZE
  6
CONTINUOUS
 62
    30
 10
878.92754300000001
 20
-250.0
 30
0.0
 11
878.92754300000001
 21
-245.0
 31
0.0
  0
TEXT
  5
118
  8
SIZE
  6
CONTINUOUS
 62
    30
 10
858.92754300000001
 20
-201.55714285714291
 30
0.0
 40
64.0
  1
255
 50
90.0
 41
0.9
 72
     1
 11
858.92754300000001
 21
-127.5
 31
0.0
  0
POINT
  5
119
  8
DEFPOINTS
  6
CONTINUOUS
 62
     7
 10
324.0
 20
0.0
 30
0.0
  0
POINT
  5
11A
  8
DEFPOINTS
  6
CONTINUOUS
 62
     7
 10
544.0
 20
-255.0
 30
0.0
  0
POINT
  5
11B
  8
DEFPOINTS
  6
CONTINUOUS
 62
     7
 10
878.92754300000001
 20
-255.0
 30
0.0
  0
LINE
  5
11C
  8
SIZE
  6
CONTINUOUS
 62
    30
 10
324.0
 20
-292.0
 30
0.0
 11
324.0
 21
-485.18933799999991
 31
0.0
  0
LINE
  5
11D
  8
SIZE
  6
CONTINUOUS
 62
    30
 10
524.0
 20
-290.67457074361658
 30
0.0
 11
524.0
 21
-485.18933799999991
 31
0.0
  0
LINE
  5
11E
  8
SIZE
  6
CONTINUOUS
 62
    30
 10
334.0
 20
-455.18933800000002
 30
0.0
 11
514.0
 21
-455.18933800000002
 31
0.0
  0
CIRCLE
  5
11F
  8
SIZE
  6
CONTINUOUS
 62
    30
 10
324.0
 20
-455.18933800000002
 30
0.0
 40
5.0
  0
LINE
  5
120
  8
SIZE
  6
CONTINUOUS
 62
    30
 10
329.0
 20
-455.18933800000002
 30
0.0
 11
334.0
 21
-455.18933800000002
 31
0.0
  0
CIRCLE
  5
121
  8
SIZE
  6
CONTINUOUS
 62
    30
 10
524.0
 20
-455.18933800000002
 30
0.0
 40
5.0
  0
LINE
  5
122
  8
SIZE
  6
CONTINUOUS
 62
    30
 10
519.0
 20
-455.18933800000002
 30
0.0
 11
514.0
 21
-455.18933800000002
 31
0.0
  0
TEXT
  5
123
  8
SIZE
  6
CONTINUOUS
 62
    30
 10
342.44285714285718
 20
-435.18933799999991
 30
0.0
 40
64.0
  1
200
 41
0.9
 72
     1
 11
416.5
 21
-435.18933799999991
 31
0.0
  0
POINT
  5
124
  8
DEFPOINTS
  6
CONTINUOUS
 62
     7
 10
324.0
 20
-284.0
 30
0.0
  0
POINT
  5
125
  8
DEFPOINTS
  6
CONTINUOUS
 62
     7
 10
544.0
 20
-255.0
 30
0.0
  0
POINT
  5
126
  8
DEFPOINTS
  6
CONTINUOUS
 62
     7
 10
524.0
 20
-455.18933800000002
 30
0.0
  0
LINE
  5
22B
  8
NOTE
  6
CONTINUOUS
 62
     4
 10
394.0
 20
-58.0
 30
0.0
 11
456.02813616866467
 21
518.07541527829346
 31
0.0
  0
LINE
  5
22F
  8
NOTE
  6
CONTINUOUS
 62
     4
 10
394.0
 20
-128.0
 30
0.0
 11
797.49929650497484
 21
-403.09652697419722
 31
0.0
  0
LINE
  5
231
  8
NOTE
  6
CONTINUOUS
 62
     4
 10
524.0
 20
-255.0
 30
0.0
 11
608.37274782645193
 21
-702.52676896931905
 31
0.0
  0
LINE
  5
233
  8
NOTE
  6
CONTINUOUS
 62
     4
 10
-351.0
 20
-27.0
 30
0.0
 11
-384.09932700000002
 21
-127.219267
 31
0.0
  0
LINE
  5
234
  8
NOTE
  6
CONTINUOUS
 62
     4
 10
-384.09932700000002
 20
-127.219267
 30
0.0
 11
-1065.8021839999999
 21
-127.219267
 31
0.0
  0
TEXT
  5
252
  8
NOTE
  6
CONTINUOUS
 62
     4
 10
629.06138202921466
 20
-682.52676896931905
 30
0.0
 40
64.0
  1
D　VP-25
 41
0.9
 72
     2
 11
1032.8099534577859
 21
-682.52676896931905
 31
0.0
  0
LINE
  5
256
  8
NOTE
  6
CONTINUOUS
 62
     4
 10
1062.8099534577859
 20
-702.52676896931905
 30
0.0
 11
608.37274782645193
 21
-702.52676896931905
 31
0.0
  0
LINE
  5
27B
  8
DETAIL
  6
CONTINUOUS
 62
     5
 10
434.05320450764913
 20
-271.272530648908
 30
0.0
 11
439.05320450764913
 21
-237.272530648908
 31
0.0
  0
LINE
  5
283
  8
NOTE
  6
CONTINUOUS
 62
     4
 10
524.0
 20
-255.0
 30
0.0
 11
529.02975317489131
 21
-263.75906469915827
 31
0.0
  0
TEXT
  5
382
  8
NOTE
  6
CONTINUOUS
 62
     4
 10
457.80189108227972
 20
538.07541527829369
 30
0.0
 40
64.0
  1
室外ユニット側配管接続口（低圧）
 41
0.9
 72
     2
 11
1517.6418910822799
 21
538.07541527829369
 31
0.0
  0
TEXT
  5
383
  8
NOTE
  6
CONTINUOUS
 62
     4
 10
475.90420918914651
 20
442.86762727829358
 30
0.0
 40
50.0
  1
224形：φ25.4（付属配管を使用）
 41
0.9
  0
TEXT
  5
384
  8
NOTE
  6
CONTINUOUS
 62
     4
 10
474.00242131421828
 20
371.83850327829367
 30
0.0
 40
50.0
  1
280.335.400形：φ28.58（付属配管を使用）
 41
0.9
  0
TEXT
  5
385
  8
NOTE
  6
CONTINUOUS
 62
     4
 10
797.49929650497495
 20
-383.09652697419688
 30
0.0
 40
64.0
  1
室外ユニット側配管接続口（高圧）
 41
0.9
 72
     2
 11
1857.339296504975
 21
-383.09652697419688
 31
0.0
  0
TEXT
  5
386
  8
NOTE
  6
CONTINUOUS
 62
     4
 10
823.16234317308385
 20
-468.10133620562488
 30
0.0
 40
50.0
  1
224.280.335.400形：φ19.05
 41
0.9
  0
LINE
  5
387
  8
NOTE
  6
CONTINUOUS
 62
     4
 10
2211.8780974487672
 20
-403.09652697419722
 30
0.0
 11
797.49929650497484
 21
-403.09652697419722
 31
0.0
  0
LINE
  5
388
  8
NOTE
  6
CONTINUOUS
 62
     4
 10
1694.6021233536239
 20
518.07541527829346
 30
0.0
 11
456.02813616866467
 21
518.07541527829346
 31
0.0
  0
ENDSEC
  0
EOF
