  0
SECTION
  2
HEADER
  9
$ACADVER
  1
AC1009
  9
$INSBASE
 10
0.0
 20
0.0
 30
0.0
  9
$EXTMIN
 10
-2186.100169547251
 20
-857.78489093702785
 30
-0.0000000000130561
  9
$EXTMAX
 10
1462.800731066061
 20
971.38278490782238
 30
0.0000000000011552
  9
$LIMMIN
 10
-3837.0001750000001
 20
-3000.109539
  9
$LIMMAX
 10
7319.2568810000002
 20
4045.2230030000001
  9
$ORTHOMODE
 70
     0
  9
$REGENMODE
 70
     1
  9
$FILLMODE
 70
     1
  9
$QTEXTMODE
 70
     0
  9
$MIRRTEXT
 70
     0
  9
$DRAGMODE
 70
     2
  9
$LTSCALE
 40
20.0
  9
$OSMODE
 70
   959
  9
$ATTMODE
 70
     1
  9
$TEXTSIZE
 40
64.0
  9
$TRACEWID
 40
0.05
  9
$TEXTSTYLE
  7
STANDARD
  9
$CLAYER
  8
SYMBOLLINE
  9
$CELTYPE
  6
CONTINUOUS
  9
$CECOLOR
 62
     7
  9
$DIMSCALE
 40
1.0
  9
$DIMASZ
 40
10.0
  9
$DIMEXO
 40
20.0
  9
$DIMDLI
 40
200.0
  9
$DIMRND
 40
0.0
  9
$DIMDLE
 40
0.0
  9
$DIMEXE
 40
30.0
  9
$DIMTP
 40
0.0
  9
$DIMTM
 40
0.0
  9
$DIMTXT
 40
64.0
  9
$DIMCEN
 40
0.0
  9
$DIMTSZ
 40
0.0
  9
$DIMTOL
 70
     0
  9
$DIMLIM
 70
     0
  9
$DIMTIH
 70
     0
  9
$DIMTOH
 70
     0
  9
$DIMSE1
 70
     0
  9
$DIMSE2
 70
     0
  9
$DIMTAD
 70
     1
  9
$DIMZIN
 70
     8
  9
$DIMBLK
  1

  9
$DIMASO
 70
     1
  9
$DIMSHO
 70
     0
  9
$DIMPOST
  1

  9
$DIMAPOST
  1

  9
$DIMALT
 70
     0
  9
$DIMALTD
 70
     2
  9
$DIMALTF
 40
25.399999999999999
  9
$DIMLFAC
 40
1.0
  9
$DIMTOFL
 70
     1
  9
$DIMTVP
 40
0.0
  9
$DIMTIX
 70
     1
  9
$DIMSOXD
 70
     0
  9
$DIMSAH
 70
     1
  9
$DIMBLK1
  1
DOTBLANK
  9
$DIMBLK2
  1
DOTBLANK
  9
$DIMSTYLE
  2
STANDARD
  9
$DIMCLRD
 70
     0
  9
$DIMCLRE
 70
     0
  9
$DIMCLRT
 70
     0
  9
$DIMTFAC
 40
1.0
  9
$DIMGAP
 40
0.09
  9
$LUNITS
 70
     2
  9
$LUPREC
 70
     4
  9
$SKETCHINC
 40
0.1
  9
$FILLETRAD
 40
10.0
  9
$AUNITS
 70
     1
  9
$AUPREC
 70
     3
  9
$MENU
  1
ACAD
  9
$ELEVATION
 40
0.0
  9
$PELEVATION
 40
0.0
  9
$THICKNESS
 40
0.0
  9
$LIMCHECK
 70
     0
  9
$BLIPMODE
 70
     0
  9
$CHAMFERA
 40
0.0
  9
$CHAMFERB
 40
0.0
  9
$SKPOLY
 70
     0
  9
$TDCREATE
 40
2450330.4399309959
  9
$TDUPDATE
 40
2455475.6319579859
  9
$TDINDWG
 40
1.4234334838
  9
$TDUSRTIMER
 40
1.4234327661999999
  9
$USRTIMER
 70
     1
  9
$ANGBASE
 50
0.0
  9
$ANGDIR
 70
     0
  9
$PDMODE
 70
     3
  9
$PDSIZE
 40
-2.0
  9
$PLINEWID
 40
0.0
  9
$COORDS
 70
     0
  9
$SPLFRAME
 70
     0
  9
$SPLINETYPE
 70
     6
  9
$SPLINESEGS
 70
     8
  9
$ATTDIA
 70
     0
  9
$ATTREQ
 70
     1
  9
$HANDLING
 70
     1
  9
$HANDSEED
  5
821
  9
$SURFTAB1
 70
     6
  9
$SURFTAB2
 70
     6
  9
$SURFTYPE
 70
     6
  9
$SURFU
 70
     6
  9
$SURFV
 70
     6
  9
$UCSNAME
  2

  9
$UCSORG
 10
0.0
 20
0.0
 30
0.0
  9
$UCSXDIR
 10
1.0
 20
0.0
 30
0.0
  9
$UCSYDIR
 10
0.0
 20
1.0
 30
0.0
  9
$PUCSNAME
  2

  9
$PUCSORG
 10
0.0
 20
0.0
 30
0.0
  9
$PUCSXDIR
 10
1.0
 20
0.0
 30
0.0
  9
$PUCSYDIR
 10
0.0
 20
1.0
 30
0.0
  9
$USERI1
 70
     0
  9
$USERI2
 70
     0
  9
$USERI3
 70
     0
  9
$USERI4
 70
     0
  9
$USERI5
 70
     0
  9
$USERR1
 40
20.0
  9
$USERR2
 40
0.0
  9
$USERR3
 40
0.0
  9
$USERR4
 40
0.0
  9
$USERR5
 40
0.0
  9
$WORLDVIEW
 70
     1
  9
$SHADEDGE
 70
     3
  9
$SHADEDIF
 70
    70
  9
$TILEMODE
 70
     1
  9
$MAXACTVP
 70
    48
  9
$PLIMCHECK
 70
     0
  9
$PEXTMIN
 10
1.0000000000000000E+020
 20
1.0000000000000000E+020
 30
1.0000000000000000E+020
  9
$PEXTMAX
 10
-1.0000000000000000E+020
 20
-1.0000000000000000E+020
 30
-1.0000000000000000E+020
  9
$PLIMMIN
 10
0.0
 20
0.0
  9
$PLIMMAX
 10
12.0
 20
9.0
  9
$UNITMODE
 70
     0
  9
$VISRETAIN
 70
     1
  9
$PLINEGEN
 70
     0
  9
$PSLTSCALE
 70
     1
  0
ENDSEC
  0
SECTION
  2
TABLES
  0
TABLE
  2
VPORT
 70
     1
  0
VPORT
  2
*ACTIVE
 70
     0
 10
0.0
 20
0.0
 11
1.0
 21
1.0
 12
1741.1283530000001
 22
522.55673200000001
 13
0.0
 23
0.0
 14
50.0
 24
50.0
 15
100.0
 25
100.0
 16
0.0
 26
0.0
 36
1.0
 17
0.0
 27
0.0
 37
0.0
 40
7168.3883690244638
 41
1.5639386189258311
 42
50.0
 43
0.0
 44
0.0
 50
0.0
 51
0.0
 71
     0
 72
  1000
 73
     1
 74
     0
 75
     0
 76
     0
 77
     0
 78
     0
  0
ENDTAB
  0
TABLE
  2
LTYPE
 70
     3
  0
LTYPE
  2
CONTINUOUS
 70
     0
  3
実線
 72
    65
 73
     0
 40
0.0
  0
LTYPE
  2
DASHDOT
 70
     0
  3
____ _ ____ _ ____ _ ____ _ ____ _ ____ _ ____
 72
    65
 73
     4
 40
5.5
 49
4.0
 49
-0.6
 49
0.3
 49
-0.6
  0
ENDTAB
  0
TABLE
  2
LAYER
 70
    12
  0
LAYER
  2
0
 70
     0
 62
     7
  6
CONTINUOUS
  0
LAYER
  2
SIZE
 70
     0
 62
    30
  6
CONTINUOUS
  0
LAYER
  2
OUTLINE
 70
     0
 62
     3
  6
CONTINUOUS
  0
LAYER
  2
DETAIL
 70
     0
 62
     5
  6
CONTINUOUS
  0
LAYER
  2
BASIS
 70
     0
 62
     6
  6
DASHDOT
  0
LAYER
  2
NOTE
 70
     0
 62
     4
  6
CONTINUOUS
  0
LAYER
  2
ARRANGE
 70
     0
 62
     1
  6
CONTINUOUS
  0
LAYER
  2
FIX
 70
     0
 62
    11
  6
CONTINUOUS
  0
LAYER
  2
SERVICESPACE
 70
     0
 62
     2
  6
DASHDOT
  0
LAYER
  2
ETC
 70
     0
 62
    61
  6
CONTINUOUS
  0
LAYER
  2
SYMBOLLINE
 70
     0
 62
    15
  6
CONTINUOUS
  0
LAYER
  2
DEFPOINTS
 70
     0
 62
     7
  6
CONTINUOUS
  0
ENDTAB
  0
TABLE
  2
STYLE
 70
     2
  0
STYLE
  2
STANDARD
 70
     0
 40
0.0
 41
0.9
 50
0.0
 71
     0
 42
64.0
  3
SIMPLEX
  4
BIGFONT
  0
STYLE
  2
ANNOTATIVE
 70
     0
 40
0.0
 41
1.0
 50
0.0
 71
     0
 42
0.2
  3
txt
  4

  0
ENDTAB
  0
TABLE
  2
VIEW
 70
    19
  0
VIEW
  2
ALL
 70
     0
 40
9000.0
 10
241.50664699999999
 20
0.0
 41
12483.01
 11
0.0
 21
0.0
 31
1.0
 12
0.0
 22
0.0
 32
0.0
 42
50.0
 43
0.0
 44
0.0
 50
0.0
 71
     0
  0
ENDTAB
  0
TABLE
  2
UCS
 70
     0
  0
ENDTAB
  0
TABLE
  2
APPID
 70
     4
  0
APPID
  2
ACAD
 70
     0
  0
APPID
  2
ACADANNOTATIVE
 70
     0
  0
APPID
  2
ACAD_MLEADERVER
 70
     0
  0
APPID
  2
ACAD_EXEMPT_FROM_CAD_STANDARDS
 70
     0
  0
ENDTAB
  0
TABLE
  2
DIMSTYLE
 70
     3
  0
DIMSTYLE
  2
STANDARD
 70
     0
  3

  4

  5

  6

  7

 40
1.0
 41
0.18
 42
0.0625
 43
0.38
 44
0.18
 45
0.0
 46
0.0
 47
0.0
 48
0.0
140
0.18
141
0.09
142
0.0
143
25.399999999999999
144
1.0
145
0.0
146
1.0
147
0.09
 71
     0
 72
     0
 73
     1
 74
     1
 75
     0
 76
     0
 77
     0
 78
     0
170
     0
171
     2
172
     0
173
     0
174
     0
175
     0
176
     0
177
     0
178
     0
  0
DIMSTYLE
  2
ANNOTATIVE
 70
     0
  3

  4

  5

  6

  7

 40
1.0
 41
0.18
 42
0.0625
 43
0.38
 44
0.18
 45
0.0
 46
0.0
 47
0.0
 48
0.0
140
0.18
141
0.09
142
0.0
143
25.399999999999999
144
1.0
145
0.0
146
1.0
147
0.09
 71
     0
 72
     0
 73
     1
 74
     1
 75
     0
 76
     0
 77
     0
 78
     0
170
     0
171
     2
172
     0
173
     0
174
     0
175
     0
176
     0
177
     0
178
     0
  0
ENDTAB
  0
ENDSEC
  0
SECTION
  2
BLOCKS
  0
BLOCK
  8
0
  2
$MODEL_SPACE
 70
     0
 10
0.0
 20
0.0
 30
0.0
  3
$MODEL_SPACE
  1

  0
ENDBLK
  5
36B
  8
0
  0
BLOCK
 67
     1
  8
0
  2
$PAPER_SPACE
 70
     0
 10
0.0
 20
0.0
 30
0.0
  3
$PAPER_SPACE
  1

  0
ENDBLK
  5
367
 67
     1
  8
0
  0
BLOCK
  8
0
  2
_DOTBLANK
 70
     0
 10
0.0
 20
0.0
 30
0.0
  3
_DOTBLANK
  1

  0
CIRCLE
  5
30
  8
0
  6
CONTINUOUS
 62
     7
 10
0.0
 20
0.0
 30
0.0
 40
0.5
  0
LINE
  5
31
  8
0
  6
CONTINUOUS
 62
     7
 10
-0.5
 20
0.0
 30
0.0
 11
-1.0
 21
0.0
 31
0.0
  0
ENDBLK
  5
32
  8
0
  0
ENDSEC
  0
SECTION
  2
ENTITIES
  0
LINE
  5
33
  8
DETAIL
  6
CONTINUOUS
 62
     5
 10
308.5
 20
-168.19999999999999
 30
0.0
 11
-308.5
 21
-168.19999999999999
 31
0.0
  0
LINE
  5
34
  8
DETAIL
  6
CONTINUOUS
 62
     5
 10
324.0
 20
0.0
 30
0.0
 11
-324.0
 21
0.0
 31
0.0
  0
LINE
  5
35
  8
DETAIL
  6
CONTINUOUS
 62
     5
 10
-231.0
 20
-45.600000000000001
 30
0.0
 11
-205.0
 21
-45.600000000000001
 31
0.0
  0
LINE
  5
36
  8
DETAIL
  6
CONTINUOUS
 62
     5
 10
-524.0
 20
-272.0
 30
0.0
 11
-479.0
 21
-272.0
 31
0.0
  0
LINE
  5
37
  8
DETAIL
  6
CONTINUOUS
 62
     5
 10
-524.0
 20
-238.0
 30
0.0
 11
-479.0
 21
-238.0
 31
0.0
  0
LINE
  5
3A
  8
DETAIL
  6
CONTINUOUS
 62
     5
 10
-524.0
 20
-272.0
 30
0.0
 11
-524.0
 21
-238.0
 31
0.0
  0
LINE
  5
3C
  8
DETAIL
  6
CONTINUOUS
 62
     5
 10
-324.0
 20
-163.90000000000001
 30
0.0
 11
-320.5
 21
-167.40000000000001
 31
0.0
  0
LINE
  5
3D
  8
DETAIL
  6
CONTINUOUS
 62
     5
 10
-265.0
 20
-153.0
 30
0.0
 11
-265.0
 21
-168.19999999999999
 31
0.0
  0
LINE
  5
3E
  8
DETAIL
  6
CONTINUOUS
 62
     5
 10
-231.0
 20
-168.19999999999999
 30
0.0
 11
-231.0
 21
-153.0
 31
0.0
  0
LINE
  5
3F
  8
DETAIL
  6
CONTINUOUS
 62
     5
 10
-324.0
 20
0.0
 30
0.0
 11
-324.0
 21
-284.0
 31
0.0
  0
LINE
  5
40
  8
NOTE
  6
CONTINUOUS
 62
     4
 10
-248.0
 20
-138.89955800000001
 30
0.0
 11
-248.0
 21
-167.10044199999999
 31
0.0
  0
LINE
  5
41
  8
DETAIL
  6
CONTINUOUS
 62
     5
 10
-232.899619
 20
-153.0
 30
0.0
 11
-240.44981000000001
 21
-166.077314
 31
0.0
  0
LINE
  5
42
  8
DETAIL
  6
CONTINUOUS
 62
     5
 10
-263.10038100000003
 20
-153.0
 30
0.0
 11
-255.55018999999999
 21
-166.077314
 31
0.0
  0
LINE
  5
43
  8
DETAIL
  6
CONTINUOUS
 62
     5
 10
-359.0
 20
-238.0
 30
0.0
 11
-324.0
 21
-238.0
 31
0.0
  0
LINE
  5
44
  8
DETAIL
  6
CONTINUOUS
 62
     5
 10
-359.0
 20
-272.0
 30
0.0
 11
-324.0
 21
-272.0
 31
0.0
  0
LINE
  5
45
  8
DETAIL
  6
CONTINUOUS
 62
     5
 10
-364.0
 20
-277.0
 30
0.0
 11
-364.0
 21
-233.0
 31
0.0
  0
LINE
  5
47
  8
DETAIL
  6
CONTINUOUS
 62
     5
 10
-479.0
 20
-277.0
 30
0.0
 11
-479.0
 21
-233.0
 31
0.0
  0
LINE
  5
48
  8
DETAIL
  6
CONTINUOUS
 62
     5
 10
-474.0
 20
-277.0
 30
0.0
 11
-474.0
 21
-233.0
 31
0.0
  0
LINE
  5
49
  8
DETAIL
  6
CONTINUOUS
 62
     5
 10
-373.94679600000001
 20
-272.7274700000001
 30
0.0
 11
-374.00919773626492
 21
-272.30313819339869
 31
0.0
  0
LINE
  5
4A
  8
DETAIL
  6
CONTINUOUS
 62
     5
 10
-364.05320399999999
 20
-271.27253000000002
 30
0.0
 11
-369.05320399999999
 21
-237.27252999999999
 31
0.0
  0
LINE
  5
4B
  8
DETAIL
  6
CONTINUOUS
 62
     5
 10
-364.0
 20
-272.36568279999977
 30
0.0
 11
-364.00919773626492
 21
-272.30313819339852
 31
0.0
  0
LINE
  5
4C
  8
DETAIL
  6
CONTINUOUS
 62
     5
 10
-383.94679600000001
 20
-272.7274700000001
 30
0.0
 11
-384.00919773626492
 21
-272.30313819339869
 31
0.0
  0
LINE
  5
4D
  8
DETAIL
  6
CONTINUOUS
 62
     5
 10
-374.05320399999999
 20
-271.27253000000002
 30
0.0
 11
-379.05320399999999
 21
-237.27252999999999
 31
0.0
  0
LINE
  5
4E
  8
DETAIL
  6
CONTINUOUS
 62
     5
 10
-393.94679600000001
 20
-272.7274700000001
 30
0.0
 11
-394.00919773626492
 21
-272.30313819339869
 31
0.0
  0
LINE
  5
4F
  8
DETAIL
  6
CONTINUOUS
 62
     5
 10
-384.05320399999999
 20
-271.27253000000002
 30
0.0
 11
-389.05320399999999
 21
-237.27252999999999
 31
0.0
  0
LINE
  5
50
  8
DETAIL
  6
CONTINUOUS
 62
     5
 10
-403.94679600000001
 20
-272.7274700000001
 30
0.0
 11
-404.00919773626481
 21
-272.30313819339869
 31
0.0
  0
LINE
  5
51
  8
DETAIL
  6
CONTINUOUS
 62
     5
 10
-394.05320399999999
 20
-271.27253000000002
 30
0.0
 11
-399.05320399999999
 21
-237.27252999999999
 31
0.0
  0
LINE
  5
52
  8
DETAIL
  6
CONTINUOUS
 62
     5
 10
-413.94679600000001
 20
-272.7274700000001
 30
0.0
 11
-414.00919773626492
 21
-272.30313819339852
 31
0.0
  0
LINE
  5
53
  8
DETAIL
  6
CONTINUOUS
 62
     5
 10
-404.05320399999999
 20
-271.27253000000002
 30
0.0
 11
-409.05320399999999
 21
-237.27252999999999
 31
0.0
  0
LINE
  5
54
  8
DETAIL
  6
CONTINUOUS
 62
     5
 10
-423.94679599999989
 20
-272.7274700000001
 30
0.0
 11
-424.00919773626492
 21
-272.30313819339852
 31
0.0
  0
LINE
  5
55
  8
DETAIL
  6
CONTINUOUS
 62
     5
 10
-414.05320399999999
 20
-271.27253000000002
 30
0.0
 11
-419.05320399999988
 21
-237.27252999999999
 31
0.0
  0
LINE
  5
56
  8
DETAIL
  6
CONTINUOUS
 62
     5
 10
-433.94679600000001
 20
-272.7274700000001
 30
0.0
 11
-434.00919773626492
 21
-272.30313819339869
 31
0.0
  0
LINE
  5
57
  8
DETAIL
  6
CONTINUOUS
 62
     5
 10
-424.05320399999988
 20
-271.27253000000002
 30
0.0
 11
-429.05320399999999
 21
-237.27252999999999
 31
0.0
  0
LINE
  5
58
  8
DETAIL
  6
CONTINUOUS
 62
     5
 10
-443.94679599999989
 20
-272.7274700000001
 30
0.0
 11
-444.00919773626492
 21
-272.30313819339852
 31
0.0
  0
LINE
  5
59
  8
DETAIL
  6
CONTINUOUS
 62
     5
 10
-434.05320399999999
 20
-271.27253000000002
 30
0.0
 11
-439.05320399999999
 21
-237.27252999999999
 31
0.0
  0
LINE
  5
5A
  8
DETAIL
  6
CONTINUOUS
 62
     5
 10
-453.94679600000001
 20
-272.7274700000001
 30
0.0
 11
-454.00919773626481
 21
-272.30313819339852
 31
0.0
  0
LINE
  5
5B
  8
DETAIL
  6
CONTINUOUS
 62
     5
 10
-444.05320399999988
 20
-271.27253000000002
 30
0.0
 11
-449.05320399999988
 21
-237.27252999999999
 31
0.0
  0
LINE
  5
5C
  8
DETAIL
  6
CONTINUOUS
 62
     5
 10
-463.94679600000001
 20
-272.7274700000001
 30
0.0
 11
-464.00919773626492
 21
-272.30313819339852
 31
0.0
  0
LINE
  5
5D
  8
DETAIL
  6
CONTINUOUS
 62
     5
 10
-454.05320399999999
 20
-271.27253000000002
 30
0.0
 11
-459.05320399999999
 21
-237.27252999999999
 31
0.0
  0
LINE
  5
5E
  8
DETAIL
  6
CONTINUOUS
 62
     5
 10
-464.05320399999999
 20
-271.27253000000002
 30
0.0
 11
-469.05320399999988
 21
-237.27252999999999
 31
0.0
  0
LINE
  5
5F
  8
DETAIL
  6
CONTINUOUS
 62
     5
 10
-359.0
 20
-277.0
 30
0.0
 11
-359.0
 21
-233.0
 31
0.0
  0
ARC
  5
60
  8
DETAIL
  6
CONTINUOUS
 62
     5
 10
-419.0
 20
-272.0
 30
0.0
 40
5.0
 50
188.36588599999999
 51
8.3658859999999997
  0
ARC
  5
61
  8
DETAIL
  6
CONTINUOUS
 62
     5
 10
-449.0
 20
-272.0
 30
0.0
 40
5.0
 50
188.36588599999999
 51
8.3658859999999997
  0
LINE
  5
62
  8
DETAIL
  6
CONTINUOUS
 62
     5
 10
-479.0
 20
-277.0
 30
0.0
 11
-474.0
 21
-277.0
 31
0.0
  0
ARC
  5
63
  8
DETAIL
  6
CONTINUOUS
 62
     5
 10
-459.0
 20
-272.0
 30
0.0
 40
5.0
 50
188.36588599999999
 51
8.3658859999999997
  0
ARC
  5
64
  8
DETAIL
  6
CONTINUOUS
 62
     5
 10
-469.0
 20
-272.0
 30
0.0
 40
5.0
 50
188.36588599999999
 51
8.3658859999999997
  0
ARC
  5
65
  8
DETAIL
  6
CONTINUOUS
 62
     5
 10
-429.0
 20
-272.0
 30
0.0
 40
5.0
 50
188.36588599999999
 51
8.3658859999999997
  0
ARC
  5
66
  8
DETAIL
  6
CONTINUOUS
 62
     5
 10
-439.0
 20
-272.0
 30
0.0
 40
5.0
 50
188.36588599999999
 51
8.3658859999999997
  0
ARC
  5
67
  8
DETAIL
  6
CONTINUOUS
 62
     5
 10
-379.0
 20
-272.0
 30
0.0
 40
5.0
 50
188.36588599999999
 51
8.3658859999999997
  0
ARC
  5
68
  8
DETAIL
  6
CONTINUOUS
 62
     5
 10
-389.0
 20
-272.0
 30
0.0
 40
5.0
 50
188.36588599999999
 51
8.3658859999999997
  0
ARC
  5
69
  8
DETAIL
  6
CONTINUOUS
 62
     5
 10
-399.0
 20
-272.0
 30
0.0
 40
5.0
 50
188.36588599999999
 51
8.3658859999999997
  0
ARC
  5
6A
  8
DETAIL
  6
CONTINUOUS
 62
     5
 10
-409.0
 20
-272.0
 30
0.0
 40
5.0
 50
188.36588599999999
 51
8.3658859999999997
  0
LINE
  5
6B
  8
DETAIL
  6
CONTINUOUS
 62
     5
 10
-359.0
 20
-277.0
 30
0.0
 11
-364.0
 21
-277.0
 31
0.0
  0
ARC
  5
6C
  8
DETAIL
  6
CONTINUOUS
 62
     5
 10
-369.0
 20
-272.0
 30
0.0
 40
5.0
 50
188.36588599999999
 51
8.3658859999999997
  0
ARC
  5
6D
  8
DETAIL
  6
CONTINUOUS
 62
     5
 10
-414.0
 20
-238.0
 30
0.0
 40
5.0
 50
8.3658859999999997
 51
176.52416059670591
  0
ARC
  5
6E
  8
DETAIL
  6
CONTINUOUS
 62
     5
 10
-444.0
 20
-238.0
 30
0.0
 40
5.0
 50
8.3658859999999997
 51
176.52416059670591
  0
LINE
  5
6F
  8
DETAIL
  6
CONTINUOUS
 62
     5
 10
-479.0
 20
-233.0
 30
0.0
 11
-474.0
 21
-233.0
 31
0.0
  0
ARC
  5
70
  8
DETAIL
  6
CONTINUOUS
 62
     5
 10
-454.0
 20
-238.0
 30
0.0
 40
5.0
 50
8.3658859999999997
 51
176.52416059670881
  0
ARC
  5
71
  8
DETAIL
  6
CONTINUOUS
 62
     5
 10
-464.0
 20
-238.0
 30
0.0
 40
5.0
 50
8.3658859999999997
 51
176.52416059670881
  0
ARC
  5
72
  8
DETAIL
  6
CONTINUOUS
 62
     5
 10
-474.0
 20
-238.0
 30
0.0
 40
5.0
 50
8.3658859999999997
 51
90.0
  0
ARC
  5
73
  8
DETAIL
  6
CONTINUOUS
 62
     5
 10
-424.0
 20
-238.0
 30
0.0
 40
5.0
 50
8.3658859999999997
 51
176.52416059670881
  0
ARC
  5
74
  8
DETAIL
  6
CONTINUOUS
 62
     5
 10
-434.0
 20
-238.0
 30
0.0
 40
5.0
 50
8.3658859999999997
 51
176.52416059670591
  0
ARC
  5
75
  8
DETAIL
  6
CONTINUOUS
 62
     5
 10
-384.0
 20
-238.0
 30
0.0
 40
5.0
 50
8.3658859999999997
 51
176.52416059670591
  0
ARC
  5
76
  8
DETAIL
  6
CONTINUOUS
 62
     5
 10
-394.0
 20
-238.0
 30
0.0
 40
5.0
 50
8.3658859999999997
 51
176.52416059670591
  0
ARC
  5
77
  8
DETAIL
  6
CONTINUOUS
 62
     5
 10
-404.0
 20
-238.0
 30
0.0
 40
5.0
 50
8.3658859999999997
 51
176.52416059670591
  0
LINE
  5
78
  8
DETAIL
  6
CONTINUOUS
 62
     5
 10
-359.0
 20
-233.0
 30
0.0
 11
-364.0
 21
-233.0
 31
0.0
  0
ARC
  5
79
  8
DETAIL
  6
CONTINUOUS
 62
     5
 10
-374.0
 20
-238.0
 30
0.0
 40
5.0
 50
8.3658859999999997
 51
176.52416059670591
  0
ARC
  5
7A
  8
DETAIL
  6
CONTINUOUS
 62
     5
 10
-364.0
 20
-238.0
 30
0.0
 40
5.0
 50
90.0
 51
176.52416059670591
  0
LINE
  5
7B
  8
DETAIL
  6
CONTINUOUS
 62
     5
 10
-308.5
 20
-167.40000000000001
 30
0.0
 11
-320.5
 21
-167.40000000000001
 31
0.0
  0
CIRCLE
  5
7C
  8
DETAIL
  6
CONTINUOUS
 62
     5
 10
-316.0
 20
-197.59999999999999
 30
0.0
 40
2.5
  0
LINE
  5
7D
  8
DETAIL
  6
CONTINUOUS
 62
     5
 10
-308.5
 20
-168.80000000000001
 30
0.0
 11
-318.0
 21
-168.80000000000001
 31
0.0
  0
LINE
  5
7E
  8
DETAIL
  6
CONTINUOUS
 62
     5
 10
-318.0
 20
-168.80000000000001
 30
0.0
 11
-324.0
 21
-174.80000000000001
 31
0.0
  0
LINE
  5
80
  8
DETAIL
  6
CONTINUOUS
 62
     5
 10
-308.5
 20
-168.80000000000001
 30
0.0
 11
-308.5
 21
-167.40000000000001
 31
0.0
  0
LINE
  5
81
  8
DETAIL
  6
CONTINUOUS
 62
     5
 10
-255.55018999999999
 20
-166.077314
 30
0.0
 11
-240.44981000000001
 21
-166.077314
 31
0.0
  0
LINE
  5
82
  8
DETAIL
  6
CONTINUOUS
 62
     5
 10
-374.0
 20
-27.0
 30
0.0
 11
-374.0
 21
-37.0
 31
0.0
  0
ARC
  5
83
  8
DETAIL
  6
CONTINUOUS
 62
     5
 10
-248.0
 20
-153.0
 30
0.0
 40
17.0
 50
0.0
 51
180.0
  0
LINE
  5
84
  8
NOTE
  6
CONTINUOUS
 62
     4
 10
-233.89955800000001
 20
-153.0
 30
0.0
 11
-262.10044199999999
 21
-153.0
 31
0.0
  0
LINE
  5
85
  8
DETAIL
  6
CONTINUOUS
 62
     5
 10
-240.44981000000001
 20
-139.922686
 30
0.0
 11
-255.55018999999999
 21
-139.922686
 31
0.0
  0
CIRCLE
  5
86
  8
DETAIL
  6
CONTINUOUS
 62
     5
 10
-248.0
 20
-153.0
 30
0.0
 40
11.100441999999999
  0
LINE
  5
87
  8
DETAIL
  6
CONTINUOUS
 62
     5
 10
-255.55018999999999
 20
-139.922686
 30
0.0
 11
-263.10038100000003
 21
-153.0
 31
0.0
  0
LINE
  5
88
  8
DETAIL
  6
CONTINUOUS
 62
     5
 10
-232.899619
 20
-153.0
 30
0.0
 11
-240.44981000000001
 21
-139.922686
 31
0.0
  0
LINE
  5
89
  8
DETAIL
  6
CONTINUOUS
 62
     5
 10
-320.0
 20
-45.600000000000001
 30
0.0
 11
-265.0
 21
-45.600000000000001
 31
0.0
  0
CIRCLE
  5
8A
  8
DETAIL
  6
CONTINUOUS
 62
     5
 10
-316.0
 20
-29.600000000000001
 30
0.0
 40
2.5
  0
LINE
  5
8C
  8
DETAIL
  6
CONTINUOUS
 62
     5
 10
-320.0
 20
-45.600000000000001
 30
0.0
 11
-324.0
 21
-41.600000000000001
 31
0.0
  0
LINE
  5
8D
  8
DETAIL
  6
CONTINUOUS
 62
     5
 10
-262.0
 20
-23.0
 30
0.0
 11
-262.0
 21
-42.600000000000001
 31
0.0
  0
LINE
  5
8E
  8
DETAIL
  6
CONTINUOUS
 62
     5
 10
-234.0
 20
-23.0
 30
0.0
 11
-234.0
 21
-42.600000000000001
 31
0.0
  0
LINE
  5
8F
  8
NOTE
  6
CONTINUOUS
 62
     4
 10
-248.0
 20
-34.000315999999998
 30
0.0
 11
-248.0
 21
-11.999684
 31
0.0
  0
LINE
  5
90
  8
DETAIL
  6
CONTINUOUS
 62
     5
 10
-237.02946800000001
 20
-23.0
 30
0.0
 11
-242.514734
 21
-32.500759000000009
 31
0.0
  0
LINE
  5
91
  8
DETAIL
  6
CONTINUOUS
 62
     5
 10
-253.485266
 20
-32.500759000000009
 30
0.0
 11
-258.97053199999999
 21
-23.0
 31
0.0
  0
CIRCLE
  5
92
  8
DETAIL
  6
CONTINUOUS
 62
     5
 10
-248.0
 20
-23.0
 30
0.0
 40
8.0003159999999998
  0
LINE
  5
93
  8
DETAIL
  6
CONTINUOUS
 62
     5
 10
-262.0
 20
-36.600000000000001
 30
0.0
 11
-234.0
 21
-36.600000000000001
 31
0.0
  0
LINE
  5
94
  8
DETAIL
  6
CONTINUOUS
 62
     5
 10
-242.514734
 20
-32.500759000000009
 30
0.0
 11
-253.485266
 21
-32.500759000000009
 31
0.0
  0
LINE
  5
95
  8
DETAIL
  6
CONTINUOUS
 62
     5
 10
-262.0
 20
-42.600000000000001
 30
0.0
 11
-265.0
 21
-45.600000000000001
 31
0.0
  0
LINE
  5
96
  8
DETAIL
  6
CONTINUOUS
 62
     5
 10
-231.0
 20
-45.600000000000001
 30
0.0
 11
-234.0
 21
-42.600000000000001
 31
0.0
  0
ARC
  5
97
  8
DETAIL
  6
CONTINUOUS
 62
     5
 10
-248.0
 20
-23.0
 30
0.0
 40
14.0
 50
0.0
 51
180.0
  0
LINE
  5
98
  8
NOTE
  6
CONTINUOUS
 62
     4
 10
-236.999684
 20
-23.0
 30
0.0
 11
-259.000316
 21
-23.0
 31
0.0
  0
LINE
  5
99
  8
DETAIL
  6
CONTINUOUS
 62
     5
 10
-253.485266
 20
-13.499241
 30
0.0
 11
-242.514734
 21
-13.499241
 31
0.0
  0
LINE
  5
9A
  8
DETAIL
  6
CONTINUOUS
 62
     5
 10
-258.97053199999999
 20
-23.0
 30
0.0
 11
-253.485266
 21
-13.499241
 31
0.0
  0
LINE
  5
9B
  8
DETAIL
  6
CONTINUOUS
 62
     5
 10
-237.02946800000001
 20
-23.0
 30
0.0
 11
-242.514734
 21
-13.499241
 31
0.0
  0
LINE
  5
AE
  8
DETAIL
  6
CONTINUOUS
 62
     5
 10
-111.0
 20
-45.600000000000001
 30
0.0
 11
-85.0
 21
-45.600000000000001
 31
0.0
  0
LINE
  5
BB
  8
DETAIL
  6
CONTINUOUS
 62
     5
 10
-171.0
 20
-45.600000000000001
 30
0.0
 11
-145.0
 21
-45.600000000000001
 31
0.0
  0
LINE
  5
C4
  8
DETAIL
  6
CONTINUOUS
 62
     5
 10
-202.0
 20
-42.600000000000001
 30
0.0
 11
-205.0
 21
-45.600000000000001
 31
0.0
  0
LINE
  5
C5
  8
DETAIL
  6
CONTINUOUS
 62
     5
 10
-171.0
 20
-45.600000000000001
 30
0.0
 11
-174.0
 21
-42.600000000000001
 31
0.0
  0
LINE
  5
D2
  8
DETAIL
  6
CONTINUOUS
 62
     5
 10
-142.0
 20
-42.600000000000001
 30
0.0
 11
-145.0
 21
-45.600000000000001
 31
0.0
  0
LINE
  5
D4
  8
DETAIL
  6
CONTINUOUS
 62
     5
 10
-111.0
 20
-45.600000000000001
 30
0.0
 11
-114.0
 21
-42.600000000000001
 31
0.0
  0
LINE
  5
E7
  8
DETAIL
  6
CONTINUOUS
 62
     5
 10
-82.0
 20
-42.600000000000001
 30
0.0
 11
-85.0
 21
-45.600000000000001
 31
0.0
  0
LINE
  5
E9
  8
DETAIL
  6
CONTINUOUS
 62
     5
 10
-51.0
 20
-45.600000000000001
 30
0.0
 11
-54.0
 21
-42.600000000000001
 31
0.0
  0
LINE
  5
EE
  8
DETAIL
  6
CONTINUOUS
 62
     5
 10
324.0
 20
-27.0
 30
0.0
 11
374.0
 21
-27.0
 31
0.0
  0
LINE
  5
EF
  8
DETAIL
  6
CONTINUOUS
 62
     5
 10
324.0
 20
-163.90000000000001
 30
0.0
 11
320.5
 21
-167.40000000000001
 31
0.0
  0
LINE
  5
F0
  8
DETAIL
  6
CONTINUOUS
 62
     5
 10
324.0
 20
0.0
 30
0.0
 11
324.0
 21
-284.0
 31
0.0
  0
LINE
  5
F1
  8
DETAIL
  6
CONTINUOUS
 62
     5
 10
320.5
 20
-167.40000000000001
 30
0.0
 11
308.5
 21
-167.40000000000001
 31
0.0
  0
CIRCLE
  5
F3
  8
DETAIL
  6
CONTINUOUS
 62
     5
 10
316.0
 20
-197.59999999999999
 30
0.0
 40
2.5
  0
LINE
  5
F4
  8
DETAIL
  6
CONTINUOUS
 62
     5
 10
318.0
 20
-168.80000000000001
 30
0.0
 11
324.0
 21
-174.80000000000001
 31
0.0
  0
LINE
  5
F5
  8
DETAIL
  6
CONTINUOUS
 62
     5
 10
318.0
 20
-168.80000000000001
 30
0.0
 11
308.5
 21
-168.80000000000001
 31
0.0
  0
LINE
  5
F6
  8
DETAIL
  6
CONTINUOUS
 62
     5
 10
308.5
 20
-168.80000000000001
 30
0.0
 11
308.5
 21
-167.40000000000001
 31
0.0
  0
CIRCLE
  5
F7
  8
DETAIL
  6
CONTINUOUS
 62
     5
 10
316.0
 20
-121.59999999999999
 30
0.0
 40
2.5
  0
CIRCLE
  5
F8
  8
DETAIL
  6
CONTINUOUS
 62
     5
 10
316.0
 20
-29.600000000000001
 30
0.0
 40
2.5
  0
LINE
  5
F9
  8
DETAIL
  6
CONTINUOUS
 62
     5
 10
324.0
 20
-41.600000000000001
 30
0.0
 11
320.0
 21
-45.600000000000001
 31
0.0
  0
LINE
  5
FB
  8
DETAIL
  6
CONTINUOUS
 62
     5
 10
374.0
 20
-27.0
 30
0.0
 11
374.0
 21
-37.0
 31
0.0
  0
LINE
  5
FD
  8
SIZE
  6
CONTINUOUS
 62
    30
 10
-324.0
 20
19.399999999999999
 30
0.0
 11
-324.0
 21
163.22291799999999
 31
0.0
  0
LINE
  5
FE
  8
SIZE
  6
CONTINUOUS
 62
    30
 10
-248.0
 20
-2.6000000000000001
 30
0.0
 11
-248.0
 21
163.22291799999999
 31
0.0
  0
LINE
  5
FF
  8
SIZE
  6
CONTINUOUS
 62
    30
 10
-314.0
 20
133.22291799999999
 30
0.0
 11
-258.0
 21
133.22291799999999
 31
0.0
  0
CIRCLE
  5
100
  8
SIZE
  6
CONTINUOUS
 62
    30
 10
-324.0
 20
133.22291799999999
 30
0.0
 40
5.0
  0
LINE
  5
101
  8
SIZE
  6
CONTINUOUS
 62
    30
 10
-319.0
 20
133.22291799999999
 30
0.0
 11
-314.0
 21
133.22291799999999
 31
0.0
  0
CIRCLE
  5
102
  8
SIZE
  6
CONTINUOUS
 62
    30
 10
-248.0
 20
133.22291799999999
 30
0.0
 40
5.0
  0
LINE
  5
103
  8
SIZE
  6
CONTINUOUS
 62
    30
 10
-253.0
 20
133.22291799999999
 30
0.0
 11
-258.0
 21
133.22291799999999
 31
0.0
  0
TEXT
  5
104
  8
SIZE
  6
CONTINUOUS
 62
    30
 10
-331.25714285714292
 20
153.22291799999999
 30
0.0
 40
64.0
  1
76
 41
0.9
 72
     1
 11
-286.0
 21
153.22291799999999
 31
0.0
  0
POINT
  5
105
  8
DEFPOINTS
  6
CONTINUOUS
 62
     7
 10
-324.0
 20
0.0
 30
0.0
  0
POINT
  5
106
  8
DEFPOINTS
  6
CONTINUOUS
 62
     7
 10
-248.0
 20
-23.0
 30
0.0
  0
POINT
  5
107
  8
DEFPOINTS
  6
CONTINUOUS
 62
     7
 10
-248.0
 20
133.22291799999999
 30
0.0
  0
LINE
  5
108
  8
SIZE
  6
CONTINUOUS
 62
    30
 10
-248.0
 20
-2.6000000000000001
 30
0.0
 11
-248.0
 21
62.013706999999997
 31
0.0
  0
LINE
  5
109
  8
SIZE
  6
CONTINUOUS
 62
    30
 10
-188.0
 20
-2.6000000000000001
 30
0.0
 11
-188.0
 21
62.013706999999997
 31
0.0
  0
LINE
  5
10A
  8
SIZE
  6
CONTINUOUS
 62
    30
 10
-258.0
 20
32.013706999999997
 30
0.0
 11
-268.0
 21
32.013706999999997
 31
0.0
  0
LINE
  5
10B
  8
SIZE
  6
CONTINUOUS
 62
    30
 10
-178.0
 20
32.013706999999997
 30
0.0
 11
-74.586970460928569
 21
32.013706999999997
 31
0.0
  0
LINE
  5
10C
  8
SIZE
  6
CONTINUOUS
 62
    30
 10
-248.0
 20
32.013706999999997
 30
0.0
 11
-188.0
 21
32.013706999999997
 31
0.0
  0
CIRCLE
  5
10D
  8
SIZE
  6
CONTINUOUS
 62
    30
 10
-248.0
 20
32.013706999999997
 30
0.0
 40
5.0
  0
LINE
  5
10E
  8
SIZE
  6
CONTINUOUS
 62
    30
 10
-253.0
 20
32.013706999999997
 30
0.0
 11
-258.0
 21
32.013706999999997
 31
0.0
  0
CIRCLE
  5
10F
  8
SIZE
  6
CONTINUOUS
 62
    30
 10
-188.0
 20
32.013706999999997
 30
0.0
 40
5.0
  0
LINE
  5
110
  8
SIZE
  6
CONTINUOUS
 62
    30
 10
-183.0
 20
32.013706999999997
 30
0.0
 11
-178.0
 21
32.013706999999997
 31
0.0
  0
TEXT
  5
111
  8
SIZE
  6
CONTINUOUS
 62
    30
 10
-170.40069851484631
 20
47.367631161472673
 30
0.0
 40
64.0
  1
60
 41
0.9
 72
     1
 11
-123.77212708627481
 21
47.367631161472673
 31
0.0
  0
POINT
  5
112
  8
DEFPOINTS
  6
CONTINUOUS
 62
     7
 10
-248.0
 20
-23.0
 30
0.0
  0
POINT
  5
114
  8
DEFPOINTS
  6
CONTINUOUS
 62
     7
 10
-188.0
 20
32.013706999999997
 30
0.0
  0
LINE
  5
115
  8
SIZE
  6
CONTINUOUS
 62
    30
 10
-248.0
 20
-2.6000000000000001
 30
0.0
 11
-248.0
 21
163.29024799999999
 31
0.0
  0
CIRCLE
  5
116
  8
SIZE
  6
CONTINUOUS
 62
    30
 10
-248.0
 20
133.29024799999999
 30
0.0
 40
5.0
  0
LINE
  5
117
  8
SIZE
  6
CONTINUOUS
 62
    30
 10
-243.0
 20
133.29024799999999
 30
0.0
 11
-238.0
 21
133.29024799999999
 31
0.0
  0
LINE
  5
118
  8
SIZE
  6
CONTINUOUS
 62
    30
 10
-324.0
 20
19.399999999999999
 30
0.0
 11
-324.0
 21
161.838086
 31
0.0
  0
LINE
  5
119
  8
SIZE
  6
CONTINUOUS
 62
    30
 10
-394.0
 20
-20.183625182056861
 30
0.0
 11
-394.0
 21
161.838086
 31
0.0
  0
LINE
  5
11A
  8
SIZE
  6
CONTINUOUS
 62
    30
 10
-334.0
 20
131.838086
 30
0.0
 11
-384.0
 21
131.838086
 31
0.0
  0
LINE
  5
11B
  8
SIZE
  6
CONTINUOUS
 62
    30
 10
-394.0
 20
131.838086
 30
0.0
 11
-537.25714299999993
 21
131.838086
 31
0.0
  0
CIRCLE
  5
11C
  8
SIZE
  6
CONTINUOUS
 62
    30
 10
-324.0
 20
131.838086
 30
0.0
 40
5.0
  0
LINE
  5
11D
  8
SIZE
  6
CONTINUOUS
 62
    30
 10
-329.0
 20
131.838086
 30
0.0
 11
-334.0
 21
131.838086
 31
0.0
  0
CIRCLE
  5
11E
  8
SIZE
  6
CONTINUOUS
 62
    30
 10
-394.0
 20
131.838086
 30
0.0
 40
5.0
  0
LINE
  5
11F
  8
SIZE
  6
CONTINUOUS
 62
    30
 10
-389.0
 20
131.838086
 30
0.0
 11
-384.0
 21
131.838086
 31
0.0
  0
TEXT
  5
120
  8
SIZE
  6
CONTINUOUS
 62
    30
 10
-517.25714242857146
 20
151.838086
 30
0.0
 40
64.0
  1
70
 41
0.9
 72
     1
 11
-470.62857100000002
 21
151.838086
 31
0.0
  0
POINT
  5
121
  8
DEFPOINTS
  6
CONTINUOUS
 62
     7
 10
-324.0
 20
0.0
 30
0.0
  0
POINT
  5
122
  8
DEFPOINTS
  6
CONTINUOUS
 62
     7
 10
-394.0
 20
-58.0
 30
0.0
  0
POINT
  5
123
  8
DEFPOINTS
  6
CONTINUOUS
 62
     7
 10
-394.0
 20
131.838086
 30
0.0
  0
LINE
  5
124
  8
DETAIL
  6
CONTINUOUS
 62
     5
 10
-374.0
 20
-27.0
 30
0.0
 11
-324.0
 21
-27.0
 31
0.0
  0
LINE
  5
125
  8
DETAIL
  6
CONTINUOUS
 62
     5
 10
324.0
 20
-284.0
 30
0.0
 11
-324.0
 21
-284.0
 31
0.0
  0
LINE
  5
126
  8
SIZE
  6
CONTINUOUS
 62
    30
 10
-344.0
 20
0.0
 30
0.0
 11
-1057.668938
 21
0.0
 31
0.0
  0
LINE
  5
127
  8
SIZE
  6
CONTINUOUS
 62
    30
 10
-344.0
 20
-284.0
 30
0.0
 11
-1057.668938
 21
-284.0
 31
0.0
  0
LINE
  5
128
  8
SIZE
  6
CONTINUOUS
 62
    30
 10
-1027.668938
 20
-10.0
 30
0.0
 11
-1027.668938
 21
-274.0
 31
0.0
  0
CIRCLE
  5
129
  8
SIZE
  6
CONTINUOUS
 62
    30
 10
-1027.668938
 20
0.0
 30
0.0
 40
5.0
  0
LINE
  5
12A
  8
SIZE
  6
CONTINUOUS
 62
    30
 10
-1027.668938
 20
-5.0
 30
0.0
 11
-1027.668938
 21
-10.0
 31
0.0
  0
CIRCLE
  5
12B
  8
SIZE
  6
CONTINUOUS
 62
    30
 10
-1027.668938
 20
-284.0
 30
0.0
 40
5.0
  0
LINE
  5
12C
  8
SIZE
  6
CONTINUOUS
 62
    30
 10
-1027.668938
 20
-279.0
 30
0.0
 11
-1027.668938
 21
-274.0
 31
0.0
  0
TEXT
  5
12D
  8
SIZE
  6
CONTINUOUS
 62
    30
 10
-1047.668938
 20
-213.26169742857141
 30
0.0
 40
64.0
  1
284
 50
90.0
 41
0.9
 72
     1
 11
-1047.668938
 21
-137.83312599999999
 31
0.0
  0
POINT
  5
12E
  8
DEFPOINTS
  6
CONTINUOUS
 62
     7
 10
-324.0
 20
0.0
 30
0.0
  0
POINT
  5
12F
  8
DEFPOINTS
  6
CONTINUOUS
 62
     7
 10
-324.0
 20
-284.0
 30
0.0
  0
POINT
  5
130
  8
DEFPOINTS
  6
CONTINUOUS
 62
     7
 10
-1027.668938
 20
-284.0
 30
0.0
  0
LINE
  5
131
  8
NOTE
  6
CONTINUOUS
 62
     4
 10
-524.0
 20
-275.0
 30
0.0
 11
-524.0
 21
-235.0
 31
0.0
  0
LINE
  5
132
  8
NOTE
  6
CONTINUOUS
 62
     4
 10
-504.0
 20
-255.0
 30
0.0
 11
-544.0
 21
-255.0
 31
0.0
  0
LINE
  5
133
  8
NOTE
  6
CONTINUOUS
 62
     4
 10
-394.0
 20
-148.0
 30
0.0
 11
-394.0
 21
-108.0
 31
0.0
  0
LINE
  5
134
  8
NOTE
  6
CONTINUOUS
 62
     4
 10
-374.0
 20
-128.0
 30
0.0
 11
-414.0
 21
-128.0
 31
0.0
  0
LINE
  5
135
  8
NOTE
  6
CONTINUOUS
 62
     4
 10
-394.0
 20
-78.0
 30
0.0
 11
-394.0
 21
-38.0
 31
0.0
  0
LINE
  5
136
  8
NOTE
  6
CONTINUOUS
 62
     4
 10
-374.0
 20
-58.0
 30
0.0
 11
-414.0
 21
-58.0
 31
0.0
  0
LINE
  5
137
  8
NOTE
  6
CONTINUOUS
 62
     4
 10
-351.0
 20
-7.1754530000000027
 30
0.0
 11
-351.0
 21
-46.824547000000003
 31
0.0
  0
LINE
  5
138
  8
NOTE
  6
CONTINUOUS
 62
     4
 10
-331.0
 20
-27.0
 30
0.0
 11
-371.0
 21
-27.0
 31
0.0
  0
CIRCLE
  5
139
  8
FIX
  6
CONTINUOUS
 62
    11
 10
-351.0
 20
-27.0
 30
0.0
 40
20.0
  0
LINE
  5
13A
  8
NOTE
  6
CONTINUOUS
 62
     4
 10
351.0
 20
-7.1754530000000001
 30
0.0
 11
351.0
 21
-46.824547000000003
 31
0.0
  0
CIRCLE
  5
13B
  8
FIX
  6
CONTINUOUS
 62
    11
 10
351.0
 20
-27.0
 30
0.0
 40
20.0
  0
TEXT
  5
13D
  8
ETC
  6
CONTINUOUS
 62
    61
 10
340.65882299999998
 20
715.77819499999998
 30
0.0
 40
64.0
  1
CMB-RP108GB_2
 41
0.9
  0
LINE
  5
13E
  8
SIZE
  6
CONTINUOUS
 62
    30
 10
-351.0
 20
-4.5999999999999988
 30
0.0
 11
-351.0
 21
290.06571100000002
 31
0.0
  0
LINE
  5
13F
  8
SIZE
  6
CONTINUOUS
 62
    30
 10
351.0
 20
-4.5999999999999988
 30
0.0
 11
351.0
 21
290.06571100000002
 31
0.0
  0
LINE
  5
140
  8
SIZE
  6
CONTINUOUS
 62
    30
 10
-341.0
 20
260.06571100000002
 30
0.0
 11
341.0
 21
260.06571100000002
 31
0.0
  0
CIRCLE
  5
141
  8
SIZE
  6
CONTINUOUS
 62
    30
 10
-351.0
 20
260.06571100000002
 30
0.0
 40
5.0
  0
LINE
  5
142
  8
SIZE
  6
CONTINUOUS
 62
    30
 10
-346.0
 20
260.06571100000002
 30
0.0
 11
-341.0
 21
260.06571100000002
 31
0.0
  0
CIRCLE
  5
143
  8
SIZE
  6
CONTINUOUS
 62
    30
 10
351.0
 20
260.06571100000002
 30
0.0
 40
5.0
  0
LINE
  5
144
  8
SIZE
  6
CONTINUOUS
 62
    30
 10
346.0
 20
260.06571100000002
 30
0.0
 11
341.0
 21
260.06571100000002
 31
0.0
  0
TEXT
  5
145
  8
SIZE
  6
CONTINUOUS
 62
    30
 10
-230.02481429740871
 20
280.06571099999991
 30
0.0
 40
64.0
  1
702
 41
0.9
 72
     1
 11
-155.9676714402658
 21
280.06571099999991
 31
0.0
  0
POINT
  5
147
  8
DEFPOINTS
  6
CONTINUOUS
 62
     7
 10
351.0
 20
-27.0
 30
0.0
  0
POINT
  5
148
  8
DEFPOINTS
  6
CONTINUOUS
 62
     7
 10
351.0
 20
260.06571100000002
 30
0.0
  0
LINE
  5
149
  8
NOTE
  6
CONTINUOUS
 62
     4
 10
331.0
 20
-27.0
 30
0.0
 11
371.0
 21
-27.0
 31
0.0
  0
LINE
  5
14A
  8
SIZE
  6
CONTINUOUS
 62
    30
 10
-344.0
 20
0.0
 30
0.0
 11
-468.671515
 21
0.0
 31
0.0
  0
LINE
  5
14B
  8
SIZE
  6
CONTINUOUS
 62
    30
 10
-380.10395384144431
 20
-27.0
 30
0.0
 11
-468.671515
 21
-27.0
 31
0.0
  0
LINE
  5
14C
  8
SIZE
  6
CONTINUOUS
 62
    30
 10
-438.671515
 20
10.0
 30
0.0
 11
-438.671515
 21
110.14156673553219
 31
0.0
  0
LINE
  5
14D
  8
SIZE
  6
CONTINUOUS
 62
    30
 10
-438.671515
 20
-37.0
 30
0.0
 11
-438.671515
 21
-47.0
 31
0.0
  0
LINE
  5
14E
  8
SIZE
  6
CONTINUOUS
 62
    30
 10
-438.671515
 20
0.0
 30
0.0
 11
-438.671515
 21
-27.0
 31
0.0
  0
CIRCLE
  5
14F
  8
SIZE
  6
CONTINUOUS
 62
    30
 10
-438.671515
 20
0.0
 30
0.0
 40
5.0
  0
LINE
  5
150
  8
SIZE
  6
CONTINUOUS
 62
    30
 10
-438.671515
 20
5.0
 30
0.0
 11
-438.671515
 21
10.0
 31
0.0
  0
CIRCLE
  5
151
  8
SIZE
  6
CONTINUOUS
 62
    30
 10
-438.671515
 20
-27.0
 30
0.0
 40
5.0
  0
LINE
  5
152
  8
SIZE
  6
CONTINUOUS
 62
    30
 10
-438.671515
 20
-32.0
 30
0.0
 11
-438.671515
 21
-37.0
 31
0.0
  0
TEXT
  5
153
  8
SIZE
  6
CONTINUOUS
 62
    30
 10
-458.671515
 20
13.99112813799907
 30
0.0
 40
64.0
  1
27
 50
90.0
 41
0.9
 72
     1
 11
-458.671515
 21
60.619699566570489
 31
0.0
  0
POINT
  5
154
  8
DEFPOINTS
  6
CONTINUOUS
 62
     7
 10
-324.0
 20
0.0
 30
0.0
  0
POINT
  5
155
  8
DEFPOINTS
  6
CONTINUOUS
 62
     7
 10
-351.0
 20
-27.0
 30
0.0
  0
POINT
  5
156
  8
DEFPOINTS
  6
CONTINUOUS
 62
     7
 10
-438.671515
 20
-27.0
 30
0.0
  0
LINE
  5
157
  8
SIZE
  6
CONTINUOUS
 62
    30
 10
-324.0
 20
-304.0
 30
0.0
 11
-324.0
 21
-468.66388999999998
 31
0.0
  0
LINE
  5
158
  8
SIZE
  6
CONTINUOUS
 62
    30
 10
324.0
 20
-304.0
 30
0.0
 11
324.0
 21
-468.66388999999998
 31
0.0
  0
LINE
  5
159
  8
SIZE
  6
CONTINUOUS
 62
    30
 10
-314.0
 20
-438.66388999999998
 30
0.0
 11
314.0
 21
-438.66388999999998
 31
0.0
  0
CIRCLE
  5
15A
  8
SIZE
  6
CONTINUOUS
 62
    30
 10
-324.0
 20
-438.66388999999998
 30
0.0
 40
5.0
  0
LINE
  5
15B
  8
SIZE
  6
CONTINUOUS
 62
    30
 10
-319.0
 20
-438.66388999999998
 30
0.0
 11
-314.0
 21
-438.66388999999998
 31
0.0
  0
CIRCLE
  5
15C
  8
SIZE
  6
CONTINUOUS
 62
    30
 10
324.0
 20
-438.66388999999998
 30
0.0
 40
5.0
  0
LINE
  5
15D
  8
SIZE
  6
CONTINUOUS
 62
    30
 10
319.0
 20
-438.66388999999998
 30
0.0
 11
314.0
 21
-438.66388999999998
 31
0.0
  0
TEXT
  5
15E
  8
SIZE
  6
CONTINUOUS
 62
    30
 10
-81.091040857142829
 20
-418.66388999999998
 30
0.0
 40
64.0
  1
648
 41
0.9
 72
     1
 11
-7.0338979999999989
 21
-418.66388999999998
 31
0.0
  0
POINT
  5
15F
  8
DEFPOINTS
  6
CONTINUOUS
 62
     7
 10
-324.0
 20
-284.0
 30
0.0
  0
POINT
  5
160
  8
DEFPOINTS
  6
CONTINUOUS
 62
     7
 10
324.0
 20
-284.0
 30
0.0
  0
POINT
  5
161
  8
DEFPOINTS
  6
CONTINUOUS
 62
     7
 10
324.0
 20
-438.66388999999998
 30
0.0
  0
TEXT
  5
162
  8
SIZE
  6
CONTINUOUS
 62
    30
 10
-67.190864440265784
 20
299.87843299999997
 30
0.0
 40
35.0
  1
（吊りボルトピッチ）
 41
0.9
  0
LINE
  5
163
  8
BASIS
  6
DASHDOT
 62
     6
 10
0.0
 20
75.0
 30
0.0
 11
0.0
 21
-344.0
 31
0.0
  0
CIRCLE
  5
164
  8
ARRANGE
  6
CONTINUOUS
 62
     1
 10
0.0
 20
0.0
 30
0.0
 40
40.0
  0
POINT
  5
165
  8
ARRANGE
  6
CONTINUOUS
 62
     1
 10
0.0
 20
0.0
 30
0.0
  0
TEXT
  5
166
  8
NOTE
  6
CONTINUOUS
 62
     4
 10
414.09932700000002
 20
-107.219267
 30
0.0
 40
64.0
  1
AH4-12×14長穴
 41
0.9
  0
LINE
  5
16C
  8
NOTE
  6
CONTINUOUS
 62
     4
 10
351.58869199999998
 20
-37.336010999999999
 30
0.0
 11
351.0
 21
-27.0
 31
0.0
  0
LINE
  5
16D
  8
NOTE
  6
CONTINUOUS
 62
     4
 10
351.0
 20
-27.0
 30
0.0
 11
356.67782699999998
 21
-35.656902000000009
 31
0.0
  0
CIRCLE
  5
16E
  8
DETAIL
  6
CONTINUOUS
 62
     5
 10
-248.0
 20
-23.0
 30
0.0
 40
4.7599999999999989
  0
CIRCLE
  5
16F
  8
DETAIL
  6
CONTINUOUS
 62
     5
 10
-248.0
 20
-153.0
 30
0.0
 40
7.9400000000000004
  0
LINE
  5
17B
  8
DETAIL
  6
CONTINUOUS
 62
     5
 10
-394.0
 20
-45.299999999999997
 30
0.0
 11
-324.0
 21
-45.299999999999997
 31
0.0
  0
LINE
  5
17C
  8
DETAIL
  6
CONTINUOUS
 62
     5
 10
-394.0
 20
-70.700000000000003
 30
0.0
 11
-324.0
 21
-70.700000000000003
 31
0.0
  0
LINE
  5
17D
  8
DETAIL
  6
CONTINUOUS
 62
     5
 10
-394.0
 20
-118.47499999999999
 30
0.0
 11
-324.0
 21
-118.47499999999999
 31
0.0
  0
LINE
  5
17E
  8
DETAIL
  6
CONTINUOUS
 62
     5
 10
-394.0
 20
-137.52500000000001
 30
0.0
 11
-324.0
 21
-137.52500000000001
 31
0.0
  0
LINE
  5
17F
  8
DETAIL
  6
CONTINUOUS
 62
     5
 10
-394.0
 20
-45.299999999999997
 30
0.0
 11
-394.0
 21
-70.700000000000003
 31
0.0
  0
LINE
  5
180
  8
DETAIL
  6
CONTINUOUS
 62
     5
 10
-394.0
 20
-118.47499999999999
 30
0.0
 11
-394.0
 21
-137.52500000000001
 31
0.0
  0
LINE
  5
18D
  8
NOTE
  6
CONTINUOUS
 62
     4
 10
-531.86695300000008
 20
-263.307121
 30
0.0
 11
-524.0
 21
-255.0
 31
0.0
  0
LINE
  5
18F
  8
NOTE
  6
CONTINUOUS
 62
     4
 10
-248.75964358555299
 20
-163.32485387403861
 30
0.0
 11
-248.0
 21
-153.0
 31
0.0
  0
LINE
  5
190
  8
NOTE
  6
CONTINUOUS
 62
     4
 10
-248.0
 20
-153.0
 30
0.0
 11
-243.4954431286468
 21
-162.3214080098256
 31
0.0
  0
LINE
  5
193
  8
SIZE
  6
CONTINUOUS
 62
    30
 10
-248.0
 20
-2.6000000000000001
 30
0.0
 11
-248.0
 21
163.55035899999999
 31
0.0
  0
CIRCLE
  5
194
  8
SIZE
  6
CONTINUOUS
 62
    30
 10
-248.0
 20
133.55035899999999
 30
0.0
 40
5.0
  0
LINE
  5
195
  8
SIZE
  6
CONTINUOUS
 62
    30
 10
-243.0
 20
133.55035899999999
 30
0.0
 11
-238.0
 21
133.55035899999999
 31
0.0
  0
LINE
  5
196
  8
SIZE
  6
CONTINUOUS
 62
    30
 10
-344.0
 20
0.0
 30
0.0
 11
-724.87500299999999
 21
0.0
 31
0.0
  0
LINE
  5
197
  8
SIZE
  6
CONTINUOUS
 62
    30
 10
-424.2677532876732
 20
-58.0
 30
0.0
 11
-724.87500299999999
 21
-58.0
 31
0.0
  0
LINE
  5
198
  8
SIZE
  6
CONTINUOUS
 62
    30
 10
-694.87500299999999
 20
10.0
 30
0.0
 11
-694.87500299999999
 21
111.0958816670645
 31
0.0
  0
LINE
  5
199
  8
SIZE
  6
CONTINUOUS
 62
    30
 10
-694.87500299999999
 20
-68.0
 30
0.0
 11
-694.87500299999999
 21
-78.0
 31
0.0
  0
LINE
  5
19A
  8
SIZE
  6
CONTINUOUS
 62
    30
 10
-694.87500299999999
 20
0.0
 30
0.0
 11
-694.87500299999999
 21
-58.0
 31
0.0
  0
CIRCLE
  5
19B
  8
SIZE
  6
CONTINUOUS
 62
    30
 10
-694.87500299999999
 20
0.0
 30
0.0
 40
5.0
  0
LINE
  5
19C
  8
SIZE
  6
CONTINUOUS
 62
    30
 10
-694.87500299999999
 20
5.0
 30
0.0
 11
-694.87500299999999
 21
10.0
 31
0.0
  0
CIRCLE
  5
19D
  8
SIZE
  6
CONTINUOUS
 62
    30
 10
-694.87500299999999
 20
-58.0
 30
0.0
 40
5.0
  0
LINE
  5
19E
  8
SIZE
  6
CONTINUOUS
 62
    30
 10
-694.87500299999999
 20
-63.0
 30
0.0
 11
-694.87500299999999
 21
-68.0
 31
0.0
  0
TEXT
  5
19F
  8
SIZE
  6
CONTINUOUS
 62
    30
 10
-714.87500299999999
 20
14.6297990878174
 30
0.0
 40
64.0
  1
58
 50
90.0
 41
0.9
 72
     1
 11
-714.87500299999999
 21
61.258370516388823
 31
0.0
  0
POINT
  5
1A0
  8
DEFPOINTS
  6
CONTINUOUS
 62
     7
 10
-324.0
 20
0.0
 30
0.0
  0
POINT
  5
1A1
  8
DEFPOINTS
  6
CONTINUOUS
 62
     7
 10
-394.0
 20
-58.0
 30
0.0
  0
POINT
  5
1A2
  8
DEFPOINTS
  6
CONTINUOUS
 62
     7
 10
-694.87500299999999
 20
-58.0
 30
0.0
  0
LINE
  5
1A3
  8
SIZE
  6
CONTINUOUS
 62
    30
 10
-344.0
 20
0.0
 30
0.0
 11
-844.17849999999987
 21
0.0
 31
0.0
  0
LINE
  5
1A4
  8
SIZE
  6
CONTINUOUS
 62
    30
 10
-426.01888037135359
 20
-128.0
 30
0.0
 11
-844.17849999999987
 21
-128.0
 31
0.0
  0
LINE
  5
1A5
  8
SIZE
  6
CONTINUOUS
 62
    30
 10
-814.17849999999999
 20
0.0
 30
0.0
 11
-814.17849999999999
 21
-128.0
 31
0.0
  0
CIRCLE
  5
1A6
  8
SIZE
  6
CONTINUOUS
 62
    30
 10
-814.17849999999999
 20
0.0
 30
0.0
 40
5.0
  0
CIRCLE
  5
1A8
  8
SIZE
  6
CONTINUOUS
 62
    30
 10
-814.17849999999999
 20
-128.0
 30
0.0
 40
5.0
  0
TEXT
  5
1AA
  8
SIZE
  6
CONTINUOUS
 62
    30
 10
-834.17849999999987
 20
8.1691326113021745
 30
0.0
 40
64.0
  1
128
 50
90.0
 41
0.9
 72
     1
 11
-834.17849999999987
 21
76.740561182730744
 31
0.0
  0
POINT
  5
1AB
  8
DEFPOINTS
  6
CONTINUOUS
 62
     7
 10
-324.0
 20
0.0
 30
0.0
  0
POINT
  5
1AC
  8
DEFPOINTS
  6
CONTINUOUS
 62
     7
 10
-394.0
 20
-128.0
 30
0.0
  0
POINT
  5
1AD
  8
DEFPOINTS
  6
CONTINUOUS
 62
     7
 10
-814.17849999999999
 20
-128.0
 30
0.0
  0
LINE
  5
1AE
  8
SIZE
  6
CONTINUOUS
 62
    30
 10
-344.0
 20
0.0
 30
0.0
 11
-950.92371899999978
 21
0.0
 31
0.0
  0
LINE
  5
1AF
  8
SIZE
  6
CONTINUOUS
 62
    30
 10
-560.96643790930102
 20
-255.0
 30
0.0
 11
-950.92371899999978
 21
-255.0
 31
0.0
  0
LINE
  5
1B0
  8
SIZE
  6
CONTINUOUS
 62
    30
 10
-920.92371899999989
 20
-10.0
 30
0.0
 11
-920.92371899999989
 21
-245.0
 31
0.0
  0
CIRCLE
  5
1B1
  8
SIZE
  6
CONTINUOUS
 62
    30
 10
-920.92371899999989
 20
0.0
 30
0.0
 40
5.0
  0
LINE
  5
1B2
  8
SIZE
  6
CONTINUOUS
 62
    30
 10
-920.92371899999989
 20
-5.0
 30
0.0
 11
-920.92371899999989
 21
-10.0
 31
0.0
  0
CIRCLE
  5
1B3
  8
SIZE
  6
CONTINUOUS
 62
    30
 10
-920.92371899999989
 20
-255.0
 30
0.0
 40
5.0
  0
LINE
  5
1B4
  8
SIZE
  6
CONTINUOUS
 62
    30
 10
-920.92371899999989
 20
-250.0
 30
0.0
 11
-920.92371899999989
 21
-245.0
 31
0.0
  0
TEXT
  5
1B5
  8
SIZE
  6
CONTINUOUS
 62
    30
 10
-940.92371899999978
 20
-208.75203185714281
 30
0.0
 40
64.0
  1
255
 50
90.0
 41
0.9
 72
     1
 11
-940.92371899999978
 21
-134.69488899999999
 31
0.0
  0
POINT
  5
1B6
  8
DEFPOINTS
  6
CONTINUOUS
 62
     7
 10
-324.0
 20
0.0
 30
0.0
  0
POINT
  5
1B7
  8
DEFPOINTS
  6
CONTINUOUS
 62
     7
 10
-544.0
 20
-255.0
 30
0.0
  0
POINT
  5
1B8
  8
DEFPOINTS
  6
CONTINUOUS
 62
     7
 10
-920.92371899999989
 20
-255.0
 30
0.0
  0
LINE
  5
1B9
  8
SIZE
  6
CONTINUOUS
 62
    30
 10
-324.0
 20
-304.0
 30
0.0
 11
-324.0
 21
-468.79353200000003
 31
0.0
  0
LINE
  5
1BA
  8
SIZE
  6
CONTINUOUS
 62
    30
 10
-524.0
 20
-286.97585230855111
 30
0.0
 11
-524.0
 21
-468.79353200000003
 31
0.0
  0
LINE
  5
1BB
  8
SIZE
  6
CONTINUOUS
 62
    30
 10
-334.0
 20
-438.79353200000003
 30
0.0
 11
-514.0
 21
-438.79353200000003
 31
0.0
  0
CIRCLE
  5
1BC
  8
SIZE
  6
CONTINUOUS
 62
    30
 10
-324.0
 20
-438.79353200000003
 30
0.0
 40
5.0
  0
LINE
  5
1BD
  8
SIZE
  6
CONTINUOUS
 62
    30
 10
-329.0
 20
-438.79353200000003
 30
0.0
 11
-334.0
 21
-438.79353200000003
 31
0.0
  0
CIRCLE
  5
1BE
  8
SIZE
  6
CONTINUOUS
 62
    30
 10
-524.0
 20
-438.79353200000003
 30
0.0
 40
5.0
  0
LINE
  5
1BF
  8
SIZE
  6
CONTINUOUS
 62
    30
 10
-519.0
 20
-438.79353200000003
 30
0.0
 11
-514.0
 21
-438.79353200000003
 31
0.0
  0
TEXT
  5
1C0
  8
SIZE
  6
CONTINUOUS
 62
    30
 10
-490.55714285714282
 20
-418.79353199999991
 30
0.0
 40
64.0
  1
200
 41
0.9
 72
     1
 11
-416.5
 21
-418.79353199999991
 31
0.0
  0
POINT
  5
1C1
  8
DEFPOINTS
  6
CONTINUOUS
 62
     7
 10
-504.0
 20
-255.0
 30
0.0
  0
POINT
  5
1C2
  8
DEFPOINTS
  6
CONTINUOUS
 62
     7
 10
-544.0
 20
-255.0
 30
0.0
  0
POINT
  5
1C3
  8
DEFPOINTS
  6
CONTINUOUS
 62
     7
 10
-524.0
 20
-438.79353200000003
 30
0.0
  0
LINE
  5
1C4
  8
DETAIL
  6
CONTINUOUS
 62
     5
 10
-394.0
 20
-38.649999999999999
 30
0.0
 11
-324.0
 21
-38.649999999999999
 31
0.0
  0
LINE
  5
1C5
  8
NOTE
  6
CONTINUOUS
 62
     4
 10
-394.0
 20
-65.0
 30
0.0
 11
-394.0
 21
-25.0
 31
0.0
  0
LINE
  5
1C6
  8
NOTE
  6
CONTINUOUS
 62
     4
 10
-374.0
 20
-45.0
 30
0.0
 11
-414.0
 21
-45.0
 31
0.0
  0
LINE
  5
1C7
  8
SIZE
  6
CONTINUOUS
 62
    30
 10
-344.0
 20
0.0
 30
0.0
 11
-605.59569400000009
 21
0.0
 31
0.0
  0
LINE
  5
1C8
  8
SIZE
  6
CONTINUOUS
 62
    30
 10
-424.2677532876732
 20
-45.0
 30
0.0
 11
-605.59569400000009
 21
-45.0
 31
0.0
  0
LINE
  5
1C9
  8
SIZE
  6
CONTINUOUS
 62
    30
 10
-575.59569399999998
 20
10.0
 30
0.0
 11
-575.59569399999998
 21
112.0501965985968
 31
0.0
  0
LINE
  5
1CA
  8
SIZE
  6
CONTINUOUS
 62
    30
 10
-575.59569399999998
 20
-55.0
 30
0.0
 11
-575.59569399999998
 21
-65.0
 31
0.0
  0
LINE
  5
1CB
  8
SIZE
  6
CONTINUOUS
 62
    30
 10
-575.59569399999998
 20
0.0
 30
0.0
 11
-575.59569399999998
 21
-45.0
 31
0.0
  0
CIRCLE
  5
1CC
  8
SIZE
  6
CONTINUOUS
 62
    30
 10
-575.59569399999998
 20
0.0
 30
0.0
 40
5.0
  0
LINE
  5
1CD
  8
SIZE
  6
CONTINUOUS
 62
    30
 10
-575.59569399999998
 20
5.0
 30
0.0
 11
-575.59569399999998
 21
10.0
 31
0.0
  0
CIRCLE
  5
1CE
  8
SIZE
  6
CONTINUOUS
 62
    30
 10
-575.59569399999998
 20
-45.0
 30
0.0
 40
5.0
  0
LINE
  5
1CF
  8
SIZE
  6
CONTINUOUS
 62
    30
 10
-575.59569399999998
 20
-50.0
 30
0.0
 11
-575.59569399999998
 21
-55.0
 31
0.0
  0
TEXT
  5
1D0
  8
SIZE
  6
CONTINUOUS
 62
    30
 10
-595.59569399999998
 20
13.664026034219161
 30
0.0
 40
64.0
  1
45
 50
90.0
 41
0.9
 72
     1
 11
-595.59569399999998
 21
60.292597462790582
 31
0.0
  0
POINT
  5
1D1
  8
DEFPOINTS
  6
CONTINUOUS
 62
     7
 10
-324.0
 20
0.0
 30
0.0
  0
POINT
  5
1D3
  8
DEFPOINTS
  6
CONTINUOUS
 62
     7
 10
-575.59569399999998
 20
-45.0
 30
0.0
  0
LINE
  5
1F0
  8
NOTE
  6
CONTINUOUS
 62
     4
 10
-403.68719741752489
 20
-131.65210797886621
 30
0.0
 11
-394.0
 21
-128.0
 31
0.0
  0
LINE
  5
1F1
  8
NOTE
  6
CONTINUOUS
 62
     4
 10
-394.0
 20
-128.0
 30
0.0
 11
-400.5633046894564
 21
-136.00641710813369
 31
0.0
  0
LINE
  5
1F2
  8
NOTE
  6
CONTINUOUS
 62
     4
 10
-402.97383061317493
 20
-52.837632350918852
 30
0.0
 11
-394.0
 21
-58.0
 31
0.0
  0
LINE
  5
1F3
  8
NOTE
  6
CONTINUOUS
 62
     4
 10
-394.0
 20
-58.0
 30
0.0
 11
-399.19038168117652
 21
-49.042342952903333
 31
0.0
  0
LINE
  5
1F4
  8
NOTE
  6
CONTINUOUS
 62
     4
 10
-397.70140266139629
 20
-35.331531055827909
 30
0.0
 11
-394.0
 21
-45.0
 31
0.0
  0
LINE
  5
1F5
  8
NOTE
  6
CONTINUOUS
 62
     4
 10
-394.0
 20
-45.0
 30
0.0
 11
-392.37127392046159
 21
-34.776158403085631
 31
0.0
  0
LINE
  5
202
  8
DETAIL
  6
CONTINUOUS
 62
     5
 10
9.0
 20
-45.600000000000001
 30
0.0
 11
35.0
 21
-45.600000000000001
 31
0.0
  0
LINE
  5
209
  8
DETAIL
  6
CONTINUOUS
 62
     5
 10
-51.0
 20
-45.600000000000001
 30
0.0
 11
-25.0
 21
-45.600000000000001
 31
0.0
  0
LINE
  5
211
  8
DETAIL
  6
CONTINUOUS
 62
     5
 10
-22.0
 20
-42.600000000000001
 30
0.0
 11
-25.0
 21
-45.600000000000001
 31
0.0
  0
LINE
  5
213
  8
DETAIL
  6
CONTINUOUS
 62
     5
 10
9.0
 20
-45.600000000000001
 30
0.0
 11
6.0
 21
-42.600000000000001
 31
0.0
  0
LINE
  5
226
  8
DETAIL
  6
CONTINUOUS
 62
     5
 10
38.0
 20
-42.600000000000001
 30
0.0
 11
35.0
 21
-45.600000000000001
 31
0.0
  0
LINE
  5
228
  8
DETAIL
  6
CONTINUOUS
 62
     5
 10
69.0
 20
-45.600000000000001
 30
0.0
 11
66.0
 21
-42.600000000000001
 31
0.0
  0
LINE
  5
237
  8
NOTE
  6
CONTINUOUS
 62
     4
 10
178.3896212513211
 20
-14.85430041440083
 30
0.0
 11
172.0
 21
-23.0
 31
0.0
  0
LINE
  5
238
  8
NOTE
  6
CONTINUOUS
 62
     4
 10
172.0
 20
-23.0
 30
0.0
 11
181.6064236030663
 21
-19.140427954829711
 31
0.0
  0
LINE
  5
245
  8
DETAIL
  6
CONTINUOUS
 62
     5
 10
129.0
 20
-45.600000000000001
 30
0.0
 11
155.0
 21
-45.600000000000001
 31
0.0
  0
LINE
  5
24C
  8
DETAIL
  6
CONTINUOUS
 62
     5
 10
69.0
 20
-45.600000000000001
 30
0.0
 11
95.0
 21
-45.600000000000001
 31
0.0
  0
LINE
  5
254
  8
DETAIL
  6
CONTINUOUS
 62
     5
 10
98.0
 20
-42.600000000000001
 30
0.0
 11
95.0
 21
-45.600000000000001
 31
0.0
  0
LINE
  5
256
  8
DETAIL
  6
CONTINUOUS
 62
     5
 10
129.0
 20
-45.600000000000001
 30
0.0
 11
126.0
 21
-42.600000000000001
 31
0.0
  0
LINE
  5
269
  8
DETAIL
  6
CONTINUOUS
 62
     5
 10
158.0
 20
-42.600000000000001
 30
0.0
 11
155.0
 21
-45.600000000000001
 31
0.0
  0
LINE
  5
26B
  8
DETAIL
  6
CONTINUOUS
 62
     5
 10
189.0
 20
-45.600000000000001
 30
0.0
 11
186.0
 21
-42.600000000000001
 31
0.0
  0
LINE
  5
275
  8
DETAIL
  6
CONTINUOUS
 62
     5
 10
189.0
 20
-45.600000000000001
 30
0.0
 11
320.0
 21
-45.600000000000001
 31
0.0
  0
LINE
  5
276
  8
SIZE
  6
CONTINUOUS
 62
    30
 10
-248.0
 20
-2.6000000000000001
 30
0.0
 11
-248.0
 21
166.890637
 31
0.0
  0
LINE
  5
277
  8
SIZE
  6
CONTINUOUS
 62
    30
 10
172.0
 20
-2.6000000000000001
 30
0.0
 11
172.0
 21
166.890637
 31
0.0
  0
LINE
  5
278
  8
SIZE
  6
CONTINUOUS
 62
    30
 10
-238.0
 20
136.890637
 30
0.0
 11
162.0
 21
136.890637
 31
0.0
  0
CIRCLE
  5
279
  8
SIZE
  6
CONTINUOUS
 62
    30
 10
-248.0
 20
136.890637
 30
0.0
 40
5.0
  0
LINE
  5
27A
  8
SIZE
  6
CONTINUOUS
 62
    30
 10
-243.0
 20
136.890637
 30
0.0
 11
-238.0
 21
136.890637
 31
0.0
  0
CIRCLE
  5
27B
  8
SIZE
  6
CONTINUOUS
 62
    30
 10
172.0
 20
136.890637
 30
0.0
 40
5.0
  0
LINE
  5
27C
  8
SIZE
  6
CONTINUOUS
 62
    30
 10
167.0
 20
136.890637
 30
0.0
 11
162.0
 21
136.890637
 31
0.0
  0
TEXT
  5
27D
  8
SIZE
  6
CONTINUOUS
 62
    30
 10
-171.64358214285701
 20
156.890637
 30
0.0
 40
64.0
  1
60×7＝420
 41
0.9
 72
     1
 11
53.81927499999999
 21
156.890637
 31
0.0
  0
POINT
  5
27E
  8
DEFPOINTS
  6
CONTINUOUS
 62
     7
 10
-248.0
 20
-23.0
 30
0.0
  0
POINT
  5
280
  8
DEFPOINTS
  6
CONTINUOUS
 62
     7
 10
172.0
 20
136.890637
 30
0.0
  0
LINE
  5
281
  8
OUTLINE
  6
CONTINUOUS
 62
     3
 10
-324.0
 20
0.0
 30
0.0
 11
324.0
 21
0.0
 31
0.0
  0
LINE
  5
282
  8
OUTLINE
  6
CONTINUOUS
 62
     3
 10
324.0
 20
0.0
 30
0.0
 11
324.0
 21
-284.0
 31
0.0
  0
LINE
  5
283
  8
OUTLINE
  6
CONTINUOUS
 62
     3
 10
324.0
 20
-284.0
 30
0.0
 11
-324.0
 21
-284.0
 31
0.0
  0
LINE
  5
284
  8
OUTLINE
  6
CONTINUOUS
 62
     3
 10
-324.0
 20
-284.0
 30
0.0
 11
-324.0
 21
0.0
 31
0.0
  0
TEXT
  5
3A8
  8
NOTE
  6
CONTINUOUS
 62
     4
 10
-2154.7333596957842
 20
440.81892943503061
 30
0.0
 40
64.0
  1
分流コントローラ親機配管接続口（低圧）
 41
0.9
 72
     2
 11
-887.53335969578313
 21
440.81892943503061
 31
0.0
  0
TEXT
  5
3A9
  8
NOTE
  6
CONTINUOUS
 62
     4
 10
-2055.9599566957831
 20
286.88137243503053
 30
0.0
 40
50.0
  1
224以下：φ19.05（付属配管を使用）
 41
0.9
  0
TEXT
  5
3AA
  8
NOTE
  6
CONTINUOUS
 62
     4
 10
-2132.6019576957829
 20
215.8522484350309
 30
0.0
 40
50.0
  1
225～335：φ22.2
 41
0.9
  0
TEXT
  5
3AB
  8
NOTE
  6
CONTINUOUS
 62
     4
 10
-2057.3257576957831
 20
143.89723143503059
 30
0.0
 40
50.0
  1
336以上：φ25.4（付属配管を使用）
 41
0.9
  0
TEXT
  5
3AC
  8
NOTE
  6
CONTINUOUS
 62
     4
 10
-2061.5227308200269
 20
-383.85006972910583
 30
0.0
 40
64.0
  1
分流コントローラ親機配管接続口(高圧)
 41
0.9
 72
     2
 11
-828.88273082002661
 21
-383.85006972910583
 31
0.0
  0
TEXT
  5
3AD
  8
NOTE
  6
CONTINUOUS
 62
     4
 10
-2048.135564820027
 20
-481.10795557446562
 30
0.0
 40
50.0
  1
子機側室内ユニット合計容量
 41
0.9
  0
TEXT
  5
3AE
  8
NOTE
  6
CONTINUOUS
 62
     4
 10
-2048.135564820027
 20
-563.60795557446568
 30
0.0
 40
50.0
  1
224以下：φ15.88(付属配管を使用)
 41
0.9
  0
TEXT
  5
3AF
  8
NOTE
  6
CONTINUOUS
 62
     4
 10
-2048.135564820027
 20
-646.10795557446568
 30
0.0
 40
50.0
  1
225以上：φ19.05
 41
0.9
  0
TEXT
  5
3B0
  8
NOTE
  6
CONTINUOUS
 62
     4
 10
-1679.0586256753461
 20
894.8581076808324
 30
0.0
 40
64.0
  1
分流コントローラ親機配管接続口(液)
 41
0.9
 72
     2
 11
-515.53862567534679
 21
894.8581076808324
 31
0.0
  0
TEXT
  5
3B1
  8
NOTE
  6
CONTINUOUS
 62
     4
 10
-2142.6423232418242
 20
356.00974544786732
 30
0.0
 40
50.0
  1
子機側室内ユニット合計容量
 41
0.9
  0
TEXT
  5
3B2
  8
NOTE
  6
CONTINUOUS
 62
     4
 10
-1684.459813675347
 20
801.16912968930944
 30
0.0
 40
50.0
  1
子機側室内ユニット合計容量
 41
0.9
  0
TEXT
  5
3B3
  8
NOTE
  6
CONTINUOUS
 62
     4
 10
-1684.459813675347
 20
718.66912968930944
 30
0.0
 40
50.0
  1
335以下：φ9.52
 41
0.9
  0
TEXT
  5
3B4
  8
NOTE
  6
CONTINUOUS
 62
     4
 10
-1684.459813675347
 20
636.16912968930944
 30
0.0
 40
50.0
  1
336以上：φ12.7(付属配管を使用)
 41
0.9
  0
TEXT
  5
3B5
  8
NOTE
  6
CONTINUOUS
 62
     4
 10
441.27667855208949
 20
176.98584810543221
 30
0.0
 40
64.0
  1
室内ユニット側配管接続口（液）
 41
0.9
 72
     2
 11
1431.9966785520901
 21
176.98584810543221
 31
0.0
  0
TEXT
  5
3B6
  8
NOTE
  6
CONTINUOUS
 62
     4
 10
634.9659487496051
 20
82.039062326322096
 30
0.0
 40
50.0
  1
φ9.52
 41
0.9
  0
TEXT
  5
3B7
  8
NOTE
  6
CONTINUOUS
 62
     4
 10
-119.63877982788129
 20
-615.84744754984024
 30
0.0
 40
64.0
  1
室内ユニット側配管接続口（ガス）
 41
0.9
 72
     2
 11
940.20122017211861
 21
-615.84744754984024
 31
0.0
  0
TEXT
  5
3B8
  8
NOTE
  6
CONTINUOUS
 62
     4
 10
57.027873947542503
 20
-721.05933529024469
 30
0.0
 40
50.0
  1
φ15.88
 41
0.9
  0
LINE
  5
3B9
  8
NOTE
  6
CONTINUOUS
 62
     4
 10
1461.9966785520901
 20
156.9858481054325
 30
0.0
 11
406.16810655208968
 21
156.9858481054325
 31
0.0
  0
LINE
  5
3BA
  8
NOTE
  6
CONTINUOUS
 62
     4
 10
995.57326441757505
 20
-641.67927629024405
 30
0.0
 11
-166.1525064766283
 21
-641.67927629024405
 31
0.0
  0
LINE
  5
3BB
  8
NOTE
  6
CONTINUOUS
 62
     4
 10
-823.63323382002625
 20
-408.6295135744657
 30
0.0
 11
-2058.306758820027
 21
-408.6295135744657
 31
0.0
  0
LINE
  5
3BD
  8
NOTE
  6
CONTINUOUS
 62
     4
 10
-485.53862567534679
 20
870.12385568930961
 30
0.0
 11
-1679.058625675347
 21
870.12385568930961
 31
0.0
  0
LINE
  5
3BE
  8
NOTE
  6
CONTINUOUS
 62
     4
 10
-867.53335969578325
 20
420.81892943503061
 30
0.0
 11
-2186.033132695783
 21
420.81892943503061
 31
0.0
  0
TEXT
  5
3BF
  8
NOTE
  6
CONTINUOUS
 62
     4
 10
-1199.8775502427011
 20
-837.52380743819697
 30
0.0
 40
64.0
  1
D　VP-25
 41
0.9
 72
     2
 11
-796.12897881413028
 21
-837.52380743819697
 31
0.0
  0
LINE
  5
3C0
  8
NOTE
  6
CONTINUOUS
 62
     4
 10
-766.12897881413073
 20
-857.52380743819708
 30
0.0
 11
-1220.5661844454651
 21
-857.52380743819708
 31
0.0
  0
LINE
  5
3C1
  8
NOTE
  6
CONTINUOUS
 62
     4
 10
172.0
 20
-23.0
 30
0.0
 11
406.16810655208968
 21
156.9858481054325
 31
0.0
  0
LINE
  5
3C5
  8
NOTE
  6
CONTINUOUS
 62
     4
 10
-394.0
 20
-45.0
 30
0.0
 11
-485.53862567534679
 21
870.12385568930961
 31
0.0
  0
LINE
  5
3C7
  8
NOTE
  6
CONTINUOUS
 62
     4
 10
-394.0
 20
-58.0
 30
0.0
 11
-867.53335969578325
 21
420.81892943503061
 31
0.0
  0
LINE
  5
3C9
  8
NOTE
  6
CONTINUOUS
 62
     4
 10
-394.0
 20
-128.0
 30
0.0
 11
-823.63323382002625
 21
-408.6295135744657
 31
0.0
  0
LINE
  5
3CB
  8
NOTE
  6
CONTINUOUS
 62
     4
 10
-524.0
 20
-255.0
 30
0.0
 11
-766.12897881413073
 21
-857.52380743819708
 31
0.0
  0
LINE
  5
3CD
  8
NOTE
  6
CONTINUOUS
 62
     4
 10
-248.0
 20
-153.0
 30
0.0
 11
-166.1525064766283
 21
-641.67927629024405
 31
0.0
  0
LINE
  5
3CF
  8
NOTE
  6
CONTINUOUS
 62
     4
 10
351.0
 20
-27.0
 30
0.0
 11
384.09932700000002
 21
-127.219267
 31
0.0
  0
LINE
  5
3D0
  8
NOTE
  6
CONTINUOUS
 62
     4
 10
384.09932700000002
 20
-127.219267
 30
0.0
 11
1065.8021839999999
 21
-127.219267
 31
0.0
  0
LINE
  5
3E9
  8
SIZE
  6
CONTINUOUS
 62
    30
 10
-815.02800592209496
 20
-137.92730552009161
 30
0.0
 11
-815.02800592209496
 21
-147.92730552009161
 31
0.0
  0
LINE
  5
3EA
  8
SIZE
  6
CONTINUOUS
 62
    30
 10
-815.02800592209496
 20
-132.92730552009161
 30
0.0
 11
-815.02800592209496
 21
-137.92730552009161
 31
0.0
  0
LINE
  5
3F3
  8
SIZE
  6
CONTINUOUS
 62
    30
 10
-814.17850926685503
 20
10.00000283856934
 30
0.0
 11
-814.17850926685503
 21
152.08521611752801
 31
0.0
  0
LINE
  5
3F4
  8
SIZE
  6
CONTINUOUS
 62
    30
 10
-814.17850926685503
 20
5.000002838569344
 30
0.0
 11
-814.17850926685503
 21
10.00000283856934
 31
0.0
  0
LINE
  5
417
  8
NOTE
  6
CONTINUOUS
 62
     4
 10
-523.99999922521215
 20
-254.99999024453089
 30
0.0
 11
-526.03020739897488
 21
-266.25945131440619
 31
0.0
  0
LINE
  5
421
  8
DETAIL
  6
CONTINUOUS
 62
     5
 10
-394.0
 20
-38.649999999999999
 30
0.0
 11
-394.00000339463759
 21
-45.300000171119237
 31
0.0
  0
LINE
  5
451
  8
DETAIL
  6
CONTINUOUS
 62
     5
 10
-205.0
 20
-153.0
 30
0.0
 11
-205.0
 21
-168.19999999999999
 31
0.0
  0
LINE
  5
452
  8
DETAIL
  6
CONTINUOUS
 62
     5
 10
-171.0
 20
-168.19999999999999
 30
0.0
 11
-171.0
 21
-153.0
 31
0.0
  0
LINE
  5
453
  8
DETAIL
  6
CONTINUOUS
 62
     5
 10
-172.899619
 20
-153.0
 30
0.0
 11
-180.44981000000001
 21
-166.077314
 31
0.0
  0
LINE
  5
454
  8
DETAIL
  6
CONTINUOUS
 62
     5
 10
-203.100381
 20
-153.0
 30
0.0
 11
-195.55018999999999
 21
-166.077314
 31
0.0
  0
LINE
  5
455
  8
DETAIL
  6
CONTINUOUS
 62
     5
 10
-195.55018999999999
 20
-166.077314
 30
0.0
 11
-180.44981000000001
 21
-166.077314
 31
0.0
  0
ARC
  5
456
  8
DETAIL
  6
CONTINUOUS
 62
     5
 10
-188.0
 20
-153.0
 30
0.0
 40
17.0
 50
0.0
 51
180.0
  0
LINE
  5
457
  8
NOTE
  6
CONTINUOUS
 62
     4
 10
-173.89955800000001
 20
-153.0
 30
0.0
 11
-202.10044199999999
 21
-153.0
 31
0.0
  0
LINE
  5
458
  8
DETAIL
  6
CONTINUOUS
 62
     5
 10
-180.44981000000001
 20
-139.922686
 30
0.0
 11
-195.55018999999999
 21
-139.922686
 31
0.0
  0
CIRCLE
  5
459
  8
DETAIL
  6
CONTINUOUS
 62
     5
 10
-188.0
 20
-153.0
 30
0.0
 40
11.100441999999999
  0
LINE
  5
45A
  8
DETAIL
  6
CONTINUOUS
 62
     5
 10
-195.55018999999999
 20
-139.922686
 30
0.0
 11
-203.100381
 21
-153.0
 31
0.0
  0
LINE
  5
45B
  8
DETAIL
  6
CONTINUOUS
 62
     5
 10
-172.899619
 20
-153.0
 30
0.0
 11
-180.44981000000001
 21
-139.922686
 31
0.0
  0
LINE
  5
45C
  8
DETAIL
  6
CONTINUOUS
 62
     5
 10
-202.0
 20
-23.000000000000011
 30
0.0
 11
-202.0
 21
-42.600000000000001
 31
0.0
  0
LINE
  5
45D
  8
DETAIL
  6
CONTINUOUS
 62
     5
 10
-174.0
 20
-23.000000000000011
 30
0.0
 11
-174.0
 21
-42.600000000000001
 31
0.0
  0
LINE
  5
45E
  8
NOTE
  6
CONTINUOUS
 62
     4
 10
-188.0
 20
-34.000316000000012
 30
0.0
 11
-188.0
 21
-11.999684000000009
 31
0.0
  0
LINE
  5
45F
  8
DETAIL
  6
CONTINUOUS
 62
     5
 10
-177.02946800000001
 20
-23.000000000000011
 30
0.0
 11
-182.514734
 21
-32.500759000000023
 31
0.0
  0
LINE
  5
460
  8
DETAIL
  6
CONTINUOUS
 62
     5
 10
-193.485266
 20
-32.500759000000023
 30
0.0
 11
-198.97053199999999
 21
-23.000000000000011
 31
0.0
  0
CIRCLE
  5
461
  8
DETAIL
  6
CONTINUOUS
 62
     5
 10
-188.0
 20
-23.000000000000011
 30
0.0
 40
8.0003159999999998
  0
LINE
  5
462
  8
DETAIL
  6
CONTINUOUS
 62
     5
 10
-202.0
 20
-36.600000000000001
 30
0.0
 11
-174.0
 21
-36.600000000000001
 31
0.0
  0
LINE
  5
463
  8
DETAIL
  6
CONTINUOUS
 62
     5
 10
-182.514734
 20
-32.500759000000023
 30
0.0
 11
-193.485266
 21
-32.500759000000023
 31
0.0
  0
ARC
  5
464
  8
DETAIL
  6
CONTINUOUS
 62
     5
 10
-188.0
 20
-23.000000000000011
 30
0.0
 40
14.0
 50
0.0
 51
180.0
  0
LINE
  5
465
  8
NOTE
  6
CONTINUOUS
 62
     4
 10
-176.99968399999989
 20
-23.000000000000011
 30
0.0
 11
-199.000316
 21
-23.000000000000011
 31
0.0
  0
LINE
  5
466
  8
DETAIL
  6
CONTINUOUS
 62
     5
 10
-193.485266
 20
-13.499241000000019
 30
0.0
 11
-182.514734
 21
-13.499241000000019
 31
0.0
  0
LINE
  5
467
  8
DETAIL
  6
CONTINUOUS
 62
     5
 10
-198.97053199999999
 20
-23.000000000000011
 30
0.0
 11
-193.485266
 21
-13.499241000000019
 31
0.0
  0
LINE
  5
468
  8
DETAIL
  6
CONTINUOUS
 62
     5
 10
-177.02946800000001
 20
-23.000000000000011
 30
0.0
 11
-182.514734
 21
-13.499241000000019
 31
0.0
  0
POINT
  5
469
  8
DEFPOINTS
  6
CONTINUOUS
 62
     7
 10
-188.0
 20
-23.000000000000011
 30
0.0
  0
POINT
  5
46A
  8
DEFPOINTS
  6
CONTINUOUS
 62
     7
 10
-188.0
 20
-23.000000000000011
 30
0.0
  0
CIRCLE
  5
46B
  8
DETAIL
  6
CONTINUOUS
 62
     5
 10
-188.0
 20
-23.000000000000011
 30
0.0
 40
4.7599999999999989
  0
CIRCLE
  5
46C
  8
DETAIL
  6
CONTINUOUS
 62
     5
 10
-188.0
 20
-153.0
 30
0.0
 40
7.9400000000000004
  0
POINT
  5
46E
  8
DEFPOINTS
  6
CONTINUOUS
 62
     7
 10
-188.0
 20
-23.000000000000011
 30
0.0
  0
LINE
  5
493
  8
DETAIL
  6
CONTINUOUS
 62
     5
 10
-145.0
 20
-153.0
 30
0.0
 11
-145.0
 21
-168.19999999999999
 31
0.0
  0
LINE
  5
494
  8
DETAIL
  6
CONTINUOUS
 62
     5
 10
-111.0
 20
-168.19999999999999
 30
0.0
 11
-111.0
 21
-153.0
 31
0.0
  0
LINE
  5
495
  8
DETAIL
  6
CONTINUOUS
 62
     5
 10
-112.899619
 20
-153.0
 30
0.0
 11
-120.44981
 21
-166.077314
 31
0.0
  0
LINE
  5
496
  8
DETAIL
  6
CONTINUOUS
 62
     5
 10
-143.100381
 20
-153.0
 30
0.0
 11
-135.55018999999999
 21
-166.077314
 31
0.0
  0
LINE
  5
497
  8
DETAIL
  6
CONTINUOUS
 62
     5
 10
-135.55018999999999
 20
-166.077314
 30
0.0
 11
-120.44981
 21
-166.077314
 31
0.0
  0
ARC
  5
498
  8
DETAIL
  6
CONTINUOUS
 62
     5
 10
-128.0
 20
-153.0
 30
0.0
 40
17.0
 50
0.0
 51
180.0
  0
LINE
  5
499
  8
NOTE
  6
CONTINUOUS
 62
     4
 10
-113.899558
 20
-153.0
 30
0.0
 11
-142.10044199999999
 21
-153.0
 31
0.0
  0
LINE
  5
49A
  8
DETAIL
  6
CONTINUOUS
 62
     5
 10
-120.44981
 20
-139.922686
 30
0.0
 11
-135.55018999999999
 21
-139.922686
 31
0.0
  0
CIRCLE
  5
49B
  8
DETAIL
  6
CONTINUOUS
 62
     5
 10
-128.0
 20
-153.0
 30
0.0
 40
11.100441999999999
  0
LINE
  5
49C
  8
DETAIL
  6
CONTINUOUS
 62
     5
 10
-135.55018999999999
 20
-139.922686
 30
0.0
 11
-143.100381
 21
-153.0
 31
0.0
  0
LINE
  5
49D
  8
DETAIL
  6
CONTINUOUS
 62
     5
 10
-112.899619
 20
-153.0
 30
0.0
 11
-120.44981
 21
-139.922686
 31
0.0
  0
LINE
  5
49E
  8
DETAIL
  6
CONTINUOUS
 62
     5
 10
-142.0
 20
-23.000000000000011
 30
0.0
 11
-142.0
 21
-42.600000000000001
 31
0.0
  0
LINE
  5
49F
  8
DETAIL
  6
CONTINUOUS
 62
     5
 10
-114.0
 20
-23.000000000000011
 30
0.0
 11
-114.0
 21
-42.600000000000001
 31
0.0
  0
LINE
  5
4A0
  8
NOTE
  6
CONTINUOUS
 62
     4
 10
-128.0
 20
-34.000316000000012
 30
0.0
 11
-128.0
 21
-11.999684000000009
 31
0.0
  0
LINE
  5
4A1
  8
DETAIL
  6
CONTINUOUS
 62
     5
 10
-117.02946799999999
 20
-23.000000000000011
 30
0.0
 11
-122.5147339999999
 21
-32.500759000000023
 31
0.0
  0
LINE
  5
4A2
  8
DETAIL
  6
CONTINUOUS
 62
     5
 10
-133.485266
 20
-32.500759000000023
 30
0.0
 11
-138.97053199999999
 21
-23.000000000000011
 31
0.0
  0
CIRCLE
  5
4A3
  8
DETAIL
  6
CONTINUOUS
 62
     5
 10
-128.0
 20
-23.000000000000011
 30
0.0
 40
8.0003159999999998
  0
LINE
  5
4A4
  8
DETAIL
  6
CONTINUOUS
 62
     5
 10
-142.0
 20
-36.600000000000001
 30
0.0
 11
-114.0
 21
-36.600000000000001
 31
0.0
  0
LINE
  5
4A5
  8
DETAIL
  6
CONTINUOUS
 62
     5
 10
-122.5147339999999
 20
-32.500759000000023
 30
0.0
 11
-133.485266
 21
-32.500759000000023
 31
0.0
  0
ARC
  5
4A6
  8
DETAIL
  6
CONTINUOUS
 62
     5
 10
-128.0
 20
-23.000000000000011
 30
0.0
 40
14.0
 50
0.0
 51
180.0
  0
LINE
  5
4A7
  8
NOTE
  6
CONTINUOUS
 62
     4
 10
-116.999684
 20
-23.000000000000011
 30
0.0
 11
-139.000316
 21
-23.000000000000011
 31
0.0
  0
LINE
  5
4A8
  8
DETAIL
  6
CONTINUOUS
 62
     5
 10
-133.485266
 20
-13.499241000000019
 30
0.0
 11
-122.5147339999999
 21
-13.499241000000019
 31
0.0
  0
LINE
  5
4A9
  8
DETAIL
  6
CONTINUOUS
 62
     5
 10
-138.97053199999999
 20
-23.000000000000011
 30
0.0
 11
-133.485266
 21
-13.499241000000019
 31
0.0
  0
LINE
  5
4AA
  8
DETAIL
  6
CONTINUOUS
 62
     5
 10
-117.02946799999999
 20
-23.000000000000011
 30
0.0
 11
-122.5147339999999
 21
-13.499241000000019
 31
0.0
  0
POINT
  5
4AB
  8
DEFPOINTS
  6
CONTINUOUS
 62
     7
 10
-128.0
 20
-23.000000000000011
 30
0.0
  0
POINT
  5
4AC
  8
DEFPOINTS
  6
CONTINUOUS
 62
     7
 10
-128.0
 20
-23.000000000000011
 30
0.0
  0
CIRCLE
  5
4AD
  8
DETAIL
  6
CONTINUOUS
 62
     5
 10
-128.0
 20
-23.000000000000011
 30
0.0
 40
4.7599999999999989
  0
CIRCLE
  5
4AE
  8
DETAIL
  6
CONTINUOUS
 62
     5
 10
-128.0
 20
-153.0
 30
0.0
 40
7.9400000000000004
  0
POINT
  5
4B0
  8
DEFPOINTS
  6
CONTINUOUS
 62
     7
 10
-128.0
 20
-23.000000000000011
 30
0.0
  0
LINE
  5
632
  8
NOTE
  6
CONTINUOUS
 62
     4
 10
-188.0
 20
-138.89955800000001
 30
0.0
 11
-188.0
 21
-167.10044199999999
 31
0.0
  0
LINE
  5
63A
  8
NOTE
  6
CONTINUOUS
 62
     4
 10
-128.0
 20
-138.89955800000001
 30
0.0
 11
-128.0
 21
-167.10044199999999
 31
0.0
  0
LINE
  5
67D
  8
DETAIL
  6
CONTINUOUS
 62
     5
 10
-85.0
 20
-153.0
 30
0.0
 11
-85.0
 21
-168.19999999999999
 31
0.0
  0
LINE
  5
67E
  8
DETAIL
  6
CONTINUOUS
 62
     5
 10
-51.0
 20
-168.19999999999999
 30
0.0
 11
-51.0
 21
-153.0
 31
0.0
  0
LINE
  5
67F
  8
DETAIL
  6
CONTINUOUS
 62
     5
 10
-52.899619000000001
 20
-153.0
 30
0.0
 11
-60.449810000000006
 21
-166.077314
 31
0.0
  0
LINE
  5
680
  8
DETAIL
  6
CONTINUOUS
 62
     5
 10
-83.100381000000027
 20
-153.0
 30
0.0
 11
-75.550189999999986
 21
-166.077314
 31
0.0
  0
LINE
  5
681
  8
DETAIL
  6
CONTINUOUS
 62
     5
 10
-75.550189999999986
 20
-166.077314
 30
0.0
 11
-60.449810000000006
 21
-166.077314
 31
0.0
  0
ARC
  5
682
  8
DETAIL
  6
CONTINUOUS
 62
     5
 10
-68.0
 20
-153.0
 30
0.0
 40
17.0
 50
0.0
 51
180.0
  0
LINE
  5
683
  8
NOTE
  6
CONTINUOUS
 62
     4
 10
-53.899558000000013
 20
-153.0
 30
0.0
 11
-82.100441999999987
 21
-153.0
 31
0.0
  0
LINE
  5
684
  8
DETAIL
  6
CONTINUOUS
 62
     5
 10
-60.449810000000006
 20
-139.922686
 30
0.0
 11
-75.550189999999986
 21
-139.922686
 31
0.0
  0
CIRCLE
  5
685
  8
DETAIL
  6
CONTINUOUS
 62
     5
 10
-68.0
 20
-153.0
 30
0.0
 40
11.100441999999999
  0
LINE
  5
686
  8
DETAIL
  6
CONTINUOUS
 62
     5
 10
-75.550189999999986
 20
-139.922686
 30
0.0
 11
-83.100381000000027
 21
-153.0
 31
0.0
  0
LINE
  5
687
  8
DETAIL
  6
CONTINUOUS
 62
     5
 10
-52.899619000000001
 20
-153.0
 30
0.0
 11
-60.449810000000006
 21
-139.922686
 31
0.0
  0
LINE
  5
688
  8
DETAIL
  6
CONTINUOUS
 62
     5
 10
-82.0
 20
-23.0
 30
0.0
 11
-82.0
 21
-42.599999999999987
 31
0.0
  0
LINE
  5
689
  8
DETAIL
  6
CONTINUOUS
 62
     5
 10
-54.0
 20
-23.0
 30
0.0
 11
-54.0
 21
-42.599999999999987
 31
0.0
  0
LINE
  5
68A
  8
NOTE
  6
CONTINUOUS
 62
     4
 10
-68.0
 20
-34.000315999999998
 30
0.0
 11
-68.0
 21
-11.999684
 31
0.0
  0
LINE
  5
68B
  8
DETAIL
  6
CONTINUOUS
 62
     5
 10
-57.029468000000008
 20
-23.0
 30
0.0
 11
-62.514733999999983
 21
-32.500759000000023
 31
0.0
  0
LINE
  5
68C
  8
DETAIL
  6
CONTINUOUS
 62
     5
 10
-73.485266000000024
 20
-32.500759000000023
 30
0.0
 11
-78.970531999999992
 21
-23.0
 31
0.0
  0
CIRCLE
  5
68D
  8
DETAIL
  6
CONTINUOUS
 62
     5
 10
-68.0
 20
-23.0
 30
0.0
 40
8.0003159999999998
  0
LINE
  5
68E
  8
DETAIL
  6
CONTINUOUS
 62
     5
 10
-82.0
 20
-36.600000000000001
 30
0.0
 11
-54.0
 21
-36.600000000000001
 31
0.0
  0
LINE
  5
68F
  8
DETAIL
  6
CONTINUOUS
 62
     5
 10
-62.514733999999983
 20
-32.500759000000023
 30
0.0
 11
-73.485266000000024
 21
-32.500759000000023
 31
0.0
  0
ARC
  5
690
  8
DETAIL
  6
CONTINUOUS
 62
     5
 10
-68.0
 20
-23.0
 30
0.0
 40
14.0
 50
0.0
 51
180.0
  0
LINE
  5
691
  8
NOTE
  6
CONTINUOUS
 62
     4
 10
-56.999683999999966
 20
-23.0
 30
0.0
 11
-79.000315999999998
 21
-23.0
 31
0.0
  0
LINE
  5
692
  8
DETAIL
  6
CONTINUOUS
 62
     5
 10
-73.485266000000024
 20
-13.49924100000001
 30
0.0
 11
-62.514733999999983
 21
-13.49924100000001
 31
0.0
  0
LINE
  5
693
  8
DETAIL
  6
CONTINUOUS
 62
     5
 10
-78.970531999999992
 20
-23.0
 30
0.0
 11
-73.485266000000024
 21
-13.49924100000001
 31
0.0
  0
LINE
  5
694
  8
DETAIL
  6
CONTINUOUS
 62
     5
 10
-57.029468000000008
 20
-23.0
 30
0.0
 11
-62.514733999999983
 21
-13.49924100000001
 31
0.0
  0
POINT
  5
695
  8
DEFPOINTS
  6
CONTINUOUS
 62
     7
 10
-68.0
 20
-23.0
 30
0.0
  0
POINT
  5
696
  8
DEFPOINTS
  6
CONTINUOUS
 62
     7
 10
-68.0
 20
-23.0
 30
0.0
  0
CIRCLE
  5
697
  8
DETAIL
  6
CONTINUOUS
 62
     5
 10
-68.0
 20
-23.0
 30
0.0
 40
4.7599999999999989
  0
CIRCLE
  5
698
  8
DETAIL
  6
CONTINUOUS
 62
     5
 10
-68.0
 20
-153.0
 30
0.0
 40
7.9400000000000004
  0
POINT
  5
699
  8
DEFPOINTS
  6
CONTINUOUS
 62
     7
 10
-68.0
 20
-23.0
 30
0.0
  0
LINE
  5
69A
  8
DETAIL
  6
CONTINUOUS
 62
     5
 10
-25.0
 20
-153.0
 30
0.0
 11
-25.0
 21
-168.19999999999999
 31
0.0
  0
LINE
  5
69B
  8
DETAIL
  6
CONTINUOUS
 62
     5
 10
9.0
 20
-168.19999999999999
 30
0.0
 11
9.0
 21
-153.0
 31
0.0
  0
LINE
  5
69C
  8
DETAIL
  6
CONTINUOUS
 62
     5
 10
7.1003809999999978
 20
-153.0
 30
0.0
 11
-0.4498100000000136
 21
-166.077314
 31
0.0
  0
LINE
  5
69D
  8
DETAIL
  6
CONTINUOUS
 62
     5
 10
-23.100381000000031
 20
-153.0
 30
0.0
 11
-15.550189999999979
 21
-166.077314
 31
0.0
  0
LINE
  5
69E
  8
DETAIL
  6
CONTINUOUS
 62
     5
 10
-15.550189999999979
 20
-166.077314
 30
0.0
 11
-0.4498100000000136
 21
-166.077314
 31
0.0
  0
ARC
  5
69F
  8
DETAIL
  6
CONTINUOUS
 62
     5
 10
-8.0
 20
-153.0
 30
0.0
 40
17.0
 50
0.0
 51
180.0
  0
LINE
  5
6A0
  8
NOTE
  6
CONTINUOUS
 62
     4
 10
6.1004419999999859
 20
-153.0
 30
0.0
 11
-22.10044199999999
 21
-153.0
 31
0.0
  0
LINE
  5
6A1
  8
DETAIL
  6
CONTINUOUS
 62
     5
 10
-0.4498100000000136
 20
-139.922686
 30
0.0
 11
-15.550189999999979
 21
-139.922686
 31
0.0
  0
CIRCLE
  5
6A2
  8
DETAIL
  6
CONTINUOUS
 62
     5
 10
-8.0
 20
-153.0
 30
0.0
 40
11.100441999999999
  0
LINE
  5
6A3
  8
DETAIL
  6
CONTINUOUS
 62
     5
 10
-15.550189999999979
 20
-139.922686
 30
0.0
 11
-23.100381000000031
 21
-153.0
 31
0.0
  0
LINE
  5
6A4
  8
DETAIL
  6
CONTINUOUS
 62
     5
 10
7.1003809999999978
 20
-153.0
 30
0.0
 11
-0.4498100000000136
 21
-139.922686
 31
0.0
  0
LINE
  5
6A5
  8
DETAIL
  6
CONTINUOUS
 62
     5
 10
-22.0
 20
-23.0
 30
0.0
 11
-22.0
 21
-42.599999999999987
 31
0.0
  0
LINE
  5
6A6
  8
DETAIL
  6
CONTINUOUS
 62
     5
 10
6.0
 20
-23.0
 30
0.0
 11
6.0
 21
-42.599999999999987
 31
0.0
  0
LINE
  5
6A7
  8
NOTE
  6
CONTINUOUS
 62
     4
 10
-8.0
 20
-34.000315999999998
 30
0.0
 11
-8.0
 21
-11.999684
 31
0.0
  0
LINE
  5
6A8
  8
DETAIL
  6
CONTINUOUS
 62
     5
 10
2.9705319999999911
 20
-23.0
 30
0.0
 11
-2.5147339999999749
 21
-32.500759000000023
 31
0.0
  0
LINE
  5
6A9
  8
DETAIL
  6
CONTINUOUS
 62
     5
 10
-13.485266000000021
 20
-32.500759000000023
 30
0.0
 11
-18.970531999999992
 21
-23.0
 31
0.0
  0
CIRCLE
  5
6AA
  8
DETAIL
  6
CONTINUOUS
 62
     5
 10
-8.0
 20
-23.0
 30
0.0
 40
8.0003159999999998
  0
LINE
  5
6AB
  8
DETAIL
  6
CONTINUOUS
 62
     5
 10
-22.0
 20
-36.600000000000001
 30
0.0
 11
6.0
 21
-36.600000000000001
 31
0.0
  0
LINE
  5
6AC
  8
DETAIL
  6
CONTINUOUS
 62
     5
 10
-2.5147339999999749
 20
-32.500759000000023
 30
0.0
 11
-13.485266000000021
 21
-32.500759000000023
 31
0.0
  0
ARC
  5
6AD
  8
DETAIL
  6
CONTINUOUS
 62
     5
 10
-8.0
 20
-23.0
 30
0.0
 40
14.0
 50
0.0
 51
180.0
  0
LINE
  5
6AE
  8
NOTE
  6
CONTINUOUS
 62
     4
 10
3.000316000000026
 20
-23.0
 30
0.0
 11
-19.000316000000002
 21
-23.0
 31
0.0
  0
LINE
  5
6AF
  8
DETAIL
  6
CONTINUOUS
 62
     5
 10
-13.485266000000021
 20
-13.49924100000001
 30
0.0
 11
-2.5147339999999749
 21
-13.49924100000001
 31
0.0
  0
LINE
  5
6B0
  8
DETAIL
  6
CONTINUOUS
 62
     5
 10
-18.970531999999992
 20
-23.0
 30
0.0
 11
-13.485266000000021
 21
-13.49924100000001
 31
0.0
  0
LINE
  5
6B1
  8
DETAIL
  6
CONTINUOUS
 62
     5
 10
2.9705319999999911
 20
-23.0
 30
0.0
 11
-2.5147339999999749
 21
-13.49924100000001
 31
0.0
  0
POINT
  5
6B2
  8
DEFPOINTS
  6
CONTINUOUS
 62
     7
 10
-8.0
 20
-23.0
 30
0.0
  0
POINT
  5
6B3
  8
DEFPOINTS
  6
CONTINUOUS
 62
     7
 10
-8.0
 20
-23.0
 30
0.0
  0
CIRCLE
  5
6B4
  8
DETAIL
  6
CONTINUOUS
 62
     5
 10
-8.0
 20
-23.0
 30
0.0
 40
4.7599999999999989
  0
CIRCLE
  5
6B5
  8
DETAIL
  6
CONTINUOUS
 62
     5
 10
-8.0
 20
-153.0
 30
0.0
 40
7.9400000000000004
  0
POINT
  5
6B6
  8
DEFPOINTS
  6
CONTINUOUS
 62
     7
 10
-8.0
 20
-23.0
 30
0.0
  0
LINE
  5
6B7
  8
NOTE
  6
CONTINUOUS
 62
     4
 10
-68.0
 20
-138.89955800000001
 30
0.0
 11
-68.0
 21
-167.10044199999999
 31
0.0
  0
LINE
  5
6B8
  8
NOTE
  6
CONTINUOUS
 62
     4
 10
-8.0
 20
-138.89955800000001
 30
0.0
 11
-8.0
 21
-167.10044199999999
 31
0.0
  0
LINE
  5
6FB
  8
DETAIL
  6
CONTINUOUS
 62
     5
 10
35.0
 20
-153.0
 30
0.0
 11
35.0
 21
-168.19999999999999
 31
0.0
  0
LINE
  5
6FC
  8
DETAIL
  6
CONTINUOUS
 62
     5
 10
69.0
 20
-168.19999999999999
 30
0.0
 11
69.0
 21
-153.0
 31
0.0
  0
LINE
  5
6FD
  8
DETAIL
  6
CONTINUOUS
 62
     5
 10
67.100380999999999
 20
-153.0
 30
0.0
 11
59.550189999999994
 21
-166.077314
 31
0.0
  0
LINE
  5
6FE
  8
DETAIL
  6
CONTINUOUS
 62
     5
 10
36.899618999999973
 20
-153.0
 30
0.0
 11
44.449810000000006
 21
-166.077314
 31
0.0
  0
LINE
  5
6FF
  8
DETAIL
  6
CONTINUOUS
 62
     5
 10
44.449810000000006
 20
-166.077314
 30
0.0
 11
59.550189999999994
 21
-166.077314
 31
0.0
  0
ARC
  5
700
  8
DETAIL
  6
CONTINUOUS
 62
     5
 10
52.0
 20
-153.0
 30
0.0
 40
17.0
 50
0.0
 51
180.0
  0
LINE
  5
701
  8
NOTE
  6
CONTINUOUS
 62
     4
 10
66.100441999999987
 20
-153.0
 30
0.0
 11
37.899558000000013
 21
-153.0
 31
0.0
  0
LINE
  5
702
  8
DETAIL
  6
CONTINUOUS
 62
     5
 10
59.550189999999994
 20
-139.922686
 30
0.0
 11
44.449810000000006
 21
-139.922686
 31
0.0
  0
CIRCLE
  5
703
  8
DETAIL
  6
CONTINUOUS
 62
     5
 10
52.0
 20
-153.0
 30
0.0
 40
11.100441999999999
  0
LINE
  5
704
  8
DETAIL
  6
CONTINUOUS
 62
     5
 10
44.449810000000006
 20
-139.922686
 30
0.0
 11
36.899618999999973
 21
-153.0
 31
0.0
  0
LINE
  5
705
  8
DETAIL
  6
CONTINUOUS
 62
     5
 10
67.100380999999999
 20
-153.0
 30
0.0
 11
59.550189999999994
 21
-139.922686
 31
0.0
  0
LINE
  5
706
  8
DETAIL
  6
CONTINUOUS
 62
     5
 10
38.0
 20
-23.0
 30
0.0
 11
38.0
 21
-42.599999999999987
 31
0.0
  0
LINE
  5
707
  8
DETAIL
  6
CONTINUOUS
 62
     5
 10
66.0
 20
-23.0
 30
0.0
 11
66.0
 21
-42.599999999999987
 31
0.0
  0
LINE
  5
708
  8
NOTE
  6
CONTINUOUS
 62
     4
 10
52.0
 20
-34.000315999999998
 30
0.0
 11
52.0
 21
-11.999684
 31
0.0
  0
LINE
  5
709
  8
DETAIL
  6
CONTINUOUS
 62
     5
 10
62.970531999999992
 20
-23.0
 30
0.0
 11
57.485266000000017
 21
-32.500759000000023
 31
0.0
  0
LINE
  5
70A
  8
DETAIL
  6
CONTINUOUS
 62
     5
 10
46.514733999999969
 20
-32.500759000000023
 30
0.0
 11
41.029468000000001
 21
-23.0
 31
0.0
  0
CIRCLE
  5
70B
  8
DETAIL
  6
CONTINUOUS
 62
     5
 10
52.0
 20
-23.0
 30
0.0
 40
8.0003159999999998
  0
LINE
  5
70C
  8
DETAIL
  6
CONTINUOUS
 62
     5
 10
38.0
 20
-36.600000000000001
 30
0.0
 11
66.0
 21
-36.600000000000001
 31
0.0
  0
LINE
  5
70D
  8
DETAIL
  6
CONTINUOUS
 62
     5
 10
57.485266000000017
 20
-32.500759000000023
 30
0.0
 11
46.514733999999969
 21
-32.500759000000023
 31
0.0
  0
ARC
  5
70E
  8
DETAIL
  6
CONTINUOUS
 62
     5
 10
52.0
 20
-23.0
 30
0.0
 40
14.0
 50
0.0
 51
180.0
  0
LINE
  5
70F
  8
NOTE
  6
CONTINUOUS
 62
     4
 10
63.000316000000034
 20
-23.0
 30
0.0
 11
40.999684000000002
 21
-23.0
 31
0.0
  0
LINE
  5
710
  8
DETAIL
  6
CONTINUOUS
 62
     5
 10
46.514733999999969
 20
-13.49924100000001
 30
0.0
 11
57.485266000000017
 21
-13.49924100000001
 31
0.0
  0
LINE
  5
711
  8
DETAIL
  6
CONTINUOUS
 62
     5
 10
41.029468000000001
 20
-23.0
 30
0.0
 11
46.514733999999969
 21
-13.49924100000001
 31
0.0
  0
LINE
  5
712
  8
DETAIL
  6
CONTINUOUS
 62
     5
 10
62.970531999999992
 20
-23.0
 30
0.0
 11
57.485266000000017
 21
-13.49924100000001
 31
0.0
  0
POINT
  5
713
  8
DEFPOINTS
  6
CONTINUOUS
 62
     7
 10
52.0
 20
-23.0
 30
0.0
  0
POINT
  5
714
  8
DEFPOINTS
  6
CONTINUOUS
 62
     7
 10
52.0
 20
-23.0
 30
0.0
  0
CIRCLE
  5
715
  8
DETAIL
  6
CONTINUOUS
 62
     5
 10
52.0
 20
-23.0
 30
0.0
 40
4.7599999999999989
  0
CIRCLE
  5
716
  8
DETAIL
  6
CONTINUOUS
 62
     5
 10
52.0
 20
-153.0
 30
0.0
 40
7.9400000000000004
  0
POINT
  5
717
  8
DEFPOINTS
  6
CONTINUOUS
 62
     7
 10
52.0
 20
-23.0
 30
0.0
  0
LINE
  5
718
  8
DETAIL
  6
CONTINUOUS
 62
     5
 10
95.0
 20
-153.0
 30
0.0
 11
95.0
 21
-168.19999999999999
 31
0.0
  0
LINE
  5
719
  8
DETAIL
  6
CONTINUOUS
 62
     5
 10
129.0
 20
-168.19999999999999
 30
0.0
 11
129.0
 21
-153.0
 31
0.0
  0
LINE
  5
71A
  8
DETAIL
  6
CONTINUOUS
 62
     5
 10
127.100381
 20
-153.0
 30
0.0
 11
119.55019
 21
-166.077314
 31
0.0
  0
LINE
  5
71B
  8
DETAIL
  6
CONTINUOUS
 62
     5
 10
96.899618999999987
 20
-153.0
 30
0.0
 11
104.44981
 21
-166.077314
 31
0.0
  0
LINE
  5
71C
  8
DETAIL
  6
CONTINUOUS
 62
     5
 10
104.44981
 20
-166.077314
 30
0.0
 11
119.55019
 21
-166.077314
 31
0.0
  0
ARC
  5
71D
  8
DETAIL
  6
CONTINUOUS
 62
     5
 10
112.0
 20
-153.0
 30
0.0
 40
17.0
 50
0.0
 51
180.0
  0
LINE
  5
71E
  8
NOTE
  6
CONTINUOUS
 62
     4
 10
126.100442
 20
-153.0
 30
0.0
 11
97.899558000000013
 21
-153.0
 31
0.0
  0
LINE
  5
71F
  8
DETAIL
  6
CONTINUOUS
 62
     5
 10
119.55019
 20
-139.922686
 30
0.0
 11
104.44981
 21
-139.922686
 31
0.0
  0
CIRCLE
  5
720
  8
DETAIL
  6
CONTINUOUS
 62
     5
 10
112.0
 20
-153.0
 30
0.0
 40
11.100441999999999
  0
LINE
  5
721
  8
DETAIL
  6
CONTINUOUS
 62
     5
 10
104.44981
 20
-139.922686
 30
0.0
 11
96.899618999999987
 21
-153.0
 31
0.0
  0
LINE
  5
722
  8
DETAIL
  6
CONTINUOUS
 62
     5
 10
127.100381
 20
-153.0
 30
0.0
 11
119.55019
 21
-139.922686
 31
0.0
  0
LINE
  5
723
  8
DETAIL
  6
CONTINUOUS
 62
     5
 10
98.0
 20
-23.0
 30
0.0
 11
98.0
 21
-42.599999999999987
 31
0.0
  0
LINE
  5
724
  8
DETAIL
  6
CONTINUOUS
 62
     5
 10
126.0
 20
-23.0
 30
0.0
 11
126.0
 21
-42.599999999999987
 31
0.0
  0
LINE
  5
725
  8
NOTE
  6
CONTINUOUS
 62
     4
 10
112.0
 20
-34.000315999999998
 30
0.0
 11
112.0
 21
-11.999684
 31
0.0
  0
LINE
  5
726
  8
DETAIL
  6
CONTINUOUS
 62
     5
 10
122.97053200000001
 20
-23.0
 30
0.0
 11
117.485266
 21
-32.500759000000023
 31
0.0
  0
LINE
  5
727
  8
DETAIL
  6
CONTINUOUS
 62
     5
 10
106.5147339999999
 20
-32.500759000000023
 30
0.0
 11
101.02946799999999
 21
-23.0
 31
0.0
  0
CIRCLE
  5
728
  8
DETAIL
  6
CONTINUOUS
 62
     5
 10
112.0
 20
-23.0
 30
0.0
 40
8.0003159999999998
  0
LINE
  5
729
  8
DETAIL
  6
CONTINUOUS
 62
     5
 10
98.0
 20
-36.600000000000001
 30
0.0
 11
126.0
 21
-36.600000000000001
 31
0.0
  0
LINE
  5
72A
  8
DETAIL
  6
CONTINUOUS
 62
     5
 10
117.485266
 20
-32.500759000000023
 30
0.0
 11
106.5147339999999
 21
-32.500759000000023
 31
0.0
  0
ARC
  5
72B
  8
DETAIL
  6
CONTINUOUS
 62
     5
 10
112.0
 20
-23.0
 30
0.0
 40
14.0
 50
0.0
 51
180.0
  0
LINE
  5
72C
  8
NOTE
  6
CONTINUOUS
 62
     4
 10
123.000316
 20
-23.0
 30
0.0
 11
100.999684
 21
-23.0
 31
0.0
  0
LINE
  5
72D
  8
DETAIL
  6
CONTINUOUS
 62
     5
 10
106.5147339999999
 20
-13.49924100000001
 30
0.0
 11
117.485266
 21
-13.49924100000001
 31
0.0
  0
LINE
  5
72E
  8
DETAIL
  6
CONTINUOUS
 62
     5
 10
101.02946799999999
 20
-23.0
 30
0.0
 11
106.5147339999999
 21
-13.49924100000001
 31
0.0
  0
LINE
  5
72F
  8
DETAIL
  6
CONTINUOUS
 62
     5
 10
122.97053200000001
 20
-23.0
 30
0.0
 11
117.485266
 21
-13.49924100000001
 31
0.0
  0
POINT
  5
730
  8
DEFPOINTS
  6
CONTINUOUS
 62
     7
 10
112.0
 20
-23.0
 30
0.0
  0
POINT
  5
731
  8
DEFPOINTS
  6
CONTINUOUS
 62
     7
 10
112.0
 20
-23.0
 30
0.0
  0
CIRCLE
  5
732
  8
DETAIL
  6
CONTINUOUS
 62
     5
 10
112.0
 20
-23.0
 30
0.0
 40
4.7599999999999989
  0
CIRCLE
  5
733
  8
DETAIL
  6
CONTINUOUS
 62
     5
 10
112.0
 20
-153.0
 30
0.0
 40
7.9400000000000004
  0
POINT
  5
734
  8
DEFPOINTS
  6
CONTINUOUS
 62
     7
 10
112.0
 20
-23.0
 30
0.0
  0
LINE
  5
735
  8
NOTE
  6
CONTINUOUS
 62
     4
 10
52.0
 20
-138.89955800000001
 30
0.0
 11
52.0
 21
-167.10044199999999
 31
0.0
  0
LINE
  5
736
  8
NOTE
  6
CONTINUOUS
 62
     4
 10
112.0
 20
-138.89955800000001
 30
0.0
 11
112.0
 21
-167.10044199999999
 31
0.0
  0
LINE
  5
779
  8
DETAIL
  6
CONTINUOUS
 62
     5
 10
155.0
 20
-153.0
 30
0.0
 11
155.0
 21
-168.19999999999999
 31
0.0
  0
LINE
  5
77A
  8
DETAIL
  6
CONTINUOUS
 62
     5
 10
189.0
 20
-168.19999999999999
 30
0.0
 11
189.0
 21
-153.0
 31
0.0
  0
LINE
  5
77B
  8
DETAIL
  6
CONTINUOUS
 62
     5
 10
187.100381
 20
-153.0
 30
0.0
 11
179.55018999999999
 21
-166.077314
 31
0.0
  0
LINE
  5
77C
  8
DETAIL
  6
CONTINUOUS
 62
     5
 10
156.899619
 20
-153.0
 30
0.0
 11
164.44981000000001
 21
-166.077314
 31
0.0
  0
LINE
  5
77D
  8
DETAIL
  6
CONTINUOUS
 62
     5
 10
164.44981000000001
 20
-166.077314
 30
0.0
 11
179.55018999999999
 21
-166.077314
 31
0.0
  0
ARC
  5
77E
  8
DETAIL
  6
CONTINUOUS
 62
     5
 10
172.0
 20
-153.0
 30
0.0
 40
17.0
 50
0.0
 51
180.0
  0
LINE
  5
77F
  8
NOTE
  6
CONTINUOUS
 62
     4
 10
186.10044199999999
 20
-153.0
 30
0.0
 11
157.89955800000001
 21
-153.0
 31
0.0
  0
LINE
  5
780
  8
DETAIL
  6
CONTINUOUS
 62
     5
 10
179.55018999999999
 20
-139.922686
 30
0.0
 11
164.44981000000001
 21
-139.922686
 31
0.0
  0
CIRCLE
  5
781
  8
DETAIL
  6
CONTINUOUS
 62
     5
 10
172.0
 20
-153.0
 30
0.0
 40
11.100441999999999
  0
LINE
  5
782
  8
DETAIL
  6
CONTINUOUS
 62
     5
 10
164.44981000000001
 20
-139.922686
 30
0.0
 11
156.899619
 21
-153.0
 31
0.0
  0
LINE
  5
783
  8
DETAIL
  6
CONTINUOUS
 62
     5
 10
187.100381
 20
-153.0
 30
0.0
 11
179.55018999999999
 21
-139.922686
 31
0.0
  0
LINE
  5
784
  8
DETAIL
  6
CONTINUOUS
 62
     5
 10
158.0
 20
-23.0
 30
0.0
 11
158.0
 21
-42.599999999999987
 31
0.0
  0
LINE
  5
785
  8
DETAIL
  6
CONTINUOUS
 62
     5
 10
186.0
 20
-23.0
 30
0.0
 11
186.0
 21
-42.599999999999987
 31
0.0
  0
LINE
  5
786
  8
NOTE
  6
CONTINUOUS
 62
     4
 10
172.0
 20
-34.000315999999998
 30
0.0
 11
172.0
 21
-11.999684
 31
0.0
  0
LINE
  5
787
  8
DETAIL
  6
CONTINUOUS
 62
     5
 10
182.97053199999999
 20
-23.0
 30
0.0
 11
177.485266
 21
-32.500759000000023
 31
0.0
  0
LINE
  5
788
  8
DETAIL
  6
CONTINUOUS
 62
     5
 10
166.514734
 20
-32.500759000000023
 30
0.0
 11
161.02946800000001
 21
-23.0
 31
0.0
  0
CIRCLE
  5
789
  8
DETAIL
  6
CONTINUOUS
 62
     5
 10
172.0
 20
-23.0
 30
0.0
 40
8.0003159999999998
  0
LINE
  5
78A
  8
DETAIL
  6
CONTINUOUS
 62
     5
 10
158.0
 20
-36.600000000000001
 30
0.0
 11
186.0
 21
-36.600000000000001
 31
0.0
  0
LINE
  5
78B
  8
DETAIL
  6
CONTINUOUS
 62
     5
 10
177.485266
 20
-32.500759000000023
 30
0.0
 11
166.514734
 21
-32.500759000000023
 31
0.0
  0
ARC
  5
78C
  8
DETAIL
  6
CONTINUOUS
 62
     5
 10
172.0
 20
-23.0
 30
0.0
 40
14.0
 50
0.0
 51
180.0
  0
LINE
  5
78D
  8
NOTE
  6
CONTINUOUS
 62
     4
 10
183.000316
 20
-23.0
 30
0.0
 11
160.999684
 21
-23.0
 31
0.0
  0
LINE
  5
78E
  8
DETAIL
  6
CONTINUOUS
 62
     5
 10
166.514734
 20
-13.49924100000001
 30
0.0
 11
177.485266
 21
-13.49924100000001
 31
0.0
  0
LINE
  5
78F
  8
DETAIL
  6
CONTINUOUS
 62
     5
 10
161.02946800000001
 20
-23.0
 30
0.0
 11
166.514734
 21
-13.49924100000001
 31
0.0
  0
LINE
  5
790
  8
DETAIL
  6
CONTINUOUS
 62
     5
 10
182.97053199999999
 20
-23.0
 30
0.0
 11
177.485266
 21
-13.49924100000001
 31
0.0
  0
POINT
  5
791
  8
DEFPOINTS
  6
CONTINUOUS
 62
     7
 10
172.0
 20
-23.0
 30
0.0
  0
POINT
  5
792
  8
DEFPOINTS
  6
CONTINUOUS
 62
     7
 10
172.0
 20
-23.0
 30
0.0
  0
CIRCLE
  5
793
  8
DETAIL
  6
CONTINUOUS
 62
     5
 10
172.0
 20
-23.0
 30
0.0
 40
4.7599999999999989
  0
CIRCLE
  5
794
  8
DETAIL
  6
CONTINUOUS
 62
     5
 10
172.0
 20
-153.0
 30
0.0
 40
7.9400000000000004
  0
POINT
  5
795
  8
DEFPOINTS
  6
CONTINUOUS
 62
     7
 10
172.0
 20
-23.0
 30
0.0
  0
LINE
  5
7B3
  8
NOTE
  6
CONTINUOUS
 62
     4
 10
172.0
 20
-138.89955800000001
 30
0.0
 11
172.0
 21
-167.10044199999999
 31
0.0
  0
ENDSEC
  0
EOF
