  0
SECTION
  2
HEADER
  9
$ACADVER
  1
AC1009
  9
$INSBASE
 10
0.0
 20
0.0
 30
0.0
  9
$EXTMIN
 10
-145.0
 20
-160.14929450023919
 30
0.0
  9
$EXTMAX
 10
241.2629443358145
 20
247.61553414105251
 30
0.0
  9
$LIMMIN
 10
-4267.1522210604826
 20
-2696.083210198412
  9
$LIMMAX
 10
7190.7174225864646
 20
5141.155363923066
  9
$ORTHOMODE
 70
     1
  9
$REGENMODE
 70
     1
  9
$FILLMODE
 70
     1
  9
$QTEXTMODE
 70
     0
  9
$MIRRTEXT
 70
     0
  9
$DRAGMODE
 70
     2
  9
$LTSCALE
 40
20.0
  9
$OSMODE
 70
   959
  9
$ATTMODE
 70
     1
  9
$TEXTSIZE
 40
64.0
  9
$TRACEWID
 40
0.05
  9
$TEXTSTYLE
  7
NOTE
  9
$CLAYER
  8
SYMBOLLINE
  9
$CELTYPE
  6
CONTINUOUS
  9
$CECOLOR
 62
     7
  9
$DIMSCALE
 40
1.0
  9
$DIMASZ
 40
10.0
  9
$DIMEXO
 40
10.0
  9
$DIMDLI
 40
80.0
  9
$DIMRND
 40
0.0
  9
$DIMDLE
 40
0.0
  9
$DIMEXE
 40
10.0
  9
$DIMTP
 40
0.0
  9
$DIMTM
 40
0.0
  9
$DIMTXT
 40
20.0
  9
$DIMCEN
 40
0.09
  9
$DIMTSZ
 40
0.0
  9
$DIMTOL
 70
     0
  9
$DIMLIM
 70
     0
  9
$DIMTIH
 70
     0
  9
$DIMTOH
 70
     0
  9
$DIMSE1
 70
     0
  9
$DIMSE2
 70
     0
  9
$DIMTAD
 70
     1
  9
$DIMZIN
 70
     8
  9
$DIMBLK
  1
SMALL
  9
$DIMASO
 70
     1
  9
$DIMSHO
 70
     0
  9
$DIMPOST
  1

  9
$DIMAPOST
  1

  9
$DIMALT
 70
     0
  9
$DIMALTD
 70
     2
  9
$DIMALTF
 40
25.399999999999999
  9
$DIMLFAC
 40
1.0
  9
$DIMTOFL
 70
     1
  9
$DIMTVP
 40
0.0
  9
$DIMTIX
 70
     0
  9
$DIMSOXD
 70
     0
  9
$DIMSAH
 70
     0
  9
$DIMBLK1
  1

  9
$DIMBLK2
  1

  9
$DIMSTYLE
  2
STANDARD
  9
$DIMCLRD
 70
     0
  9
$DIMCLRE
 70
     0
  9
$DIMCLRT
 70
     0
  9
$DIMTFAC
 40
1.0
  9
$DIMGAP
 40
0.09
  9
$LUNITS
 70
     2
  9
$LUPREC
 70
     4
  9
$SKETCHINC
 40
0.1
  9
$FILLETRAD
 40
30.0
  9
$AUNITS
 70
     1
  9
$AUPREC
 70
     3
  9
$MENU
  1
ACAD
  9
$ELEVATION
 40
0.0
  9
$PELEVATION
 40
0.0
  9
$THICKNESS
 40
0.0
  9
$LIMCHECK
 70
     0
  9
$BLIPMODE
 70
     0
  9
$CHAMFERA
 40
0.0
  9
$CHAMFERB
 40
0.0
  9
$SKPOLY
 70
     0
  9
$TDCREATE
 40
2450330.4399309959
  9
$TDUPDATE
 40
2455573.500203901
  9
$TDINDWG
 40
3.3056044560000002
  9
$TDUSRTIMER
 40
3.3056019213000001
  9
$USRTIMER
 70
     1
  9
$ANGBASE
 50
0.0
  9
$ANGDIR
 70
     0
  9
$PDMODE
 70
     3
  9
$PDSIZE
 40
-2.0
  9
$PLINEWID
 40
0.0
  9
$COORDS
 70
     0
  9
$SPLFRAME
 70
     0
  9
$SPLINETYPE
 70
     6
  9
$SPLINESEGS
 70
     8
  9
$ATTDIA
 70
     0
  9
$ATTREQ
 70
     1
  9
$HANDLING
 70
     1
  9
$HANDSEED
  5
30B
  9
$SURFTAB1
 70
     6
  9
$SURFTAB2
 70
     6
  9
$SURFTYPE
 70
     6
  9
$SURFU
 70
     6
  9
$SURFV
 70
     6
  9
$UCSNAME
  2

  9
$UCSORG
 10
0.0
 20
0.0
 30
0.0
  9
$UCSXDIR
 10
1.0
 20
0.0
 30
0.0
  9
$UCSYDIR
 10
0.0
 20
1.0
 30
0.0
  9
$PUCSNAME
  2

  9
$PUCSORG
 10
0.0
 20
0.0
 30
0.0
  9
$PUCSXDIR
 10
1.0
 20
0.0
 30
0.0
  9
$PUCSYDIR
 10
0.0
 20
1.0
 30
0.0
  9
$USERI1
 70
     0
  9
$USERI2
 70
     0
  9
$USERI3
 70
     0
  9
$USERI4
 70
     0
  9
$USERI5
 70
     0
  9
$USERR1
 40
20.0
  9
$USERR2
 40
0.0
  9
$USERR3
 40
0.0
  9
$USERR4
 40
0.0
  9
$USERR5
 40
0.0
  9
$WORLDVIEW
 70
     1
  9
$SHADEDGE
 70
     3
  9
$SHADEDIF
 70
    70
  9
$TILEMODE
 70
     1
  9
$MAXACTVP
 70
    64
  9
$PLIMCHECK
 70
     0
  9
$PEXTMIN
 10
1.0000000000000000E+020
 20
1.0000000000000000E+020
 30
1.0000000000000000E+020
  9
$PEXTMAX
 10
-1.0000000000000000E+020
 20
-1.0000000000000000E+020
 30
-1.0000000000000000E+020
  9
$PLIMMIN
 10
0.0
 20
0.0
  9
$PLIMMAX
 10
12.0
 20
9.0
  9
$UNITMODE
 70
     0
  9
$VISRETAIN
 70
     1
  9
$PLINEGEN
 70
     0
  9
$PSLTSCALE
 70
     1
  0
ENDSEC
  0
SECTION
  2
TABLES
  0
TABLE
  2
VPORT
 70
     1
  0
VPORT
  2
*ACTIVE
 70
     0
 10
0.0
 20
0.0
 11
1.0
 21
1.0
 12
1461.782600762991
 22
1222.536076862327
 13
0.0
 23
0.0
 14
50.0
 24
50.0
 15
100.0
 25
100.0
 16
0.0
 26
0.0
 36
1.0
 17
0.0
 27
0.0
 37
0.0
 40
7897.2940421224084
 41
1.5639386189258311
 42
50.0
 43
0.0
 44
0.0
 50
0.0
 51
0.0
 71
     0
 72
  1000
 73
     1
 74
     0
 75
     0
 76
     0
 77
     0
 78
     0
  0
ENDTAB
  0
TABLE
  2
LTYPE
 70
     3
  0
LTYPE
  2
CONTINUOUS
 70
     0
  3
実線
 72
    65
 73
     0
 40
0.0
  0
LTYPE
  2
DASHDOT
 70
     0
  3
____ _ ____ _ ____ _ ____ _ ____ _ ____ _ ____
 72
    65
 73
     4
 40
5.5
 49
4.0
 49
-0.6
 49
0.3
 49
-0.6
  0
ENDTAB
  0
TABLE
  2
LAYER
 70
    12
  0
LAYER
  2
0
 70
     0
 62
     7
  6
CONTINUOUS
  0
LAYER
  2
DETAIL
 70
     0
 62
     5
  6
CONTINUOUS
  0
LAYER
  2
OUTLINE
 70
     0
 62
     3
  6
CONTINUOUS
  0
LAYER
  2
BASIS
 70
     0
 62
     6
  6
DASHDOT
  0
LAYER
  2
SIZE
 70
     0
 62
    30
  6
CONTINUOUS
  0
LAYER
  2
NOTE
 70
     0
 62
     4
  6
CONTINUOUS
  0
LAYER
  2
ARRANGE
 70
     0
 62
     1
  6
CONTINUOUS
  0
LAYER
  2
FIX
 70
     0
 62
    11
  6
CONTINUOUS
  0
LAYER
  2
SERVICESPACE
 70
     0
 62
     2
  6
DASHDOT
  0
LAYER
  2
ETC
 70
     0
 62
    61
  6
CONTINUOUS
  0
LAYER
  2
SYMBOLLINE
 70
     0
 62
    15
  6
CONTINUOUS
  0
LAYER
  2
DEFPOINTS
 70
     0
 62
     7
  6
CONTINUOUS
  0
ENDTAB
  0
TABLE
  2
STYLE
 70
     4
  0
STYLE
  2
STANDARD
 70
     0
 40
0.0
 41
0.9
 50
0.0
 71
     0
 42
64.0
  3
SIMPLEX
  4
BIGFONT
  0
STYLE
  2
ANNOTATIVE
 70
     0
 40
0.0
 41
1.0
 50
0.0
 71
     0
 42
0.2
  3
txt
  4

  0
STYLE
  2
NOTE
 70
     0
 40
0.0
 41
0.7
 50
0.0
 71
     0
 42
64.0
  3
SIMPLEX.shx
  4
BIGFONT.shx
  0
STYLE
  2
STANDARD1
 70
     0
 40
0.0
 41
1.0
 50
0.0
 71
     0
 42
64.0
  3
MONOTXT
  4
BIGFONT
  0
ENDTAB
  0
TABLE
  2
VIEW
 70
     9
  0
VIEW
  2
ALL
 70
     0
 40
9000.0
 10
241.50664699999999
 20
0.0
 41
12483.01
 11
0.0
 21
0.0
 31
1.0
 12
0.0
 22
0.0
 32
0.0
 42
50.0
 43
0.0
 44
0.0
 50
0.0
 71
     0
  0
ENDTAB
  0
TABLE
  2
UCS
 70
     0
  0
ENDTAB
  0
TABLE
  2
APPID
 70
     4
  0
APPID
  2
ACAD
 70
     0
  0
APPID
  2
ACADANNOTATIVE
 70
     0
  0
APPID
  2
ACAD_MLEADERVER
 70
     0
  0
APPID
  2
ACAD_EXEMPT_FROM_CAD_STANDARDS
 70
     0
  0
ENDTAB
  0
TABLE
  2
DIMSTYLE
 70
     3
  0
DIMSTYLE
  2
STANDARD
 70
     0
  3

  4

  5

  6

  7

 40
1.0
 41
0.18
 42
0.0625
 43
0.38
 44
0.18
 45
0.0
 46
0.0
 47
0.0
 48
0.0
140
0.18
141
0.09
142
0.0
143
25.399999999999999
144
1.0
145
0.0
146
1.0
147
0.09
 71
     0
 72
     0
 73
     1
 74
     1
 75
     0
 76
     0
 77
     0
 78
     0
170
     0
171
     2
172
     0
173
     0
174
     0
175
     0
176
     0
177
     0
178
     0
  0
DIMSTYLE
  2
ANNOTATIVE
 70
     0
  3

  4

  5

  6

  7

 40
1.0
 41
0.18
 42
0.0625
 43
0.38
 44
0.18
 45
0.0
 46
0.0
 47
0.0
 48
0.0
140
0.18
141
0.09
142
0.0
143
25.399999999999999
144
1.0
145
0.0
146
1.0
147
0.09
 71
     0
 72
     0
 73
     1
 74
     1
 75
     0
 76
     0
 77
     0
 78
     0
170
     0
171
     2
172
     0
173
     0
174
     0
175
     0
176
     0
177
     0
178
     0
  0
ENDTAB
  0
ENDSEC
  0
SECTION
  2
BLOCKS
  0
BLOCK
  8
0
  2
$MODEL_SPACE
 70
     0
 10
0.0
 20
0.0
 30
0.0
  3
$MODEL_SPACE
  1

  0
ENDBLK
  5
221
  8
0
  0
BLOCK
 67
     1
  8
0
  2
$PAPER_SPACE
 70
     0
 10
0.0
 20
0.0
 30
0.0
  3
$PAPER_SPACE
  1

  0
ENDBLK
  5
21D
 67
     1
  8
0
  0
BLOCK
  8
0
  2
_SMALL
 70
     0
 10
0.0
 20
0.0
 30
0.0
  3
_SMALL
  1

  0
CIRCLE
  5
8D
  8
0
  6
CONTINUOUS
 62
     7
 10
0.0
 20
0.0
 30
0.0
 40
0.25
  0
ENDBLK
  5
8E
  8
0
  0
BLOCK
  8
0
 62
     7
  2
*D3
 70
     1
 10
0.0
 20
0.0
 30
0.0
  3
*D3
  1

  0
LINE
  5
26C
  8
SIZE
  6
CONTINUOUS
 62
     0
 10
92.399772344317185
 20
102.2499984280883
 30
0.0
 11
188.74608319663631
 21
102.2499984280883
 31
0.0
  0
LINE
  5
26D
  8
SIZE
  6
CONTINUOUS
 62
     0
 10
128.79999818795551
 20
107.24999835179401
 30
0.0
 11
188.74608319663631
 21
107.24999835179401
 31
0.0
  0
LINE
  5
26E
  8
SIZE
  6
CONTINUOUS
 62
     0
 10
178.74608319663631
 20
102.2499984280883
 30
0.0
 11
178.74608319663631
 21
107.24999835179401
 31
0.0
  0
LINE
  5
26F
  8
SIZE
  6
CONTINUOUS
 62
     0
 10
178.74608319663631
 20
107.24999835179401
 30
0.0
 11
178.74608319663631
 21
129.42999835179401
 31
0.0
  0
INSERT
  5
270
  8
SIZE
  6
CONTINUOUS
 62
     0
  2
_SMALL
 10
178.74608319663631
 20
102.2499984280883
 30
0.0
 41
10.0
 42
10.0
 43
10.0
 50
270.0
  0
INSERT
  5
271
  8
SIZE
  6
CONTINUOUS
 62
     0
  2
_SMALL
 10
178.74608319663631
 20
107.24999835179401
 30
0.0
 41
10.0
 42
10.0
 43
10.0
 50
90.0
  0
INSERT
  5
272
  8
SYMBOLLINE
  6
CONTINUOUS
 62
     7
  2
*U5
 10
0.0
 20
0.0
 30
0.0
  0
POINT
  5
273
  8
DEFPOINTS
  6
CONTINUOUS
 62
     0
 10
82.399772344317185
 20
102.2499984280883
 30
0.0
  0
POINT
  5
274
  8
DEFPOINTS
  6
CONTINUOUS
 62
     0
 10
118.7999981879555
 20
107.24999835179401
 30
0.0
  0
POINT
  5
275
  8
DEFPOINTS
  6
CONTINUOUS
 62
     0
 10
178.74608319663631
 20
107.24999835179401
 30
0.0
  0
ENDBLK
  5
257
  8
0
 62
     7
  0
BLOCK
  8
0
 62
     7
  2
*U5
 70
     1
 10
0.0
 20
0.0
 30
0.0
  3
*U5
  1

  0
TEXT
  5
305
  8
SIZE
  6
CONTINUOUS
 62
     0
 10
178.6560831966363
 20
117.33999835179399
 30
0.0
 40
20.0
  1
5
 50
90.0
 41
0.9
  0
ENDBLK
  5
307
  8
0
 62
     7
  0
ENDSEC
  0
SECTION
  2
ENTITIES
  0
LINE
  5
8F
  8
DETAIL
  6
CONTINUOUS
 62
     5
 10
118.7999981879555
 20
107.24999835179401
 30
0.0
 11
-118.79999818655401
 21
107.24999835179401
 31
0.0
  0
LINE
  5
90
  8
DETAIL
  6
CONTINUOUS
 62
     5
 10
-118.7999981879547
 20
-109.74999831364801
 30
0.0
 11
118.79999818655671
 21
-109.74999831364801
 31
0.0
  0
LINE
  5
91
  8
DETAIL
  6
CONTINUOUS
 62
     5
 10
124.99999809265221
 20
-92.049998607078123
 30
0.0
 11
-124.9999980926512
 21
-92.049998607128146
 31
0.0
  0
LINE
  5
92
  8
DETAIL
  6
CONTINUOUS
 62
     5
 10
-124.9999980926512
 20
91.249998595934784
 30
0.0
 11
124.9999980919518
 21
91.249998596535079
 31
0.0
  0
LINE
  5
93
  8
DETAIL
  6
CONTINUOUS
 62
     5
 10
-123.79999811026001
 20
102.2499984280883
 30
0.0
 11
-123.7999981116608
 21
-104.74999838994189
 31
0.0
  0
LINE
  5
94
  8
DETAIL
  6
CONTINUOUS
 62
     5
 10
-124.9999980926512
 20
-92.049998607128146
 30
0.0
 11
-124.9999980926512
 21
91.249998595934784
 31
0.0
  0
ARC
  5
95
  8
DETAIL
  6
CONTINUOUS
 62
     5
 10
20.99999967956591
 20
-77.249998832959136
 30
0.0
 40
2.24999996566781
 50
192.8395884069011
 51
347.16041159309862
  0
CIRCLE
  5
96
  8
DETAIL
  6
CONTINUOUS
 62
     5
 10
20.99999967956591
 20
-77.249998832959136
 30
0.0
 40
1.8999999710082791
  0
CIRCLE
  5
97
  8
DETAIL
  6
CONTINUOUS
 62
     5
 10
20.99999967956591
 20
-77.249998832959136
 30
0.0
 40
3.0499999534607061
  0
ARC
  5
98
  8
DETAIL
  6
CONTINUOUS
 62
     5
 10
-118.7999981879547
 20
-104.74999838994189
 30
0.0
 40
4.9999999237060564
 50
180.0
 51
270.0
  0
CIRCLE
  5
9D
  8
DETAIL
  6
CONTINUOUS
 62
     5
 10
-77.499998817443156
 20
-102.2499984280889
 30
0.0
 40
2.249999965667723
  0
LINE
  5
9E
  8
DETAIL
  6
CONTINUOUS
 62
     5
 10
-16.504999748152841
 20
-108.549998355358
 30
0.0
 11
21.754999668046359
 21
-108.549998355358
 31
0.0
  0
CIRCLE
  5
9F
  8
DETAIL
  6
CONTINUOUS
 62
     5
 10
2.624999959945852
 20
-102.549998446911
 30
0.0
 40
4.9999999237061132
  0
LINE
  5
A0
  8
DETAIL
  6
CONTINUOUS
 62
     5
 10
-22.504999657299759
 20
-92.049998607128146
 30
0.0
 11
-22.504999657299759
 21
-106.7499983594243
 31
0.0
  0
LINE
  5
A1
  8
DETAIL
  6
CONTINUOUS
 62
     5
 10
-19.50499970237615
 20
-92.049998607128146
 30
0.0
 11
-19.50499970237615
 21
-105.5499984011347
 31
0.0
  0
CIRCLE
  5
A2
  8
DETAIL
  6
CONTINUOUS
 62
     5
 10
2.624999959945852
 20
-102.549998446911
 30
0.0
 40
2.4999999618530282
  0
ARC
  5
A3
  8
DETAIL
  6
CONTINUOUS
 62
     5
 10
-16.504999748152841
 20
-105.5499984011347
 30
0.0
 40
2.9999999542236311
 50
180.0
 51
270.0
  0
LINE
  5
A4
  8
DETAIL
  6
CONTINUOUS
 62
     5
 10
-22.504999657299759
 20
-106.7499983594243
 30
0.0
 11
-19.254545133398992
 21
-106.7499983594243
 31
0.0
  0
LINE
  5
A9
  8
DETAIL
  6
CONTINUOUS
 62
     5
 10
27.75499957579359
 20
-106.7499983594243
 30
0.0
 11
27.75499957579359
 21
-92.049998607128146
 31
0.0
  0
LINE
  5
AA
  8
DETAIL
  6
CONTINUOUS
 62
     5
 10
24.754999622269668
 20
-105.5499984011347
 30
0.0
 11
24.754999622269668
 21
-92.049998607128146
 31
0.0
  0
ARC
  5
AB
  8
DETAIL
  6
CONTINUOUS
 62
     5
 10
21.754999668046359
 20
-105.5499984011347
 30
0.0
 40
2.9999999542236311
 50
270.0
 51
0.0
  0
LINE
  5
AC
  8
DETAIL
  6
CONTINUOUS
 62
     5
 10
24.504545053190672
 20
-106.7499983594243
 30
0.0
 11
27.75499957579359
 21
-106.7499983594243
 31
0.0
  0
CIRCLE
  5
B1
  8
DETAIL
  6
CONTINUOUS
 62
     5
 10
77.499998817444066
 20
-102.2499984280889
 30
0.0
 40
2.249999965667723
  0
ARC
  5
B2
  8
DETAIL
  6
CONTINUOUS
 62
     5
 10
-118.79999818655401
 20
102.2499984280883
 30
0.0
 40
4.9999999237060564
 50
90.0
 51
180.0
  0
ARC
  5
B3
  8
DETAIL
  6
CONTINUOUS
 62
     5
 10
21.999999664307321
 20
103.0499984158814
 30
0.0
 40
2.9999999542238589
 50
0.0
 51
90.0
  0
ARC
  5
B4
  8
DETAIL
  6
CONTINUOUS
 62
     5
 10
-21.999999664306412
 20
103.0499984158814
 30
0.0
 40
2.9999999542236311
 50
90.0
 51
180.0
  0
LINE
  5
B5
  8
DETAIL
  6
CONTINUOUS
 62
     5
 10
-24.749545039351691
 20
104.24999839757081
 30
0.0
 11
-27.999999572052719
 21
104.24999839757081
 31
0.0
  0
ARC
  5
B6
  8
DETAIL
  6
CONTINUOUS
 62
     5
 10
-72.999998886108187
 20
-46.749999298352122
 30
0.0
 40
2.249999965667699
 50
12.839588406901241
 51
167.16041159309859
  0
ARC
  5
B7
  8
DETAIL
  6
CONTINUOUS
 62
     5
 10
-72.999998886108187
 20
-46.749999298352122
 30
0.0
 40
2.24999996566781
 50
192.8395884069011
 51
347.16041159309862
  0
CIRCLE
  5
B8
  8
DETAIL
  6
CONTINUOUS
 62
     5
 10
-72.999998886108187
 20
-46.749999298352122
 30
0.0
 40
1.8999999710083351
  0
CIRCLE
  5
B9
  8
DETAIL
  6
CONTINUOUS
 62
     5
 10
-72.999998886108187
 20
-46.749999298352122
 30
0.0
 40
3.0499999534607061
  0
ARC
  5
BA
  8
DETAIL
  6
CONTINUOUS
 62
     5
 10
-72.999998886108187
 20
-46.749999298352122
 30
0.0
 40
2.24999996566781
 50
167.16041159309859
 51
169.75965167880381
  0
ARC
  5
BB
  8
DETAIL
  6
CONTINUOUS
 62
     5
 10
-72.999998886108187
 20
-46.749999298352122
 30
0.0
 40
2.2499999656678642
 50
190.24034832119591
 51
192.8395884069011
  0
LINE
  5
BC
  8
DETAIL
  6
CONTINUOUS
 62
     5
 10
-74.857416419865331
 20
-46.349999304455167
 30
0.0
 11
-75.214157834921011
 21
-46.349999304455167
 31
0.0
  0
LINE
  5
BD
  8
DETAIL
  6
CONTINUOUS
 62
     5
 10
-75.214157834921011
 20
-47.149999292248147
 30
0.0
 11
-74.857416419865331
 21
-47.149999292248147
 31
0.0
  0
ARC
  5
BE
  8
DETAIL
  6
CONTINUOUS
 62
     5
 10
-72.999998886108187
 20
-46.749999298352122
 30
0.0
 40
2.249999965667639
 50
10.240348321196061
 51
12.839588406901241
  0
ARC
  5
BF
  8
DETAIL
  6
CONTINUOUS
 62
     5
 10
-72.999998886108187
 20
-46.749999298352122
 30
0.0
 40
2.249999965667699
 50
347.16041159309862
 51
349.75965167880389
  0
LINE
  5
C0
  8
DETAIL
  6
CONTINUOUS
 62
     5
 10
-71.14258135235012
 20
-47.149999292248147
 30
0.0
 11
-70.785839937392652
 21
-47.149999292248147
 31
0.0
  0
LINE
  5
C1
  8
DETAIL
  6
CONTINUOUS
 62
     5
 10
-70.785839937392652
 20
-46.349999304455167
 30
0.0
 11
-71.14258135235012
 21
-46.349999304455167
 31
0.0
  0
ARC
  5
C6
  8
DETAIL
  6
CONTINUOUS
 62
     5
 10
-73.249998882292829
 20
97.449998501331265
 30
0.0
 40
1.999999969482422
 50
180.0
 51
270.0
  0
LINE
  5
C7
  8
DETAIL
  6
CONTINUOUS
 62
     5
 10
-82.499998741149284
 20
95.449998531848905
 30
0.0
 11
-82.499998741149284
 21
91.249998595934784
 31
0.0
  0
LINE
  5
CA
  8
DETAIL
  6
CONTINUOUS
 62
     5
 10
-81.749998752593456
 20
95.449998531848905
 30
0.0
 11
-82.499998741149284
 21
95.449998531848905
 31
0.0
  0
ARC
  5
CB
  8
DETAIL
  6
CONTINUOUS
 62
     5
 10
-81.749998752593456
 20
97.449998501331265
 30
0.0
 40
1.999999969482422
 50
270.0
 51
0.0
  0
LINE
  5
CC
  8
DETAIL
  6
CONTINUOUS
 62
     5
 10
-79.74999878311155
 20
102.2499984280883
 30
0.0
 11
-79.74999878311155
 21
97.449998501331265
 31
0.0
  0
ARC
  5
CD
  8
DETAIL
  6
CONTINUOUS
 62
     5
 10
-77.499998817443156
 20
102.2499984280883
 30
0.0
 40
2.249999965667723
 50
0.0
 51
180.0
  0
LINE
  5
CE
  8
DETAIL
  6
CONTINUOUS
 62
     5
 10
-75.249998851775658
 20
97.449998501331265
 30
0.0
 11
-75.249998851775658
 21
102.2499984280883
 31
0.0
  0
LINE
  5
CF
  8
DETAIL
  6
CONTINUOUS
 62
     5
 10
-72.499998893737043
 20
95.449998531848905
 30
0.0
 11
-72.499998893737043
 21
91.249998595934784
 31
0.0
  0
LINE
  5
D2
  8
DETAIL
  6
CONTINUOUS
 62
     5
 10
-72.499998893737043
 20
95.449998531848905
 30
0.0
 11
-73.249998882292829
 21
95.449998531848905
 31
0.0
  0
LINE
  5
D3
  8
DETAIL
  6
CONTINUOUS
 62
     5
 10
-27.999999572052719
 20
104.24999839757081
 30
0.0
 11
-27.999999572052719
 21
91.249998595934784
 31
0.0
  0
ARC
  5
D6
  8
DETAIL
  6
CONTINUOUS
 62
     5
 10
20.99999967956591
 20
-77.249998832959136
 30
0.0
 40
2.2499999656678642
 50
190.24034832119591
 51
192.8395884069011
  0
ARC
  5
D7
  8
DETAIL
  6
CONTINUOUS
 62
     5
 10
20.99999967956591
 20
-77.249998832959136
 30
0.0
 40
2.249999965667699
 50
347.16041159309862
 51
349.75965167880389
  0
ARC
  5
D8
  8
DETAIL
  6
CONTINUOUS
 62
     5
 10
20.99999967956591
 20
-77.249998832959136
 30
0.0
 40
2.249999965667699
 50
167.16041159309859
 51
169.75965167880381
  0
ARC
  5
D9
  8
DETAIL
  6
CONTINUOUS
 62
     5
 10
20.99999967956591
 20
-77.249998832959136
 30
0.0
 40
2.249999965667639
 50
10.240348321196061
 51
12.839588406901241
  0
LINE
  5
DA
  8
DETAIL
  6
CONTINUOUS
 62
     5
 10
18.78584073075217
 20
-77.649998826855153
 30
0.0
 11
19.142582145807861
 21
-77.649998826855153
 31
0.0
  0
LINE
  5
DB
  8
DETAIL
  6
CONTINUOUS
 62
     5
 10
22.85741721332397
 20
-77.649998826855153
 30
0.0
 11
23.214158628281439
 21
-77.649998826855153
 31
0.0
  0
LINE
  5
DC
  8
DETAIL
  6
CONTINUOUS
 62
     5
 10
23.214158628281439
 20
-76.849998839062224
 30
0.0
 11
22.85741721332397
 21
-76.849998839062224
 31
0.0
  0
LINE
  5
DD
  8
DETAIL
  6
CONTINUOUS
 62
     5
 10
19.142582145807861
 20
-76.849998839062224
 30
0.0
 11
18.78584073075217
 21
-76.849998839062224
 31
0.0
  0
ARC
  5
DE
  8
DETAIL
  6
CONTINUOUS
 62
     5
 10
20.99999967956591
 20
-77.249998832959136
 30
0.0
 40
2.249999965667699
 50
12.839588406901241
 51
167.16041159309859
  0
LINE
  5
DF
  8
DETAIL
  6
CONTINUOUS
 62
     5
 10
21.999999664307321
 20
106.049998370105
 30
0.0
 11
-21.999999664306412
 21
106.049998370105
 31
0.0
  0
LINE
  5
E0
  8
DETAIL
  6
CONTINUOUS
 62
     5
 10
-24.999999618529731
 20
103.0499984158814
 30
0.0
 11
-24.999999618529738
 21
91.249998595934784
 31
0.0
  0
CIRCLE
  5
E2
  8
DETAIL
  6
CONTINUOUS
 62
     5
 10
0.0
 20
100.0499984616574
 30
0.0
 40
4.9999999237058841
  0
CIRCLE
  5
E3
  8
DETAIL
  6
CONTINUOUS
 62
     5
 10
0.0
 20
100.0499984616574
 30
0.0
 40
2.4999999618530122
  0
ARC
  5
E4
  8
DETAIL
  6
CONTINUOUS
 62
     5
 10
29.249999553680929
 20
70.749998908740011
 30
0.0
 40
2.2499999656677101
 50
12.839588406901241
 51
167.16041159309859
  0
CIRCLE
  5
E5
  8
DETAIL
  6
CONTINUOUS
 62
     5
 10
29.249999553680929
 20
70.749998908740011
 30
0.0
 40
1.899999971008165
  0
CIRCLE
  5
E6
  8
DETAIL
  6
CONTINUOUS
 62
     5
 10
29.249999553680929
 20
70.749998908740011
 30
0.0
 40
3.049999953460647
  0
ARC
  5
E7
  8
DETAIL
  6
CONTINUOUS
 62
     5
 10
29.249999553680929
 20
70.749998908740011
 30
0.0
 40
2.2499999656678211
 50
167.16041159309859
 51
169.75965167880381
  0
ARC
  5
E8
  8
DETAIL
  6
CONTINUOUS
 62
     5
 10
29.249999553680929
 20
70.749998908740011
 30
0.0
 40
2.249999965667639
 50
10.240348321196061
 51
12.839588406901241
  0
ARC
  5
E9
  8
DETAIL
  6
CONTINUOUS
 62
     5
 10
29.249999553680929
 20
70.749998908740011
 30
0.0
 40
2.2499999656677501
 50
190.24034832119591
 51
192.8395884069011
  0
ARC
  5
EA
  8
DETAIL
  6
CONTINUOUS
 62
     5
 10
29.249999553680929
 20
70.749998908740011
 30
0.0
 40
2.2499999656677101
 50
347.16041159309862
 51
349.75965167880389
  0
LINE
  5
EB
  8
DETAIL
  6
CONTINUOUS
 62
     5
 10
31.464158502396451
 20
71.14999890263698
 30
0.0
 11
31.107417087438989
 21
71.14999890263698
 31
0.0
  0
LINE
  5
EC
  8
DETAIL
  6
CONTINUOUS
 62
     5
 10
31.107417087438989
 20
70.349998914844022
 30
0.0
 11
31.464158502396451
 21
70.349998914844022
 31
0.0
  0
LINE
  5
ED
  8
DETAIL
  6
CONTINUOUS
 62
     5
 10
27.39258201992288
 20
71.14999890263698
 30
0.0
 11
27.035840604867179
 21
71.14999890263698
 31
0.0
  0
LINE
  5
EE
  8
DETAIL
  6
CONTINUOUS
 62
     5
 10
27.035840604867179
 20
70.349998914844022
 30
0.0
 11
27.39258201992288
 21
70.349998914844022
 31
0.0
  0
ARC
  5
EF
  8
DETAIL
  6
CONTINUOUS
 62
     5
 10
29.249999553680929
 20
70.749998908740011
 30
0.0
 40
2.2499999656677101
 50
192.8395884069011
 51
347.16041159309862
  0
LINE
  5
F0
  8
DETAIL
  6
CONTINUOUS
 62
     5
 10
27.999999573454261
 20
104.24999839757081
 30
0.0
 11
27.999999573454261
 21
91.249998595934784
 31
0.0
  0
LINE
  5
F1
  8
DETAIL
  6
CONTINUOUS
 62
     5
 10
24.99999961853063
 20
91.249998595934784
 30
0.0
 11
24.99999961853063
 21
103.0499984158814
 31
0.0
  0
LINE
  5
F5
  8
DETAIL
  6
CONTINUOUS
 62
     5
 10
27.999999573454261
 20
104.24999839757081
 30
0.0
 11
24.74954503925256
 21
104.24999839757081
 31
0.0
  0
LINE
  5
F6
  8
DETAIL
  6
CONTINUOUS
 62
     5
 10
73.249998882293767
 20
95.449998531848905
 30
0.0
 11
72.499998893737953
 21
95.449998531848905
 31
0.0
  0
LINE
  5
F7
  8
DETAIL
  6
CONTINUOUS
 62
     5
 10
72.499998893737953
 20
95.449998531848905
 30
0.0
 11
72.499998893737953
 21
91.249998595934784
 31
0.0
  0
LINE
  5
FA
  8
DETAIL
  6
CONTINUOUS
 62
     5
 10
82.499998741150193
 20
95.449998531848905
 30
0.0
 11
82.499998741150193
 21
91.249998595934784
 31
0.0
  0
ARC
  5
FD
  8
DETAIL
  6
CONTINUOUS
 62
     5
 10
81.749998752594365
 20
97.449998501331265
 30
0.0
 40
1.999999969482422
 50
180.0
 51
270.0
  0
LINE
  5
FE
  8
DETAIL
  6
CONTINUOUS
 62
     5
 10
79.749998783112446
 20
97.449998501331265
 30
0.0
 11
79.749998783112446
 21
102.2499984280883
 31
0.0
  0
ARC
  5
FF
  8
DETAIL
  6
CONTINUOUS
 62
     5
 10
73.249998882293767
 20
97.449998501331265
 30
0.0
 40
1.999999969482422
 50
270.0
 51
0.0
  0
LINE
  5
100
  8
DETAIL
  6
CONTINUOUS
 62
     5
 10
75.249998851776581
 20
102.2499984280883
 30
0.0
 11
75.249998851776581
 21
97.449998501331265
 31
0.0
  0
ARC
  5
101
  8
DETAIL
  6
CONTINUOUS
 62
     5
 10
77.499998817444066
 20
102.2499984280883
 30
0.0
 40
2.249999965667723
 50
0.0
 51
180.0
  0
LINE
  5
102
  8
DETAIL
  6
CONTINUOUS
 62
     5
 10
82.499998741150193
 20
95.449998531848905
 30
0.0
 11
81.749998752594365
 21
95.449998531848905
 31
0.0
  0
LINE
  5
103
  8
DETAIL
  6
CONTINUOUS
 62
     5
 10
123.79999811026281
 20
-104.7499983902546
 30
0.0
 11
123.79999811166159
 21
102.2499984280883
 31
0.0
  0
LINE
  5
104
  8
DETAIL
  6
CONTINUOUS
 62
     5
 10
124.99999809265221
 20
91.249998596034857
 30
0.0
 11
124.99999809265221
 21
-92.049998607078123
 31
0.0
  0
ARC
  5
106
  8
DETAIL
  6
CONTINUOUS
 62
     5
 10
118.79999818655671
 20
-104.74999838994189
 30
0.0
 40
4.9999999237060564
 50
270.0
 51
0.0
  0
ARC
  5
10A
  8
DETAIL
  6
CONTINUOUS
 62
     5
 10
118.7999981879555
 20
102.2499984280883
 30
0.0
 40
4.9999999237061692
 50
0.0
 51
90.0
  0
LINE
  5
10F
  8
NOTE
  6
CONTINUOUS
 62
     4
 10
-77.499998817443156
 20
-97.350224901215839
 30
0.0
 11
-77.499998817443156
 21
-107.14977195496201
 31
0.0
  0
LINE
  5
110
  8
NOTE
  6
CONTINUOUS
 62
     4
 10
-72.600225290570052
 20
-102.2499984280889
 30
0.0
 11
-82.399772344316219
 21
-102.2499984280889
 31
0.0
  0
CIRCLE
  5
111
  8
FIX
  6
CONTINUOUS
 62
    11
 10
-77.499998817443156
 20
-102.2499984280889
 30
0.0
 40
3.647484687809686
  0
LINE
  5
112
  8
NOTE
  6
CONTINUOUS
 62
     4
 10
77.499998817444066
 20
-97.350224901215839
 30
0.0
 11
77.499998817444066
 21
-107.14977195496201
 31
0.0
  0
LINE
  5
113
  8
NOTE
  6
CONTINUOUS
 62
     4
 10
82.399772344317185
 20
-102.2499984280889
 30
0.0
 11
72.600225290570961
 21
-102.2499984280889
 31
0.0
  0
CIRCLE
  5
114
  8
FIX
  6
CONTINUOUS
 62
    11
 10
77.499998817444066
 20
-102.2499984280889
 30
0.0
 40
3.647484687809686
  0
LINE
  5
115
  8
NOTE
  6
CONTINUOUS
 62
     4
 10
-77.499998817443156
 20
107.14977195496139
 30
0.0
 11
-77.499998817443156
 21
97.350224901215356
 31
0.0
  0
LINE
  5
116
  8
NOTE
  6
CONTINUOUS
 62
     4
 10
-72.600225290570052
 20
102.2499984280883
 30
0.0
 11
-82.399772344316219
 21
102.2499984280883
 31
0.0
  0
CIRCLE
  5
117
  8
FIX
  6
CONTINUOUS
 62
    11
 10
-77.499998817443156
 20
102.2499984280883
 30
0.0
 40
3.647484687809686
  0
LINE
  5
118
  8
NOTE
  6
CONTINUOUS
 62
     4
 10
77.499998817444066
 20
107.14977195496139
 30
0.0
 11
77.499998817444066
 21
97.350224901215356
 31
0.0
  0
LINE
  5
119
  8
NOTE
  6
CONTINUOUS
 62
     4
 10
82.399772344317185
 20
102.2499984280883
 30
0.0
 11
72.600225290570961
 21
102.2499984280883
 31
0.0
  0
CIRCLE
  5
11A
  8
FIX
  6
CONTINUOUS
 62
    11
 10
77.499998817444066
 20
102.2499984280883
 30
0.0
 40
3.647484687809686
  0
LINE
  5
11B
  8
SIZE
  6
CONTINUOUS
 62
    30
 10
-77.499998817443156
 20
117.14977195496149
 30
0.0
 11
-77.499998817443156
 21
154.290371027942
 31
0.0
  0
LINE
  5
11C
  8
SIZE
  6
CONTINUOUS
 62
    30
 10
77.499998817444066
 20
117.14977195496149
 30
0.0
 11
77.499998817444066
 21
154.290371027942
 31
0.0
  0
LINE
  5
11D
  8
SIZE
  6
CONTINUOUS
 62
    30
 10
-77.499998817443156
 20
144.29037102794189
 30
0.0
 11
77.499998817444066
 21
144.29037102794189
 31
0.0
  0
CIRCLE
  5
11E
  8
SIZE
  6
CONTINUOUS
 62
    30
 10
-77.499998817443156
 20
144.29037102794189
 30
0.0
 40
2.5
  0
CIRCLE
  5
11F
  8
SIZE
  6
CONTINUOUS
 62
    30
 10
77.499998817444066
 20
144.29037102794189
 30
0.0
 40
2.5
  0
TEXT
  5
120
  8
SIZE
  6
CONTINUOUS
 62
    30
 10
-21.428571428570969
 20
154.29037102794189
 30
0.0
 40
20.0
  1
155
 41
0.9
 72
     1
 11
0.0000000000004547
 21
154.29037102794189
 31
0.0
  0
POINT
  5
121
  8
DEFPOINTS
  6
CONTINUOUS
 62
     7
 10
-77.499998817443156
 20
107.14977195496139
 30
0.0
  0
POINT
  5
122
  8
DEFPOINTS
  6
CONTINUOUS
 62
     7
 10
77.499998817444066
 20
107.14977195496139
 30
0.0
  0
POINT
  5
123
  8
DEFPOINTS
  6
CONTINUOUS
 62
     7
 10
77.499998817444066
 20
144.29037102794189
 30
0.0
  0
LINE
  5
124
  8
SIZE
  6
CONTINUOUS
 62
    30
 10
-124.9999980926512
 20
101.0499985989868
 30
0.0
 11
-124.9999980926512
 21
200.83793364800229
 31
0.0
  0
LINE
  5
125
  8
SIZE
  6
CONTINUOUS
 62
    30
 10
124.99999809265221
 20
101.0499985989868
 30
0.0
 11
124.99999809265221
 21
200.83793364800229
 31
0.0
  0
LINE
  5
126
  8
SIZE
  6
CONTINUOUS
 62
    30
 10
-124.9999980926512
 20
190.83793364800241
 30
0.0
 11
124.99999809265221
 21
190.83793364800241
 31
0.0
  0
CIRCLE
  5
127
  8
SIZE
  6
CONTINUOUS
 62
    30
 10
-124.9999980926512
 20
190.83793364800241
 30
0.0
 40
2.5
  0
CIRCLE
  5
128
  8
SIZE
  6
CONTINUOUS
 62
    30
 10
124.99999809265221
 20
190.83793364800241
 30
0.0
 40
2.5
  0
TEXT
  5
129
  8
SIZE
  6
CONTINUOUS
 62
    30
 10
-23.14285714285668
 20
200.83793364800241
 30
0.0
 40
20.0
  1
250
 41
0.9
 72
     1
 11
0.0000000000004547
 21
200.83793364800241
 31
0.0
  0
POINT
  5
12C
  8
DEFPOINTS
  6
CONTINUOUS
 62
     7
 10
124.99999809265221
 20
190.83793364800241
 30
0.0
  0
LINE
  5
12D
  8
SIZE
  6
CONTINUOUS
 62
    30
 10
92.399772344317185
 20
102.2499984280883
 30
0.0
 11
188.74608319663631
 21
102.2499984280883
 31
0.0
  0
LINE
  5
12E
  8
SIZE
  6
CONTINUOUS
 62
    30
 10
92.399772344317185
 20
-102.2499984280889
 30
0.0
 11
188.74608319663631
 21
-102.2499984280889
 31
0.0
  0
LINE
  5
12F
  8
SIZE
  6
CONTINUOUS
 62
    30
 10
178.74608319663631
 20
102.2499984280883
 30
0.0
 11
178.74608319663631
 21
-102.2499984280889
 31
0.0
  0
CIRCLE
  5
130
  8
SIZE
  6
CONTINUOUS
 62
    30
 10
178.74608319663631
 20
102.2499984280883
 30
0.0
 40
2.5
  0
CIRCLE
  5
131
  8
SIZE
  6
CONTINUOUS
 62
    30
 10
178.74608319663631
 20
-102.2499984280889
 30
0.0
 40
2.5
  0
TEXT
  5
132
  8
SIZE
  6
CONTINUOUS
 62
    30
 10
168.74608319663639
 20
-36.000000000000213
 30
0.0
 40
20.0
  1
204.5
 50
90.0
 41
0.9
 72
     1
 11
168.74608319663639
 21
-0.0000000000002223
 31
0.0
  0
POINT
  5
133
  8
DEFPOINTS
  6
CONTINUOUS
 62
     7
 10
82.399772344317185
 20
102.2499984280883
 30
0.0
  0
POINT
  5
134
  8
DEFPOINTS
  6
CONTINUOUS
 62
     7
 10
82.399772344317185
 20
-102.2499984280889
 30
0.0
  0
POINT
  5
135
  8
DEFPOINTS
  6
CONTINUOUS
 62
     7
 10
178.74608319663631
 20
-102.2499984280889
 30
0.0
  0
LINE
  5
136
  8
SIZE
  6
CONTINUOUS
 62
    30
 10
128.79999818655671
 20
-109.74999831364801
 30
0.0
 11
241.2629443358145
 21
-109.74999831364801
 31
0.0
  0
LINE
  5
137
  8
SIZE
  6
CONTINUOUS
 62
    30
 10
128.79999818655671
 20
107.24999835179401
 30
0.0
 11
241.2629443358145
 21
107.24999835179401
 31
0.0
  0
LINE
  5
138
  8
SIZE
  6
CONTINUOUS
 62
    30
 10
231.2629443358145
 20
-109.74999831364801
 30
0.0
 11
231.26294433581461
 21
107.24999835179401
 31
0.0
  0
CIRCLE
  5
139
  8
SIZE
  6
CONTINUOUS
 62
    30
 10
231.2629443358145
 20
-109.74999831364801
 30
0.0
 40
2.5
  0
CIRCLE
  5
13A
  8
SIZE
  6
CONTINUOUS
 62
    30
 10
231.26294433581461
 20
107.24999835179401
 30
0.0
 40
2.5
  0
TEXT
  5
13B
  8
SIZE
  6
CONTINUOUS
 62
    30
 10
221.2629443358145
 20
-22.678571409498399
 30
0.0
 40
20.0
  1
217
 50
90.0
 41
0.9
 72
     1
 11
221.2629443358145
 21
-1.2499999809269691
 31
0.0
  0
POINT
  5
13C
  8
DEFPOINTS
  6
CONTINUOUS
 62
     7
 10
118.79999818655671
 20
-109.74999831364801
 30
0.0
  0
POINT
  5
13D
  8
DEFPOINTS
  6
CONTINUOUS
 62
     7
 10
118.79999818655671
 20
107.24999835179401
 30
0.0
  0
POINT
  5
13E
  8
DEFPOINTS
  6
CONTINUOUS
 62
     7
 10
231.26294433581461
 20
107.24999835179401
 30
0.0
  0
LINE
  5
13F
  8
NOTE
  6
CONTINUOUS
 62
     4
 10
77.499998817444066
 20
-102.2499984280889
 30
0.0
 11
108.62496686972641
 21
-160.14929450023919
 31
0.0
  0
LINE
  5
140
  8
NOTE
  6
CONTINUOUS
 62
     4
 10
77.499998817444066
 20
-102.2499984280889
 30
0.0
 11
82.341430541458067
 21
-120.2778930169237
 31
0.0
  0
LINE
  5
141
  8
NOTE
  6
CONTINUOUS
 62
     4
 10
77.499998817444066
 20
-102.2499984280889
 30
0.0
 11
90.706749167758048
 21
-115.4418970643295
 31
0.0
  0
LINE
  5
142
  8
OUTLINE
  6
CONTINUOUS
 62
     3
 10
123.799998110263
 20
91.249998595934784
 30
0.0
 11
123.7999981116635
 21
102.2499984280883
 31
0.0
  0
ARC
  5
143
  8
OUTLINE
  6
CONTINUOUS
 62
     3
 10
118.7999981879555
 20
102.2499984280883
 30
0.0
 40
4.9999999237061692
 50
0.0
 51
90.0
  0
LINE
  5
144
  8
OUTLINE
  6
CONTINUOUS
 62
     3
 10
118.79999818655671
 20
107.24999835179401
 30
0.0
 11
-118.79999818655401
 21
107.24999835179401
 31
0.0
  0
ARC
  5
145
  8
OUTLINE
  6
CONTINUOUS
 62
     3
 10
-118.79999818655401
 20
102.24999842808791
 30
0.0
 40
4.9999999237060564
 50
90.0
 51
180.0
  0
ARC
  5
146
  8
OUTLINE
  6
CONTINUOUS
 62
     3
 10
-118.7999981879555
 20
-104.7499983899083
 30
0.0
 40
4.9999999237060564
 50
180.0
 51
270.0
  0
LINE
  5
147
  8
OUTLINE
  6
CONTINUOUS
 62
     3
 10
-118.7999981879555
 20
-109.74999831364801
 30
0.0
 11
118.79999818655671
 21
-109.74999831364801
 31
0.0
  0
ARC
  5
148
  8
OUTLINE
  6
CONTINUOUS
 62
     3
 10
118.79999818655671
 20
-104.74999838994189
 30
0.0
 40
4.9999999237060564
 50
270.0
 51
0.0
  0
LINE
  5
149
  8
OUTLINE
  6
CONTINUOUS
 62
     3
 10
123.799998110263
 20
-104.74999838994189
 30
0.0
 11
123.799998110263
 21
-92.049998607128146
 31
0.0
  0
LINE
  5
14A
  8
OUTLINE
  6
CONTINUOUS
 62
     3
 10
-123.7999981116608
 20
-104.7499983899083
 30
0.0
 11
-123.7999981109604
 21
-92.049998607028115
 31
0.0
  0
LINE
  5
14B
  8
OUTLINE
  6
CONTINUOUS
 62
     3
 10
124.99999809265221
 20
-92.049998607078123
 30
0.0
 11
-124.9999980926512
 21
-92.049998607128146
 31
0.0
  0
LINE
  5
14C
  8
OUTLINE
  6
CONTINUOUS
 62
     3
 10
-124.9999980926512
 20
-92.049998607128146
 30
0.0
 11
-124.9999980926512
 21
91.249998595934784
 31
0.0
  0
LINE
  5
14E
  8
OUTLINE
  6
CONTINUOUS
 62
     3
 10
-123.7999981116608
 20
91.249998595934784
 30
0.0
 11
-123.7999981102602
 21
102.24999842808791
 31
0.0
  0
LINE
  5
14F
  8
OUTLINE
  6
CONTINUOUS
 62
     3
 10
-124.9999980926512
 20
91.249998595934755
 30
0.0
 11
124.9999980919518
 21
91.249998596535079
 31
0.0
  0
LINE
  5
150
  8
OUTLINE
  6
CONTINUOUS
 62
     3
 10
124.9999980919518
 20
91.249998596535079
 30
0.0
 11
124.99999809265221
 21
-92.049998607078123
 31
0.0
  0
LINE
  5
152
  8
BASIS
  6
DASHDOT
 62
     6
 10
0.0
 20
130.0
 30
0.0
 11
0.0
 21
-130.0
 31
0.0
  0
LINE
  5
153
  8
BASIS
  6
DASHDOT
 62
     6
 10
145.0
 20
0.0
 30
0.0
 11
-145.0
 21
0.0
 31
0.0
  0
CIRCLE
  5
154
  8
ARRANGE
  6
CONTINUOUS
 62
     1
 10
0.000000000001819
 20
0.0000000000004547
 30
0.0
 40
10.710000000000001
  0
LINE
  5
155
  8
ARRANGE
  6
CONTINUOUS
 62
     1
 10
11.786320049777711
 20
-11.908889307456761
 30
0.0
 11
-11.786320049777711
 21
11.908889307456761
 31
0.0
  0
LINE
  5
156
  8
ARRANGE
  6
CONTINUOUS
 62
     1
 10
-11.80398956192038
 20
-11.89137566789941
 30
0.0
 11
11.80398956192038
 21
11.89137566789941
 31
0.0
  0
TEXT
  5
157
  8
ETC
  6
CONTINUOUS
 62
    61
 10
114.64597716443041
 20
227.61553424304549
 30
0.0
 40
20.0
  1
GB-50AD_2
 50
359.99999749553132
 41
0.7
  7
STANDARD1
  0
LINE
  5
158
  8
NOTE
  6
CONTINUOUS
 62
     4
 10
143.679828870573
 20
-160.14929450023919
 30
0.0
 11
108.62496686972641
 21
-160.14929450023919
 31
0.0
  0
TEXT
  5
159
  8
NOTE
  6
CONTINUOUS
 62
     4
 10
116.4771602287572
 20
-153.4826297956696
 30
0.0
 40
20.0
  1
AH
 50
359.99999749553132
 41
0.7
  7
STANDARD1
  0
LINE
  5
276
  8
SIZE
  6
CONTINUOUS
 62
    30
 10
92.399772344317185
 20
102.2499984280883
 30
0.0
 11
188.74608319663631
 21
102.2499984280883
 31
0.0
  0
LINE
  5
277
  8
SIZE
  6
CONTINUOUS
 62
    30
 10
128.79999818795551
 20
107.24999835179401
 30
0.0
 11
188.74608319663631
 21
107.24999835179401
 31
0.0
  0
LINE
  5
278
  8
SIZE
  6
CONTINUOUS
 62
    30
 10
178.74608319663631
 20
102.2499984280883
 30
0.0
 11
178.74608319663631
 21
107.24999835179401
 31
0.0
  0
LINE
  5
279
  8
SIZE
  6
CONTINUOUS
 62
    30
 10
178.74608319663631
 20
107.24999835179401
 30
0.0
 11
178.74608319663631
 21
129.42999835179401
 31
0.0
  0
TEXT
  5
27F
  8
SIZE
  6
CONTINUOUS
 62
    30
 10
168.7203911992583
 20
114.2998747654855
 30
0.0
 40
20.0
  1
5
 50
90.0
 41
0.9
 72
     1
 11
168.7203911992583
 21
120.2998747654856
 31
0.0
  0
CIRCLE
  5
280
  8
SIZE
  6
CONTINUOUS
 62
    30
 10
178.74608319663631
 20
107.24999835179401
 30
0.0
 40
2.5
  0
CIRCLE
  5
281
  8
SIZE
  6
CONTINUOUS
 62
    30
 10
178.74608319663631
 20
102.2499984280883
 30
0.0
 40
2.5
  0
ENDSEC
  0
EOF
