  0
SECTION
  2
HEADER
  9
$ACADVER
  1
AC1009
  9
$INSBASE
 10
0.0
 20
0.0
 30
0.0
  9
$EXTMIN
 10
-1141.4839551314981
 20
-1323.4662415955611
 30
-0.0015258207003583
  9
$EXTMAX
 10
1265.095252544306
 20
603.0766200094622
 30
0.0000000349246037
  9
$LIMMIN
 10
-4267.1522210604826
 20
-2696.083210198412
  9
$LIMMAX
 10
7190.7174225864646
 20
5141.155363923066
  9
$ORTHOMODE
 70
     1
  9
$REGENMODE
 70
     1
  9
$FILLMODE
 70
     1
  9
$QTEXTMODE
 70
     0
  9
$MIRRTEXT
 70
     0
  9
$DRAGMODE
 70
     2
  9
$LTSCALE
 40
20.0
  9
$OSMODE
 70
   959
  9
$ATTMODE
 70
     1
  9
$TEXTSIZE
 40
64.0
  9
$TRACEWID
 40
0.05
  9
$TEXTSTYLE
  7
NOTE
  9
$CLAYER
  8
SIZE
  9
$CELTYPE
  6
CONTINUOUS
  9
$CECOLOR
 62
     7
  9
$DIMSCALE
 40
1.0
  9
$DIMASZ
 40
25.0
  9
$DIMEXO
 40
20.0
  9
$DIMDLI
 40
80.0
  9
$DIMRND
 40
0.0
  9
$DIMDLE
 40
0.0
  9
$DIMEXE
 40
20.0
  9
$DIMTP
 40
0.0
  9
$DIMTM
 40
0.0
  9
$DIMTXT
 40
50.0
  9
$DIMCEN
 40
0.09
  9
$DIMTSZ
 40
0.0
  9
$DIMTOL
 70
     0
  9
$DIMLIM
 70
     0
  9
$DIMTIH
 70
     0
  9
$DIMTOH
 70
     0
  9
$DIMSE1
 70
     0
  9
$DIMSE2
 70
     0
  9
$DIMTAD
 70
     1
  9
$DIMZIN
 70
     8
  9
$DIMBLK
  1
SMALL
  9
$DIMASO
 70
     1
  9
$DIMSHO
 70
     0
  9
$DIMPOST
  1

  9
$DIMAPOST
  1

  9
$DIMALT
 70
     0
  9
$DIMALTD
 70
     2
  9
$DIMALTF
 40
25.399999999999999
  9
$DIMLFAC
 40
1.0
  9
$DIMTOFL
 70
     1
  9
$DIMTVP
 40
0.0
  9
$DIMTIX
 70
     0
  9
$DIMSOXD
 70
     0
  9
$DIMSAH
 70
     0
  9
$DIMBLK1
  1

  9
$DIMBLK2
  1

  9
$DIMSTYLE
  2
STANDARD
  9
$DIMCLRD
 70
     0
  9
$DIMCLRE
 70
     0
  9
$DIMCLRT
 70
     0
  9
$DIMTFAC
 40
1.0
  9
$DIMGAP
 40
0.09
  9
$LUNITS
 70
     2
  9
$LUPREC
 70
     4
  9
$SKETCHINC
 40
0.1
  9
$FILLETRAD
 40
30.0
  9
$AUNITS
 70
     1
  9
$AUPREC
 70
     3
  9
$MENU
  1
ACAD
  9
$ELEVATION
 40
0.0
  9
$PELEVATION
 40
0.0
  9
$THICKNESS
 40
0.0
  9
$LIMCHECK
 70
     0
  9
$BLIPMODE
 70
     0
  9
$CHAMFERA
 40
0.0
  9
$CHAMFERB
 40
0.0
  9
$SKPOLY
 70
     0
  9
$TDCREATE
 40
2450330.4399309959
  9
$TDUPDATE
 40
2455596.5833985298
  9
$TDINDWG
 40
4.1164654745
  9
$TDUSRTIMER
 40
4.1164647454000001
  9
$USRTIMER
 70
     1
  9
$ANGBASE
 50
0.0
  9
$ANGDIR
 70
     0
  9
$PDMODE
 70
     3
  9
$PDSIZE
 40
-2.0
  9
$PLINEWID
 40
0.0
  9
$COORDS
 70
     0
  9
$SPLFRAME
 70
     0
  9
$SPLINETYPE
 70
     6
  9
$SPLINESEGS
 70
     8
  9
$ATTDIA
 70
     0
  9
$ATTREQ
 70
     1
  9
$HANDLING
 70
     1
  9
$HANDSEED
  5
3F6
  9
$SURFTAB1
 70
     6
  9
$SURFTAB2
 70
     6
  9
$SURFTYPE
 70
     6
  9
$SURFU
 70
     6
  9
$SURFV
 70
     6
  9
$UCSNAME
  2

  9
$UCSORG
 10
0.0
 20
0.0
 30
0.0
  9
$UCSXDIR
 10
1.0
 20
0.0
 30
0.0
  9
$UCSYDIR
 10
0.0
 20
1.0
 30
0.0
  9
$PUCSNAME
  2

  9
$PUCSORG
 10
0.0
 20
0.0
 30
0.0
  9
$PUCSXDIR
 10
1.0
 20
0.0
 30
0.0
  9
$PUCSYDIR
 10
0.0
 20
1.0
 30
0.0
  9
$USERI1
 70
     0
  9
$USERI2
 70
     0
  9
$USERI3
 70
     0
  9
$USERI4
 70
     0
  9
$USERI5
 70
     0
  9
$USERR1
 40
20.0
  9
$USERR2
 40
0.0
  9
$USERR3
 40
0.0
  9
$USERR4
 40
0.0
  9
$USERR5
 40
0.0
  9
$WORLDVIEW
 70
     1
  9
$SHADEDGE
 70
     3
  9
$SHADEDIF
 70
    70
  9
$TILEMODE
 70
     1
  9
$MAXACTVP
 70
    64
  9
$PLIMCHECK
 70
     0
  9
$PEXTMIN
 10
1.0000000000000000E+020
 20
1.0000000000000000E+020
 30
1.0000000000000000E+020
  9
$PEXTMAX
 10
-1.0000000000000000E+020
 20
-1.0000000000000000E+020
 30
-1.0000000000000000E+020
  9
$PLIMMIN
 10
0.0
 20
0.0
  9
$PLIMMAX
 10
12.0
 20
9.0
  9
$UNITMODE
 70
     0
  9
$VISRETAIN
 70
     1
  9
$PLINEGEN
 70
     0
  9
$PSLTSCALE
 70
     1
  0
ENDSEC
  0
SECTION
  2
TABLES
  0
TABLE
  2
VPORT
 70
     1
  0
VPORT
  2
*ACTIVE
 70
     0
 10
0.0
 20
0.0
 11
1.0
 21
1.0
 12
1461.782600762991
 22
1222.536076862327
 13
0.0
 23
0.0
 14
50.0
 24
50.0
 15
100.0
 25
100.0
 16
0.0
 26
0.0
 36
1.0
 17
0.0
 27
0.0
 37
0.0
 40
7897.2940421224084
 41
1.5639386189258311
 42
50.0
 43
0.0
 44
0.0
 50
0.0
 51
0.0
 71
     0
 72
  1000
 73
     1
 74
     0
 75
     0
 76
     0
 77
     0
 78
     0
  0
ENDTAB
  0
TABLE
  2
LTYPE
 70
     3
  0
LTYPE
  2
CONTINUOUS
 70
     0
  3
実線
 72
    65
 73
     0
 40
0.0
  0
LTYPE
  2
DASHDOT
 70
     0
  3
____ _ ____ _ ____ _ ____ _ ____ _ ____ _ ____
 72
    65
 73
     4
 40
5.5
 49
4.0
 49
-0.6
 49
0.3
 49
-0.6
  0
ENDTAB
  0
TABLE
  2
LAYER
 70
    12
  0
LAYER
  2
0
 70
     0
 62
     7
  6
CONTINUOUS
  0
LAYER
  2
SIZE
 70
     0
 62
    30
  6
CONTINUOUS
  0
LAYER
  2
OUTLINE
 70
     0
 62
     3
  6
CONTINUOUS
  0
LAYER
  2
DETAIL
 70
     0
 62
     5
  6
CONTINUOUS
  0
LAYER
  2
BASIS
 70
     0
 62
     6
  6
DASHDOT
  0
LAYER
  2
NOTE
 70
     0
 62
     4
  6
CONTINUOUS
  0
LAYER
  2
ARRANGE
 70
     0
 62
     1
  6
CONTINUOUS
  0
LAYER
  2
FIX
 70
     0
 62
    11
  6
CONTINUOUS
  0
LAYER
  2
SERVICESPACE
 70
     0
 62
     2
  6
DASHDOT
  0
LAYER
  2
ETC
 70
     0
 62
    61
  6
CONTINUOUS
  0
LAYER
  2
SYMBOLLINE
 70
     0
 62
    15
  6
CONTINUOUS
  0
LAYER
  2
DEFPOINTS
 70
     0
 62
     7
  6
CONTINUOUS
  0
ENDTAB
  0
TABLE
  2
STYLE
 70
     4
  0
STYLE
  2
STANDARD
 70
     0
 40
0.0
 41
0.9
 50
0.0
 71
     0
 42
64.0
  3
SIMPLEX
  4
BIGFONT
  0
STYLE
  2
ANNOTATIVE
 70
     0
 40
0.0
 41
1.0
 50
0.0
 71
     0
 42
0.2
  3
txt
  4

  0
STYLE
  2
NOTE
 70
     0
 40
0.0
 41
0.7
 50
0.0
 71
     0
 42
64.0
  3
SIMPLEX.shx
  4
BIGFONT.shx
  0
STYLE
  2
STANDARD1
 70
     0
 40
0.0
 41
1.0
 50
0.0
 71
     0
 42
64.0
  3
MONOTXT
  4
BIGFONT
  0
ENDTAB
  0
TABLE
  2
VIEW
 70
    11
  0
VIEW
  2
ALL
 70
     0
 40
9000.0
 10
241.50664699999999
 20
0.0
 41
12483.01
 11
0.0
 21
0.0
 31
1.0
 12
0.0
 22
0.0
 32
0.0
 42
50.0
 43
0.0
 44
0.0
 50
0.0
 71
     0
  0
ENDTAB
  0
TABLE
  2
UCS
 70
     0
  0
ENDTAB
  0
TABLE
  2
APPID
 70
     4
  0
APPID
  2
ACAD
 70
     0
  0
APPID
  2
ACADANNOTATIVE
 70
     0
  0
APPID
  2
ACAD_MLEADERVER
 70
     0
  0
APPID
  2
ACAD_EXEMPT_FROM_CAD_STANDARDS
 70
     0
  0
ENDTAB
  0
TABLE
  2
DIMSTYLE
 70
     3
  0
DIMSTYLE
  2
STANDARD
 70
     0
  3

  4

  5

  6

  7

 40
1.0
 41
0.18
 42
0.0625
 43
0.38
 44
0.18
 45
0.0
 46
0.0
 47
0.0
 48
0.0
140
0.18
141
0.09
142
0.0
143
25.399999999999999
144
1.0
145
0.0
146
1.0
147
0.09
 71
     0
 72
     0
 73
     1
 74
     1
 75
     0
 76
     0
 77
     0
 78
     0
170
     0
171
     2
172
     0
173
     0
174
     0
175
     0
176
     0
177
     0
178
     0
  0
DIMSTYLE
  2
ANNOTATIVE
 70
     0
  3

  4

  5

  6

  7

 40
1.0
 41
0.18
 42
0.0625
 43
0.38
 44
0.18
 45
0.0
 46
0.0
 47
0.0
 48
0.0
140
0.18
141
0.09
142
0.0
143
25.399999999999999
144
1.0
145
0.0
146
1.0
147
0.09
 71
     0
 72
     0
 73
     1
 74
     1
 75
     0
 76
     0
 77
     0
 78
     0
170
     0
171
     2
172
     0
173
     0
174
     0
175
     0
176
     0
177
     0
178
     0
  0
ENDTAB
  0
ENDSEC
  0
SECTION
  2
BLOCKS
  0
BLOCK
  8
0
  2
$MODEL_SPACE
 70
     0
 10
0.0
 20
0.0
 30
0.0
  3
$MODEL_SPACE
  1

  0
ENDBLK
  5
36A
  8
0
  0
BLOCK
 67
     1
  8
0
  2
$PAPER_SPACE
 70
     0
 10
0.0
 20
0.0
 30
0.0
  3
$PAPER_SPACE
  1

  0
ENDBLK
  5
366
 67
     1
  8
0
  0
BLOCK
  8
0
  2
_SMALL
 70
     0
 10
0.0
 20
0.0
 30
0.0
  3
_SMALL
  1

  0
CIRCLE
  5
8D
  8
0
  6
CONTINUOUS
 62
     7
 10
0.0
 20
0.0
 30
0.0
 40
0.25
  0
ENDBLK
  5
8E
  8
0
  0
ENDSEC
  0
SECTION
  2
ENTITIES
  0
LINE
  5
8F
  8
DETAIL
  6
CONTINUOUS
 62
     5
 10
424.9999977637961
 20
-0.0000000000018048
 30
0.0
 11
-424.99999776379968
 21
-0.0000000000018048
 31
0.0
  0
LINE
  5
90
  8
DETAIL
  6
CONTINUOUS
 62
     5
 10
-424.99999776379968
 20
-469.99999647469531
 30
0.0
 11
424.9999977637961
 21
-469.99999647469531
 31
0.0
  0
LINE
  5
91
  8
DETAIL
  6
CONTINUOUS
 62
     5
 10
499.99998211038832
 20
-439.99999663254499
 30
0.0
 11
499.99998211038832
 21
-322.9399983421348
 31
0.0
  0
LINE
  5
92
  8
DETAIL
  6
CONTINUOUS
 62
     5
 10
424.9999977637961
 20
-0.0000000000018048
 30
0.0
 11
424.9999977637961
 21
-469.99999647469531
 31
0.0
  0
LINE
  5
93
  8
DETAIL
  6
CONTINUOUS
 62
     5
 10
424.9999977637961
 20
-19.99999884243924
 30
0.0
 11
485.1999974470491
 21
-19.99999884243924
 31
0.0
  0
LINE
  5
94
  8
DETAIL
  6
CONTINUOUS
 62
     5
 10
456.69999759701199
 20
-59.999998631973057
 30
0.0
 11
424.9999977637961
 21
-59.999998631973057
 31
0.0
  0
LINE
  5
95
  8
DETAIL
  6
CONTINUOUS
 62
     5
 10
459.14285365590138
 20
-57.599999696923497
 30
0.0
 11
499.99998211038832
 21
-57.599999696923497
 31
0.0
  0
LINE
  5
96
  8
DETAIL
  6
CONTINUOUS
 62
     5
 10
485.1999974470491
 20
-31.999998779296661
 30
0.0
 11
456.69999759701199
 21
-59.999998631973057
 31
0.0
  0
LINE
  5
97
  8
DETAIL
  6
CONTINUOUS
 62
     5
 10
485.1999974470491
 20
-19.99999884243924
 30
0.0
 11
485.1999974470491
 21
-31.999998779296661
 31
0.0
  0
LINE
  5
98
  8
DETAIL
  6
CONTINUOUS
 62
     5
 10
524.99998197884634
 20
-269.48999752970519
 30
0.0
 11
524.99998197884634
 21
-280.50999747171983
 31
0.0
  0
LINE
  5
99
  8
DETAIL
  6
CONTINUOUS
 62
     5
 10
513.9600325432292
 20
-270.23999752575611
 30
0.0
 11
513.9600325432292
 21
-279.75999747566891
 31
0.0
  0
LINE
  5
9A
  8
DETAIL
  6
CONTINUOUS
 62
     5
 10
524.99998197884634
 20
-269.48999752970519
 30
0.0
 11
514.71003253928029
 21
-269.48999752970519
 31
0.0
  0
LINE
  5
9B
  8
DETAIL
  6
CONTINUOUS
 62
     5
 10
524.99998197884634
 20
-280.50999747171983
 30
0.0
 11
514.71003253928029
 21
-280.50999747171983
 31
0.0
  0
LINE
  5
9C
  8
DETAIL
  6
CONTINUOUS
 62
     5
 10
514.71003253928029
 20
-269.48999752970519
 30
0.0
 11
513.9600325432292
 21
-270.23999752575611
 31
0.0
  0
LINE
  5
9D
  8
DETAIL
  6
CONTINUOUS
 62
     5
 10
514.71003253928029
 20
-280.50999747171983
 30
0.0
 11
513.9600325432292
 21
-279.75999747566891
 31
0.0
  0
LINE
  5
9E
  8
DETAIL
  6
CONTINUOUS
 62
     5
 10
499.99998211038832
 20
-439.99999663254499
 30
0.0
 11
449.9999823734687
 21
-439.99999663254499
 31
0.0
  0
LINE
  5
9F
  8
DETAIL
  6
CONTINUOUS
 62
     5
 10
449.9999823734687
 20
-444.99999660623712
 30
0.0
 11
474.49998224455697
 21
-444.99999660623712
 31
0.0
  0
LINE
  5
A0
  8
DETAIL
  6
CONTINUOUS
 62
     5
 10
434.19998245660452
 20
-451.49999762436511
 30
0.0
 11
449.9999823734687
 21
-451.49999762436511
 31
0.0
  0
ARC
  5
A1
  8
DETAIL
  6
CONTINUOUS
 62
     5
 10
474.49998224455879
 20
-442.99999661676202
 30
0.0
 40
1.999999989476724
 50
270.0
 51
0.000000000000007
  0
LINE
  5
A2
  8
DETAIL
  6
CONTINUOUS
 62
     5
 10
476.4999822340323
 20
-442.99999661676202
 30
0.0
 11
476.4999822340323
 21
-439.99999663254499
 31
0.0
  0
LINE
  5
A3
  8
DETAIL
  6
CONTINUOUS
 62
     5
 10
449.9999823734687
 20
-426.5000131405352
 30
0.0
 11
449.9999823734687
 21
-451.49999762436511
 31
0.0
  0
LINE
  5
A4
  8
DETAIL
  6
CONTINUOUS
 62
     5
 10
434.19998245660452
 20
-454.99999655361921
 30
0.0
 11
434.19998245660452
 21
-430.00001206978948
 31
0.0
  0
LINE
  5
A5
  8
DETAIL
  6
CONTINUOUS
 62
     5
 10
424.9999977637961
 20
-454.99999655361921
 30
0.0
 11
434.19998245660452
 21
-454.99999655361921
 31
0.0
  0
LINE
  5
A6
  8
DETAIL
  6
CONTINUOUS
 62
     5
 10
-424.99999776379968
 20
-0.0000000000018048
 30
0.0
 11
-424.99999776379968
 21
-469.99999647469531
 31
0.0
  0
LINE
  5
A7
  8
DETAIL
  6
CONTINUOUS
 62
     5
 10
-485.00000223620373
 20
-19.99999884243924
 30
0.0
 11
-424.99999776379968
 21
-19.99999884243924
 31
0.0
  0
LINE
  5
A8
  8
DETAIL
  6
CONTINUOUS
 62
     5
 10
-424.99999776379968
 20
-59.999998631973057
 30
0.0
 11
-456.50000238615559
 21
-59.999998631973057
 31
0.0
  0
LINE
  5
A9
  8
DETAIL
  6
CONTINUOUS
 62
     5
 10
-456.50000238615559
 20
-59.999998631973057
 30
0.0
 11
-485.00000223620373
 21
-31.999998779296661
 31
0.0
  0
LINE
  5
AA
  8
DETAIL
  6
CONTINUOUS
 62
     5
 10
-485.00000223620373
 20
-31.999998779296661
 30
0.0
 11
-485.00000223620373
 21
-19.99999884243924
 31
0.0
  0
LINE
  5
AB
  8
NOTE
  6
CONTINUOUS
 62
     4
 10
449.9999823734687
 20
-452.4999976191034
 30
0.0
 11
449.9999823734687
 21
-417.49999780326141
 31
0.0
  0
LINE
  5
AC
  8
NOTE
  6
CONTINUOUS
 62
     4
 10
432.49998246554958
 20
-434.99999771118229
 30
0.0
 11
467.49998228139151
 21
-434.99999771118229
 31
0.0
  0
LINE
  5
AD
  8
DETAIL
  6
CONTINUOUS
 62
     5
 10
509.52448224526961
 20
-320.76016894619931
 30
0.0
 11
505.74890697903709
 21
-322.93999834253492
 31
0.0
  0
LINE
  5
AE
  8
DETAIL
  6
CONTINUOUS
 62
     5
 10
505.74890697903709
 20
-307.05999834253481
 30
0.0
 11
505.74890697903709
 21
-322.93999834253492
 31
0.0
  0
LINE
  5
AF
  8
DETAIL
  6
CONTINUOUS
 62
     5
 10
524.99998197884634
 20
-308.91999833274491
 30
0.0
 11
510.07844302635573
 21
-308.91999833274491
 31
0.0
  0
LINE
  5
B0
  8
DETAIL
  6
CONTINUOUS
 62
     5
 10
524.99998197884634
 20
-321.0799983523151
 30
0.0
 11
510.07844302635573
 21
-321.0799983523151
 31
0.0
  0
LINE
  5
B1
  8
DETAIL
  6
CONTINUOUS
 62
     5
 10
510.07844302635573
 20
-308.91999833274491
 30
0.0
 11
509.52448224526961
 21
-309.23982773886138
 31
0.0
  0
LINE
  5
B2
  8
DETAIL
  6
CONTINUOUS
 62
     5
 10
524.99998197884634
 20
-308.91999833274491
 30
0.0
 11
524.99998197884634
 21
-321.0799983523151
 31
0.0
  0
LINE
  5
B3
  8
DETAIL
  6
CONTINUOUS
 62
     5
 10
509.52448224526961
 20
-309.23982773886138
 30
0.0
 11
509.52448224526961
 21
-320.76016894619931
 31
0.0
  0
LINE
  5
B4
  8
DETAIL
  6
CONTINUOUS
 62
     5
 10
509.52448224526961
 20
-309.23982773886138
 30
0.0
 11
505.74890697903709
 21
-307.05999834253481
 31
0.0
  0
LINE
  5
B5
  8
DETAIL
  6
CONTINUOUS
 62
     5
 10
510.07844302635573
 20
-321.0799983523151
 30
0.0
 11
509.52448224526961
 21
-320.76016894619931
 31
0.0
  0
LINE
  5
B6
  8
NOTE
  6
CONTINUOUS
 62
     4
 10
524.99998197884634
 20
-332.49999825050168
 30
0.0
 11
524.99998197884634
 21
-297.49999843465991
 31
0.0
  0
LINE
  5
B7
  8
NOTE
  6
CONTINUOUS
 62
     4
 10
524.99998197884634
 20
-332.49999825050168
 30
0.0
 11
524.99998197884634
 21
-297.49999843465991
 31
0.0
  0
LINE
  5
B8
  8
NOTE
  6
CONTINUOUS
 62
     4
 10
507.49998207092523
 20
-314.9999983425808
 30
0.0
 11
542.49998188676716
 21
-314.9999983425808
 31
0.0
  0
LINE
  5
B9
  8
NOTE
  6
CONTINUOUS
 62
     4
 10
507.49998207092523
 20
-314.9999983425808
 30
0.0
 11
542.49998188676716
 21
-314.9999983425808
 31
0.0
  0
LINE
  5
BA
  8
NOTE
  6
CONTINUOUS
 62
     4
 10
524.99998197884634
 20
-292.49999740863359
 30
0.0
 11
524.99998197884634
 21
-257.4999975927916
 31
0.0
  0
LINE
  5
BB
  8
NOTE
  6
CONTINUOUS
 62
     4
 10
507.49998207092523
 20
-274.9999975007126
 30
0.0
 11
542.49998188676716
 21
-274.9999975007126
 31
0.0
  0
LINE
  5
BC
  8
DETAIL
  6
CONTINUOUS
 62
     5
 10
524.99998197884634
 20
-182.19473904136009
 30
0.0
 11
524.99998197884634
 21
-197.8052589592138
 31
0.0
  0
LINE
  5
BD
  8
DETAIL
  6
CONTINUOUS
 62
     5
 10
524.99998197884634
 20
-182.19473904136009
 30
0.0
 11
524.99998197884634
 21
-197.8052589592138
 31
0.0
  0
LINE
  5
BE
  8
DETAIL
  6
CONTINUOUS
 62
     5
 10
504.43998208702919
 20
-181.04713040784949
 30
0.0
 11
504.43998208702919
 21
-198.9528675927061
 31
0.0
  0
LINE
  5
BF
  8
DETAIL
  6
CONTINUOUS
 62
     5
 10
514.99998203146242
 20
-181.20118094410589
 30
0.0
 11
514.99998203146242
 21
-198.79881705644971
 31
0.0
  0
LINE
  5
C0
  8
DETAIL
  6
CONTINUOUS
 62
     5
 10
508.27998206682599
 20
-181.20118094410589
 30
0.0
 11
508.27998206682599
 21
-198.79881705644971
 31
0.0
  0
LINE
  5
C1
  8
DETAIL
  6
CONTINUOUS
 62
     5
 10
514.99998203146242
 20
-181.8822390430044
 30
0.0
 11
524.99998197884634
 21
-182.19473904136009
 31
0.0
  0
LINE
  5
C2
  8
DETAIL
  6
CONTINUOUS
 62
     5
 10
513.9999820367193
 20
-179.46913014565081
 30
0.0
 11
514.99998203146242
 21
-181.20118094410589
 31
0.0
  0
LINE
  5
C3
  8
DETAIL
  6
CONTINUOUS
 62
     5
 10
502.4399820975558
 20
-179.8924298755523
 30
0.0
 11
504.43998208702919
 21
-181.04713040784949
 31
0.0
  0
LINE
  5
C4
  8
DETAIL
  6
CONTINUOUS
 62
     5
 10
508.27998206682599
 20
-181.8822390430044
 30
0.0
 11
504.43998208702919
 21
-182.00223904237041
 31
0.0
  0
LINE
  5
C5
  8
DETAIL
  6
CONTINUOUS
 62
     5
 10
513.9999820367193
 20
-179.46913014565081
 30
0.0
 11
509.27998206155809
 21
-179.46913014565081
 31
0.0
  0
LINE
  5
C6
  8
DETAIL
  6
CONTINUOUS
 62
     5
 10
509.27998206155809
 20
-179.46913014565081
 30
0.0
 11
508.27998206682599
 21
-181.20118094410589
 31
0.0
  0
LINE
  5
C7
  8
DETAIL
  6
CONTINUOUS
 62
     5
 10
514.99998203146242
 20
-198.1177589575604
 30
0.0
 11
524.99998197884634
 21
-197.8052589592138
 31
0.0
  0
LINE
  5
C8
  8
DETAIL
  6
CONTINUOUS
 62
     5
 10
513.9999820367193
 20
-200.53086785491399
 30
0.0
 11
514.99998203146242
 21
-198.79881705644971
 31
0.0
  0
LINE
  5
C9
  8
DETAIL
  6
CONTINUOUS
 62
     5
 10
502.4399820975558
 20
-200.1075681250035
 30
0.0
 11
504.43998208702919
 21
-198.9528675927061
 31
0.0
  0
LINE
  5
CA
  8
DETAIL
  6
CONTINUOUS
 62
     5
 10
508.27998206682599
 20
-198.1177589575604
 30
0.0
 11
504.43998208702919
 21
-197.99775895819531
 31
0.0
  0
LINE
  5
CB
  8
DETAIL
  6
CONTINUOUS
 62
     5
 10
509.2799820615673
 20
-200.53086785491399
 30
0.0
 11
513.9999820367193
 21
-200.53086785491399
 31
0.0
  0
LINE
  5
CC
  8
DETAIL
  6
CONTINUOUS
 62
     5
 10
509.2799820615673
 20
-200.53086785491399
 30
0.0
 11
508.27998206682599
 21
-198.79881705644971
 31
0.0
  0
LINE
  5
CD
  8
NOTE
  6
CONTINUOUS
 62
     4
 10
524.99998197884634
 20
-207.49999890820831
 30
0.0
 11
524.99998197884634
 21
-172.49999909236649
 31
0.0
  0
LINE
  5
CE
  8
NOTE
  6
CONTINUOUS
 62
     4
 10
507.49998207092523
 20
-189.99999900028749
 30
0.0
 11
542.49998188676716
 21
-189.99999900028749
 31
0.0
  0
LINE
  5
CF
  8
NOTE
  6
CONTINUOUS
 62
     4
 10
524.99998197884634
 20
-189.99999900028661
 30
0.0
 11
524.99998197884634
 21
-189.99999900028661
 31
0.0
  0
LINE
  5
D0
  8
SERVICESPACE
  6
DASHDOT
 62
     2
 10
1224.999997763794
 20
19.999999999998192
 30
0.0
 11
1224.999997763794
 21
-489.999997527022
 31
0.0
  0
LINE
  5
D1
  8
SERVICESPACE
  6
DASHDOT
 62
     2
 10
424.9999977637961
 20
-0.0000000000018048
 30
0.0
 11
-475.00000223620361
 21
-0.0000000000018048
 31
0.0
  0
LINE
  5
D2
  8
SERVICESPACE
  6
DASHDOT
 62
     2
 10
-475.00000223620361
 20
-0.0000000000018048
 30
0.0
 11
-475.00000223620361
 21
19.999999999998192
 31
0.0
  0
LINE
  5
D3
  8
SERVICESPACE
  6
DASHDOT
 62
     2
 10
-475.00000223620361
 20
19.999999999998192
 30
0.0
 11
1224.999997763794
 21
19.999999999998192
 31
0.0
  0
LINE
  5
D4
  8
SERVICESPACE
  6
DASHDOT
 62
     2
 10
1224.999997763794
 20
-489.999997527022
 30
0.0
 11
-475.00000223620361
 21
-489.999997527022
 31
0.0
  0
LINE
  5
D5
  8
SERVICESPACE
  6
DASHDOT
 62
     2
 10
-475.00000223620361
 20
-489.999997527022
 30
0.0
 11
-475.00000223620361
 21
-469.99999752702212
 31
0.0
  0
LINE
  5
D6
  8
SERVICESPACE
  6
DASHDOT
 62
     2
 10
-475.00000223620361
 20
-469.99999752702212
 30
0.0
 11
1224.999997763794
 21
-469.99999752702212
 31
0.0
  0
LINE
  5
D7
  8
SERVICESPACE
  6
DASHDOT
 62
     2
 10
624.99999776379605
 20
-469.99999752702212
 30
0.0
 11
624.99999776379605
 21
-489.999997527022
 31
0.0
  0
LINE
  5
D8
  8
SERVICESPACE
  6
DASHDOT
 62
     2
 10
624.99999776379605
 20
-489.999997527022
 30
0.0
 11
1224.999997763794
 21
-469.99999752702212
 31
0.0
  0
LINE
  5
D9
  8
SERVICESPACE
  6
DASHDOT
 62
     2
 10
1224.999997763794
 20
-489.999997527022
 30
0.0
 11
624.99999776379605
 21
-469.99999752702212
 31
0.0
  0
TEXT
  5
DA
  8
NOTE
  6
CONTINUOUS
 62
     4
 10
868.34799927426502
 20
-549.48272556178836
 30
0.0
 40
50.0
  1
点検口
 50
359.99999749558327
 41
0.7031250221965211
  7
STANDARD1
  0
TEXT
  5
DB
  8
NOTE
  6
CONTINUOUS
 62
     4
 10
69.222111139351895
 20
24.789119647663949
 30
0.0
 40
50.0
  1
サービススペース
 50
359.99999749558327
 41
0.7031250221965211
  7
STANDARD1
  0
LINE
  5
DC
  8
NOTE
  6
CONTINUOUS
 62
     4
 10
-462.8000024319353
 20
-39.999998737207491
 30
0.0
 11
-462.8000024319353
 21
0.0000010523263114
 31
0.0
  0
LINE
  5
DD
  8
NOTE
  6
CONTINUOUS
 62
     4
 10
-482.8000023267013
 20
-19.999998842440601
 30
0.0
 11
-442.80000253716941
 21
-19.999998842440601
 31
0.0
  0
LINE
  5
DE
  8
NOTE
  6
CONTINUOUS
 62
     4
 10
462.19999756806641
 20
-39.99999873720661
 30
0.0
 11
462.19999756806641
 21
0.0000010523272209
 31
0.0
  0
LINE
  5
DF
  8
NOTE
  6
CONTINUOUS
 62
     4
 10
442.19999767329841
 20
-19.999998842439691
 30
0.0
 11
482.19999746283241
 21
-19.999998842439691
 31
0.0
  0
CIRCLE
  5
E0
  8
FIX
  6
CONTINUOUS
 62
    11
 10
-462.80000243193348
 20
-19.999998842439691
 30
0.0
 40
16.155115914013201
  0
CIRCLE
  5
E1
  8
FIX
  6
CONTINUOUS
 62
    11
 10
462.19999756806641
 20
-19.999998842439691
 30
0.0
 40
16.155115914013201
  0
LINE
  5
E2
  8
SIZE
  6
CONTINUOUS
 62
    30
 10
-386.44999807186821
 20
-305.00001951452521
 30
0.0
 11
-538.98537559778208
 21
-305.00001951452521
 31
0.0
  0
LINE
  5
E3
  8
SIZE
  6
CONTINUOUS
 62
    30
 10
-379.99999810580078
 20
-355.00001912854202
 30
0.0
 11
-538.98537559778208
 21
-355.00001912854202
 31
0.0
  0
LINE
  5
E4
  8
SIZE
  6
CONTINUOUS
 62
    30
 10
-518.98537559778208
 20
-305.00001951452521
 30
0.0
 11
-518.98537559778208
 21
-355.00001912854202
 31
0.0
  0
LINE
  5
E5
  8
SIZE
  6
CONTINUOUS
 62
    30
 10
-518.98537559778208
 20
-355.00001912854202
 30
0.0
 11
-518.98537559778208
 21
-586.06127579681981
 31
0.0
  0
CIRCLE
  5
E6
  8
SIZE
  6
CONTINUOUS
 62
    30
 10
-518.98537559778208
 20
-305.00001951452521
 30
0.0
 40
6.25
  0
CIRCLE
  5
E7
  8
SIZE
  6
CONTINUOUS
 62
    30
 10
-518.98537559778208
 20
-355.00001912854202
 30
0.0
 40
6.25
  0
TEXT
  5
E8
  8
SIZE
  6
CONTINUOUS
 62
    30
 10
-533.98537559778185
 20
-571.06127579681959
 30
0.0
 40
50.0
  1
50
 50
90.0
 41
0.9
 72
     1
 11
-533.98537559778185
 21
-534.63270436824826
 31
0.0
  0
POINT
  5
E9
  8
DEFPOINTS
  6
CONTINUOUS
 62
     7
 10
-366.44999807186821
 20
-305.00001951452532
 30
0.0
  0
POINT
  5
EA
  8
DEFPOINTS
  6
CONTINUOUS
 62
     7
 10
-359.99999810580078
 20
-355.00001912854202
 30
0.0
  0
POINT
  5
EB
  8
DEFPOINTS
  6
CONTINUOUS
 62
     7
 10
-518.98537559778208
 20
-355.00001912854202
 30
0.0
  0
LINE
  5
EC
  8
SIZE
  6
CONTINUOUS
 62
    30
 10
-386.44999807186821
 20
-305.00001951452521
 30
0.0
 11
-538.98537559778208
 21
-305.00001951452521
 31
0.0
  0
LINE
  5
ED
  8
SIZE
  6
CONTINUOUS
 62
    30
 10
-386.44999807186821
 20
-105.00002022129711
 30
0.0
 11
-538.98537559778185
 21
-105.00002022129711
 31
0.0
  0
LINE
  5
EE
  8
SIZE
  6
CONTINUOUS
 62
    30
 10
-518.98537559778208
 20
-305.00001951452521
 30
0.0
 11
-518.98537559778197
 21
-105.00002022129711
 31
0.0
  0
CIRCLE
  5
EF
  8
SIZE
  6
CONTINUOUS
 62
    30
 10
-518.98537559778208
 20
-305.00001951452521
 30
0.0
 40
6.25
  0
CIRCLE
  5
F0
  8
SIZE
  6
CONTINUOUS
 62
    30
 10
-518.98537559778197
 20
-105.00002022129711
 30
0.0
 40
6.25
  0
TEXT
  5
F1
  8
SIZE
  6
CONTINUOUS
 62
    30
 10
-533.98537559778185
 20
-262.85716272505402
 30
0.0
 40
50.0
  1
200
 50
90.0
 41
0.9
 72
     1
 11
-533.98537559778185
 21
-205.00001986791119
 31
0.0
  0
POINT
  5
F2
  8
DEFPOINTS
  6
CONTINUOUS
 62
     7
 10
-366.44999807186821
 20
-305.00001951452532
 30
0.0
  0
POINT
  5
F3
  8
DEFPOINTS
  6
CONTINUOUS
 62
     7
 10
-366.44999807186821
 20
-105.00002022129711
 30
0.0
  0
POINT
  5
F4
  8
DEFPOINTS
  6
CONTINUOUS
 62
     7
 10
-518.98537559778197
 20
-105.00002022129711
 30
0.0
  0
TEXT
  5
F5
  8
SIZE
  6
CONTINUOUS
 62
    30
 10
-593.18887088071995
 20
-312.75109802771772
 30
0.0
 40
50.0
  1
100×2=
 50
89.999997495583386
 41
0.7031250221965211
  7
STANDARD1
  0
LINE
  5
F6
  8
SIZE
  6
CONTINUOUS
 62
    30
 10
-379.99999810580078
 20
-355.00001912854202
 30
0.0
 11
-777.2598207557312
 21
-355.00001912854202
 31
0.0
  0
LINE
  5
F7
  8
SIZE
  6
CONTINUOUS
 62
    30
 10
-379.99999810580078
 20
-55.000020811934959
 30
0.0
 11
-777.2598207557312
 21
-55.000020811934853
 31
0.0
  0
LINE
  5
F8
  8
SIZE
  6
CONTINUOUS
 62
    30
 10
-757.25982075573108
 20
-355.00001912854202
 30
0.0
 11
-757.25982075573108
 21
-55.000020811934853
 31
0.0
  0
CIRCLE
  5
F9
  8
SIZE
  6
CONTINUOUS
 62
    30
 10
-757.25982075573108
 20
-355.00001912854202
 30
0.0
 40
6.25
  0
CIRCLE
  5
FA
  8
SIZE
  6
CONTINUOUS
 62
    30
 10
-757.25982075573108
 20
-55.000020811934853
 30
0.0
 40
6.25
  0
TEXT
  5
FB
  8
SIZE
  6
CONTINUOUS
 62
    30
 10
-772.2598207557312
 20
-262.85716282738127
 30
0.0
 40
50.0
  1
300
 50
90.0
 41
0.9
 72
     1
 11
-772.2598207557312
 21
-205.0000199702385
 31
0.0
  0
POINT
  5
FC
  8
DEFPOINTS
  6
CONTINUOUS
 62
     7
 10
-359.99999810580078
 20
-355.00001912854202
 30
0.0
  0
POINT
  5
FD
  8
DEFPOINTS
  6
CONTINUOUS
 62
     7
 10
-359.99999810580078
 20
-55.000020811934959
 30
0.0
  0
POINT
  5
FE
  8
DEFPOINTS
  6
CONTINUOUS
 62
     7
 10
-757.25982075573108
 20
-55.000020811934853
 30
0.0
  0
LINE
  5
FF
  8
SIZE
  6
CONTINUOUS
 62
    30
 10
-379.99999810580078
 20
-355.00001912854202
 30
0.0
 11
-777.2598207557312
 21
-355.00001912854202
 31
0.0
  0
LINE
  5
100
  8
SIZE
  6
CONTINUOUS
 62
    30
 10
-444.99999776379991
 20
-469.99999647469531
 30
0.0
 11
-777.2598207557312
 21
-469.99999647469508
 31
0.0
  0
LINE
  5
101
  8
SIZE
  6
CONTINUOUS
 62
    30
 10
-757.25982075573108
 20
-355.00001912854202
 30
0.0
 11
-757.25982075573108
 21
-469.99999647469508
 31
0.0
  0
LINE
  5
102
  8
SIZE
  6
CONTINUOUS
 62
    30
 10
-757.25982075573108
 20
-469.99999647469508
 30
0.0
 11
-757.25982075573108
 21
-623.57142504612386
 31
0.0
  0
CIRCLE
  5
103
  8
SIZE
  6
CONTINUOUS
 62
    30
 10
-757.25982075573108
 20
-355.00001912854202
 30
0.0
 40
6.25
  0
CIRCLE
  5
104
  8
SIZE
  6
CONTINUOUS
 62
    30
 10
-757.25982075573108
 20
-469.99999647469508
 30
0.0
 40
6.25
  0
TEXT
  5
105
  8
SIZE
  6
CONTINUOUS
 62
    30
 10
-772.2598207557312
 20
-608.57142504612386
 30
0.0
 40
50.0
  1
115
 50
90.0
 41
0.9
 72
     1
 11
-772.2598207557312
 21
-559.28571076040964
 31
0.0
  0
POINT
  5
106
  8
DEFPOINTS
  6
CONTINUOUS
 62
     7
 10
-359.99999810580078
 20
-355.00001912854202
 30
0.0
  0
POINT
  5
107
  8
DEFPOINTS
  6
CONTINUOUS
 62
     7
 10
-424.99999776379968
 20
-469.99999647469531
 30
0.0
  0
POINT
  5
108
  8
DEFPOINTS
  6
CONTINUOUS
 62
     7
 10
-757.25982075573108
 20
-469.99999647469508
 30
0.0
  0
LINE
  5
109
  8
SIZE
  6
CONTINUOUS
 62
    30
 10
-444.99999776379991
 20
-469.99999647469531
 30
0.0
 11
-882.00006496636354
 21
-469.99999647469508
 31
0.0
  0
LINE
  5
10A
  8
SIZE
  6
CONTINUOUS
 62
    30
 10
-444.99999776379991
 20
-0.0000000000017991
 30
0.0
 11
-882.00006496636354
 21
-0.0000000000016753
 31
0.0
  0
LINE
  5
10B
  8
SIZE
  6
CONTINUOUS
 62
    30
 10
-862.00006496636354
 20
-469.99999647469508
 30
0.0
 11
-862.00006496636342
 21
-0.000000000001681
 31
0.0
  0
CIRCLE
  5
10C
  8
SIZE
  6
CONTINUOUS
 62
    30
 10
-862.00006496636354
 20
-469.99999647469508
 30
0.0
 40
6.25
  0
CIRCLE
  5
10D
  8
SIZE
  6
CONTINUOUS
 62
    30
 10
-862.00006496636342
 20
-0.000000000001681
 30
0.0
 40
6.25
  0
TEXT
  5
10E
  8
SIZE
  6
CONTINUOUS
 62
    30
 10
-877.00006496636342
 20
-292.8571410944914
 30
0.0
 40
50.0
  1
470
 50
90.0
 41
0.9
 72
     1
 11
-877.00006496636342
 21
-234.99999823734859
 31
0.0
  0
POINT
  5
10F
  8
DEFPOINTS
  6
CONTINUOUS
 62
     7
 10
-424.99999776379968
 20
-469.99999647469531
 30
0.0
  0
POINT
  5
110
  8
DEFPOINTS
  6
CONTINUOUS
 62
     7
 10
-424.99999776379968
 20
-0.0000000000018048
 30
0.0
  0
POINT
  5
111
  8
DEFPOINTS
  6
CONTINUOUS
 62
     7
 10
-862.00006496636342
 20
-0.000000000001681
 30
0.0
  0
LINE
  5
112
  8
SIZE
  6
CONTINUOUS
 62
    30
 10
487.49998228139151
 20
-434.99999771118229
 30
0.0
 11
621.25294684465905
 21
-434.99999771118229
 31
0.0
  0
LINE
  5
113
  8
SIZE
  6
CONTINUOUS
 62
    30
 10
444.9999977637961
 20
-469.99999647469531
 30
0.0
 11
621.25294684465905
 21
-469.99999647469531
 31
0.0
  0
LINE
  5
114
  8
SIZE
  6
CONTINUOUS
 62
    30
 10
601.25294684465905
 20
-434.99999771118229
 30
0.0
 11
601.25294684465905
 21
-469.99999647469531
 31
0.0
  0
LINE
  5
115
  8
SIZE
  6
CONTINUOUS
 62
    30
 10
601.25294684465905
 20
-469.99999647469531
 30
0.0
 11
601.25294684465905
 21
-597.85713933183808
 31
0.0
  0
CIRCLE
  5
116
  8
SIZE
  6
CONTINUOUS
 62
    30
 10
601.25294684465905
 20
-434.99999771118229
 30
0.0
 40
6.25
  0
CIRCLE
  5
117
  8
SIZE
  6
CONTINUOUS
 62
    30
 10
601.25294684465905
 20
-469.99999647469531
 30
0.0
 40
6.25
  0
TEXT
  5
118
  8
SIZE
  6
CONTINUOUS
 62
    30
 10
586.25294684465916
 20
-582.85713933183786
 30
0.0
 40
50.0
  1
35
 50
90.0
 41
0.9
 72
     1
 11
586.25294684465916
 21
-546.42856790326653
 31
0.0
  0
POINT
  5
119
  8
DEFPOINTS
  6
CONTINUOUS
 62
     7
 10
467.49998228139151
 20
-434.99999771118229
 30
0.0
  0
POINT
  5
11A
  8
DEFPOINTS
  6
CONTINUOUS
 62
     7
 10
424.9999977637961
 20
-469.99999647469531
 30
0.0
  0
POINT
  5
11B
  8
DEFPOINTS
  6
CONTINUOUS
 62
     7
 10
601.25294684465905
 20
-469.99999647469531
 30
0.0
  0
LINE
  5
11C
  8
SIZE
  6
CONTINUOUS
 62
    30
 10
444.9999977637961
 20
-469.99999647469531
 30
0.0
 11
753.66906694149645
 21
-469.99999647469531
 31
0.0
  0
LINE
  5
11D
  8
SIZE
  6
CONTINUOUS
 62
    30
 10
562.49998188676727
 20
-314.9999983425808
 30
0.0
 11
753.66906694149645
 21
-314.99999834258091
 31
0.0
  0
LINE
  5
11E
  8
SIZE
  6
CONTINUOUS
 62
    30
 10
733.66906694149645
 20
-469.99999647469531
 30
0.0
 11
733.66906694149645
 21
-314.99999834258091
 31
0.0
  0
CIRCLE
  5
11F
  8
SIZE
  6
CONTINUOUS
 62
    30
 10
733.66906694149645
 20
-469.99999647469531
 30
0.0
 40
6.25
  0
CIRCLE
  5
120
  8
SIZE
  6
CONTINUOUS
 62
    30
 10
733.66906694149645
 20
-314.99999834258091
 30
0.0
 40
6.25
  0
TEXT
  5
121
  8
SIZE
  6
CONTINUOUS
 62
    30
 10
718.66906694149645
 20
-446.07142598006658
 30
0.0
 40
50.0
  1
155
 50
90.0
 41
0.9
 72
     1
 11
718.66906694149645
 21
-392.49999740863808
 31
0.0
  0
POINT
  5
122
  8
DEFPOINTS
  6
CONTINUOUS
 62
     7
 10
424.9999977637961
 20
-469.99999647469531
 30
0.0
  0
POINT
  5
123
  8
DEFPOINTS
  6
CONTINUOUS
 62
     7
 10
542.49998188676716
 20
-314.9999983425808
 30
0.0
  0
POINT
  5
124
  8
DEFPOINTS
  6
CONTINUOUS
 62
     7
 10
733.66906694149645
 20
-314.99999834258091
 30
0.0
  0
LINE
  5
125
  8
SIZE
  6
CONTINUOUS
 62
    30
 10
562.49998188676727
 20
-314.9999983425808
 30
0.0
 11
753.66906694149645
 21
-314.99999834258091
 31
0.0
  0
LINE
  5
126
  8
SIZE
  6
CONTINUOUS
 62
    30
 10
562.49998188676727
 20
-274.9999975007126
 30
0.0
 11
753.66906694149645
 21
-274.99999750071271
 31
0.0
  0
LINE
  5
127
  8
SIZE
  6
CONTINUOUS
 62
    30
 10
733.66906694149645
 20
-314.99999834258091
 30
0.0
 11
733.66906694149645
 21
-274.99999750071271
 31
0.0
  0
LINE
  5
128
  8
SIZE
  6
CONTINUOUS
 62
    30
 10
733.66906694149645
 20
-274.99999750071271
 30
0.0
 11
733.66906694149645
 21
-196.60456928803981
 31
0.0
  0
CIRCLE
  5
129
  8
SIZE
  6
CONTINUOUS
 62
    30
 10
733.66906694149645
 20
-314.99999834258091
 30
0.0
 40
6.25
  0
CIRCLE
  5
12A
  8
SIZE
  6
CONTINUOUS
 62
    30
 10
733.66906694149645
 20
-274.99999750071271
 30
0.0
 40
6.25
  0
TEXT
  5
12B
  8
SIZE
  6
CONTINUOUS
 62
    30
 10
720.38257471128964
 20
-270.19789597153431
 30
0.0
 40
50.0
  1
40
 50
90.0
 41
0.9
 72
     1
 11
720.38257471128964
 21
-233.76932454296289
 31
0.0
  0
POINT
  5
12C
  8
DEFPOINTS
  6
CONTINUOUS
 62
     7
 10
542.49998188676716
 20
-314.9999983425808
 30
0.0
  0
POINT
  5
12D
  8
DEFPOINTS
  6
CONTINUOUS
 62
     7
 10
542.49998188676716
 20
-274.9999975007126
 30
0.0
  0
POINT
  5
12E
  8
DEFPOINTS
  6
CONTINUOUS
 62
     7
 10
733.66906694149645
 20
-274.99999750071271
 30
0.0
  0
LINE
  5
12F
  8
SIZE
  6
CONTINUOUS
 62
    30
 10
444.9999977637961
 20
-469.99999647469531
 30
0.0
 11
850.50979514609185
 21
-469.99999647469531
 31
0.0
  0
LINE
  5
130
  8
SIZE
  6
CONTINUOUS
 62
    30
 10
562.49998188676727
 20
-189.99999900028749
 30
0.0
 11
850.50979514609207
 21
-189.9999990002876
 31
0.0
  0
LINE
  5
131
  8
SIZE
  6
CONTINUOUS
 62
    30
 10
830.50979514609173
 20
-469.99999647469531
 30
0.0
 11
830.50979514609185
 21
-189.9999990002876
 31
0.0
  0
CIRCLE
  5
132
  8
SIZE
  6
CONTINUOUS
 62
    30
 10
830.50979514609173
 20
-469.99999647469531
 30
0.0
 40
6.25
  0
CIRCLE
  5
133
  8
SIZE
  6
CONTINUOUS
 62
    30
 10
830.50979514609185
 20
-189.9999990002876
 30
0.0
 40
6.25
  0
TEXT
  5
134
  8
SIZE
  6
CONTINUOUS
 62
    30
 10
815.50979514609196
 20
-387.85714059463419
 30
0.0
 40
50.0
  1
280
 50
90.0
 41
0.9
 72
     1
 11
815.50979514609196
 21
-329.9999977374913
 31
0.0
  0
POINT
  5
135
  8
DEFPOINTS
  6
CONTINUOUS
 62
     7
 10
424.9999977637961
 20
-469.99999647469531
 30
0.0
  0
POINT
  5
136
  8
DEFPOINTS
  6
CONTINUOUS
 62
     7
 10
542.49998188676716
 20
-189.99999900028749
 30
0.0
  0
POINT
  5
137
  8
DEFPOINTS
  6
CONTINUOUS
 62
     7
 10
830.50979514609185
 20
-189.9999990002876
 30
0.0
  0
LINE
  5
138
  8
SIZE
  6
CONTINUOUS
 62
    30
 10
-444.99999776379991
 20
-469.99999752702212
 30
0.0
 11
-882.00006496636354
 21
-469.999997527022
 31
0.0
  0
LINE
  5
139
  8
SIZE
  6
CONTINUOUS
 62
    30
 10
-495.0000022362035
 20
-489.999997527022
 30
0.0
 11
-882.00006496636354
 21
-489.999997527022
 31
0.0
  0
LINE
  5
13A
  8
SIZE
  6
CONTINUOUS
 62
    30
 10
-862.00006496636342
 20
-469.999997527022
 30
0.0
 11
-862.00006496636342
 21
-444.999997527022
 31
0.0
  0
LINE
  5
13B
  8
SIZE
  6
CONTINUOUS
 62
    30
 10
-862.00006496636342
 20
-489.999997527022
 30
0.0
 11
-862.00006496636342
 21
-763.71428324130773
 31
0.0
  0
LINE
  5
13C
  8
SIZE
  6
CONTINUOUS
 62
    30
 10
-862.00006496636342
 20
-469.999997527022
 30
0.0
 11
-862.00006496636342
 21
-489.999997527022
 31
0.0
  0
CIRCLE
  5
13D
  8
SIZE
  6
CONTINUOUS
 62
    30
 10
-862.00006496636342
 20
-469.999997527022
 30
0.0
 40
6.25
  0
CIRCLE
  5
13E
  8
SIZE
  6
CONTINUOUS
 62
    30
 10
-862.00006496636342
 20
-489.999997527022
 30
0.0
 40
6.25
  0
TEXT
  5
13F
  8
SIZE
  6
CONTINUOUS
 62
    30
 10
-877.0000649663632
 20
-717.71428324130773
 30
0.0
 40
50.0
  1
20以上
 50
90.0
 41
0.9
 72
     1
 11
-877.0000649663632
 21
-626.85714038416484
 31
0.0
  0
POINT
  5
140
  8
DEFPOINTS
  6
CONTINUOUS
 62
     7
 10
-424.99999776379968
 20
-469.99999752702212
 30
0.0
  0
POINT
  5
141
  8
DEFPOINTS
  6
CONTINUOUS
 62
     7
 10
-475.00000223620361
 20
-489.999997527022
 30
0.0
  0
POINT
  5
142
  8
DEFPOINTS
  6
CONTINUOUS
 62
     7
 10
-862.00006496636342
 20
-489.999997527022
 30
0.0
  0
LINE
  5
143
  8
SIZE
  6
CONTINUOUS
 62
    30
 10
-444.99999776379991
 20
-0.0000000000017991
 30
0.0
 11
-882.00006496636354
 21
-0.0000000000016753
 31
0.0
  0
LINE
  5
144
  8
SIZE
  6
CONTINUOUS
 62
    30
 10
-495.0000022362035
 20
19.999999999998192
 30
0.0
 11
-882.00006496636354
 21
19.999999999998309
 31
0.0
  0
LINE
  5
145
  8
SIZE
  6
CONTINUOUS
 62
    30
 10
-862.00006496636342
 20
-0.000000000001681
 30
0.0
 11
-862.00006496636342
 21
-25.00000000000167
 31
0.0
  0
LINE
  5
146
  8
SIZE
  6
CONTINUOUS
 62
    30
 10
-862.00006496636342
 20
19.999999999998298
 30
0.0
 11
-862.00006496636342
 21
293.7142857142839
 31
0.0
  0
LINE
  5
147
  8
SIZE
  6
CONTINUOUS
 62
    30
 10
-862.00006496636342
 20
-0.000000000001681
 30
0.0
 11
-862.00006496636342
 21
19.999999999998298
 31
0.0
  0
CIRCLE
  5
148
  8
SIZE
  6
CONTINUOUS
 62
    30
 10
-862.00006496636342
 20
-0.000000000001681
 30
0.0
 40
6.25
  0
CIRCLE
  5
149
  8
SIZE
  6
CONTINUOUS
 62
    30
 10
-862.00006496636342
 20
19.999999999998298
 30
0.0
 40
6.25
  0
TEXT
  5
14A
  8
SIZE
  6
CONTINUOUS
 62
    30
 10
-877.00006496636342
 20
65.999999999998224
 30
0.0
 40
50.0
  1
20以上
 50
90.0
 41
0.9
 72
     1
 11
-877.00006496636342
 21
156.85714285714101
 31
0.0
  0
POINT
  5
14B
  8
DEFPOINTS
  6
CONTINUOUS
 62
     7
 10
-424.99999776379968
 20
-0.0000000000018048
 30
0.0
  0
POINT
  5
14C
  8
DEFPOINTS
  6
CONTINUOUS
 62
     7
 10
-475.00000223620361
 20
19.999999999998192
 30
0.0
  0
POINT
  5
14D
  8
DEFPOINTS
  6
CONTINUOUS
 62
     7
 10
-862.00006496636342
 20
19.999999999998298
 30
0.0
  0
LINE
  5
14E
  8
SIZE
  6
CONTINUOUS
 62
    30
 10
424.9999977637961
 20
-489.99999647469508
 30
0.0
 11
424.9999977637961
 21
-790.77234093299739
 31
0.0
  0
LINE
  5
14F
  8
SIZE
  6
CONTINUOUS
 62
    30
 10
449.9999823734687
 20
-472.4999976191034
 30
0.0
 11
449.9999823734687
 21
-790.77234093299739
 31
0.0
  0
LINE
  5
150
  8
SIZE
  6
CONTINUOUS
 62
    30
 10
424.9999977637961
 20
-770.77234093299739
 30
0.0
 11
399.99999776379622
 21
-770.77234093299739
 31
0.0
  0
LINE
  5
151
  8
SIZE
  6
CONTINUOUS
 62
    30
 10
449.9999823734687
 20
-770.77234093299739
 30
0.0
 11
660.71426808775448
 21
-770.77234093299739
 31
0.0
  0
LINE
  5
152
  8
SIZE
  6
CONTINUOUS
 62
    30
 10
424.9999977637961
 20
-770.77234093299739
 30
0.0
 11
449.9999823734687
 21
-770.77234093299739
 31
0.0
  0
CIRCLE
  5
153
  8
SIZE
  6
CONTINUOUS
 62
    30
 10
424.9999977637961
 20
-770.77234093299739
 30
0.0
 40
6.25
  0
CIRCLE
  5
154
  8
SIZE
  6
CONTINUOUS
 62
    30
 10
449.9999823734687
 20
-770.77234093299739
 30
0.0
 40
6.25
  0
TEXT
  5
155
  8
SIZE
  6
CONTINUOUS
 62
    30
 10
514.9999823734687
 20
-742.67710283775921
 30
0.0
 40
50.0
  1
(25)
 41
0.9
 72
     1
 11
580.3571252306117
 21
-742.67710283775921
 31
0.0
  0
POINT
  5
156
  8
DEFPOINTS
  6
CONTINUOUS
 62
     7
 10
424.9999977637961
 20
-469.99999647469531
 30
0.0
  0
POINT
  5
157
  8
DEFPOINTS
  6
CONTINUOUS
 62
     7
 10
449.9999823734687
 20
-452.4999976191034
 30
0.0
  0
POINT
  5
158
  8
DEFPOINTS
  6
CONTINUOUS
 62
     7
 10
449.9999823734687
 20
-770.77234093299739
 30
0.0
  0
LINE
  5
159
  8
SIZE
  6
CONTINUOUS
 62
    30
 10
424.9999977637961
 20
19.999999999998192
 30
0.0
 11
424.9999977637961
 21
162.1893961516634
 31
0.0
  0
LINE
  5
15A
  8
SIZE
  6
CONTINUOUS
 62
    30
 10
524.99998197884634
 20
-277.49999843465991
 30
0.0
 11
524.99998197884634
 21
162.1893961516634
 31
0.0
  0
LINE
  5
15B
  8
SIZE
  6
CONTINUOUS
 62
    30
 10
424.9999977637961
 20
142.18939615166329
 30
0.0
 11
524.99998197884634
 21
142.18939615166329
 31
0.0
  0
LINE
  5
15C
  8
SIZE
  6
CONTINUOUS
 62
    30
 10
524.99998197884634
 20
142.18939615166329
 30
0.0
 11
744.99998197884634
 21
142.18939615166329
 31
0.0
  0
CIRCLE
  5
15D
  8
SIZE
  6
CONTINUOUS
 62
    30
 10
424.9999977637961
 20
142.18939615166329
 30
0.0
 40
6.25
  0
CIRCLE
  5
15E
  8
SIZE
  6
CONTINUOUS
 62
    30
 10
524.99998197884634
 20
142.18939615166329
 30
0.0
 40
6.25
  0
TEXT
  5
15F
  8
SIZE
  6
CONTINUOUS
 62
    30
 10
564.99998197884634
 20
170.2846342469015
 30
0.0
 40
50.0
  1
(100)
 41
0.9
 72
     1
 11
647.49998197884634
 21
170.2846342469015
 31
0.0
  0
POINT
  5
160
  8
DEFPOINTS
  6
CONTINUOUS
 62
     7
 10
424.9999977637961
 20
-0.0000000000018048
 30
0.0
  0
POINT
  5
161
  8
DEFPOINTS
  6
CONTINUOUS
 62
     7
 10
524.99998197884634
 20
-297.49999843465991
 30
0.0
  0
POINT
  5
162
  8
DEFPOINTS
  6
CONTINUOUS
 62
     7
 10
524.99998197884634
 20
142.18939615166329
 30
0.0
  0
LINE
  5
163
  8
SIZE
  6
CONTINUOUS
 62
    30
 10
424.9999977637961
 20
-489.99999647469508
 30
0.0
 11
424.9999977637961
 21
-1000.72656435496
 31
0.0
  0
LINE
  5
164
  8
SIZE
  6
CONTINUOUS
 62
    30
 10
499.99998211038832
 20
-459.99999663254522
 30
0.0
 11
499.99998211038832
 21
-1000.72656435496
 31
0.0
  0
LINE
  5
165
  8
SIZE
  6
CONTINUOUS
 62
    30
 10
424.9999977637961
 20
-980.72656435495958
 30
0.0
 11
499.99998211038832
 21
-980.72656435495958
 31
0.0
  0
LINE
  5
166
  8
SIZE
  6
CONTINUOUS
 62
    30
 10
499.99998211038832
 20
-980.72656435495958
 30
0.0
 11
627.85712496753115
 21
-980.72656435495958
 31
0.0
  0
CIRCLE
  5
167
  8
SIZE
  6
CONTINUOUS
 62
    30
 10
424.9999977637961
 20
-980.72656435495958
 30
0.0
 40
6.25
  0
CIRCLE
  5
168
  8
SIZE
  6
CONTINUOUS
 62
    30
 10
499.99998211038832
 20
-980.72656435495958
 30
0.0
 40
6.25
  0
TEXT
  5
169
  8
SIZE
  6
CONTINUOUS
 62
    30
 10
527.49998211038826
 20
-965.72656435496003
 30
0.0
 40
50.0
  1
75
 41
0.9
 72
     1
 11
563.92855353895982
 21
-965.72656435496003
 31
0.0
  0
POINT
  5
16A
  8
DEFPOINTS
  6
CONTINUOUS
 62
     7
 10
424.9999977637961
 20
-469.99999647469531
 30
0.0
  0
POINT
  5
16B
  8
DEFPOINTS
  6
CONTINUOUS
 62
     7
 10
499.99998211038832
 20
-439.99999663254499
 30
0.0
  0
POINT
  5
16C
  8
DEFPOINTS
  6
CONTINUOUS
 62
     7
 10
499.99998211038832
 20
-980.72656435495958
 30
0.0
  0
LINE
  5
16D
  8
SIZE
  6
CONTINUOUS
 62
    30
 10
424.9999977637961
 20
-489.99999647469508
 30
0.0
 11
424.9999977637961
 21
-1126.589835816882
 31
0.0
  0
LINE
  5
16E
  8
SIZE
  6
CONTINUOUS
 62
    30
 10
-424.99999776379968
 20
-489.99999647469508
 30
0.0
 11
-424.99999776379968
 21
-1126.589835816882
 31
0.0
  0
LINE
  5
16F
  8
SIZE
  6
CONTINUOUS
 62
    30
 10
424.9999977637961
 20
-1106.589835816882
 30
0.0
 11
-424.99999776379968
 21
-1106.589835816882
 31
0.0
  0
CIRCLE
  5
170
  8
SIZE
  6
CONTINUOUS
 62
    30
 10
424.9999977637961
 20
-1106.589835816882
 30
0.0
 40
6.25
  0
CIRCLE
  5
171
  8
SIZE
  6
CONTINUOUS
 62
    30
 10
-424.99999776379968
 20
-1106.589835816882
 30
0.0
 40
6.25
  0
TEXT
  5
172
  8
SIZE
  6
CONTINUOUS
 62
    30
 10
-154.2857142857161
 20
-1078.4945977216439
 30
0.0
 40
50.0
  1
850 (本体)
 41
0.9
 72
     1
 11
-0.0000000000018758
 21
-1078.4945977216439
 31
0.0
  0
POINT
  5
173
  8
DEFPOINTS
  6
CONTINUOUS
 62
     7
 10
424.9999977637961
 20
-469.99999647469531
 30
0.0
  0
POINT
  5
174
  8
DEFPOINTS
  6
CONTINUOUS
 62
     7
 10
-424.99999776379968
 20
-469.99999647469531
 30
0.0
  0
POINT
  5
175
  8
DEFPOINTS
  6
CONTINUOUS
 62
     7
 10
-424.99999776379968
 20
-1106.589835816882
 30
0.0
  0
LINE
  5
176
  8
SIZE
  6
CONTINUOUS
 62
    30
 10
424.9999977637961
 20
-489.999997527022
 30
0.0
 11
424.9999977637961
 21
-1126.589835816882
 31
0.0
  0
LINE
  5
177
  8
SIZE
  6
CONTINUOUS
 62
    30
 10
1224.999997763794
 20
-509.999997527022
 30
0.0
 11
1224.999997763794
 21
-1126.589835816882
 31
0.0
  0
LINE
  5
178
  8
SIZE
  6
CONTINUOUS
 62
    30
 10
424.9999977637961
 20
-1106.589835816882
 30
0.0
 11
1224.999997763794
 21
-1106.589835816882
 31
0.0
  0
CIRCLE
  5
179
  8
SIZE
  6
CONTINUOUS
 62
    30
 10
424.9999977637961
 20
-1106.589835816882
 30
0.0
 40
6.25
  0
CIRCLE
  5
17A
  8
SIZE
  6
CONTINUOUS
 62
    30
 10
1224.999997763794
 20
-1106.589835816882
 30
0.0
 40
6.25
  0
TEXT
  5
17B
  8
SIZE
  6
CONTINUOUS
 62
    30
 10
712.7142834780816
 20
-1091.589835816882
 30
0.0
 40
50.0
  1
800以上
 41
0.9
 72
     1
 11
824.99999776379582
 21
-1091.589835816882
 31
0.0
  0
POINT
  5
17C
  8
DEFPOINTS
  6
CONTINUOUS
 62
     7
 10
424.9999977637961
 20
-469.99999752702212
 30
0.0
  0
POINT
  5
17D
  8
DEFPOINTS
  6
CONTINUOUS
 62
     7
 10
1224.999997763794
 20
-489.999997527022
 30
0.0
  0
POINT
  5
17E
  8
DEFPOINTS
  6
CONTINUOUS
 62
     7
 10
1224.999997763794
 20
-1106.589835816882
 30
0.0
  0
LINE
  5
17F
  8
SIZE
  6
CONTINUOUS
 62
    30
 10
1224.999997763794
 20
-509.999997527022
 30
0.0
 11
1224.999997763794
 21
-661.30248928595176
 31
0.0
  0
LINE
  5
180
  8
SIZE
  6
CONTINUOUS
 62
    30
 10
624.99999776379605
 20
-509.999997527022
 30
0.0
 11
624.99999776379605
 21
-661.30248928595176
 31
0.0
  0
LINE
  5
181
  8
SIZE
  6
CONTINUOUS
 62
    30
 10
1224.999997763794
 20
-641.30248928595211
 30
0.0
 11
624.99999776379605
 21
-641.30248928595211
 31
0.0
  0
CIRCLE
  5
182
  8
SIZE
  6
CONTINUOUS
 62
    30
 10
1224.999997763794
 20
-641.30248928595211
 30
0.0
 40
6.25
  0
CIRCLE
  5
183
  8
SIZE
  6
CONTINUOUS
 62
    30
 10
624.99999776379605
 20
-641.30248928595211
 30
0.0
 40
6.25
  0
TEXT
  5
184
  8
SIZE
  6
CONTINUOUS
 62
    30
 10
867.14285490665316
 20
-626.30248928595211
 30
0.0
 40
50.0
  1
600
 41
0.9
 72
     1
 11
924.99999776379582
 21
-626.30248928595211
 31
0.0
  0
POINT
  5
185
  8
DEFPOINTS
  6
CONTINUOUS
 62
     7
 10
1224.999997763794
 20
-489.999997527022
 30
0.0
  0
POINT
  5
186
  8
DEFPOINTS
  6
CONTINUOUS
 62
     7
 10
624.99999776379605
 20
-489.999997527022
 30
0.0
  0
POINT
  5
187
  8
DEFPOINTS
  6
CONTINUOUS
 62
     7
 10
624.99999776379605
 20
-641.30248928595211
 30
0.0
  0
LINE
  5
188
  8
SIZE
  6
CONTINUOUS
 62
    30
 10
-424.99999776379968
 20
-489.999997527022
 30
0.0
 11
-424.99999776379968
 21
-1225.1757906101029
 31
0.0
  0
LINE
  5
189
  8
SIZE
  6
CONTINUOUS
 62
    30
 10
499.99998211038832
 20
-459.99999663254522
 30
0.0
 11
499.99998211038832
 21
-1225.1757906101029
 31
0.0
  0
LINE
  5
18A
  8
SIZE
  6
CONTINUOUS
 62
    30
 10
-424.99999776379968
 20
-1205.1757906101029
 30
0.0
 11
499.99998211038832
 21
-1205.1757906101029
 31
0.0
  0
CIRCLE
  5
18B
  8
SIZE
  6
CONTINUOUS
 62
    30
 10
-424.99999776379968
 20
-1205.1757906101029
 30
0.0
 40
6.25
  0
CIRCLE
  5
18C
  8
SIZE
  6
CONTINUOUS
 62
    30
 10
499.99998211038832
 20
-1205.1757906101029
 30
0.0
 40
6.25
  0
TEXT
  5
18D
  8
SIZE
  6
CONTINUOUS
 62
    30
 10
-20.35715068384868
 20
-1190.175790610102
 30
0.0
 40
50.0
  1
925
 41
0.9
 72
     1
 11
37.499992173294167
 21
-1190.175790610102
 31
0.0
  0
POINT
  5
18E
  8
DEFPOINTS
  6
CONTINUOUS
 62
     7
 10
-424.99999776379968
 20
-469.99999752702212
 30
0.0
  0
POINT
  5
18F
  8
DEFPOINTS
  6
CONTINUOUS
 62
     7
 10
499.99998211038832
 20
-439.99999663254499
 30
0.0
  0
POINT
  5
190
  8
DEFPOINTS
  6
CONTINUOUS
 62
     7
 10
499.99998211038832
 20
-1205.1757906101029
 30
0.0
  0
LINE
  5
191
  8
SERVICESPACE
  6
DASHDOT
 62
     2
 10
424.9999977637961
 20
-0.0000000000018048
 30
0.0
 11
424.9999977637961
 21
-469.99999752702212
 31
0.0
  0
LINE
  5
192
  8
SERVICESPACE
  6
DASHDOT
 62
     2
 10
474.9999977637961
 20
-469.99999647469531
 30
0.0
 11
474.9999977637961
 21
-489.999997527022
 31
0.0
  0
LINE
  5
193
  8
SIZE
  6
CONTINUOUS
 62
    30
 10
-475.00000223620361
 20
-509.999997527022
 30
0.0
 11
-475.00000223620361
 21
-1323.331426888898
 31
0.0
  0
LINE
  5
194
  8
SIZE
  6
CONTINUOUS
 62
    30
 10
474.9999977637961
 20
-509.999997527022
 30
0.0
 11
474.9999977637961
 21
-1323.331426888898
 31
0.0
  0
LINE
  5
195
  8
SIZE
  6
CONTINUOUS
 62
    30
 10
-475.00000223620361
 20
-1303.331426888898
 30
0.0
 11
474.9999977637961
 21
-1303.331426888898
 31
0.0
  0
CIRCLE
  5
196
  8
SIZE
  6
CONTINUOUS
 62
    30
 10
-475.00000223620361
 20
-1303.331426888898
 30
0.0
 40
6.25
  0
CIRCLE
  5
197
  8
SIZE
  6
CONTINUOUS
 62
    30
 10
474.9999977637961
 20
-1303.331426888898
 30
0.0
 40
6.25
  0
TEXT
  5
198
  8
SIZE
  6
CONTINUOUS
 62
    30
 10
-57.857145093346631
 20
-1288.3314268888989
 30
0.0
 40
50.0
  1
950
 41
0.9
 72
     1
 11
-0.0000022362037839
 21
-1288.3314268888989
 31
0.0
  0
POINT
  5
199
  8
DEFPOINTS
  6
CONTINUOUS
 62
     7
 10
-475.00000223620361
 20
-489.999997527022
 30
0.0
  0
POINT
  5
19A
  8
DEFPOINTS
  6
CONTINUOUS
 62
     7
 10
474.9999977637961
 20
-489.999997527022
 30
0.0
  0
POINT
  5
19B
  8
DEFPOINTS
  6
CONTINUOUS
 62
     7
 10
474.9999977637961
 20
-1303.331426888898
 30
0.0
  0
LINE
  5
19C
  8
SIZE
  6
CONTINUOUS
 62
    30
 10
424.9999977637961
 20
-489.999997527022
 30
0.0
 11
424.9999977637961
 21
-879.7222635103517
 31
0.0
  0
LINE
  5
19D
  8
SIZE
  6
CONTINUOUS
 62
    30
 10
474.9999977637961
 20
-509.999997527022
 30
0.0
 11
474.9999977637961
 21
-879.7222635103517
 31
0.0
  0
LINE
  5
19E
  8
SIZE
  6
CONTINUOUS
 62
    30
 10
424.9999977637961
 20
-859.72226351035158
 30
0.0
 11
474.9999977637961
 21
-859.72226351035158
 31
0.0
  0
LINE
  5
19F
  8
SIZE
  6
CONTINUOUS
 62
    30
 10
474.9999977637961
 20
-859.72226351035158
 30
0.0
 11
602.85714062093905
 21
-859.72226351035158
 31
0.0
  0
CIRCLE
  5
1A0
  8
SIZE
  6
CONTINUOUS
 62
    30
 10
424.9999977637961
 20
-859.72226351035158
 30
0.0
 40
6.25
  0
CIRCLE
  5
1A1
  8
SIZE
  6
CONTINUOUS
 62
    30
 10
474.9999977637961
 20
-859.72226351035158
 30
0.0
 40
6.25
  0
TEXT
  5
1A2
  8
SIZE
  6
CONTINUOUS
 62
    30
 10
514.99999776379616
 20
-844.72226351035158
 30
0.0
 40
50.0
  1
50
 41
0.9
 72
     1
 11
551.42856919236772
 21
-844.72226351035158
 31
0.0
  0
POINT
  5
1A3
  8
DEFPOINTS
  6
CONTINUOUS
 62
     7
 10
424.9999977637961
 20
-469.99999752702212
 30
0.0
  0
POINT
  5
1A4
  8
DEFPOINTS
  6
CONTINUOUS
 62
     7
 10
474.9999977637961
 20
-489.999997527022
 30
0.0
  0
POINT
  5
1A5
  8
DEFPOINTS
  6
CONTINUOUS
 62
     7
 10
474.9999977637961
 20
-859.72226351035158
 30
0.0
  0
LINE
  5
1A6
  8
SIZE
  6
CONTINUOUS
 62
    30
 10
189.9999990002888
 20
-28.550020845872009
 30
0.0
 11
189.9999990002888
 21
222.04765873403639
 31
0.0
  0
LINE
  5
1A7
  8
SIZE
  6
CONTINUOUS
 62
    30
 10
239.9999987372066
 20
-35.000020811934959
 30
0.0
 11
239.9999987372066
 21
222.04765873403639
 31
0.0
  0
LINE
  5
1A8
  8
SIZE
  6
CONTINUOUS
 62
    30
 10
189.9999990002888
 20
202.0476587340361
 30
0.0
 11
239.9999987372066
 21
202.0476587340361
 31
0.0
  0
LINE
  5
1A9
  8
SIZE
  6
CONTINUOUS
 62
    30
 10
239.9999987372066
 20
202.0476587340361
 30
0.0
 11
367.85714159434917
 21
202.0476587340361
 31
0.0
  0
CIRCLE
  5
1AA
  8
SIZE
  6
CONTINUOUS
 62
    30
 10
189.9999990002888
 20
202.0476587340361
 30
0.0
 40
6.25
  0
CIRCLE
  5
1AB
  8
SIZE
  6
CONTINUOUS
 62
    30
 10
239.9999987372066
 20
202.0476587340361
 30
0.0
 40
6.25
  0
TEXT
  5
1AC
  8
SIZE
  6
CONTINUOUS
 62
    30
 10
279.99999873720662
 20
217.0476587340363
 30
0.0
 40
50.0
  1
50
 41
0.9
 72
     1
 11
316.42857016577801
 21
217.0476587340363
 31
0.0
  0
POINT
  5
1AD
  8
DEFPOINTS
  6
CONTINUOUS
 62
     7
 10
189.9999990002888
 20
-48.550020845872012
 30
0.0
  0
POINT
  5
1AE
  8
DEFPOINTS
  6
CONTINUOUS
 62
     7
 10
239.9999987372066
 20
-55.000020811934959
 30
0.0
  0
POINT
  5
1AF
  8
DEFPOINTS
  6
CONTINUOUS
 62
     7
 10
239.9999987372066
 20
202.0476587340361
 30
0.0
  0
LINE
  5
1B0
  8
SIZE
  6
CONTINUOUS
 62
    30
 10
189.9999990002888
 20
-28.550020845872009
 30
0.0
 11
189.9999990002888
 21
222.04765873403639
 31
0.0
  0
LINE
  5
1B1
  8
SIZE
  6
CONTINUOUS
 62
    30
 10
-309.9999983688848
 20
-28.550020845872009
 30
0.0
 11
-309.9999983688848
 21
222.04765873403639
 31
0.0
  0
LINE
  5
1B2
  8
SIZE
  6
CONTINUOUS
 62
    30
 10
189.9999990002888
 20
202.0476587340361
 30
0.0
 11
-309.9999983688848
 21
202.0476587340361
 31
0.0
  0
CIRCLE
  5
1B3
  8
SIZE
  6
CONTINUOUS
 62
    30
 10
189.9999990002888
 20
202.0476587340361
 30
0.0
 40
6.25
  0
CIRCLE
  5
1B4
  8
SIZE
  6
CONTINUOUS
 62
    30
 10
-309.9999983688848
 20
202.0476587340361
 30
0.0
 40
6.25
  0
TEXT
  5
1B5
  8
SIZE
  6
CONTINUOUS
 62
    30
 10
-254.1428568271551
 20
217.0476587340363
 30
0.0
 40
50.0
  1
100×5=500
 41
0.9
 72
     1
 11
-59.99999968429799
 21
217.0476587340363
 31
0.0
  0
POINT
  5
1B6
  8
DEFPOINTS
  6
CONTINUOUS
 62
     7
 10
189.9999990002888
 20
-48.550020845872012
 30
0.0
  0
POINT
  5
1B7
  8
DEFPOINTS
  6
CONTINUOUS
 62
     7
 10
-309.9999983688848
 20
-48.550020845872012
 30
0.0
  0
POINT
  5
1B8
  8
DEFPOINTS
  6
CONTINUOUS
 62
     7
 10
-309.9999983688848
 20
202.0476587340361
 30
0.0
  0
LINE
  5
1B9
  8
SIZE
  6
CONTINUOUS
 62
    30
 10
239.9999987372066
 20
-35.000020811934959
 30
0.0
 11
239.9999987372066
 21
317.49247953971081
 31
0.0
  0
LINE
  5
1BA
  8
SIZE
  6
CONTINUOUS
 62
    30
 10
424.9999977637961
 20
19.999999999998192
 30
0.0
 11
424.9999977637961
 21
317.49247953971081
 31
0.0
  0
LINE
  5
1BB
  8
SIZE
  6
CONTINUOUS
 62
    30
 10
239.9999987372066
 20
297.49247953971081
 30
0.0
 11
424.9999977637961
 21
297.49247953971081
 31
0.0
  0
CIRCLE
  5
1BC
  8
SIZE
  6
CONTINUOUS
 62
    30
 10
239.9999987372066
 20
297.49247953971081
 30
0.0
 40
6.25
  0
CIRCLE
  5
1BD
  8
SIZE
  6
CONTINUOUS
 62
    30
 10
424.9999977637961
 20
297.49247953971081
 30
0.0
 40
6.25
  0
TEXT
  5
1BE
  8
SIZE
  6
CONTINUOUS
 62
    30
 10
278.92856967907261
 20
312.49247953971081
 30
0.0
 40
50.0
  1
185
 41
0.9
 72
     1
 11
332.49999825050122
 21
312.49247953971081
 31
0.0
  0
POINT
  5
1BF
  8
DEFPOINTS
  6
CONTINUOUS
 62
     7
 10
239.9999987372066
 20
-55.000020811934959
 30
0.0
  0
POINT
  5
1C0
  8
DEFPOINTS
  6
CONTINUOUS
 62
     7
 10
424.9999977637961
 20
-0.0000000000018048
 30
0.0
  0
POINT
  5
1C1
  8
DEFPOINTS
  6
CONTINUOUS
 62
     7
 10
424.9999977637961
 20
297.49247953971081
 30
0.0
  0
LINE
  5
1C2
  8
SIZE
  6
CONTINUOUS
 62
    30
 10
239.9999987372066
 20
-35.000020811934959
 30
0.0
 11
239.9999987372066
 21
317.49247953971081
 31
0.0
  0
LINE
  5
1C3
  8
SIZE
  6
CONTINUOUS
 62
    30
 10
-359.99999810580078
 20
-35.000020811934959
 30
0.0
 11
-359.99999810580078
 21
317.49247953971081
 31
0.0
  0
LINE
  5
1C4
  8
SIZE
  6
CONTINUOUS
 62
    30
 10
239.9999987372066
 20
297.49247953971081
 30
0.0
 11
-359.99999810580078
 21
297.49247953971081
 31
0.0
  0
CIRCLE
  5
1C5
  8
SIZE
  6
CONTINUOUS
 62
    30
 10
239.9999987372066
 20
297.49247953971081
 30
0.0
 40
6.25
  0
CIRCLE
  5
1C6
  8
SIZE
  6
CONTINUOUS
 62
    30
 10
-359.99999810580078
 20
297.49247953971081
 30
0.0
 40
6.25
  0
TEXT
  5
1C7
  8
SIZE
  6
CONTINUOUS
 62
    30
 10
-295.28571397001139
 20
325.587717634949
 30
0.0
 40
50.0
  1
600 (ダクト寸法)
 41
0.9
 72
     1
 11
-59.999999684297123
 21
325.587717634949
 31
0.0
  0
POINT
  5
1C8
  8
DEFPOINTS
  6
CONTINUOUS
 62
     7
 10
239.9999987372066
 20
-55.000020811934959
 30
0.0
  0
POINT
  5
1C9
  8
DEFPOINTS
  6
CONTINUOUS
 62
     7
 10
-359.99999810580078
 20
-55.000020811934959
 30
0.0
  0
POINT
  5
1CA
  8
DEFPOINTS
  6
CONTINUOUS
 62
     7
 10
-359.99999810580078
 20
297.49247953971081
 30
0.0
  0
LINE
  5
1CB
  8
SIZE
  6
CONTINUOUS
 62
    30
 10
462.19999756806641
 20
20.00000105232721
 30
0.0
 11
462.19999756806641
 21
437.3414662853047
 31
0.0
  0
LINE
  5
1CC
  8
SIZE
  6
CONTINUOUS
 62
    30
 10
485.1999974470491
 20
0.0000011575607601
 30
0.0
 11
485.1999974470491
 21
437.3414662853047
 31
0.0
  0
LINE
  5
1CD
  8
SIZE
  6
CONTINUOUS
 62
    30
 10
462.19999756806641
 20
417.3414662853047
 30
0.0
 11
437.19999756806641
 21
417.3414662853047
 31
0.0
  0
LINE
  5
1CE
  8
SIZE
  6
CONTINUOUS
 62
    30
 10
485.1999974470491
 20
417.3414662853047
 30
0.0
 11
638.05714030419153
 21
417.3414662853047
 31
0.0
  0
LINE
  5
1CF
  8
SIZE
  6
CONTINUOUS
 62
    30
 10
462.19999756806641
 20
417.3414662853047
 30
0.0
 11
485.1999974470491
 21
417.3414662853047
 31
0.0
  0
CIRCLE
  5
1D0
  8
SIZE
  6
CONTINUOUS
 62
    30
 10
462.19999756806641
 20
417.3414662853047
 30
0.0
 40
6.25
  0
CIRCLE
  5
1D1
  8
SIZE
  6
CONTINUOUS
 62
    30
 10
485.1999974470491
 20
417.3414662853047
 30
0.0
 40
6.25
  0
TEXT
  5
1D2
  8
SIZE
  6
CONTINUOUS
 62
    30
 10
525.19999744704876
 20
432.34146628530442
 30
0.0
 40
50.0
  1
23
 41
0.9
 72
     1
 11
561.62856887562032
 21
432.34146628530442
 31
0.0
  0
POINT
  5
1D3
  8
DEFPOINTS
  6
CONTINUOUS
 62
     7
 10
462.19999756806641
 20
0.0000010523272209
 30
0.0
  0
POINT
  5
1D4
  8
DEFPOINTS
  6
CONTINUOUS
 62
     7
 10
485.1999974470491
 20
-19.99999884243924
 30
0.0
  0
POINT
  5
1D5
  8
DEFPOINTS
  6
CONTINUOUS
 62
     7
 10
485.1999974470491
 20
417.3414662853047
 30
0.0
  0
LINE
  5
1D6
  8
SIZE
  6
CONTINUOUS
 62
    30
 10
462.19999756806641
 20
20.00000105232721
 30
0.0
 11
462.19999756806641
 21
437.3414662853047
 31
0.0
  0
LINE
  5
1D7
  8
SIZE
  6
CONTINUOUS
 62
    30
 10
-462.8000024319353
 20
20.000001052327669
 30
0.0
 11
-462.8000024319353
 21
437.3414662853047
 31
0.0
  0
LINE
  5
1D8
  8
SIZE
  6
CONTINUOUS
 62
    30
 10
462.19999756806641
 20
417.3414662853047
 30
0.0
 11
-462.8000024319353
 21
417.3414662853047
 31
0.0
  0
CIRCLE
  5
1D9
  8
SIZE
  6
CONTINUOUS
 62
    30
 10
462.19999756806641
 20
417.3414662853047
 30
0.0
 40
6.25
  0
CIRCLE
  5
1DA
  8
SIZE
  6
CONTINUOUS
 62
    30
 10
-462.8000024319353
 20
417.3414662853047
 30
0.0
 40
6.25
  0
TEXT
  5
1DB
  8
SIZE
  6
CONTINUOUS
 62
    30
 10
-316.58571671764878
 20
445.43670438054278
 30
0.0
 40
50.0
  1
925 (吊りボルトピッチ)
 41
0.9
 72
     1
 11
-0.3000024319344448
 21
445.43670438054278
 31
0.0
  0
POINT
  5
1DC
  8
DEFPOINTS
  6
CONTINUOUS
 62
     7
 10
462.19999756806641
 20
0.0000010523272209
 30
0.0
  0
POINT
  5
1DD
  8
DEFPOINTS
  6
CONTINUOUS
 62
     7
 10
-462.8000024319353
 20
0.0000010523276757
 30
0.0
  0
POINT
  5
1DE
  8
DEFPOINTS
  6
CONTINUOUS
 62
     7
 10
-462.8000024319353
 20
417.3414662853047
 30
0.0
  0
TEXT
  5
1DF
  8
NOTE
  6
CONTINUOUS
 62
     4
 10
238.22921739776029
 20
-684.91305589373587
 30
0.0
 40
50.0
  1
D1
 50
359.99999749558327
 41
0.7
  7
STANDARD1
  0
LINE
  5
1E0
  8
NOTE
  6
CONTINUOUS
 62
     4
 10
228.46205485253799
 20
-698.59040751411533
 30
0.0
 11
308.1052161195293
 21
-698.59040751411533
 31
0.0
  0
LINE
  5
1E1
  8
NOTE
  6
CONTINUOUS
 62
     4
 10
308.1052161195293
 20
-698.59040751411533
 30
0.0
 11
449.9999823734687
 21
-434.99999771118229
 31
0.0
  0
TEXT
  5
1E2
  8
NOTE
  6
CONTINUOUS
 62
     4
 10
-242.58619107471711
 20
-586.58199772691455
 30
0.0
 40
50.0
  1
18-%%C3.4
 50
359.99999749558327
 41
0.7
  7
STANDARD1
  0
LINE
  5
1E3
  8
NOTE
  6
CONTINUOUS
 62
     4
 10
-250.4588988224495
 20
-600.25934434974795
 30
0.0
 11
0.4189027566317236
 21
-600.25934434974795
 31
0.0
  0
LINE
  5
1E4
  8
NOTE
  6
CONTINUOUS
 62
     4
 10
-250.4588988224495
 20
-600.25934434974795
 30
0.0
 11
-309.99999836887582
 21
-355.00001912857391
 31
0.0
  0
TEXT
  5
1E5
  8
NOTE
  6
CONTINUOUS
 62
     4
 10
965.24196824150386
 20
-170.651270695991
 30
0.0
 40
50.0
  1
RG %%C15.88
 50
359.99999749558327
 41
0.7
  7
STANDARD1
  0
LINE
  5
1E6
  8
NOTE
  6
CONTINUOUS
 62
     4
 10
958.13989969187958
 20
-184.32862354025909
 30
0.0
 11
1264.5488671636519
 21
-184.32862354025909
 31
0.0
  0
TEXT
  5
1E7
  8
NOTE
  6
CONTINUOUS
 62
     4
 10
864.84272636550486
 20
-42.75291833575465
 30
0.0
 40
50.0
  1
RL %%C9.52
 50
359.99999749558327
 41
0.7
  7
STANDARD1
  0
LINE
  5
1E8
  8
NOTE
  6
CONTINUOUS
 62
     4
 10
855.98860563107485
 20
-56.430269650161748
 30
0.0
 11
1129.8855917612409
 21
-56.430269650161748
 31
0.0
  0
TEXT
  5
1E9
  8
NOTE
  6
CONTINUOUS
 62
     4
 10
792.05425906153141
 20
63.266523443493512
 30
0.0
 40
50.0
  1
加湿器給水口(1/2B)
 50
359.99999749558327
 41
0.7
  7
STANDARD1
  0
LINE
  5
1EA
  8
NOTE
  6
CONTINUOUS
 62
     4
 10
785.54291331642526
 20
49.589162337975729
 30
0.0
 11
1236.6622306864319
 21
49.589162337975729
 31
0.0
  0
LINE
  5
1EB
  8
NOTE
  6
CONTINUOUS
 62
     4
 10
958.13989969187958
 20
-184.32862354025909
 30
0.0
 11
524.99998197884634
 21
-314.99999834252992
 31
0.0
  0
LINE
  5
1EC
  8
NOTE
  6
CONTINUOUS
 62
     4
 10
855.98860563107485
 20
-56.430269650161748
 30
0.0
 11
524.99998197884634
 21
-274.9999975007126
 31
0.0
  0
LINE
  5
1ED
  8
NOTE
  6
CONTINUOUS
 62
     4
 10
785.54291331642526
 20
49.589162337975729
 30
0.0
 11
524.99998197884634
 21
-189.99999900028749
 31
0.0
  0
TEXT
  5
1EE
  8
NOTE
  6
CONTINUOUS
 62
     4
 10
-1137.374874995608
 20
333.16287324966822
 30
0.0
 40
50.0
  1
AH 4-14×30長穴 (M10)
 50
359.99999749558327
 41
0.7
  7
STANDARD1
  0
LINE
  5
1EF
  8
NOTE
  6
CONTINUOUS
 62
     4
 10
-1141.3089007858389
 20
319.48551061428952
 30
0.0
 11
-528.0364478309275
 21
319.48551061428952
 31
0.0
  0
LINE
  5
1F0
  8
NOTE
  6
CONTINUOUS
 62
     4
 10
-528.0364478309275
 20
319.48551061428952
 30
0.0
 11
-462.8000024319353
 21
-19.999998842440601
 31
0.0
  0
LINE
  5
1F1
  8
NOTE
  6
CONTINUOUS
 62
     4
 10
-309.99999836887582
 20
-355.00001912855703
 30
0.0
 11
-291.59994554850527
 21
-384.04804360869002
 31
0.0
  0
LINE
  5
1F2
  8
NOTE
  6
CONTINUOUS
 62
     4
 10
-309.99999836887582
 20
-355.00001912855703
 30
0.0
 11
-308.58909793609189
 21
-389.3563726888197
 31
0.0
  0
LINE
  5
1F3
  8
NOTE
  6
CONTINUOUS
 62
     4
 10
449.99998237347529
 20
-434.99999771118252
 30
0.0
 11
441.7854949008962
 21
-468.38969470821678
 31
0.0
  0
LINE
  5
1F4
  8
NOTE
  6
CONTINUOUS
 62
     4
 10
449.99998237347529
 20
-434.99999771118252
 30
0.0
 11
426.19117868319199
 21
-459.80907945208071
 31
0.0
  0
LINE
  5
1F5
  8
NOTE
  6
CONTINUOUS
 62
     4
 10
524.99998197919194
 20
-314.99999834218062
 30
0.0
 11
554.07291635367983
 21
-296.6393295948983
 31
0.0
  0
LINE
  5
1F6
  8
NOTE
  6
CONTINUOUS
 62
     4
 10
524.99998197919194
 20
-314.99999834218062
 30
0.0
 11
559.35821610355015
 21
-313.63566046440019
 31
0.0
  0
LINE
  5
1F7
  8
NOTE
  6
CONTINUOUS
 62
     4
 10
524.99998197884634
 20
-274.9999975007126
 30
0.0
 11
546.91242451834876
 21
-248.50104408847491
 31
0.0
  0
LINE
  5
1F8
  8
NOTE
  6
CONTINUOUS
 62
     4
 10
524.99998197884634
 20
-274.9999975007126
 30
0.0
 11
557.22619075784337
 21
-263.00745241130221
 31
0.0
  0
LINE
  5
1F9
  8
NOTE
  6
CONTINUOUS
 62
     4
 10
524.99998197884634
 20
-189.999999000287
 30
0.0
 11
543.62707798017425
 21
-161.0970412874812
 31
0.0
  0
LINE
  5
1FA
  8
NOTE
  6
CONTINUOUS
 62
     4
 10
524.99998197884634
 20
-189.999999000287
 30
0.0
 11
555.58299940010136
 21
-174.28285182275141
 31
0.0
  0
LINE
  5
1FB
  8
NOTE
  6
CONTINUOUS
 62
     4
 10
-462.8000024319353
 20
-19.999998842440601
 30
0.0
 11
-477.72543777845561
 21
10.97710640817423
 31
0.0
  0
LINE
  5
1FC
  8
NOTE
  6
CONTINUOUS
 62
     4
 10
-462.8000024319353
 20
-19.999998842440601
 30
0.0
 11
-460.23725547966751
 21
14.289678876191839
 31
0.0
  0
LINE
  5
1FD
  8
BASIS
  6
DASHDOT
 62
     6
 10
0.0
 20
53.422722220282139
 30
0.0
 11
0.0
 21
-533.40208320662634
 31
0.0
  0
CIRCLE
  5
1FE
  8
ARRANGE
  6
CONTINUOUS
 62
     1
 10
-0.000000000001819
 20
-0.0000000000018048
 30
0.0
 40
50.0
  0
LINE
  5
1FF
  8
ARRANGE
  6
CONTINUOUS
 62
     1
 10
-50.037350031330789
 20
-49.522353150327021
 30
0.0
 11
50.037350031327151
 21
49.522353150323411
 31
0.0
  0
LINE
  5
200
  8
ARRANGE
  6
CONTINUOUS
 62
     1
 10
-49.963763310503047
 20
49.59659479798394
 30
0.0
 11
49.963763310499402
 21
-49.59659479798389
 31
0.0
  0
LINE
  5
201
  8
DETAIL
  6
CONTINUOUS
 62
     5
 10
424.9999977637961
 20
-355.00001912854202
 30
0.0
 11
-424.99999776379968
 21
-355.00001912854202
 31
0.0
  0
LINE
  5
202
  8
DETAIL
  6
CONTINUOUS
 62
     5
 10
-359.99999810580078
 20
-329.6004360847628
 30
0.0
 11
239.9999987372066
 21
-329.6004360847628
 31
0.0
  0
LINE
  5
203
  8
DETAIL
  6
CONTINUOUS
 62
     5
 10
213.8128317230784
 20
-312.8642767148267
 30
0.0
 11
-333.81283109163638
 21
-312.8642767148267
 31
0.0
  0
LINE
  5
204
  8
DETAIL
  6
CONTINUOUS
 62
     5
 10
213.8128317230784
 20
-113.08433862523169
 30
0.0
 11
-333.81283109163638
 21
-113.08433862523169
 31
0.0
  0
LINE
  5
205
  8
DETAIL
  6
CONTINUOUS
 62
     5
 10
213.8128317230784
 20
-102.2550590329232
 30
0.0
 11
-333.81283109163638
 21
-102.2550590329232
 31
0.0
  0
LINE
  5
206
  8
DETAIL
  6
CONTINUOUS
 62
     5
 10
239.9999987372066
 20
-80.399603855714744
 30
0.0
 11
-359.99999810580078
 21
-80.399603855714744
 31
0.0
  0
LINE
  5
207
  8
DETAIL
  6
CONTINUOUS
 62
     5
 10
424.9999977637961
 20
-55.000020811934959
 30
0.0
 11
-424.99999776379968
 21
-55.000020811934959
 31
0.0
  0
LINE
  5
208
  8
DETAIL
  6
CONTINUOUS
 62
     5
 10
-59.65948575397487
 20
-113.08433862523169
 30
0.0
 11
-59.65948575397487
 21
-312.8642767148267
 31
0.0
  0
LINE
  5
209
  8
DETAIL
  6
CONTINUOUS
 62
     5
 10
-79.34908501272001
 20
-312.8642767148267
 30
0.0
 11
-79.34908501272001
 21
-113.08433862523169
 31
0.0
  0
LINE
  5
20A
  8
DETAIL
  6
CONTINUOUS
 62
     5
 10
-333.81283109163638
 20
-80.399603855714744
 30
0.0
 11
-333.81283109163638
 21
-329.6004360847628
 31
0.0
  0
LINE
  5
20B
  8
DETAIL
  6
CONTINUOUS
 62
     5
 10
-359.99999810580078
 20
-355.00001912854202
 30
0.0
 11
-359.99999810580078
 21
-55.000020811934959
 31
0.0
  0
LINE
  5
20C
  8
DETAIL
  6
CONTINUOUS
 62
     5
 10
239.9999987372066
 20
-55.000020811934959
 30
0.0
 11
239.9999987372066
 21
-355.00001912854202
 31
0.0
  0
LINE
  5
20D
  8
DETAIL
  6
CONTINUOUS
 62
     5
 10
213.8128317230784
 20
-329.6004360847628
 30
0.0
 11
213.8128317230784
 21
-80.399603855714744
 31
0.0
  0
LINE
  5
20E
  8
DETAIL
  6
CONTINUOUS
 62
     5
 10
178.96224103512739
 20
-185.5744730136721
 30
0.0
 11
178.96224103512739
 21
-211.17095205003889
 31
0.0
  0
ARC
  5
20F
  8
DETAIL
  6
CONTINUOUS
 62
     5
 10
181.915680923932
 20
-211.17095205003889
 30
0.0
 40
2.9534398888117872
 50
180.0
 51
270.0
  0
LINE
  5
210
  8
DETAIL
  6
CONTINUOUS
 62
     5
 10
213.8128317230784
 20
-214.12439193885251
 30
0.0
 11
181.915680923932
 21
-214.12439193885251
 31
0.0
  0
LINE
  5
211
  8
DETAIL
  6
CONTINUOUS
 62
     5
 10
178.96224103512739
 20
-185.5744730136721
 30
0.0
 11
213.8128317230784
 21
-185.5744730136721
 31
0.0
  0
LINE
  5
212
  8
NOTE
  6
CONTINUOUS
 62
     4
 10
-316.4499983349524
 20
-55.000020811929502
 30
0.0
 11
-303.54999840281909
 21
-55.000020811929502
 31
0.0
  0
LINE
  5
213
  8
NOTE
  6
CONTINUOUS
 62
     4
 10
-309.9999983688848
 20
-48.550020845872012
 30
0.0
 11
-309.9999983688848
 21
-61.450020777996983
 31
0.0
  0
LINE
  5
214
  8
NOTE
  6
CONTINUOUS
 62
     4
 10
-216.4499988611185
 20
-55.000020811929502
 30
0.0
 11
-203.54999892898539
 21
-55.000020811929502
 31
0.0
  0
LINE
  5
215
  8
NOTE
  6
CONTINUOUS
 62
     4
 10
-209.99999889505119
 20
-48.550020845872012
 30
0.0
 11
-209.99999889505119
 21
-61.450020777996983
 31
0.0
  0
LINE
  5
216
  8
NOTE
  6
CONTINUOUS
 62
     4
 10
-116.4499993872832
 20
-55.000020811929502
 30
0.0
 11
-103.54999945515
 21
-55.000020811929502
 31
0.0
  0
LINE
  5
217
  8
NOTE
  6
CONTINUOUS
 62
     4
 10
-109.99999942121561
 20
-48.550020845872012
 30
0.0
 11
-109.99999942121561
 21
-61.450020777996983
 31
0.0
  0
LINE
  5
218
  8
NOTE
  6
CONTINUOUS
 62
     4
 10
-16.449999913447751
 20
-55.000020811929502
 30
0.0
 11
-3.549999981314611
 21
-55.000020811929502
 31
0.0
  0
LINE
  5
219
  8
NOTE
  6
CONTINUOUS
 62
     4
 10
-9.9999999473802728
 20
-48.550020845872012
 30
0.0
 11
-9.9999999473802728
 21
-61.450020777996983
 31
0.0
  0
LINE
  5
21A
  8
NOTE
  6
CONTINUOUS
 62
     4
 10
83.549999560387704
 20
-55.000020811929502
 30
0.0
 11
96.449999492520874
 21
-55.000020811929502
 31
0.0
  0
LINE
  5
21B
  8
NOTE
  6
CONTINUOUS
 62
     4
 10
89.999999526455227
 20
-48.550020845872012
 30
0.0
 11
89.999999526455227
 21
-61.450020777996983
 31
0.0
  0
LINE
  5
21C
  8
NOTE
  6
CONTINUOUS
 62
     4
 10
183.5499990342214
 20
-55.000020811929502
 30
0.0
 11
196.4499989663544
 21
-55.000020811929502
 31
0.0
  0
LINE
  5
21D
  8
NOTE
  6
CONTINUOUS
 62
     4
 10
189.9999990002888
 20
-48.550020845872012
 30
0.0
 11
189.9999990002888
 21
-61.450020777996983
 31
0.0
  0
LINE
  5
21E
  8
NOTE
  6
CONTINUOUS
 62
     4
 10
-316.4499983349524
 20
-355.00001912853662
 30
0.0
 11
-303.54999840281909
 21
-355.00001912853662
 31
0.0
  0
LINE
  5
21F
  8
NOTE
  6
CONTINUOUS
 62
     4
 10
-309.9999983688848
 20
-348.55001916247909
 30
0.0
 11
-309.9999983688848
 21
-361.4500190946041
 31
0.0
  0
LINE
  5
220
  8
NOTE
  6
CONTINUOUS
 62
     4
 10
-216.4499988611185
 20
-355.00001912853662
 30
0.0
 11
-203.54999892898539
 21
-355.00001912853662
 31
0.0
  0
LINE
  5
221
  8
NOTE
  6
CONTINUOUS
 62
     4
 10
-209.99999889505119
 20
-348.55001916247909
 30
0.0
 11
-209.99999889505119
 21
-361.4500190946041
 31
0.0
  0
LINE
  5
222
  8
NOTE
  6
CONTINUOUS
 62
     4
 10
-116.4499993872832
 20
-355.00001912853662
 30
0.0
 11
-103.54999945515
 21
-355.00001912853662
 31
0.0
  0
LINE
  5
223
  8
NOTE
  6
CONTINUOUS
 62
     4
 10
-109.99999942121561
 20
-348.55001916247909
 30
0.0
 11
-109.99999942121561
 21
-361.4500190946041
 31
0.0
  0
LINE
  5
224
  8
NOTE
  6
CONTINUOUS
 62
     4
 10
-16.449999913447751
 20
-355.00001912853662
 30
0.0
 11
-3.549999981314611
 21
-355.00001912853662
 31
0.0
  0
LINE
  5
225
  8
NOTE
  6
CONTINUOUS
 62
     4
 10
-9.9999999473802728
 20
-348.55001916247909
 30
0.0
 11
-9.9999999473802728
 21
-361.4500190946041
 31
0.0
  0
LINE
  5
226
  8
NOTE
  6
CONTINUOUS
 62
     4
 10
83.549999560387704
 20
-355.00001912853662
 30
0.0
 11
96.449999492520874
 21
-355.00001912853662
 31
0.0
  0
LINE
  5
227
  8
NOTE
  6
CONTINUOUS
 62
     4
 10
89.999999526455227
 20
-348.55001916247909
 30
0.0
 11
89.999999526455227
 21
-361.4500190946041
 31
0.0
  0
LINE
  5
228
  8
NOTE
  6
CONTINUOUS
 62
     4
 10
183.5499990342214
 20
-355.00001912853662
 30
0.0
 11
196.4499989663544
 21
-355.00001912853662
 31
0.0
  0
LINE
  5
229
  8
NOTE
  6
CONTINUOUS
 62
     4
 10
189.9999990002888
 20
-348.55001916247909
 30
0.0
 11
189.9999990002888
 21
-361.4500190946041
 31
0.0
  0
LINE
  5
22A
  8
NOTE
  6
CONTINUOUS
 62
     4
 10
-366.44999807186821
 20
-105.00002022129711
 30
0.0
 11
-353.54999813973512
 21
-105.00002022129711
 31
0.0
  0
LINE
  5
22B
  8
NOTE
  6
CONTINUOUS
 62
     4
 10
-359.99999810580078
 20
-98.550020255239801
 30
0.0
 11
-359.99999810580078
 21
-111.4500201873647
 31
0.0
  0
LINE
  5
22C
  8
NOTE
  6
CONTINUOUS
 62
     4
 10
-366.44999807186821
 20
-205.0000200406906
 30
0.0
 11
-353.54999813973512
 21
-205.0000200406906
 31
0.0
  0
LINE
  5
22D
  8
NOTE
  6
CONTINUOUS
 62
     4
 10
-359.99999810580078
 20
-198.5500200746331
 30
0.0
 11
-359.99999810580078
 21
-211.45002000675819
 31
0.0
  0
LINE
  5
22E
  8
NOTE
  6
CONTINUOUS
 62
     4
 10
-366.44999807186821
 20
-305.00001951452532
 30
0.0
 11
-353.54999813973512
 21
-305.00001951452532
 31
0.0
  0
LINE
  5
22F
  8
NOTE
  6
CONTINUOUS
 62
     4
 10
-359.99999810580078
 20
-298.55001954846767
 30
0.0
 11
-359.99999810580078
 21
-311.45001948059257
 31
0.0
  0
LINE
  5
230
  8
NOTE
  6
CONTINUOUS
 62
     4
 10
233.54999877113909
 20
-105.00002022129711
 30
0.0
 11
246.44999870327231
 21
-105.00002022129711
 31
0.0
  0
LINE
  5
231
  8
NOTE
  6
CONTINUOUS
 62
     4
 10
239.9999987372066
 20
-98.550020255239801
 30
0.0
 11
239.9999987372066
 21
-111.4500201873647
 31
0.0
  0
LINE
  5
232
  8
NOTE
  6
CONTINUOUS
 62
     4
 10
233.54999877113909
 20
-205.0000200406906
 30
0.0
 11
246.44999870327231
 21
-205.0000200406906
 31
0.0
  0
LINE
  5
233
  8
NOTE
  6
CONTINUOUS
 62
     4
 10
239.9999987372066
 20
-198.5500200746331
 30
0.0
 11
239.9999987372066
 21
-211.45002000675819
 31
0.0
  0
LINE
  5
234
  8
NOTE
  6
CONTINUOUS
 62
     4
 10
233.54999877113909
 20
-305.00001951452532
 30
0.0
 11
246.44999870327231
 21
-305.00001951452532
 31
0.0
  0
LINE
  5
235
  8
NOTE
  6
CONTINUOUS
 62
     4
 10
239.9999987372066
 20
-298.55001954846767
 30
0.0
 11
239.9999987372066
 21
-311.45001948059257
 31
0.0
  0
LINE
  5
236
  8
DETAIL
  6
CONTINUOUS
 62
     5
 10
-424.99999776379968
 20
-452.27935714182308
 30
0.0
 11
424.9999977637961
 21
-452.27935714182308
 31
0.0
  0
LINE
  5
237
  8
DETAIL
  6
CONTINUOUS
 62
     5
 10
449.99998237487489
 20
-339.49999821317618
 30
0.0
 11
424.9999825064167
 21
-339.49999821317618
 31
0.0
  0
LINE
  5
238
  8
DETAIL
  6
CONTINUOUS
 62
     5
 10
449.99998237487489
 20
-290.49999847100162
 30
0.0
 11
424.9999825064167
 21
-290.49999847100162
 31
0.0
  0
LINE
  5
239
  8
DETAIL
  6
CONTINUOUS
 62
     5
 10
449.99998237487489
 20
-322.9399983421348
 30
0.0
 11
505.74890698044311
 21
-322.9399983421348
 31
0.0
  0
LINE
  5
23A
  8
DETAIL
  6
CONTINUOUS
 62
     5
 10
449.99998237487489
 20
-307.05999834213469
 30
0.0
 11
505.74890698044311
 21
-307.05999834213469
 31
0.0
  0
LINE
  5
23B
  8
DETAIL
  6
CONTINUOUS
 62
     5
 10
449.99998237487489
 20
-339.49956998727549
 30
0.0
 11
449.99998237487489
 21
-290.50042669699309
 31
0.0
  0
LINE
  5
23C
  8
DETAIL
  6
CONTINUOUS
 62
     5
 10
424.99998250499971
 20
-256.99999759536269
 30
0.0
 11
449.9999823734579
 21
-256.99999759536269
 31
0.0
  0
LINE
  5
23D
  8
DETAIL
  6
CONTINUOUS
 62
     5
 10
449.9999823734579
 20
-279.7599974756144
 30
0.0
 11
513.96003254322557
 21
-279.7599974756144
 31
0.0
  0
LINE
  5
23E
  8
DETAIL
  6
CONTINUOUS
 62
     5
 10
449.9999823734579
 20
-270.23999752570347
 30
0.0
 11
513.96003254322557
 21
-270.23999752570347
 31
0.0
  0
LINE
  5
23F
  8
DETAIL
  6
CONTINUOUS
 62
     5
 10
449.9999823734579
 20
-256.99999759536269
 30
0.0
 11
449.9999823734579
 21
-290.49999847100162
 31
0.0
  0
LINE
  5
240
  8
DETAIL
  6
CONTINUOUS
 62
     5
 10
492.63263015009568
 20
-177.49999906606789
 30
0.0
 11
492.63263015009568
 21
-202.4999989345269
 31
0.0
  0
LINE
  5
241
  8
DETAIL
  6
CONTINUOUS
 62
     5
 10
424.99998250501079
 20
-202.49999893451781
 30
0.0
 11
492.63263015009568
 21
-202.49999893451781
 31
0.0
  0
LINE
  5
242
  8
DETAIL
  6
CONTINUOUS
 62
     5
 10
502.4399820975558
 20
-200.10756812502299
 30
0.0
 11
492.63263015009568
 21
-200.10756812502299
 31
0.0
  0
LINE
  5
243
  8
DETAIL
  6
CONTINUOUS
 62
     5
 10
424.99998250501079
 20
-177.49999906605899
 30
0.0
 11
492.63263015009568
 21
-177.49999906605899
 31
0.0
  0
LINE
  5
244
  8
DETAIL
  6
CONTINUOUS
 62
     5
 10
502.4399820975558
 20
-179.89242987557191
 30
0.0
 11
492.63263015009568
 21
-179.89242987557191
 31
0.0
  0
LINE
  5
245
  8
DETAIL
  6
CONTINUOUS
 62
     5
 10
434.19998245660452
 20
-426.5000131405352
 30
0.0
 11
449.9999823734687
 21
-426.5000131405352
 31
0.0
  0
LINE
  5
246
  8
DETAIL
  6
CONTINUOUS
 62
     5
 10
449.9999823734687
 20
-393.50001331416979
 30
0.0
 11
449.9999823734687
 21
-426.5000131405352
 31
0.0
  0
LINE
  5
247
  8
DETAIL
  6
CONTINUOUS
 62
     5
 10
434.19998245660452
 20
-430.00001206978948
 30
0.0
 11
434.19998245660452
 21
-390.00001438491478
 31
0.0
  0
LINE
  5
248
  8
DETAIL
  6
CONTINUOUS
 62
     5
 10
424.9999977637961
 20
-430.00001206978948
 30
0.0
 11
434.19998245660452
 21
-430.00001206978948
 31
0.0
  0
LINE
  5
249
  8
NOTE
  6
CONTINUOUS
 62
     4
 10
449.9999823734687
 20
-427.50001313527349
 30
0.0
 11
449.9999823734687
 21
-392.50001331943162
 31
0.0
  0
LINE
  5
24A
  8
NOTE
  6
CONTINUOUS
 62
     4
 10
432.49998246554958
 20
-410.0000132273525
 30
0.0
 11
467.49998228139151
 21
-410.0000132273525
 31
0.0
  0
LINE
  5
24B
  8
DETAIL
  6
CONTINUOUS
 62
     5
 10
434.19998245660452
 20
-393.50001331416883
 30
0.0
 11
449.9999823734687
 21
-393.50001331416979
 31
0.0
  0
LINE
  5
24C
  8
DETAIL
  6
CONTINUOUS
 62
     5
 10
424.9999977637961
 20
-390.0000143849141
 30
0.0
 11
434.19998245660452
 21
-390.00001438491478
 31
0.0
  0
LINE
  5
24D
  8
DETAIL
  6
CONTINUOUS
 62
     5
 10
424.99999776379968
 20
-91.826021187989639
 30
0.0
 11
457.9999975901664
 21
-91.250004048378273
 31
0.0
  0
LINE
  5
24E
  8
DETAIL
  6
CONTINUOUS
 62
     5
 10
457.97279661172252
 20
-58.749529424537727
 30
0.0
 11
457.9999975901664
 21
-58.75000421938239
 31
0.0
  0
LINE
  5
24F
  8
DETAIL
  6
CONTINUOUS
 62
     5
 10
482.99999745862618
 20
-59.00000421806272
 30
0.0
 11
482.99999745862618
 21
-91.000004049687945
 31
0.0
  0
LINE
  5
250
  8
DETAIL
  6
CONTINUOUS
 62
     5
 10
457.9999975901664
 20
-58.75000421938239
 30
0.0
 11
457.9999975901664
 21
-91.250004048378273
 31
0.0
  0
LINE
  5
251
  8
DETAIL
  6
CONTINUOUS
 62
     5
 10
457.9999975901664
 20
-91.000004049687945
 30
0.0
 11
482.99999745862618
 21
-91.000004049687945
 31
0.0
  0
LINE
  5
252
  8
DETAIL
  6
CONTINUOUS
 62
     5
 10
457.9999975901664
 20
-59.00000421806272
 30
0.0
 11
482.99999745862618
 21
-59.00000421806272
 31
0.0
  0
LINE
  5
253
  8
NOTE
  6
CONTINUOUS
 62
     4
 10
482.99999745862618
 20
-57.500004225958932
 30
0.0
 11
482.99999745862618
 21
-92.500004041800807
 31
0.0
  0
LINE
  5
254
  8
NOTE
  6
CONTINUOUS
 62
     4
 10
482.99999745862618
 20
-57.500004225958932
 30
0.0
 11
482.99999745862618
 21
-92.500004041800807
 31
0.0
  0
LINE
  5
255
  8
NOTE
  6
CONTINUOUS
 62
     4
 10
465.4999975507053
 20
-75.000004133879855
 30
0.0
 11
500.49999736654701
 21
-75.000004133879855
 31
0.0
  0
LINE
  5
256
  8
NOTE
  6
CONTINUOUS
 62
     4
 10
465.4999975507053
 20
-75.000004133879855
 30
0.0
 11
500.49999736654701
 21
-75.000004133879855
 31
0.0
  0
LINE
  5
257
  8
DETAIL
  6
CONTINUOUS
 62
     5
 10
499.99998211038832
 20
-307.05999834213469
 30
0.0
 11
499.99998211038832
 21
-279.7599974756144
 31
0.0
  0
LINE
  5
258
  8
DETAIL
  6
CONTINUOUS
 62
     5
 10
499.99998211038832
 20
-270.23999752570347
 30
0.0
 11
499.99998211038832
 21
-200.10756812502299
 31
0.0
  0
LINE
  5
259
  8
DETAIL
  6
CONTINUOUS
 62
     5
 10
499.99998211038832
 20
-179.89242987557191
 30
0.0
 11
499.99998211038832
 21
-57.599999696923497
 31
0.0
  0
TEXT
  5
25A
  8
SIZE
  6
CONTINUOUS
 62
    30
 10
-695.74310607687551
 20
-334.58915849489892
 30
0.0
 40
50.0
  1
(ダクト寸法)
 50
90.000002504416585
 41
0.7031250221965211
  7
STANDARD1
  0
TEXT
  5
25B
  8
NOTE
  6
CONTINUOUS
 62
     4
 10
814.79429644563584
 20
162.026787197727
 30
0.0
 40
50.0
  1
D2
 50
359.9999958189112
 41
0.7
  7
STANDARD1
  0
LINE
  5
25C
  8
NOTE
  6
CONTINUOUS
 62
     4
 10
804.07488977327591
 20
148.349427046747
 30
0.0
 11
887.25639229848093
 21
148.34942461258041
 31
0.0
  0
LINE
  5
25D
  8
SIZE
  6
CONTINUOUS
 62
    30
 10
444.9999977637961
 20
-469.99999647469531
 30
0.0
 11
946.85116200657592
 21
-469.99999647469531
 31
0.0
  0
LINE
  5
25E
  8
SIZE
  6
CONTINUOUS
 62
    30
 10
520.49999736654695
 20
-75.000004133879855
 30
0.0
 11
946.85116200657592
 21
-75.000004133880012
 31
0.0
  0
LINE
  5
25F
  8
SIZE
  6
CONTINUOUS
 62
    30
 10
926.85116200657637
 20
-469.99999647469531
 30
0.0
 11
926.85116200657637
 21
-75.000004133879983
 31
0.0
  0
CIRCLE
  5
260
  8
SIZE
  6
CONTINUOUS
 62
    30
 10
926.85116200657637
 20
-469.99999647469531
 30
0.0
 40
6.25
  0
CIRCLE
  5
261
  8
SIZE
  6
CONTINUOUS
 62
    30
 10
926.85116200657637
 20
-75.000004133879983
 30
0.0
 40
6.25
  0
TEXT
  5
262
  8
SIZE
  6
CONTINUOUS
 62
    30
 10
911.85116200657649
 20
-330.35714316143032
 30
0.0
 40
50.0
  1
395
 50
90.0
 41
0.9
 72
     1
 11
911.85116200657649
 21
-272.50000030428743
 31
0.0
  0
POINT
  5
263
  8
DEFPOINTS
  6
CONTINUOUS
 62
     7
 10
424.9999977637961
 20
-469.99999647469531
 30
0.0
  0
POINT
  5
264
  8
DEFPOINTS
  6
CONTINUOUS
 62
     7
 10
500.49999736654701
 20
-75.000004133879855
 30
0.0
  0
POINT
  5
265
  8
DEFPOINTS
  6
CONTINUOUS
 62
     7
 10
926.85116200657637
 20
-75.000004133879983
 30
0.0
  0
LINE
  5
266
  8
NOTE
  6
CONTINUOUS
 62
     4
 10
804.07488977327591
 20
148.349427046747
 30
0.0
 11
482.99999745862618
 21
-75.000004133875294
 31
0.0
  0
LINE
  5
267
  8
NOTE
  6
CONTINUOUS
 62
     4
 10
482.99999745862618
 20
-75.000004133876189
 30
0.0
 11
504.47210320107831
 21
-48.143006070506971
 31
0.0
  0
LINE
  5
268
  8
NOTE
  6
CONTINUOUS
 62
     4
 10
482.99999745862618
 20
-75.000004133876189
 30
0.0
 11
515.02388571845006
 21
-62.477214879423599
 31
0.0
  0
TEXT
  5
269
  8
ETC
  6
CONTINUOUS
 62
    61
 10
629.85359744533525
 20
529.21888127374018
 30
0.0
 40
60.0
  1
GE-P1080M-G_2
 50
0.0000029998804485
 41
0.8
  0
LINE
  5
26A
  8
OUTLINE
  6
CONTINUOUS
 62
     3
 10
-424.99999776379968
 20
-0.0000000000018048
 30
0.0
 11
-424.99999776379968
 21
-469.99999647469531
 31
0.0
  0
LINE
  5
26B
  8
OUTLINE
  6
CONTINUOUS
 62
     3
 10
-424.99999776379968
 20
-469.99999647469531
 30
0.0
 11
424.9999977637961
 21
-469.99999647469531
 31
0.0
  0
LINE
  5
26C
  8
OUTLINE
  6
CONTINUOUS
 62
     3
 10
424.9999977637961
 20
-469.99999647469531
 30
0.0
 11
424.9999977637961
 21
-0.0000000000018048
 31
0.0
  0
LINE
  5
26D
  8
OUTLINE
  6
CONTINUOUS
 62
     3
 10
424.9999977637961
 20
-0.0000000000018048
 30
0.0
 11
-424.99999776379968
 21
-0.0000000000018048
 31
0.0
  0
LINE
  5
26E
  8
SIZE
  6
CONTINUOUS
 62
    30
 10
499.99998211038832
 20
-37.599999696923511
 30
0.0
 11
499.99998211038837
 21
557.92068893255544
 31
0.0
  0
LINE
  5
26F
  8
SIZE
  6
CONTINUOUS
 62
    30
 10
-485.00000223620373
 20
0.0000011575607601
 30
0.0
 11
-485.00000223620373
 21
557.92068893255544
 31
0.0
  0
LINE
  5
270
  8
SIZE
  6
CONTINUOUS
 62
    30
 10
499.99998211038837
 20
537.92068893255544
 30
0.0
 11
-485.00000223620373
 21
537.92068893255544
 31
0.0
  0
CIRCLE
  5
271
  8
SIZE
  6
CONTINUOUS
 62
    30
 10
499.99998211038837
 20
537.92068893255544
 30
0.0
 40
6.25
  0
CIRCLE
  5
272
  8
SIZE
  6
CONTINUOUS
 62
    30
 10
-485.00000223620373
 20
537.92068893255544
 30
0.0
 40
6.25
  0
TEXT
  5
273
  8
SIZE
  6
CONTINUOUS
 62
    30
 10
-50.357152920050467
 20
552.92068893255544
 30
0.0
 40
50.0
  1
985
 41
0.9
 72
     1
 11
7.4999899370923799
 21
552.92068893255544
 31
0.0
  0
POINT
  5
274
  8
DEFPOINTS
  6
CONTINUOUS
 62
     7
 10
499.99998211038832
 20
-57.599999696923497
 30
0.0
  0
POINT
  5
275
  8
DEFPOINTS
  6
CONTINUOUS
 62
     7
 10
-485.00000223620373
 20
-19.99999884243924
 30
0.0
  0
POINT
  5
276
  8
DEFPOINTS
  6
CONTINUOUS
 62
     7
 10
-485.00000223620373
 20
537.92068893255544
 30
0.0
  0
LINE
  5
277
  8
SIZE
  6
CONTINUOUS
 62
    30
 10
-502.80000232670108
 20
-19.999998842440601
 30
0.0
 11
-568.0276695973771
 21
-19.999998842440569
 31
0.0
  0
LINE
  5
278
  8
SIZE
  6
CONTINUOUS
 62
    30
 10
-444.99999776379991
 20
-0.0000000000017991
 30
0.0
 11
-568.0276695973771
 21
-0.0000000000017643
 31
0.0
  0
LINE
  5
279
  8
SIZE
  6
CONTINUOUS
 62
    30
 10
-548.02766959737698
 20
-19.999998842440569
 30
0.0
 11
-548.02766959737698
 21
-44.999998842440569
 31
0.0
  0
LINE
  5
27A
  8
SIZE
  6
CONTINUOUS
 62
    30
 10
-548.02766959737698
 20
-0.0000000000017699
 30
0.0
 11
-548.02766959737698
 21
152.8571428571409
 31
0.0
  0
LINE
  5
27B
  8
SIZE
  6
CONTINUOUS
 62
    30
 10
-548.02766959737698
 20
-19.999998842440569
 30
0.0
 11
-548.02766959737698
 21
-0.0000000000017699
 31
0.0
  0
CIRCLE
  5
27C
  8
SIZE
  6
CONTINUOUS
 62
    30
 10
-548.02766959737698
 20
-19.999998842440569
 30
0.0
 40
6.25
  0
CIRCLE
  5
27D
  8
SIZE
  6
CONTINUOUS
 62
    30
 10
-548.02766959737698
 20
-0.0000000000017699
 30
0.0
 40
6.25
  0
TEXT
  5
27E
  8
SIZE
  6
CONTINUOUS
 62
    30
 10
-563.0276695973771
 20
64.999999999998096
 30
0.0
 40
50.0
  1
20
 50
90.0
 41
0.9
 72
     1
 11
-563.0276695973771
 21
101.4285714285695
 31
0.0
  0
POINT
  5
27F
  8
DEFPOINTS
  6
CONTINUOUS
 62
     7
 10
-482.8000023267013
 20
-19.999998842440601
 30
0.0
  0
POINT
  5
280
  8
DEFPOINTS
  6
CONTINUOUS
 62
     7
 10
-424.99999776379968
 20
-0.0000000000018048
 30
0.0
  0
POINT
  5
281
  8
DEFPOINTS
  6
CONTINUOUS
 62
     7
 10
-548.02766959737698
 20
-0.0000000000017699
 30
0.0
  0
ENDSEC
  0
EOF
